  0
SECTION
  2
HEADER
  9
$ACADVER
  1
AC1009
  9
$DWGCODEPAGE
  3
dos932
  9
$EXTMIN
 10
0.0
 20
0.0
 30
0.0
  9
$EXTMAX
 10
297.0
 20
210.0
 30
0.0
  9
$LIMMIN
 10
0.0
 20
0.0
  9
$LIMMAX
 10
297.0
 20
210.0
  9
$LTSCALE
 40
1.0
  9
$PDMODE
 70
     0
  0
ENDSEC
  0
SECTION
  2
TABLES
  0
TABLE
  2
VPORT
 70
     1
  0
VPORT
  2
*ACTIVE
 70
     0
 10
0.0
 20
0.0
 11
1.0
 21
1.0
 12
148.5
 22
105.0
 13
0.0
 23
0.0
 14
10.0
 24
10.0
 15
10.0
 25
10.0
 16
0.0
 26
0.0
 36
1.0
 17
0.0
 27
0.0
 37
0.0
 40
297.0
 41
1.414285714
 42
50.0
 43
0.0
 44
0.0
 50
0.0
 51
0.0
 71
     0
 72
  1000
 73
     1
 74
     3
 75
     0
 76
     0
 77
     0
 78
     0
  0
ENDTAB
  0
TABLE
  2
LTYPE
 70
     5
  0
LTYPE
  2
CONTINUOUS
 70
    64
  3
Solid line
 72
    65
 73
     0
 40
0.0
  0
LTYPE
  2
LTYPE1
 70
    64
  3
CENTER
 72
    65
 73
     4
 40
5.0
 49
3.5
 49
-0.5
 49
0.5
 49
-0.5
  0
LTYPE
  2
LTYPE2
 70
    64
  3
CENTER
 72
    65
 73
     4
 40
8.0
 49
5.6
 49
-0.8
 49
0.8
 49
-0.8
  0
LTYPE
  2
LTYPE3
 70
    64
  3
HIDDEN
 72
    65
 73
     2
 40
3.0
 49
1.8
 49
-1.2
  0
LTYPE
  2
LTYPE4
 70
    64
  3
HIDDEN
 72
    65
 73
     2
 40
2.0
 49
1.2
 49
-0.8
  0
ENDTAB
  0
TABLE
  2
LAYER
 70
   128
  0
LAYER
  2
0
 70
     0
 62
     7
  6
CONTINUOUS
  0
LAYER
  2
2
 70
     0
 62
     7
  6
CONTINUOUS
  0
LAYER
  2
3
 70
     0
 62
     7
  6
CONTINUOUS
  0
LAYER
  2
4
 70
     0
 62
     7
  6
CONTINUOUS
  0
LAYER
  2
5
 70
     0
 62
     7
  6
CONTINUOUS
  0
LAYER
  2
6
 70
     0
 62
     7
  6
CONTINUOUS
  0
LAYER
  2
7
 70
     0
 62
     7
  6
CONTINUOUS
  0
LAYER
  2
8
 70
     0
 62
     7
  6
CONTINUOUS
  0
LAYER
  2
9
 70
     0
 62
     7
  6
CONTINUOUS
  0
LAYER
  2
10
 70
     0
 62
     7
  6
CONTINUOUS
  0
LAYER
  2
11
 70
     0
 62
     7
  6
CONTINUOUS
  0
LAYER
  2
12
 70
     0
 62
     7
  6
CONTINUOUS
  0
LAYER
  2
13
 70
     0
 62
     7
  6
CONTINUOUS
  0
LAYER
  2
14
 70
     0
 62
     7
  6
CONTINUOUS
  0
LAYER
  2
15
 70
     0
 62
     7
  6
CONTINUOUS
  0
LAYER
  2
16
 70
     0
 62
     7
  6
CONTINUOUS
  0
LAYER
  2
17
 70
     0
 62
     7
  6
CONTINUOUS
  0
LAYER
  2
18
 70
     0
 62
     7
  6
CONTINUOUS
  0
LAYER
  2
19
 70
     0
 62
     7
  6
CONTINUOUS
  0
LAYER
  2
20
 70
     0
 62
     7
  6
CONTINUOUS
  0
LAYER
  2
21
 70
     0
 62
     7
  6
CONTINUOUS
  0
LAYER
  2
22
 70
     0
 62
     7
  6
CONTINUOUS
  0
LAYER
  2
23
 70
     0
 62
     7
  6
CONTINUOUS
  0
LAYER
  2
24
 70
     0
 62
     7
  6
CONTINUOUS
  0
LAYER
  2
25
 70
     0
 62
     7
  6
CONTINUOUS
  0
LAYER
  2
26
 70
     0
 62
     7
  6
CONTINUOUS
  0
LAYER
  2
27
 70
     0
 62
     7
  6
CONTINUOUS
  0
LAYER
  2
28
 70
     0
 62
     7
  6
CONTINUOUS
  0
LAYER
  2
29
 70
     0
 62
     7
  6
CONTINUOUS
  0
LAYER
  2
30
 70
     0
 62
     7
  6
CONTINUOUS
  0
LAYER
  2
31
 70
     0
 62
     7
  6
CONTINUOUS
  0
LAYER
  2
32
 70
     0
 62
     7
  6
CONTINUOUS
  0
LAYER
  2
33
 70
     0
 62
     7
  6
CONTINUOUS
  0
LAYER
  2
34
 70
     0
 62
     7
  6
CONTINUOUS
  0
LAYER
  2
35
 70
     0
 62
     7
  6
CONTINUOUS
  0
LAYER
  2
36
 70
     0
 62
     7
  6
CONTINUOUS
  0
LAYER
  2
37
 70
     0
 62
     7
  6
CONTINUOUS
  0
LAYER
  2
38
 70
     0
 62
     7
  6
CONTINUOUS
  0
LAYER
  2
39
 70
     0
 62
     7
  6
CONTINUOUS
  0
LAYER
  2
40
 70
     0
 62
     7
  6
CONTINUOUS
  0
LAYER
  2
41
 70
     0
 62
     7
  6
CONTINUOUS
  0
LAYER
  2
42
 70
     0
 62
     7
  6
CONTINUOUS
  0
LAYER
  2
43
 70
     0
 62
     7
  6
CONTINUOUS
  0
LAYER
  2
44
 70
     0
 62
     7
  6
CONTINUOUS
  0
LAYER
  2
45
 70
     0
 62
     7
  6
CONTINUOUS
  0
LAYER
  2
46
 70
     0
 62
     7
  6
CONTINUOUS
  0
LAYER
  2
47
 70
     0
 62
     7
  6
CONTINUOUS
  0
LAYER
  2
48
 70
     0
 62
     7
  6
CONTINUOUS
  0
LAYER
  2
49
 70
     0
 62
     7
  6
CONTINUOUS
  0
LAYER
  2
50
 70
     0
 62
     7
  6
CONTINUOUS
  0
LAYER
  2
51
 70
     0
 62
     7
  6
CONTINUOUS
  0
LAYER
  2
52
 70
     0
 62
     7
  6
CONTINUOUS
  0
LAYER
  2
53
 70
     0
 62
     7
  6
CONTINUOUS
  0
LAYER
  2
54
 70
     0
 62
     7
  6
CONTINUOUS
  0
LAYER
  2
55
 70
     0
 62
     7
  6
CONTINUOUS
  0
LAYER
  2
56
 70
     0
 62
     7
  6
CONTINUOUS
  0
LAYER
  2
57
 70
     0
 62
     7
  6
CONTINUOUS
  0
LAYER
  2
58
 70
     0
 62
     7
  6
CONTINUOUS
  0
LAYER
  2
59
 70
     0
 62
     7
  6
CONTINUOUS
  0
LAYER
  2
60
 70
     0
 62
     7
  6
CONTINUOUS
  0
LAYER
  2
61
 70
     0
 62
     7
  6
CONTINUOUS
  0
LAYER
  2
62
 70
     0
 62
     7
  6
CONTINUOUS
  0
LAYER
  2
63
 70
     0
 62
     7
  6
CONTINUOUS
  0
LAYER
  2
64
 70
     0
 62
     7
  6
CONTINUOUS
  0
LAYER
  2
65
 70
     0
 62
     7
  6
CONTINUOUS
  0
LAYER
  2
66
 70
     0
 62
     7
  6
CONTINUOUS
  0
LAYER
  2
67
 70
     0
 62
     7
  6
CONTINUOUS
  0
LAYER
  2
68
 70
     0
 62
     7
  6
CONTINUOUS
  0
LAYER
  2
69
 70
     0
 62
     7
  6
CONTINUOUS
  0
LAYER
  2
70
 70
     0
 62
     7
  6
CONTINUOUS
  0
LAYER
  2
71
 70
     0
 62
     7
  6
CONTINUOUS
  0
LAYER
  2
72
 70
     0
 62
     7
  6
CONTINUOUS
  0
LAYER
  2
73
 70
     0
 62
     7
  6
CONTINUOUS
  0
LAYER
  2
74
 70
     0
 62
     7
  6
CONTINUOUS
  0
LAYER
  2
75
 70
     0
 62
     7
  6
CONTINUOUS
  0
LAYER
  2
76
 70
     0
 62
     7
  6
CONTINUOUS
  0
LAYER
  2
77
 70
     0
 62
     7
  6
CONTINUOUS
  0
LAYER
  2
78
 70
     0
 62
     7
  6
CONTINUOUS
  0
LAYER
  2
79
 70
     0
 62
     7
  6
CONTINUOUS
  0
LAYER
  2
80
 70
     0
 62
     7
  6
CONTINUOUS
  0
LAYER
  2
81
 70
     0
 62
     7
  6
CONTINUOUS
  0
LAYER
  2
82
 70
     0
 62
     7
  6
CONTINUOUS
  0
LAYER
  2
83
 70
     0
 62
     7
  6
CONTINUOUS
  0
LAYER
  2
84
 70
     0
 62
     7
  6
CONTINUOUS
  0
LAYER
  2
85
 70
     0
 62
     7
  6
CONTINUOUS
  0
LAYER
  2
86
 70
     0
 62
     7
  6
CONTINUOUS
  0
LAYER
  2
87
 70
     0
 62
     7
  6
CONTINUOUS
  0
LAYER
  2
88
 70
     0
 62
     7
  6
CONTINUOUS
  0
LAYER
  2
89
 70
     0
 62
     7
  6
CONTINUOUS
  0
LAYER
  2
90
 70
     0
 62
     7
  6
CONTINUOUS
  0
LAYER
  2
91
 70
     0
 62
     7
  6
CONTINUOUS
  0
LAYER
  2
92
 70
     0
 62
     7
  6
CONTINUOUS
  0
LAYER
  2
93
 70
     0
 62
     7
  6
CONTINUOUS
  0
LAYER
  2
94
 70
     0
 62
     7
  6
CONTINUOUS
  0
LAYER
  2
95
 70
     0
 62
     7
  6
CONTINUOUS
  0
LAYER
  2
96
 70
     0
 62
     7
  6
CONTINUOUS
  0
LAYER
  2
97
 70
     0
 62
     7
  6
CONTINUOUS
  0
LAYER
  2
98
 70
     0
 62
     7
  6
CONTINUOUS
  0
LAYER
  2
99
 70
     0
 62
     7
  6
CONTINUOUS
  0
LAYER
  2
100
 70
     0
 62
     7
  6
CONTINUOUS
  0
LAYER
  2
101
 70
     0
 62
     7
  6
CONTINUOUS
  0
LAYER
  2
102
 70
     0
 62
     7
  6
CONTINUOUS
  0
LAYER
  2
103
 70
     0
 62
     7
  6
CONTINUOUS
  0
LAYER
  2
104
 70
     0
 62
     7
  6
CONTINUOUS
  0
LAYER
  2
105
 70
     0
 62
     7
  6
CONTINUOUS
  0
LAYER
  2
106
 70
     0
 62
     7
  6
CONTINUOUS
  0
LAYER
  2
107
 70
     0
 62
     7
  6
CONTINUOUS
  0
LAYER
  2
108
 70
     0
 62
     7
  6
CONTINUOUS
  0
LAYER
  2
109
 70
     0
 62
     7
  6
CONTINUOUS
  0
LAYER
  2
110
 70
     0
 62
     7
  6
CONTINUOUS
  0
LAYER
  2
111
 70
     0
 62
     7
  6
CONTINUOUS
  0
LAYER
  2
112
 70
     0
 62
     7
  6
CONTINUOUS
  0
LAYER
  2
113
 70
     0
 62
     7
  6
CONTINUOUS
  0
LAYER
  2
114
 70
     0
 62
     7
  6
CONTINUOUS
  0
LAYER
  2
115
 70
     0
 62
     7
  6
CONTINUOUS
  0
LAYER
  2
116
 70
     0
 62
     7
  6
CONTINUOUS
  0
LAYER
  2
117
 70
     0
 62
     7
  6
CONTINUOUS
  0
LAYER
  2
118
 70
     0
 62
     7
  6
CONTINUOUS
  0
LAYER
  2
119
 70
     0
 62
     7
  6
CONTINUOUS
  0
LAYER
  2
120
 70
     0
 62
     7
  6
CONTINUOUS
  0
LAYER
  2
121
 70
     0
 62
     7
  6
CONTINUOUS
  0
LAYER
  2
122
 70
     0
 62
     7
  6
CONTINUOUS
  0
LAYER
  2
123
 70
     0
 62
     7
  6
CONTINUOUS
  0
LAYER
  2
124
 70
     0
 62
     7
  6
CONTINUOUS
  0
LAYER
  2
125
 70
     0
 62
     7
  6
CONTINUOUS
  0
LAYER
  2
126
 70
     0
 62
     7
  6
CONTINUOUS
  0
LAYER
  2
127
 70
     0
 62
     7
  6
CONTINUOUS
  0
LAYER
  2
128
 70
     0
 62
     7
  6
CONTINUOUS
  0
ENDTAB
  0
TABLE
  2
STYLE
 70
     9
  0
STYLE
  2
STANDARD
 70
     0
 40
0.0
 41
1.0
 50
0.0
 71
     0
 42
0.2
  3
txt.shx
  4
extfont.shx
  0
STYLE
  2
KANJI0
 70
     0
 40
3.0
 41
0.6
 50
0.0
 71
     0
 42
3.0
  3
txt.shx
  4
extfont.shx
  0
STYLE
  2
KANJI1
 70
     0
 40
1.8
 41
0.6
 50
0.0
 71
     0
 42
1.8
  3
txt.shx
  4
extfont.shx
  0
STYLE
  2
KANJI2
 70
     0
 40
4.0
 41
0.9
 50
0.0
 71
     0
 42
4.0
  3
txt.shx
  4
extfont.shx
  0
STYLE
  2
KANJI3
 70
     0
 40
0.9
 41
0.555555556
 50
0.0
 71
     0
 42
0.9
  3
txt.shx
  4
extfont.shx
  0
STYLE
  2
KANJI4
 70
     0
 40
3.0
 41
0.9
 50
0.0
 71
     0
 42
3.0
  3
txt.shx
  4
extfont.shx
  0
STYLE
  2
KANJI5
 70
     0
 40
3.0
 41
0.5
 50
0.0
 71
     0
 42
3.0
  3
txt.shx
  4
extfont.shx
  0
STYLE
  2
KANJI6
 70
     0
 40
8.0
 41
0.9
 50
0.0
 71
     0
 42
8.0
  3
txt.shx
  4
extfont.shx
  0
STYLE
  2
KANJI7
 70
     0
 40
6.0
 41
0.9
 50
0.0
 71
     0
 42
6.0
  3
txt.shx
  4
extfont.shx
  0
ENDTAB
  0
TABLE
  2
VIEW
 70
     0
  0
ENDTAB
  0
ENDSEC
  0
SECTION
  2
BLOCKS
  0
ENDSEC
  0
SECTION
  2
ENTITIES
  0
LINE
  8
0
  6
CONTINUOUS
 62
     2
 10
161.5
 20
112.025
 30
0.0
 11
159.746298557
 21
111.0125
 31
0.0
  0
LINE
  8
0
  6
CONTINUOUS
 62
     2
 10
159.746298557
 20
111.0125
 30
0.0
 11
159.746298557
 21
108.9875
 31
0.0
  0
LINE
  8
0
  6
CONTINUOUS
 62
     2
 10
159.746298557
 20
108.9875
 30
0.0
 11
161.5
 21
107.975
 31
0.0
  0
LINE
  8
0
  6
CONTINUOUS
 62
     2
 10
161.5
 20
107.975
 30
0.0
 11
163.253701443
 21
108.9875
 31
0.0
  0
LINE
  8
0
  6
CONTINUOUS
 62
     2
 10
163.253701443
 20
108.9875
 30
0.0
 11
163.253701443
 21
111.0125
 31
0.0
  0
LINE
  8
0
  6
CONTINUOUS
 62
     2
 10
163.253701443
 20
111.0125
 30
0.0
 11
161.5
 21
112.025
 31
0.0
  0
CIRCLE
  8
0
  6
CONTINUOUS
 62
     2
 10
161.5
 20
110.0
 30
0.0
 40
0.8
  0
CIRCLE
  8
0
  6
CONTINUOUS
 62
     2
 10
161.5
 20
110.0
 30
0.0
 40
1.0
  0
LINE
  8
0
  6
LTYPE1
 62
     2
 10
158.5
 20
110.0
 30
0.0
 11
164.5
 21
110.0
 31
0.0
  0
LINE
  8
0
  6
LTYPE1
 62
     2
 10
161.5
 20
113.0
 30
0.0
 11
161.5
 21
107.0
 31
0.0
  0
LINE
  8
0
  6
CONTINUOUS
 62
     2
 10
161.5
 20
147.975
 30
0.0
 11
159.746298557
 21
148.9875
 31
0.0
  0
LINE
  8
0
  6
CONTINUOUS
 62
     2
 10
159.746298557
 20
148.9875
 30
0.0
 11
159.746298557
 21
151.0125
 31
0.0
  0
LINE
  8
0
  6
CONTINUOUS
 62
     2
 10
159.746298557
 20
151.0125
 30
0.0
 11
161.5
 21
152.025
 31
0.0
  0
LINE
  8
0
  6
CONTINUOUS
 62
     2
 10
161.5
 20
152.025
 30
0.0
 11
163.253701443
 21
151.0125
 31
0.0
  0
LINE
  8
0
  6
CONTINUOUS
 62
     2
 10
163.253701443
 20
151.0125
 30
0.0
 11
163.253701443
 21
148.9875
 31
0.0
  0
LINE
  8
0
  6
CONTINUOUS
 62
     2
 10
163.253701443
 20
148.9875
 30
0.0
 11
161.5
 21
147.975
 31
0.0
  0
CIRCLE
  8
0
  6
CONTINUOUS
 62
     2
 10
161.5
 20
150.0
 30
0.0
 40
0.8
  0
CIRCLE
  8
0
  6
CONTINUOUS
 62
     2
 10
161.5
 20
150.0
 30
0.0
 40
1.0
  0
LINE
  8
0
  6
LTYPE1
 62
     2
 10
158.5
 20
150.0
 30
0.0
 11
164.5
 21
150.0
 31
0.0
  0
LINE
  8
0
  6
LTYPE1
 62
     2
 10
161.5
 20
147.0
 30
0.0
 11
161.5
 21
153.0
 31
0.0
  0
LINE
  8
0
  6
CONTINUOUS
 62
     2
 10
201.5
 20
112.025
 30
0.0
 11
203.253701443
 21
111.0125
 31
0.0
  0
LINE
  8
0
  6
CONTINUOUS
 62
     2
 10
203.253701443
 20
111.0125
 30
0.0
 11
203.253701443
 21
108.9875
 31
0.0
  0
LINE
  8
0
  6
CONTINUOUS
 62
     2
 10
203.253701443
 20
108.9875
 30
0.0
 11
201.5
 21
107.975
 31
0.0
  0
LINE
  8
0
  6
CONTINUOUS
 62
     2
 10
201.5
 20
107.975
 30
0.0
 11
199.746298557
 21
108.9875
 31
0.0
  0
LINE
  8
0
  6
CONTINUOUS
 62
     2
 10
199.746298557
 20
108.9875
 30
0.0
 11
199.746298557
 21
111.0125
 31
0.0
  0
LINE
  8
0
  6
CONTINUOUS
 62
     2
 10
199.746298557
 20
111.0125
 30
0.0
 11
201.5
 21
112.025
 31
0.0
  0
CIRCLE
  8
0
  6
CONTINUOUS
 62
     2
 10
201.5
 20
110.0
 30
0.0
 40
0.8
  0
CIRCLE
  8
0
  6
CONTINUOUS
 62
     2
 10
201.5
 20
110.0
 30
0.0
 40
1.0
  0
LINE
  8
0
  6
LTYPE1
 62
     2
 10
204.5
 20
110.0
 30
0.0
 11
198.5
 21
110.0
 31
0.0
  0
LINE
  8
0
  6
LTYPE1
 62
     2
 10
201.5
 20
113.0
 30
0.0
 11
201.5
 21
107.0
 31
0.0
  0
LINE
  8
0
  6
CONTINUOUS
 62
     2
 10
201.5
 20
147.975
 30
0.0
 11
203.253701443
 21
148.9875
 31
0.0
  0
LINE
  8
0
  6
CONTINUOUS
 62
     2
 10
203.253701443
 20
148.9875
 30
0.0
 11
203.253701443
 21
151.0125
 31
0.0
  0
LINE
  8
0
  6
CONTINUOUS
 62
     2
 10
203.253701443
 20
151.0125
 30
0.0
 11
201.5
 21
152.025
 31
0.0
  0
LINE
  8
0
  6
CONTINUOUS
 62
     2
 10
201.5
 20
152.025
 30
0.0
 11
199.746298557
 21
151.0125
 31
0.0
  0
LINE
  8
0
  6
CONTINUOUS
 62
     2
 10
199.746298557
 20
151.0125
 30
0.0
 11
199.746298557
 21
148.9875
 31
0.0
  0
LINE
  8
0
  6
CONTINUOUS
 62
     2
 10
199.746298557
 20
148.9875
 30
0.0
 11
201.5
 21
147.975
 31
0.0
  0
CIRCLE
  8
0
  6
CONTINUOUS
 62
     2
 10
201.5
 20
150.0
 30
0.0
 40
0.8
  0
CIRCLE
  8
0
  6
CONTINUOUS
 62
     2
 10
201.5
 20
150.0
 30
0.0
 40
1.0
  0
LINE
  8
0
  6
LTYPE1
 62
     2
 10
204.5
 20
150.0
 30
0.0
 11
198.5
 21
150.0
 31
0.0
  0
LINE
  8
0
  6
LTYPE1
 62
     2
 10
201.5
 20
147.0
 30
0.0
 11
201.5
 21
153.0
 31
0.0
  0
LINE
  8
0
  6
CONTINUOUS
 62
     2
 10
161.5
 20
154.0
 30
0.0
 11
161.5
 21
162.5
 31
0.0
  0
LINE
  8
0
  6
CONTINUOUS
 62
     2
 10
161.5
 20
160.5
 30
0.0
 11
163.914814566
 21
159.852952387
 31
0.0
  0
LINE
  8
0
  6
CONTINUOUS
 62
     2
 10
161.5
 20
160.5
 30
0.0
 11
163.914814566
 21
161.147047613
 31
0.0
  0
LINE
  8
0
  6
CONTINUOUS
 62
     2
 10
161.5
 20
160.5
 30
0.0
 11
181.5
 21
160.5
 31
0.0
  0
LINE
  8
0
  6
CONTINUOUS
 62
     2
 10
181.5
 20
160.5
 30
0.0
 11
179.085185434
 21
161.147047613
 31
0.0
  0
LINE
  8
0
  6
CONTINUOUS
 62
     2
 10
181.5
 20
160.5
 30
0.0
 11
179.085185434
 21
159.852952387
 31
0.0
  0
TEXT
  8
0
  6
CONTINUOUS
 62
     2
 10
167.12
 20
161.5
 30
0.3
 40
3.0
  1
４０
 50
0.0
 41
0.6
 51
0.0
  7
KANJI0
  0
TEXT
  8
0
  6
CONTINUOUS
 62
     2
 10
171.47
 20
161.5
 30
0.18
 40
1.8
  1
±０．５
 50
0.0
 41
0.6
 51
0.0
  7
KANJI1
  0
TEXT
  8
0
  6
CONTINUOUS
 62
     2
 10
187.12
 20
161.5
 30
0.3
 40
3.0
  1
４０
 50
0.0
 41
0.6
 51
0.0
  7
KANJI0
  0
TEXT
  8
0
  6
CONTINUOUS
 62
     2
 10
191.47
 20
161.5
 30
0.18
 40
1.8
  1
±０．５
 50
0.0
 41
0.6
 51
0.0
  7
KANJI1
  0
LINE
  8
0
  6
CONTINUOUS
 62
     2
 10
181.5
 20
160.5
 30
0.0
 11
183.914814566
 21
159.852952387
 31
0.0
  0
LINE
  8
0
  6
CONTINUOUS
 62
     2
 10
181.5
 20
160.5
 30
0.0
 11
183.914814566
 21
161.147047613
 31
0.0
  0
LINE
  8
0
  6
CONTINUOUS
 62
     2
 10
181.5
 20
160.5
 30
0.0
 11
201.5
 21
160.5
 31
0.0
  0
LINE
  8
0
  6
CONTINUOUS
 62
     2
 10
201.5
 20
160.5
 30
0.0
 11
199.085185434
 21
161.147047613
 31
0.0
  0
LINE
  8
0
  6
CONTINUOUS
 62
     2
 10
201.5
 20
160.5
 30
0.0
 11
199.085185434
 21
159.852952387
 31
0.0
  0
LINE
  8
0
  6
CONTINUOUS
 62
     2
 10
201.5
 20
154.0
 30
0.0
 11
201.5
 21
162.5
 31
0.0
  0
LINE
  8
0
  6
CONTINUOUS
 62
     2
 10
205.0
 20
150.0
 30
0.0
 11
216.0
 21
150.0
 31
0.0
  0
LINE
  8
0
  6
CONTINUOUS
 62
     2
 10
214.0
 20
150.0
 30
0.0
 11
213.352952387
 21
147.585185434
 31
0.0
  0
LINE
  8
0
  6
CONTINUOUS
 62
     2
 10
214.0
 20
150.0
 30
0.0
 11
214.647047613
 21
147.585185434
 31
0.0
  0
LINE
  8
0
  6
CONTINUOUS
 62
     2
 10
214.0
 20
150.0
 30
0.0
 11
214.0
 21
130.0
 31
0.0
  0
LINE
  8
0
  6
CONTINUOUS
 62
     2
 10
214.0
 20
130.0
 30
0.0
 11
214.647047613
 21
132.414814566
 31
0.0
  0
LINE
  8
0
  6
CONTINUOUS
 62
     2
 10
214.0
 20
130.0
 30
0.0
 11
213.352952387
 21
132.414814566
 31
0.0
  0
TEXT
  8
0
  6
CONTINUOUS
 62
     2
 10
213.0
 20
135.62
 30
0.3
 40
3.0
  1
４０
 50
90.0
 41
0.6
 51
0.0
  7
KANJI0
  0
TEXT
  8
0
  6
CONTINUOUS
 62
     2
 10
213.0
 20
139.97
 30
0.18
 40
1.8
  1
±０．５
 50
90.0
 41
0.6
 51
0.0
  7
KANJI1
  0
LINE
  8
0
  6
CONTINUOUS
 62
     2
 10
214.0
 20
130.0
 30
0.0
 11
213.352952387
 21
127.585185434
 31
0.0
  0
LINE
  8
0
  6
CONTINUOUS
 62
     2
 10
214.0
 20
130.0
 30
0.0
 11
214.647047613
 21
127.585185434
 31
0.0
  0
LINE
  8
0
  6
CONTINUOUS
 62
     2
 10
214.0
 20
130.0
 30
0.0
 11
214.0
 21
110.0
 31
0.0
  0
LINE
  8
0
  6
CONTINUOUS
 62
     2
 10
214.0
 20
110.0
 30
0.0
 11
214.647047613
 21
112.414814566
 31
0.0
  0
LINE
  8
0
  6
CONTINUOUS
 62
     2
 10
214.0
 20
110.0
 30
0.0
 11
213.352952387
 21
112.414814566
 31
0.0
  0
TEXT
  8
0
  6
CONTINUOUS
 62
     2
 10
213.0
 20
115.62
 30
0.3
 40
3.0
  1
４０
 50
90.0
 41
0.6
 51
0.0
  7
KANJI0
  0
TEXT
  8
0
  6
CONTINUOUS
 62
     2
 10
213.0
 20
119.97
 30
0.18
 40
1.8
  1
±０．５
 50
90.0
 41
0.6
 51
0.0
  7
KANJI1
  0
LINE
  8
0
  6
CONTINUOUS
 62
     2
 10
205.0
 20
110.0
 30
0.0
 11
216.0
 21
110.0
 31
0.0
  0
LINE
  8
0
  6
CONTINUOUS
 62
     2
 10
206.5
 20
131.5
 30
0.0
 11
207.147047613
 21
133.914814566
 31
0.0
  0
LINE
  8
0
  6
CONTINUOUS
 62
     2
 10
206.5
 20
131.5
 30
0.0
 11
205.852952387
 21
133.914814566
 31
0.0
  0
LINE
  8
0
  6
CONTINUOUS
 62
     2
 10
206.5
 20
137.05
 30
0.0
 11
206.5
 21
131.5
 31
0.0
  0
LINE
  8
0
  6
CONTINUOUS
 62
     2
 10
206.5
 20
131.5
 30
0.0
 11
206.5
 21
130.0
 31
0.0
  0
LINE
  8
0
  6
CONTINUOUS
 62
     2
 10
206.5
 20
130.0
 30
0.0
 11
206.5
 21
126.25
 31
0.0
  0
LINE
  8
0
  6
CONTINUOUS
 62
     2
 10
206.5
 20
130.0
 30
0.0
 11
205.852952387
 21
127.585185434
 31
0.0
  0
LINE
  8
0
  6
CONTINUOUS
 62
     2
 10
206.5
 20
130.0
 30
0.0
 11
207.147047613
 21
127.585185434
 31
0.0
  0
TEXT
  8
0
  6
CONTINUOUS
 62
     2
 10
205.5
 20
135.25
 30
0.3
 40
3.0
  1
３
 50
90.0
 41
0.6
 51
0.0
  7
KANJI0
  0
CIRCLE
  8
0
  6
CONTINUOUS
 62
     2
 10
161.5
 20
110.0
 30
0.0
 40
2.5
  0
CIRCLE
  8
0
  6
CONTINUOUS
 62
     2
 10
201.5
 20
110.0
 30
0.0
 40
2.5
  0
CIRCLE
  8
0
  6
CONTINUOUS
 62
     2
 10
201.5
 20
150.0
 30
0.0
 40
2.5
  0
CIRCLE
  8
0
  6
CONTINUOUS
 62
     2
 10
161.5
 20
150.0
 30
0.0
 40
2.5
  0
ARC
  8
0
  6
CONTINUOUS
 62
     2
 10
205.0
 20
103.5
 30
0.0
 40
0.5
 50
120.0
 51
240.0
  0
LINE
  8
0
  6
CONTINUOUS
 62
     2
 10
204.75
 20
103.933012702
 30
0.0
 11
204.75
 21
104.066987298
 31
0.0
  0
ARC
  8
0
  6
CONTINUOUS
 62
     2
 10
205.0
 20
104.5
 30
0.0
 40
0.5
 50
120.0
 51
240.0
  0
LINE
  8
0
  6
CONTINUOUS
 62
     2
 10
204.75
 20
104.933012702
 30
0.0
 11
204.75
 21
105.066987298
 31
0.0
  0
ARC
  8
0
  6
CONTINUOUS
 62
     2
 10
205.0
 20
105.5
 30
0.0
 40
0.5
 50
120.0
 51
240.0
  0
LINE
  8
0
  6
CONTINUOUS
 62
     2
 10
204.75
 20
105.933012702
 30
0.0
 11
204.75
 21
106.066987298
 31
0.0
  0
LINE
  8
0
  6
CONTINUOUS
 62
     2
 10
204.75
 20
102.75
 30
0.0
 11
204.75
 21
103.066987298
 31
0.0
  0
ARC
  8
0
  6
CONTINUOUS
 62
     2
 10
204.5
 20
102.75
 30
0.0
 40
0.25
 50
270.0
 51
0.0
  0
LINE
  8
0
  6
CONTINUOUS
 62
     2
 10
158.25
 20
103.933012702
 30
0.0
 11
158.25
 21
104.066987298
 31
0.0
  0
LINE
  8
0
  6
CONTINUOUS
 62
     2
 10
158.25
 20
104.933012702
 30
0.0
 11
158.25
 21
105.066987298
 31
0.0
  0
LINE
  8
0
  6
CONTINUOUS
 62
     2
 10
158.25
 20
105.933012702
 30
0.0
 11
158.25
 21
106.066987298
 31
0.0
  0
LINE
  8
0
  6
CONTINUOUS
 62
     2
 10
158.25
 20
102.75
 30
0.0
 11
158.25
 21
103.066987298
 31
0.0
  0
ARC
  8
0
  6
CONTINUOUS
 62
     2
 10
158.5
 20
102.75
 30
0.0
 40
0.25
 50
180.0
 51
270.0
  0
ARC
  8
0
  6
CONTINUOUS
 62
     2
 10
158.0
 20
106.5
 30
0.0
 40
0.5
 50
300.0
 51
0.0
  0
LINE
  8
0
  6
CONTINUOUS
 62
     2
 10
158.5
 20
106.5
 30
0.0
 11
159.35
 21
106.5
 31
0.0
  0
ARC
  8
0
  6
CONTINUOUS
 62
     2
 10
205.0
 20
106.5
 30
0.0
 40
0.5
 50
180.0
 51
240.0
  0
LINE
  8
0
  6
CONTINUOUS
 62
     2
 10
203.65
 20
106.5
 30
0.0
 11
204.5
 21
106.5
 31
0.0
  0
CIRCLE
  8
0
  6
CONTINUOUS
 62
     5
 10
160.75
 20
105.0
 30
0.0
 40
0.575
  0
CIRCLE
  8
0
  6
CONTINUOUS
 62
     5
 10
160.75
 20
105.0
 30
0.0
 40
0.46
  0
LINE
  8
0
  6
LTYPE2
 62
     2
 10
160.75
 20
106.0
 30
0.0
 11
160.75
 21
104.0
 31
0.0
  0
LINE
  8
0
  6
LTYPE2
 62
     2
 10
159.75
 20
105.0
 30
0.0
 11
161.75
 21
105.0
 31
0.0
  0
CIRCLE
  8
0
  6
CONTINUOUS
 62
     5
 10
202.25
 20
105.0
 30
0.0
 40
0.575
  0
CIRCLE
  8
0
  6
CONTINUOUS
 62
     5
 10
202.25
 20
105.0
 30
0.0
 40
0.46
  0
LINE
  8
0
  6
LTYPE2
 62
     2
 10
202.25
 20
106.0
 30
0.0
 11
202.25
 21
104.0
 31
0.0
  0
LINE
  8
0
  6
LTYPE2
 62
     2
 10
203.25
 20
105.0
 30
0.0
 11
201.25
 21
105.0
 31
0.0
  0
LINE
  8
0
  6
CONTINUOUS
 62
     1
 10
154.75
 20
154.035357107
 30
0.0
 11
154.75
 21
108.964642893
 31
0.0
  0
LINE
  8
0
  6
CONTINUOUS
 62
     1
 10
154.0
 20
154.0
 30
0.0
 11
154.0
 21
109.0
 31
0.0
  0
ARC
  8
0
  6
CONTINUOUS
 62
     1
 10
156.5
 20
108.964642893
 30
0.0
 40
1.75
 50
180.0
 51
270.0
  0
ARC
  8
0
  6
CONTINUOUS
 62
     1
 10
156.5
 20
109.0
 30
0.0
 40
2.5
 50
180.0
 51
270.0
  0
ARC
  8
0
  6
CONTINUOUS
 62
     1
 10
206.5
 20
108.964642893
 30
0.0
 40
1.75
 50
270.0
 51
0.0
  0
ARC
  8
0
  6
CONTINUOUS
 62
     1
 10
206.5
 20
109.0
 30
0.0
 40
2.5
 50
270.0
 51
0.0
  0
ARC
  8
0
  6
CONTINUOUS
 62
     1
 10
206.5
 20
154.035357107
 30
0.0
 40
1.75
 50
0.0
 51
90.0
  0
ARC
  8
0
  6
CONTINUOUS
 62
     1
 10
206.5
 20
154.0
 30
0.0
 40
2.5
 50
0.0
 51
90.0
  0
LINE
  8
0
  6
CONTINUOUS
 62
     1
 10
208.25
 20
108.964642893
 30
0.0
 11
208.25
 21
154.035357107
 31
0.0
  0
LINE
  8
0
  6
CONTINUOUS
 62
     1
 10
209.0
 20
109.0
 30
0.0
 11
209.0
 21
154.0
 31
0.0
  0
ARC
  8
0
  6
CONTINUOUS
 62
     1
 10
156.5
 20
154.035357107
 30
0.0
 40
1.75
 50
90.0
 51
180.0
  0
LINE
  8
0
  6
CONTINUOUS
 62
     1
 10
206.5
 20
155.785357107
 30
0.0
 11
156.5
 21
155.785357107
 31
0.0
  0
LINE
  8
0
  6
CONTINUOUS
 62
     1
 10
206.5
 20
156.5
 30
0.0
 11
156.5
 21
156.5
 31
0.0
  0
ARC
  8
0
  6
CONTINUOUS
 62
     1
 10
156.5
 20
154.0
 30
0.0
 40
2.5
 50
90.0
 51
180.0
  0
LINE
  8
0
  6
CONTINUOUS
 62
     2
 10
154.0
 20
155.0
 30
0.0
 11
154.0
 21
168.5
 31
0.0
  0
LINE
  8
0
  6
CONTINUOUS
 62
     2
 10
154.0
 20
166.5
 30
0.0
 11
156.414814566
 21
165.852952387
 31
0.0
  0
LINE
  8
0
  6
CONTINUOUS
 62
     2
 10
154.0
 20
166.5
 30
0.0
 11
156.414814566
 21
167.147047613
 31
0.0
  0
LINE
  8
0
  6
CONTINUOUS
 62
     2
 10
154.0
 20
166.5
 30
0.0
 11
209.0
 21
166.5
 31
0.0
  0
LINE
  8
0
  6
CONTINUOUS
 62
     2
 10
209.0
 20
166.5
 30
0.0
 11
206.585185434
 21
167.147047613
 31
0.0
  0
LINE
  8
0
  6
CONTINUOUS
 62
     2
 10
209.0
 20
166.5
 30
0.0
 11
206.585185434
 21
165.852952387
 31
0.0
  0
LINE
  8
0
  6
CONTINUOUS
 62
     2
 10
209.0
 20
155.0
 30
0.0
 11
209.0
 21
168.5
 31
0.0
  0
TEXT
  8
0
  6
CONTINUOUS
 62
     2
 10
178.5
 20
167.5
 30
0.3
 40
3.0
  1
１１０
 50
0.0
 41
0.6
 51
0.0
  7
KANJI0
  0
LINE
  8
0
  6
CONTINUOUS
 62
     2
 10
207.5
 20
156.5
 30
0.0
 11
222.0
 21
156.5
 31
0.0
  0
LINE
  8
0
  6
CONTINUOUS
 62
     2
 10
220.0
 20
156.5
 30
0.0
 11
219.352952387
 21
154.085185434
 31
0.0
  0
LINE
  8
0
  6
CONTINUOUS
 62
     2
 10
220.0
 20
156.5
 30
0.0
 11
220.647047613
 21
154.085185434
 31
0.0
  0
LINE
  8
0
  6
CONTINUOUS
 62
     2
 10
220.0
 20
156.5
 30
0.0
 11
220.0
 21
106.5
 31
0.0
  0
LINE
  8
0
  6
CONTINUOUS
 62
     2
 10
220.0
 20
106.5
 30
0.0
 11
220.647047613
 21
108.914814566
 31
0.0
  0
LINE
  8
0
  6
CONTINUOUS
 62
     2
 10
220.0
 20
106.5
 30
0.0
 11
219.352952387
 21
108.914814566
 31
0.0
  0
LINE
  8
0
  6
CONTINUOUS
 62
     2
 10
207.5
 20
106.5
 30
0.0
 11
222.0
 21
106.5
 31
0.0
  0
TEXT
  8
0
  6
CONTINUOUS
 62
     2
 10
219.0
 20
128.5
 30
0.3
 40
3.0
  1
１００
 50
90.0
 41
0.6
 51
0.0
  7
KANJI0
  0
LINE
  8
0
  6
CONTINUOUS
 62
     2
 10
220.0
 20
106.5
 30
0.0
 11
220.647047613
 21
108.914814566
 31
0.0
  0
LINE
  8
0
  6
CONTINUOUS
 62
     2
 10
220.0
 20
106.5
 30
0.0
 11
219.352952387
 21
108.914814566
 31
0.0
  0
LINE
  8
0
  6
CONTINUOUS
 62
     2
 10
220.0
 20
110.25
 30
0.0
 11
220.0
 21
106.5
 31
0.0
  0
LINE
  8
0
  6
CONTINUOUS
 62
     2
 10
220.0
 20
106.5
 30
0.0
 11
220.0
 21
102.5
 31
0.0
  0
LINE
  8
0
  6
CONTINUOUS
 62
     2
 10
205.5
 20
102.5
 30
0.0
 11
222.0
 21
102.5
 31
0.0
  0
TEXT
  8
0
  6
CONTINUOUS
 62
     2
 10
219.0
 20
103.6
 30
0.3
 40
3.0
  1
８
 50
90.0
 41
0.6
 51
0.0
  7
KANJI0
  0
ARC
  8
0
  6
CONTINUOUS
 62
     2
 10
158.0
 20
103.5
 30
0.0
 40
0.5
 50
300.0
 51
60.0
  0
ARC
  8
0
  6
CONTINUOUS
 62
     2
 10
158.0
 20
104.5
 30
0.0
 40
0.5
 50
300.0
 51
60.0
  0
ARC
  8
0
  6
CONTINUOUS
 62
     2
 10
158.0
 20
105.5
 30
0.0
 40
0.5
 50
300.0
 51
60.0
  0
LINE
  8
0
  6
CONTINUOUS
 62
     2
 10
158.5
 20
102.5
 30
0.0
 11
204.5
 21
102.5
 31
0.0
  0
LINE
  8
0
  6
LTYPE2
 62
     2
 10
181.5
 20
81.0
 30
0.0
 11
181.5
 21
31.0
 31
0.0
  0
LINE
  8
0
  6
LTYPE2
 62
     2
 10
156.5
 20
56.0
 30
0.0
 11
206.5
 21
56.0
 31
0.0
  0
CIRCLE
  8
0
  6
CONTINUOUS
 62
     2
 10
201.5
 20
36.0
 30
0.0
 40
1.125
  0
LINE
  8
0
  6
LTYPE2
 62
     2
 10
203.5
 20
36.0
 30
0.0
 11
199.5
 21
36.0
 31
0.0
  0
LINE
  8
0
  6
LTYPE2
 62
     2
 10
201.5
 20
38.0
 30
0.0
 11
201.5
 21
34.0
 31
0.0
  0
LINE
  8
0
  6
LTYPE2
 62
     2
 10
203.5
 20
76.0
 30
0.0
 11
199.5
 21
76.0
 31
0.0
  0
LINE
  8
0
  6
LTYPE2
 62
     2
 10
201.5
 20
74.0
 30
0.0
 11
201.5
 21
78.0
 31
0.0
  0
CIRCLE
  8
0
  6
CONTINUOUS
 62
     2
 10
161.5
 20
36.0
 30
0.0
 40
1.125
  0
LINE
  8
0
  6
LTYPE2
 62
     2
 10
159.5
 20
36.0
 30
0.0
 11
163.5
 21
36.0
 31
0.0
  0
LINE
  8
0
  6
LTYPE2
 62
     2
 10
161.5
 20
38.0
 30
0.0
 11
161.5
 21
34.0
 31
0.0
  0
CIRCLE
  8
0
  6
CONTINUOUS
 62
     2
 10
161.5
 20
76.0
 30
0.0
 40
1.125
  0
LINE
  8
0
  6
LTYPE2
 62
     2
 10
159.5
 20
76.0
 30
0.0
 11
163.5
 21
76.0
 31
0.0
  0
LINE
  8
0
  6
LTYPE2
 62
     2
 10
161.5
 20
74.0
 30
0.0
 11
161.5
 21
78.0
 31
0.0
  0
LINE
  8
0
  6
CONTINUOUS
 62
     2
 10
161.5
 20
79.0
 30
0.0
 11
161.5
 21
85.0
 31
0.0
  0
LINE
  8
0
  6
CONTINUOUS
 62
     2
 10
161.5
 20
83.0
 30
0.0
 11
163.914814566
 21
82.352952387
 31
0.0
  0
LINE
  8
0
  6
CONTINUOUS
 62
     2
 10
161.5
 20
83.0
 30
0.0
 11
163.914814566
 21
83.647047613
 31
0.0
  0
LINE
  8
0
  6
CONTINUOUS
 62
     2
 10
161.5
 20
83.0
 30
0.0
 11
181.5
 21
83.0
 31
0.0
  0
LINE
  8
0
  6
CONTINUOUS
 62
     2
 10
181.5
 20
83.0
 30
0.0
 11
179.085185434
 21
83.647047613
 31
0.0
  0
LINE
  8
0
  6
CONTINUOUS
 62
     2
 10
181.5
 20
83.0
 30
0.0
 11
179.085185434
 21
82.352952387
 31
0.0
  0
LINE
  8
0
  6
CONTINUOUS
 62
     2
 10
181.5
 20
79.0
 30
0.0
 11
181.5
 21
85.0
 31
0.0
  0
TEXT
  8
0
  6
CONTINUOUS
 62
     2
 10
167.12
 20
84.0
 30
0.3
 40
3.0
  1
４０
 50
0.0
 41
0.6
 51
0.0
  7
KANJI0
  0
TEXT
  8
0
  6
CONTINUOUS
 62
     2
 10
171.47
 20
84.0
 30
0.18
 40
1.8
  1
±０．５
 50
0.0
 41
0.6
 51
0.0
  7
KANJI1
  0
LINE
  8
0
  6
CONTINUOUS
 62
     2
 10
181.5
 20
79.0
 30
0.0
 11
181.5
 21
85.0
 31
0.0
  0
LINE
  8
0
  6
CONTINUOUS
 62
     2
 10
181.5
 20
83.0
 30
0.0
 11
183.914814566
 21
82.352952387
 31
0.0
  0
LINE
  8
0
  6
CONTINUOUS
 62
     2
 10
181.5
 20
83.0
 30
0.0
 11
183.914814566
 21
83.647047613
 31
0.0
  0
LINE
  8
0
  6
CONTINUOUS
 62
     2
 10
181.5
 20
83.0
 30
0.0
 11
201.5
 21
83.0
 31
0.0
  0
LINE
  8
0
  6
CONTINUOUS
 62
     2
 10
201.5
 20
83.0
 30
0.0
 11
199.085185434
 21
83.647047613
 31
0.0
  0
LINE
  8
0
  6
CONTINUOUS
 62
     2
 10
201.5
 20
83.0
 30
0.0
 11
199.085185434
 21
82.352952387
 31
0.0
  0
LINE
  8
0
  6
CONTINUOUS
 62
     2
 10
201.5
 20
79.0
 30
0.0
 11
201.5
 21
85.0
 31
0.0
  0
TEXT
  8
0
  6
CONTINUOUS
 62
     2
 10
187.12
 20
84.0
 30
0.3
 40
3.0
  1
４０
 50
0.0
 41
0.6
 51
0.0
  7
KANJI0
  0
TEXT
  8
0
  6
CONTINUOUS
 62
     2
 10
191.47
 20
84.0
 30
0.18
 40
1.8
  1
±０．５
 50
0.0
 41
0.6
 51
0.0
  7
KANJI1
  0
LINE
  8
0
  6
CONTINUOUS
 62
     2
 10
204.5
 20
76.0
 30
0.0
 11
210.5
 21
76.0
 31
0.0
  0
LINE
  8
0
  6
CONTINUOUS
 62
     2
 10
208.5
 20
76.0
 30
0.0
 11
207.852952387
 21
73.585185434
 31
0.0
  0
LINE
  8
0
  6
CONTINUOUS
 62
     2
 10
208.5
 20
76.0
 30
0.0
 11
209.147047613
 21
73.585185434
 31
0.0
  0
LINE
  8
0
  6
CONTINUOUS
 62
     2
 10
208.5
 20
76.0
 30
0.0
 11
208.5
 21
56.0
 31
0.0
  0
LINE
  8
0
  6
CONTINUOUS
 62
     2
 10
208.5
 20
56.0
 30
0.0
 11
209.147047613
 21
58.414814566
 31
0.0
  0
LINE
  8
0
  6
CONTINUOUS
 62
     2
 10
208.5
 20
56.0
 30
0.0
 11
207.852952387
 21
58.414814566
 31
0.0
  0
LINE
  8
0
  6
CONTINUOUS
 62
     2
 10
204.5
 20
56.0
 30
0.0
 11
210.5
 21
56.0
 31
0.0
  0
TEXT
  8
0
  6
CONTINUOUS
 62
     2
 10
207.5
 20
61.62
 30
0.3
 40
3.0
  1
４０
 50
90.0
 41
0.6
 51
0.0
  7
KANJI0
  0
TEXT
  8
0
  6
CONTINUOUS
 62
     2
 10
207.5
 20
65.97
 30
0.18
 40
1.8
  1
±０．５
 50
90.0
 41
0.6
 51
0.0
  7
KANJI1
  0
LINE
  8
0
  6
CONTINUOUS
 62
     2
 10
204.5
 20
56.0
 30
0.0
 11
210.5
 21
56.0
 31
0.0
  0
LINE
  8
0
  6
CONTINUOUS
 62
     2
 10
208.5
 20
56.0
 30
0.0
 11
207.852952387
 21
53.585185434
 31
0.0
  0
LINE
  8
0
  6
CONTINUOUS
 62
     2
 10
208.5
 20
56.0
 30
0.0
 11
209.147047613
 21
53.585185434
 31
0.0
  0
LINE
  8
0
  6
CONTINUOUS
 62
     2
 10
208.5
 20
56.0
 30
0.0
 11
208.5
 21
36.0
 31
0.0
  0
LINE
  8
0
  6
CONTINUOUS
 62
     2
 10
208.5
 20
36.0
 30
0.0
 11
209.147047613
 21
38.414814566
 31
0.0
  0
LINE
  8
0
  6
CONTINUOUS
 62
     2
 10
208.5
 20
36.0
 30
0.0
 11
207.852952387
 21
38.414814566
 31
0.0
  0
LINE
  8
0
  6
CONTINUOUS
 62
     2
 10
204.5
 20
36.0
 30
0.0
 11
210.5
 21
36.0
 31
0.0
  0
TEXT
  8
0
  6
CONTINUOUS
 62
     2
 10
207.5
 20
41.62
 30
0.3
 40
3.0
  1
４０
 50
90.0
 41
0.6
 51
0.0
  7
KANJI0
  0
TEXT
  8
0
  6
CONTINUOUS
 62
     2
 10
207.5
 20
45.97
 30
0.18
 40
1.8
  1
±０．５
 50
90.0
 41
0.6
 51
0.0
  7
KANJI1
  0
CIRCLE
  8
0
  6
CONTINUOUS
 62
     1
 10
181.5
 20
56.0
 30
0.0
 40
21.5
  0
LINE
  8
0
  6
CONTINUOUS
 62
     2
 10
196.702795796
 20
71.202795796
 30
0.0
 11
194.537732286
 21
69.952795796
 31
0.0
  0
LINE
  8
0
  6
CONTINUOUS
 62
     2
 10
196.702795796
 20
71.202795796
 30
0.0
 11
195.452795796
 21
69.037732286
 31
0.0
  0
LINE
  8
0
  6
CONTINUOUS
 62
     2
 10
196.702795796
 20
71.202795796
 30
0.0
 11
166.297204204
 21
40.797204204
 31
0.0
  0
LINE
  8
0
  6
CONTINUOUS
 62
     2
 10
166.297204204
 20
40.797204204
 30
0.0
 11
168.462267714
 21
42.047204204
 31
0.0
  0
LINE
  8
0
  6
CONTINUOUS
 62
     2
 10
166.297204204
 20
40.797204204
 30
0.0
 11
167.547204204
 21
42.962267714
 31
0.0
  0
TEXT
  8
0
  6
CONTINUOUS
 62
     2
 10
170.985322164
 20
46.899535726
 30
0.3
 40
3.0
  1
８６
 50
45.0
 41
0.6
 51
0.0
  7
KANJI0
  0
TEXT
  8
0
  6
CONTINUOUS
 62
     2
 10
174.061236662
 20
49.975450224
 30
0.18
 40
1.8
  1
－０
 50
45.0
 41
0.6
 51
0.0
  7
KANJI1
  0
TEXT
  8
0
  6
CONTINUOUS
 62
     2
 10
172.788444456
 20
51.24824243
 30
0.18
 40
1.8
  1
＋１
 50
45.0
 41
0.6
 51
0.0
  7
KANJI1
  0
TEXT
  8
0
  6
CONTINUOUS
 62
     1
 10
170.5
 20
26.2
 30
0.4
 40
4.0
  1
パネルカット
 50
0.0
 41
0.9
 51
0.0
  7
KANJI2
  0
LINE
  8
0
  6
CONTINUOUS
 62
     1
 10
169.5
 20
25.2
 30
0.0
 11
194.5
 21
25.2
 31
0.0
  0
CIRCLE
  8
0
  6
CONTINUOUS
 62
     2
 10
201.5
 20
76.0
 30
0.0
 40
1.125
  0
LINE
  8
0
  6
CONTINUOUS
 62
     2
 10
202.0625
 20
76.974278579
 30
0.0
 11
203.830266953
 21
78.742045532
 31
0.0
  0
LINE
  8
0
  6
CONTINUOUS
 62
     2
 10
202.0625
 20
76.974278579
 30
0.0
 11
202.709547613
 21
79.389093145
 31
0.0
  0
LINE
  8
0
  6
CONTINUOUS
 62
     2
 10
205.5625
 20
83.036456406
 30
0.0
 11
198.4375
 21
70.695594402
 31
0.0
  0
LINE
  8
0
  6
CONTINUOUS
 62
     2
 10
200.9375
 20
75.025721421
 30
0.0
 11
199.169733047
 21
73.257954468
 31
0.0
  0
LINE
  8
0
  6
CONTINUOUS
 62
     2
 10
200.9375
 20
75.025721421
 30
0.0
 11
200.290452387
 21
72.610906855
 31
0.0
  0
LINE
  8
0
  6
CONTINUOUS
 62
     2
 10
205.5625
 20
83.036456406
 30
0.0
 11
219.9625
 21
83.036456406
 31
0.0
  0
TEXT
  8
0
  6
CONTINUOUS
 62
     2
 10
205.5625
 20
84.036456406
 30
0.3
 40
3.0
  1
４－φ４．５穴
 50
0.0
 41
0.6
 51
0.0
  7
KANJI0
  0
LINE
  8
0
  6
CONTINUOUS
 62
     1
 10
156.5
 20
106.5
 30
0.0
 11
206.5
 21
106.5
 31
0.0
  0
LINE
  8
0
  6
CONTINUOUS
 62
     1
 10
206.5
 20
107.214642893
 30
0.0
 11
156.5
 21
107.214642893
 31
0.0
  0
LINE
  8
0
  6
CONTINUOUS
 62
     2
 10
162.25
 20
106.5
 30
0.0
 11
162.25
 21
104.0
 31
0.0
  0
LINE
  8
0
  6
CONTINUOUS
 62
     2
 10
162.25
 20
104.0
 30
0.0
 11
200.75
 21
104.0
 31
0.0
  0
LINE
  8
0
  6
CONTINUOUS
 62
     2
 10
200.75
 20
104.0
 30
0.0
 11
200.75
 21
106.5
 31
0.0
  0
LINE
  8
0
  6
LTYPE2
 62
     2
 10
181.5
 20
162.5
 30
0.0
 11
181.5
 21
101.1
 31
0.0
  0
LINE
  8
0
  6
CONTINUOUS
 62
     2
 10
220.0
 20
106.5
 30
0.0
 11
219.352952387
 21
108.914814566
 31
0.0
  0
LINE
  8
0
  6
CONTINUOUS
 62
     2
 10
220.0
 20
106.5
 30
0.0
 11
220.647047613
 21
108.914814566
 31
0.0
  0
LINE
  8
0
  6
CONTINUOUS
 62
     2
 10
220.0
 20
106.5
 30
0.0
 11
219.352952387
 21
108.914814566
 31
0.0
  0
LINE
  8
0
  6
CONTINUOUS
 62
     2
 10
220.0
 20
106.5
 30
0.0
 11
220.647047613
 21
108.914814566
 31
0.0
  0
LINE
  8
0
  6
CONTINUOUS
 62
     2
 10
220.0
 20
102.5
 30
0.0
 11
220.647047613
 21
100.085185434
 31
0.0
  0
LINE
  8
0
  6
CONTINUOUS
 62
     2
 10
220.0
 20
102.5
 30
0.0
 11
219.352952387
 21
100.085185434
 31
0.0
  0
LINE
  8
0
  6
CONTINUOUS
 62
     2
 10
220.0
 20
102.5
 30
0.0
 11
220.647047613
 21
100.085185434
 31
0.0
  0
LINE
  8
0
  6
CONTINUOUS
 62
     2
 10
220.0
 20
102.5
 30
0.0
 11
219.352952387
 21
100.085185434
 31
0.0
  0
LINE
  8
0
  6
CONTINUOUS
 62
     2
 10
220.0
 20
102.5
 30
0.0
 11
219.352952387
 21
100.085185434
 31
0.0
  0
LINE
  8
0
  6
CONTINUOUS
 62
     2
 10
220.0
 20
102.5
 30
0.0
 11
220.647047613
 21
100.085185434
 31
0.0
  0
LINE
  8
0
  6
CONTINUOUS
 62
     2
 10
220.0
 20
102.5
 30
0.0
 11
219.352952387
 21
100.085185434
 31
0.0
  0
LINE
  8
0
  6
CONTINUOUS
 62
     2
 10
220.0
 20
102.5
 30
0.0
 11
220.647047613
 21
100.085185434
 31
0.0
  0
LINE
  8
0
  6
CONTINUOUS
 62
     2
 10
220.0
 20
102.5
 30
0.0
 11
220.0
 21
98.5
 31
0.0
  0
ARC
  8
0
  6
CONTINUOUS
 62
     2
 10
162.5
 20
130.0
 30
0.0
 40
3.0
 50
275.485400045
 51
0.0
  0
ARC
  8
0
  6
CONTINUOUS
 62
     2
 10
181.5
 20
119.5
 30
0.0
 40
15.5
 50
47.896551129
 51
132.103448871
  0
ARC
  8
0
  6
CONTINUOUS
 62
     2
 10
200.5
 20
130.0
 30
0.0
 40
3.0
 50
180.0
 51
264.514599955
  0
LINE
  8
0
  6
CONTINUOUS
 62
     2
 10
165.5
 20
130.0
 30
0.0
 11
165.5
 21
131.0
 31
0.0
  0
LINE
  8
0
  6
CONTINUOUS
 62
     2
 10
171.107695155
 20
131.0
 30
0.0
 11
165.5
 21
131.0
 31
0.0
  0
LINE
  8
0
  6
CONTINUOUS
 62
     2
 10
191.892304845
 20
131.0
 30
0.0
 11
197.5
 21
131.0
 31
0.0
  0
LINE
  8
0
  6
CONTINUOUS
 62
     2
 10
197.5
 20
130.0
 30
0.0
 11
197.5
 21
131.0
 31
0.0
  0
LINE
  8
0
  6
CONTINUOUS
 62
     2
 10
162.655836447
 20
128.0
 30
0.0
 11
161.650503785
 21
128.0
 31
0.0
  0
LINE
  8
0
  6
CONTINUOUS
 62
     2
 10
161.650503785
 20
132.0
 30
0.0
 11
162.655836447
 21
132.0
 31
0.0
  0
LINE
  8
0
  6
CONTINUOUS
 62
     2
 10
200.344163553
 20
128.0
 30
0.0
 11
201.349496215
 21
128.0
 31
0.0
  0
LINE
  8
0
  6
CONTINUOUS
 62
     2
 10
201.349496215
 20
132.0
 30
0.0
 11
200.344163553
 21
132.0
 31
0.0
  0
ARC
  8
0
  6
CONTINUOUS
 62
     2
 10
181.5
 20
130.0
 30
0.0
 40
18.95
 50
6.058330842
 51
173.941669158
  0
ARC
  8
0
  6
CONTINUOUS
 62
     2
 10
181.5
 20
130.0
 30
0.0
 40
19.95
 50
5.753602847
 51
174.246397153
  0
LINE
  8
0
  6
CONTINUOUS
 62
     2
 10
161.716568916
 20
137.47919478
 30
0.0
 11
161.716568916
 21
137.47919478
 31
0.0
  0
LINE
  8
0
  6
CONTINUOUS
 62
     2
 10
161.716568916
 20
137.47919478
 30
0.0
 11
161.716568916
 21
137.47919478
 31
0.0
  0
LINE
  8
0
  6
CONTINUOUS
 62
     2
 10
162.216568916
 20
138.77919478
 30
0.0
 11
162.251016597
 21
138.763511736
 31
0.0
  0
LINE
  8
0
  6
CONTINUOUS
 62
     2
 10
161.716568916
 20
137.47919478
 30
0.0
 11
161.716568916
 21
137.47919478
 31
0.0
  0
LINE
  8
0
  6
CONTINUOUS
 62
     2
 10
161.716568916
 20
137.47919478
 30
0.0
 11
161.716568916
 21
137.47919478
 31
0.0
  0
LINE
  8
0
  6
CONTINUOUS
 62
     2
 10
161.71666786
 20
137.479456494
 30
0.0
 11
162.859290488
 21
137.108195896
 31
0.0
  0
LINE
  8
0
  6
CONTINUOUS
 62
     2
 10
162.2412565
 20
135.206082864
 30
0.0
 11
161.098633871
 21
135.577343461
 31
0.0
  0
LINE
  8
0
  6
CONTINUOUS
 62
     2
 10
164.544490958
 20
142.642516092
 30
0.0
 11
164.544490958
 21
142.642516092
 31
0.0
  0
LINE
  8
0
  6
CONTINUOUS
 62
     2
 10
164.544490958
 20
142.642516092
 30
0.0
 11
164.544490958
 21
142.642516092
 31
0.0
  0
LINE
  8
0
  6
CONTINUOUS
 62
     2
 10
164.544490958
 20
142.642516092
 30
0.0
 11
164.544490958
 21
142.642516092
 31
0.0
  0
LINE
  8
0
  6
CONTINUOUS
 62
     2
 10
164.544490958
 20
142.642516092
 30
0.0
 11
164.544490958
 21
142.642516092
 31
0.0
  0
LINE
  8
0
  6
CONTINUOUS
 62
     2
 10
164.544658207
 20
142.642740394
 30
0.0
 11
165.540684283
 21
141.970912323
 31
0.0
  0
LINE
  8
0
  6
CONTINUOUS
 62
     2
 10
164.422298476
 20
140.312837178
 30
0.0
 11
163.4262724
 21
140.984665249
 31
0.0
  0
LINE
  8
0
  6
CONTINUOUS
 62
     2
 10
168.686068329
 20
146.826338138
 30
0.0
 11
168.686068329
 21
146.826338138
 31
0.0
  0
LINE
  8
0
  6
CONTINUOUS
 62
     2
 10
168.686068329
 20
146.826338138
 30
0.0
 11
168.686068329
 21
146.826338138
 31
0.0
  0
LINE
  8
0
  6
CONTINUOUS
 62
     2
 10
168.686068329
 20
146.826338138
 30
0.0
 11
168.686068329
 21
146.826338138
 31
0.0
  0
LINE
  8
0
  6
CONTINUOUS
 62
     2
 10
168.686068329
 20
146.826338138
 30
0.0
 11
168.686068329
 21
146.826338138
 31
0.0
  0
LINE
  8
0
  6
CONTINUOUS
 62
     2
 10
168.686290925
 20
146.826507651
 30
0.0
 11
169.458551727
 21
145.906163066
 31
0.0
  0
LINE
  8
0
  6
CONTINUOUS
 62
     2
 10
167.926462841
 20
144.620587847
 30
0.0
 11
167.154202039
 21
145.540932432
 31
0.0
  0
LINE
  8
0
  6
CONTINUOUS
 62
     2
 10
173.820425663
 20
149.706512578
 30
0.0
 11
173.820425663
 21
149.706512578
 31
0.0
  0
LINE
  8
0
  6
CONTINUOUS
 62
     2
 10
173.820425663
 20
149.706512578
 30
0.0
 11
173.820425663
 21
149.706512578
 31
0.0
  0
LINE
  8
0
  6
CONTINUOUS
 62
     2
 10
173.820425663
 20
149.706512578
 30
0.0
 11
173.820425663
 21
149.706512578
 31
0.0
  0
LINE
  8
0
  6
CONTINUOUS
 62
     2
 10
173.820425663
 20
149.706512578
 30
0.0
 11
173.820425663
 21
149.706512578
 31
0.0
  0
LINE
  8
0
  6
CONTINUOUS
 62
     2
 10
173.82068636
 20
149.706614169
 30
0.0
 11
174.30934974
 21
148.609058247
 31
0.0
  0
LINE
  8
0
  6
CONTINUOUS
 62
     2
 10
172.482258825
 20
147.795584961
 30
0.0
 11
171.993595445
 21
148.893140883
 31
0.0
  0
LINE
  8
0
  6
CONTINUOUS
 62
     2
 10
194.313931671
 20
146.826338138
 30
0.0
 11
194.313931671
 21
146.826338138
 31
0.0
  0
LINE
  8
0
  6
CONTINUOUS
 62
     2
 10
194.313931671
 20
146.826338138
 30
0.0
 11
194.313931671
 21
146.826338138
 31
0.0
  0
LINE
  8
0
  6
CONTINUOUS
 62
     2
 10
194.313931671
 20
146.826338138
 30
0.0
 11
194.313931671
 21
146.826338138
 31
0.0
  0
LINE
  8
0
  6
CONTINUOUS
 62
     2
 10
194.313931671
 20
146.826338138
 30
0.0
 11
194.313931671
 21
146.826338138
 31
0.0
  0
LINE
  8
0
  6
CONTINUOUS
 62
     2
 10
194.313709075
 20
146.826507651
 30
0.0
 11
193.541448273
 21
145.906163066
 31
0.0
  0
LINE
  8
0
  6
CONTINUOUS
 62
     2
 10
195.073537159
 20
144.620587847
 30
0.0
 11
195.845797961
 21
145.540932432
 31
0.0
  0
LINE
  8
0
  6
CONTINUOUS
 62
     2
 10
189.179574337
 20
149.706512578
 30
0.0
 11
189.179574337
 21
149.706512578
 31
0.0
  0
LINE
  8
0
  6
CONTINUOUS
 62
     2
 10
189.179574337
 20
149.706512578
 30
0.0
 11
189.179574337
 21
149.706512578
 31
0.0
  0
LINE
  8
0
  6
CONTINUOUS
 62
     2
 10
189.179574337
 20
149.706512578
 30
0.0
 11
189.179574337
 21
149.706512578
 31
0.0
  0
LINE
  8
0
  6
CONTINUOUS
 62
     2
 10
189.179574337
 20
149.706512578
 30
0.0
 11
189.179574337
 21
149.706512578
 31
0.0
  0
LINE
  8
0
  6
CONTINUOUS
 62
     2
 10
189.17931364
 20
149.706614169
 30
0.0
 11
188.69065026
 21
148.609058247
 31
0.0
  0
LINE
  8
0
  6
CONTINUOUS
 62
     2
 10
190.517741175
 20
147.795584961
 30
0.0
 11
191.006404555
 21
148.893140883
 31
0.0
  0
LINE
  8
0
  6
CONTINUOUS
 62
     2
 10
201.283431084
 20
137.47919478
 30
0.0
 11
201.283431084
 21
137.47919478
 31
0.0
  0
LINE
  8
0
  6
CONTINUOUS
 62
     2
 10
201.283431084
 20
137.47919478
 30
0.0
 11
201.283431084
 21
137.47919478
 31
0.0
  0
LINE
  8
0
  6
CONTINUOUS
 62
     2
 10
200.783431084
 20
138.77919478
 30
0.0
 11
200.748983403
 21
138.763511736
 31
0.0
  0
LINE
  8
0
  6
CONTINUOUS
 62
     2
 10
201.283431084
 20
137.47919478
 30
0.0
 11
201.283431084
 21
137.47919478
 31
0.0
  0
LINE
  8
0
  6
CONTINUOUS
 62
     2
 10
201.283431084
 20
137.47919478
 30
0.0
 11
201.283431084
 21
137.47919478
 31
0.0
  0
LINE
  8
0
  6
CONTINUOUS
 62
     2
 10
201.28333214
 20
137.479456494
 30
0.0
 11
200.140709512
 21
137.108195896
 31
0.0
  0
LINE
  8
0
  6
CONTINUOUS
 62
     2
 10
200.7587435
 20
135.206082864
 30
0.0
 11
201.901366129
 21
135.577343461
 31
0.0
  0
LINE
  8
0
  6
CONTINUOUS
 62
     2
 10
198.455509042
 20
142.642516092
 30
0.0
 11
198.455509042
 21
142.642516092
 31
0.0
  0
LINE
  8
0
  6
CONTINUOUS
 62
     2
 10
198.455509042
 20
142.642516092
 30
0.0
 11
198.455509042
 21
142.642516092
 31
0.0
  0
LINE
  8
0
  6
CONTINUOUS
 62
     2
 10
198.455509042
 20
142.642516092
 30
0.0
 11
198.455509042
 21
142.642516092
 31
0.0
  0
LINE
  8
0
  6
CONTINUOUS
 62
     2
 10
198.455509042
 20
142.642516092
 30
0.0
 11
198.455509042
 21
142.642516092
 31
0.0
  0
LINE
  8
0
  6
CONTINUOUS
 62
     2
 10
198.455341793
 20
142.642740394
 30
0.0
 11
197.459315717
 21
141.970912323
 31
0.0
  0
LINE
  8
0
  6
CONTINUOUS
 62
     2
 10
198.577701524
 20
140.312837178
 30
0.0
 11
199.5737276
 21
140.984665249
 31
0.0
  0
CIRCLE
  8
0
  6
CONTINUOUS
 62
     2
 10
173.0
 20
140.5
 30
0.0
 40
2.5
  0
CIRCLE
  8
0
  6
CONTINUOUS
 62
     2
 10
173.0
 20
140.5
 30
0.0
 40
2.5
  0
CIRCLE
  8
0
  6
CONTINUOUS
 62
     2
 10
173.0
 20
140.5
 30
0.0
 40
1.6
  0
LINE
  8
0
  6
LTYPE2
 62
     2
 10
173.0
 20
144.5
 30
0.0
 11
173.0
 21
136.5
 31
0.0
  0
LINE
  8
0
  6
LTYPE2
 62
     2
 10
169.0
 20
140.5
 30
0.0
 11
177.0
 21
140.5
 31
0.0
  0
LINE
  8
0
  6
LTYPE2
 62
     2
 10
170.5
 20
130.0
 30
0.0
 11
170.5
 21
124.0
 31
0.0
  0
LINE
  8
0
  6
LTYPE2
 62
     2
 10
167.5
 20
127.0
 30
0.0
 11
173.5
 21
127.0
 31
0.0
  0
CIRCLE
  8
0
  6
CONTINUOUS
 62
     2
 10
190.0
 20
140.5
 30
0.0
 40
2.5
  0
CIRCLE
  8
0
  6
CONTINUOUS
 62
     2
 10
190.0
 20
140.5
 30
0.0
 40
2.5
  0
CIRCLE
  8
0
  6
CONTINUOUS
 62
     2
 10
190.0
 20
140.5
 30
0.0
 40
1.6
  0
LINE
  8
0
  6
LTYPE2
 62
     2
 10
190.0
 20
144.5
 30
0.0
 11
190.0
 21
136.5
 31
0.0
  0
LINE
  8
0
  6
LTYPE2
 62
     2
 10
194.0
 20
140.5
 30
0.0
 11
186.0
 21
140.5
 31
0.0
  0
ARC
  8
0
  6
CONTINUOUS
 62
     2
 10
181.5
 20
130.0
 30
0.0
 40
18.95
 50
311.105264939
 51
353.941669158
  0
ARC
  8
0
  6
CONTINUOUS
 62
     2
 10
181.5
 20
130.0
 30
0.0
 40
18.95
 50
186.058330842
 51
228.894735061
  0
ARC
  8
0
  6
CONTINUOUS
 62
     2
 10
181.5
 20
130.0
 30
0.0
 40
19.95
 50
310.542067227
 51
354.246397153
  0
ARC
  8
0
  6
CONTINUOUS
 62
     2
 10
181.5
 20
130.0
 30
0.0
 40
19.95
 50
185.753602847
 51
229.457932773
  0
ARC
  8
0
  6
CONTINUOUS
 62
     2
 10
181.5
 20
130.0
 30
0.0
 40
17.35
 50
227.855692011
 51
312.144307989
  0
LINE
  8
0
  6
CONTINUOUS
 62
     2
 10
193.141853529
 20
117.135718193
 30
0.0
 11
194.645574588
 21
114.531196919
 31
0.0
  0
ARC
  8
0
  6
CONTINUOUS
 62
     2
 10
181.5
 20
130.0
 30
0.0
 40
20.3
 50
310.358282744
 51
312.5
  0
ARC
  8
0
  6
CONTINUOUS
 62
     2
 10
181.5
 20
130.0
 30
0.0
 40
21.15
 50
312.5
 51
0.0
  0
LINE
  8
0
  6
CONTINUOUS
 62
     2
 10
195.214481215
 20
115.033270063
 30
0.0
 11
195.788732891
 21
114.406584326
 31
0.0
  0
LINE
  8
0
  6
CONTINUOUS
 62
     2
 10
169.858146471
 20
117.135718193
 30
0.0
 11
168.354425412
 21
114.531196919
 31
0.0
  0
ARC
  8
0
  6
CONTINUOUS
 62
     2
 10
181.5
 20
130.0
 30
0.0
 40
20.3
 50
227.5
 51
229.641717256
  0
LINE
  8
0
  6
CONTINUOUS
 62
     2
 10
167.785518785
 20
115.033270063
 30
0.0
 11
167.211267109
 21
114.406584326
 31
0.0
  0
ARC
  8
0
  6
CONTINUOUS
 62
     2
 10
181.5
 20
130.0
 30
0.0
 40
21.15
 50
0.0
 51
227.5
  0
LINE
  8
0
  6
CONTINUOUS
 62
     2
 10
181.338327244
 20
119.5
 30
0.0
 11
181.338327244
 21
119.002177017
 31
0.0
  0
LINE
  8
0
  6
CONTINUOUS
 62
     2
 10
181.338327244
 20
119.002177017
 30
0.0
 11
180.333745757
 21
118.422181625
 31
0.0
  0
LINE
  8
0
  6
CONTINUOUS
 62
     2
 10
180.333745757
 20
118.422181625
 30
0.0
 11
181.132436553
 21
117.961057279
 31
0.0
  0
LINE
  8
0
  6
CONTINUOUS
 62
     2
 10
181.132436553
 20
117.961057279
 30
0.0
 11
180.701309203
 21
117.712145787
 31
0.0
  0
LINE
  8
0
  6
CONTINUOUS
 62
     2
 10
179.902618407
 20
118.173270133
 30
0.0
 11
180.701309203
 21
117.712145787
 31
0.0
  0
LINE
  8
0
  6
CONTINUOUS
 62
     2
 10
181.338327244
 20
119.5
 30
0.0
 11
178.154134892
 21
117.661605688
 31
0.0
  0
LINE
  8
0
  6
CONTINUOUS
 62
     2
 10
179.902618407
 20
118.173270133
 30
0.0
 11
179.016389592
 21
117.661605688
 31
0.0
  0
LINE
  8
0
  6
CONTINUOUS
 62
     2
 10
178.154134892
 20
117.661605688
 30
0.0
 11
179.016389592
 21
117.661605688
 31
0.0
  0
LINE
  8
0
  6
CONTINUOUS
 62
     2
 10
181.661672756
 20
119.5
 30
0.0
 11
181.661672756
 21
119.002177017
 31
0.0
  0
LINE
  8
0
  6
CONTINUOUS
 62
     2
 10
181.661672756
 20
119.002177017
 30
0.0
 11
182.666254243
 21
118.422181625
 31
0.0
  0
LINE
  8
0
  6
CONTINUOUS
 62
     2
 10
182.666254243
 20
118.422181625
 30
0.0
 11
181.867563447
 21
117.961057279
 31
0.0
  0
LINE
  8
0
  6
CONTINUOUS
 62
     2
 10
181.867563447
 20
117.961057279
 30
0.0
 11
182.298690797
 21
117.712145787
 31
0.0
  0
LINE
  8
0
  6
CONTINUOUS
 62
     2
 10
183.097381593
 20
118.173270133
 30
0.0
 11
182.298690797
 21
117.712145787
 31
0.0
  0
LINE
  8
0
  6
CONTINUOUS
 62
     2
 10
181.661672756
 20
119.5
 30
0.0
 11
184.845865108
 21
117.661605688
 31
0.0
  0
LINE
  8
0
  6
CONTINUOUS
 62
     2
 10
183.097381593
 20
118.173270133
 30
0.0
 11
183.983610408
 21
117.661605688
 31
0.0
  0
LINE
  8
0
  6
CONTINUOUS
 62
     2
 10
184.845865108
 20
117.661605688
 30
0.0
 11
183.983610408
 21
117.661605688
 31
0.0
  0
LINE
  8
0
  6
CONTINUOUS
 62
     2
 10
181.338327244
 20
115.499865864
 30
0.0
 11
181.338327244
 21
115.997688848
 31
0.0
  0
LINE
  8
0
  6
CONTINUOUS
 62
     2
 10
181.338327244
 20
115.997688848
 30
0.0
 11
180.333745757
 21
116.577684239
 31
0.0
  0
LINE
  8
0
  6
CONTINUOUS
 62
     2
 10
180.333745757
 20
116.577684239
 30
0.0
 11
181.132436553
 21
117.038808586
 31
0.0
  0
LINE
  8
0
  6
CONTINUOUS
 62
     2
 10
181.132436553
 20
117.038808586
 30
0.0
 11
180.701309203
 21
117.287720077
 31
0.0
  0
LINE
  8
0
  6
CONTINUOUS
 62
     2
 10
179.902618407
 20
116.826595731
 30
0.0
 11
180.701309203
 21
117.287720077
 31
0.0
  0
LINE
  8
0
  6
CONTINUOUS
 62
     2
 10
181.338327244
 20
115.499865864
 30
0.0
 11
178.154134892
 21
117.338260176
 31
0.0
  0
LINE
  8
0
  6
CONTINUOUS
 62
     2
 10
179.902618407
 20
116.826595731
 30
0.0
 11
179.016389592
 21
117.338260176
 31
0.0
  0
LINE
  8
0
  6
CONTINUOUS
 62
     2
 10
178.154134892
 20
117.338260176
 30
0.0
 11
179.016389592
 21
117.338260176
 31
0.0
  0
LINE
  8
0
  6
CONTINUOUS
 62
     2
 10
181.661672756
 20
115.499865864
 30
0.0
 11
181.661672756
 21
115.997688848
 31
0.0
  0
LINE
  8
0
  6
CONTINUOUS
 62
     2
 10
181.661672756
 20
115.997688848
 30
0.0
 11
182.666254243
 21
116.577684239
 31
0.0
  0
LINE
  8
0
  6
CONTINUOUS
 62
     2
 10
182.666254243
 20
116.577684239
 30
0.0
 11
181.867563447
 21
117.038808586
 31
0.0
  0
LINE
  8
0
  6
CONTINUOUS
 62
     2
 10
181.867563447
 20
117.038808586
 30
0.0
 11
182.298690797
 21
117.287720077
 31
0.0
  0
LINE
  8
0
  6
CONTINUOUS
 62
     2
 10
183.097381593
 20
116.826595731
 30
0.0
 11
182.298690797
 21
117.287720077
 31
0.0
  0
LINE
  8
0
  6
CONTINUOUS
 62
     2
 10
181.661672756
 20
115.499865864
 30
0.0
 11
184.845865108
 21
117.338260176
 31
0.0
  0
LINE
  8
0
  6
CONTINUOUS
 62
     2
 10
183.097381593
 20
116.826595731
 30
0.0
 11
183.983610408
 21
117.338260176
 31
0.0
  0
LINE
  8
0
  6
CONTINUOUS
 62
     2
 10
184.845865108
 20
117.338260176
 30
0.0
 11
183.983610408
 21
117.338260176
 31
0.0
  0
ARC
  8
0
  6
CONTINUOUS
 62
     2
 10
181.5
 20
130.0
 30
0.0
 40
18.3
 50
228.494993937
 51
311.505006063
  0
LINE
  8
0
  6
CONTINUOUS
 62
     2
 10
23.276149067
 20
126.5
 30
0.0
 11
75.276149067
 21
126.5
 31
0.0
  0
LINE
  8
0
  6
CONTINUOUS
 62
     2
 10
75.276149067
 20
126.5
 30
0.0
 11
75.276149067
 21
154.0
 31
0.0
  0
ARC
  8
0
  6
CONTINUOUS
 62
     2
 10
74.276149067
 20
154.0
 30
0.0
 40
1.0
 50
0.0
 51
90.0
  0
LINE
  8
0
  6
CONTINUOUS
 62
     2
 10
23.276149067
 20
154.0
 30
0.0
 11
23.276149067
 21
126.5
 31
0.0
  0
LINE
  8
0
  6
CONTINUOUS
 62
     2
 10
74.276149067
 20
155.0
 30
0.0
 11
24.276149067
 21
155.0
 31
0.0
  0
ARC
  8
0
  6
CONTINUOUS
 62
     2
 10
24.276149067
 20
154.0
 30
0.0
 40
1.0
 50
90.0
 51
180.0
  0
LINE
  8
0
  6
LTYPE2
 62
     2
 10
26.776149067
 20
126.5
 30
0.0
 11
26.776149067
 21
120.5
 31
0.0
  0
LINE
  8
0
  6
LTYPE2
 62
     2
 10
23.776149067
 20
123.5
 30
0.0
 11
29.776149067
 21
123.5
 31
0.0
  0
LINE
  8
0
  6
CONTINUOUS
 62
     2
 10
27.126149067
 20
103.25
 30
0.0
 11
71.426149067
 21
103.25
 31
0.0
  0
LINE
  8
0
  6
CONTINUOUS
 62
     2
 10
71.426149067
 20
107.75
 30
0.0
 11
27.126149067
 21
107.75
 31
0.0
  0
LINE
  8
0
  6
CONTINUOUS
 62
     2
 10
27.126149067
 20
107.75
 30
0.0
 11
27.126149067
 21
107.214642893
 31
0.0
  0
LINE
  8
0
  6
CONTINUOUS
 62
     2
 10
27.126149067
 20
106.5
 30
0.0
 11
27.126149067
 21
103.25
 31
0.0
  0
LINE
  8
0
  6
CONTINUOUS
 62
     2
 10
27.126149067
 20
107.214642893
 30
0.0
 11
27.126149067
 21
106.5
 31
0.0
  0
LINE
  8
0
  6
CONTINUOUS
 62
     2
 10
71.426149067
 20
107.214642893
 30
0.0
 11
71.426149067
 21
107.75
 31
0.0
  0
LINE
  8
0
  6
CONTINUOUS
 62
     2
 10
71.426149067
 20
103.25
 30
0.0
 11
71.426149067
 21
106.5
 31
0.0
  0
LINE
  8
0
  6
CONTINUOUS
 62
     2
 10
71.426149067
 20
106.5
 30
0.0
 11
71.426149067
 21
107.214642893
 31
0.0
  0
LINE
  8
0
  6
CONTINUOUS
 62
     2
 10
29.696362296
 20
138.811086194
 30
0.0
 11
29.961527339
 21
139.076251237
 31
0.0
  0
LINE
  8
0
  6
CONTINUOUS
 62
     2
 10
33.32028455
 20
135.717494027
 30
0.0
 11
33.436957169
 21
135.480613255
 31
0.0
  0
LINE
  8
0
  6
CONTINUOUS
 62
     2
 10
29.961527339
 20
139.076251237
 30
0.0
 11
33.32028455
 21
135.717494027
 31
0.0
  0
LINE
  8
0
  6
CONTINUOUS
 62
     2
 10
33.044720878
 20
135.462727613
 30
0.0
 11
33.295535813
 21
135.339191899
 31
0.0
  0
LINE
  8
0
  6
CONTINUOUS
 62
     2
 10
29.696362296
 20
138.811086194
 30
0.0
 11
33.044720878
 21
135.462727613
 31
0.0
  0
LINE
  8
0
  6
CONTINUOUS
 62
     2
 10
42.134727711
 20
126.5
 30
0.0
 11
33.295535813
 21
135.339191899
 31
0.0
  0
LINE
  8
0
  6
CONTINUOUS
 62
     2
 10
42.417570424
 20
126.5
 30
0.0
 11
33.436957169
 21
135.480613255
 31
0.0
  0
LINE
  8
0
  6
CONTINUOUS
 62
     1
 10
22.526149067
 20
154.035357107
 30
0.0
 11
22.526149067
 21
108.964642893
 31
0.0
  0
LINE
  8
0
  6
CONTINUOUS
 62
     1
 10
21.776149067
 20
154.0
 30
0.0
 11
21.776149067
 21
109.0
 31
0.0
  0
ARC
  8
0
  6
CONTINUOUS
 62
     1
 10
24.276149067
 20
108.964642893
 30
0.0
 40
1.75
 50
180.0
 51
270.0
  0
ARC
  8
0
  6
CONTINUOUS
 62
     1
 10
24.276149067
 20
109.0
 30
0.0
 40
2.5
 50
180.0
 51
270.0
  0
ARC
  8
0
  6
CONTINUOUS
 62
     1
 10
74.276149067
 20
108.964642893
 30
0.0
 40
1.75
 50
270.0
 51
0.0
  0
ARC
  8
0
  6
CONTINUOUS
 62
     1
 10
74.276149067
 20
109.0
 30
0.0
 40
2.5
 50
270.0
 51
0.0
  0
ARC
  8
0
  6
CONTINUOUS
 62
     1
 10
74.276149067
 20
154.035357107
 30
0.0
 40
1.75
 50
0.0
 51
90.0
  0
ARC
  8
0
  6
CONTINUOUS
 62
     1
 10
74.276149067
 20
154.0
 30
0.0
 40
2.5
 50
0.0
 51
90.0
  0
LINE
  8
0
  6
CONTINUOUS
 62
     1
 10
76.026149067
 20
108.964642893
 30
0.0
 11
76.026149067
 21
154.035357107
 31
0.0
  0
LINE
  8
0
  6
CONTINUOUS
 62
     1
 10
76.776149067
 20
109.0
 30
0.0
 11
76.776149067
 21
154.0
 31
0.0
  0
ARC
  8
0
  6
CONTINUOUS
 62
     1
 10
24.276149067
 20
154.035357107
 30
0.0
 40
1.75
 50
90.0
 51
180.0
  0
LINE
  8
0
  6
CONTINUOUS
 62
     1
 10
74.276149067
 20
155.785357107
 30
0.0
 11
24.276149067
 21
155.785357107
 31
0.0
  0
LINE
  8
0
  6
CONTINUOUS
 62
     1
 10
74.276149067
 20
156.5
 30
0.0
 11
24.276149067
 21
156.5
 31
0.0
  0
ARC
  8
0
  6
CONTINUOUS
 62
     1
 10
24.276149067
 20
154.0
 30
0.0
 40
2.5
 50
90.0
 51
180.0
  0
ARC
  8
0
  6
CONTINUOUS
 62
     1
 10
25.776149067
 20
103.5
 30
0.0
 40
0.5
 50
300.0
 51
60.0
  0
LINE
  8
0
  6
CONTINUOUS
 62
     1
 10
26.026149067
 20
103.933012702
 30
0.0
 11
26.026149067
 21
104.066987298
 31
0.0
  0
ARC
  8
0
  6
CONTINUOUS
 62
     1
 10
25.776149067
 20
104.5
 30
0.0
 40
0.5
 50
300.0
 51
60.0
  0
LINE
  8
0
  6
CONTINUOUS
 62
     1
 10
26.026149067
 20
104.933012702
 30
0.0
 11
26.026149067
 21
105.066987298
 31
0.0
  0
ARC
  8
0
  6
CONTINUOUS
 62
     1
 10
25.776149067
 20
105.5
 30
0.0
 40
0.5
 50
300.0
 51
60.0
  0
LINE
  8
0
  6
CONTINUOUS
 62
     1
 10
26.026149067
 20
105.933012702
 30
0.0
 11
26.026149067
 21
106.066987298
 31
0.0
  0
LINE
  8
0
  6
CONTINUOUS
 62
     1
 10
26.026149067
 20
106.933012702
 30
0.0
 11
26.026149067
 21
107.066987298
 31
0.0
  0
LINE
  8
0
  6
CONTINUOUS
 62
     1
 10
26.026149067
 20
107.933012702
 30
0.0
 11
26.026149067
 21
108.25
 31
0.0
  0
ARC
  8
0
  6
CONTINUOUS
 62
     1
 10
26.276149067
 20
108.25
 30
0.0
 40
0.25
 50
90.0
 51
180.0
  0
LINE
  8
0
  6
CONTINUOUS
 62
     1
 10
26.026149067
 20
102.75
 30
0.0
 11
26.026149067
 21
103.066987298
 31
0.0
  0
ARC
  8
0
  6
CONTINUOUS
 62
     1
 10
26.276149067
 20
102.75
 30
0.0
 40
0.25
 50
180.0
 51
270.0
  0
ARC
  8
0
  6
CONTINUOUS
 62
     1
 10
25.776149067
 20
107.5
 30
0.0
 40
0.5
 50
325.199954885
 51
60.0
  0
ARC
  8
0
  6
CONTINUOUS
 62
     1
 10
25.776149067
 20
107.5
 30
0.0
 40
0.5
 50
300.0
 51
325.199954885
  0
ARC
  8
0
  6
CONTINUOUS
 62
     1
 10
25.776149067
 20
106.5
 30
0.0
 40
0.5
 50
0.0
 51
60.0
  0
ARC
  8
0
  6
CONTINUOUS
 62
     1
 10
25.776149067
 20
106.5
 30
0.0
 40
0.5
 50
300.0
 51
0.0
  0
LINE
  8
0
  6
CONTINUOUS
 62
     1
 10
24.276149067
 20
107.214642893
 30
0.0
 11
26.186723447
 21
107.214642893
 31
0.0
  0
LINE
  8
0
  6
CONTINUOUS
 62
     1
 10
24.276149067
 20
106.5
 30
0.0
 11
26.276149067
 21
106.5
 31
0.0
  0
ARC
  8
0
  6
CONTINUOUS
 62
     1
 10
72.776149067
 20
103.5
 30
0.0
 40
0.5
 50
120.0
 51
240.0
  0
LINE
  8
0
  6
CONTINUOUS
 62
     1
 10
72.526149067
 20
103.933012702
 30
0.0
 11
72.526149067
 21
104.066987298
 31
0.0
  0
ARC
  8
0
  6
CONTINUOUS
 62
     1
 10
72.776149067
 20
104.5
 30
0.0
 40
0.5
 50
120.0
 51
240.0
  0
LINE
  8
0
  6
CONTINUOUS
 62
     1
 10
72.526149067
 20
104.933012702
 30
0.0
 11
72.526149067
 21
105.066987298
 31
0.0
  0
ARC
  8
0
  6
CONTINUOUS
 62
     1
 10
72.776149067
 20
105.5
 30
0.0
 40
0.5
 50
120.0
 51
240.0
  0
LINE
  8
0
  6
CONTINUOUS
 62
     1
 10
72.526149067
 20
105.933012702
 30
0.0
 11
72.526149067
 21
106.066987298
 31
0.0
  0
LINE
  8
0
  6
CONTINUOUS
 62
     1
 10
72.526149067
 20
106.933012702
 30
0.0
 11
72.526149067
 21
107.066987298
 31
0.0
  0
LINE
  8
0
  6
CONTINUOUS
 62
     1
 10
72.526149067
 20
107.933012702
 30
0.0
 11
72.526149067
 21
108.25
 31
0.0
  0
ARC
  8
0
  6
CONTINUOUS
 62
     1
 10
72.276149067
 20
108.25
 30
0.0
 40
0.25
 50
0.0
 51
90.0
  0
LINE
  8
0
  6
CONTINUOUS
 62
     1
 10
72.526149067
 20
102.75
 30
0.0
 11
72.526149067
 21
103.066987298
 31
0.0
  0
ARC
  8
0
  6
CONTINUOUS
 62
     1
 10
72.276149067
 20
102.75
 30
0.0
 40
0.25
 50
270.0
 51
0.0
  0
ARC
  8
0
  6
CONTINUOUS
 62
     1
 10
72.776149067
 20
107.5
 30
0.0
 40
0.5
 50
120.0
 51
214.800045116
  0
ARC
  8
0
  6
CONTINUOUS
 62
     1
 10
72.776149067
 20
107.5
 30
0.0
 40
0.5
 50
214.800045116
 51
240.0
  0
ARC
  8
0
  6
CONTINUOUS
 62
     1
 10
72.776149067
 20
106.5
 30
0.0
 40
0.5
 50
120.0
 51
180.0
  0
ARC
  8
0
  6
CONTINUOUS
 62
     1
 10
72.776149067
 20
106.5
 30
0.0
 40
0.5
 50
180.0
 51
240.0
  0
LINE
  8
0
  6
CONTINUOUS
 62
     1
 10
72.276149067
 20
106.5
 30
0.0
 11
74.276149067
 21
106.5
 31
0.0
  0
LINE
  8
0
  6
CONTINUOUS
 62
     1
 10
72.365574688
 20
107.214642893
 30
0.0
 11
74.276149067
 21
107.214642893
 31
0.0
  0
LINE
  8
0
  6
CONTINUOUS
 62
     1
 10
72.276149067
 20
108.5
 30
0.0
 11
26.276149067
 21
108.5
 31
0.0
  0
LINE
  8
0
  6
CONTINUOUS
 62
     1
 10
26.276149067
 20
102.5
 30
0.0
 11
72.276149067
 21
102.5
 31
0.0
  0
LINE
  8
0
  6
LTYPE2
 62
     2
 10
81.776149067
 20
131.5
 30
0.0
 11
16.776149067
 21
131.5
 31
0.0
  0
CIRCLE
  8
0
  6
CONTINUOUS
 62
     2
 10
26.776149067
 20
123.5
 30
0.0
 40
1.575
  0
LINE
  8
0
  6
CONTINUOUS
 62
     2
 10
26.576149067
 20
122.6
 30
0.0
 11
26.976149067
 21
122.6
 31
0.0
  0
LINE
  8
0
  6
CONTINUOUS
 62
     2
 10
26.976149067
 20
124.4
 30
0.0
 11
26.576149067
 21
124.4
 31
0.0
  0
LINE
  8
0
  6
CONTINUOUS
 62
     2
 10
27.676149067
 20
123.3
 30
0.0
 11
27.676149067
 21
123.7
 31
0.0
  0
LINE
  8
0
  6
CONTINUOUS
 62
     2
 10
25.876149067
 20
123.7
 30
0.0
 11
25.876149067
 21
123.3
 31
0.0
  0
CIRCLE
  8
0
  6
CONTINUOUS
 62
     2
 10
26.776149067
 20
123.5
 30
0.0
 40
1.518
  0
LINE
  8
0
  6
CONTINUOUS
 62
     2
 10
26.576149067
 20
124.4
 30
0.0
 11
26.576149067
 21
123.8
 31
0.0
  0
LINE
  8
0
  6
CONTINUOUS
 62
     2
 10
26.476149067
 20
123.7
 30
0.0
 11
25.876149067
 21
123.7
 31
0.0
  0
ARC
  8
0
  6
CONTINUOUS
 62
     2
 10
26.476149067
 20
123.8
 30
0.0
 40
0.1
 50
270.0
 51
0.0
  0
LINE
  8
0
  6
CONTINUOUS
 62
     2
 10
26.576149067
 20
123.2
 30
0.0
 11
26.576149067
 21
122.6
 31
0.0
  0
LINE
  8
0
  6
CONTINUOUS
 62
     2
 10
25.876149067
 20
123.3
 30
0.0
 11
26.476149067
 21
123.3
 31
0.0
  0
ARC
  8
0
  6
CONTINUOUS
 62
     2
 10
26.476149067
 20
123.2
 30
0.0
 40
0.1
 50
0.0
 51
90.0
  0
LINE
  8
0
  6
CONTINUOUS
 62
     2
 10
26.976149067
 20
122.6
 30
0.0
 11
26.976149067
 21
123.2
 31
0.0
  0
LINE
  8
0
  6
CONTINUOUS
 62
     2
 10
27.076149067
 20
123.3
 30
0.0
 11
27.676149067
 21
123.3
 31
0.0
  0
ARC
  8
0
  6
CONTINUOUS
 62
     2
 10
27.076149067
 20
123.2
 30
0.0
 40
0.1
 50
90.0
 51
180.0
  0
LINE
  8
0
  6
CONTINUOUS
 62
     2
 10
26.976149067
 20
123.8
 30
0.0
 11
26.976149067
 21
124.4
 31
0.0
  0
LINE
  8
0
  6
CONTINUOUS
 62
     2
 10
27.676149067
 20
123.7
 30
0.0
 11
27.076149067
 21
123.7
 31
0.0
  0
ARC
  8
0
  6
CONTINUOUS
 62
     2
 10
27.076149067
 20
123.8
 30
0.0
 40
0.1
 50
180.0
 51
270.0
  0
LINE
  8
0
  6
LTYPE2
 62
     2
 10
71.776149067
 20
126.5
 30
0.0
 11
71.776149067
 21
120.5
 31
0.0
  0
LINE
  8
0
  6
LTYPE2
 62
     2
 10
74.776149067
 20
123.5
 30
0.0
 11
68.776149067
 21
123.5
 31
0.0
  0
CIRCLE
  8
0
  6
CONTINUOUS
 62
     2
 10
71.776149067
 20
123.5
 30
0.0
 40
1.575
  0
LINE
  8
0
  6
CONTINUOUS
 62
     2
 10
71.976149067
 20
122.6
 30
0.0
 11
71.576149067
 21
122.6
 31
0.0
  0
LINE
  8
0
  6
CONTINUOUS
 62
     2
 10
71.576149067
 20
124.4
 30
0.0
 11
71.976149067
 21
124.4
 31
0.0
  0
LINE
  8
0
  6
CONTINUOUS
 62
     2
 10
70.876149067
 20
123.3
 30
0.0
 11
70.876149067
 21
123.7
 31
0.0
  0
LINE
  8
0
  6
CONTINUOUS
 62
     2
 10
72.676149067
 20
123.7
 30
0.0
 11
72.676149067
 21
123.3
 31
0.0
  0
CIRCLE
  8
0
  6
CONTINUOUS
 62
     2
 10
71.776149067
 20
123.5
 30
0.0
 40
1.518
  0
LINE
  8
0
  6
CONTINUOUS
 62
     2
 10
71.976149067
 20
124.4
 30
0.0
 11
71.976149067
 21
123.8
 31
0.0
  0
LINE
  8
0
  6
CONTINUOUS
 62
     2
 10
72.076149067
 20
123.7
 30
0.0
 11
72.676149067
 21
123.7
 31
0.0
  0
ARC
  8
0
  6
CONTINUOUS
 62
     2
 10
72.076149067
 20
123.8
 30
0.0
 40
0.1
 50
180.0
 51
270.0
  0
LINE
  8
0
  6
CONTINUOUS
 62
     2
 10
71.976149067
 20
123.2
 30
0.0
 11
71.976149067
 21
122.6
 31
0.0
  0
LINE
  8
0
  6
CONTINUOUS
 62
     2
 10
72.676149067
 20
123.3
 30
0.0
 11
72.076149067
 21
123.3
 31
0.0
  0
ARC
  8
0
  6
CONTINUOUS
 62
     2
 10
72.076149067
 20
123.2
 30
0.0
 40
0.1
 50
90.0
 51
180.0
  0
LINE
  8
0
  6
CONTINUOUS
 62
     2
 10
71.576149067
 20
122.6
 30
0.0
 11
71.576149067
 21
123.2
 31
0.0
  0
LINE
  8
0
  6
CONTINUOUS
 62
     2
 10
71.476149067
 20
123.3
 30
0.0
 11
70.876149067
 21
123.3
 31
0.0
  0
ARC
  8
0
  6
CONTINUOUS
 62
     2
 10
71.476149067
 20
123.2
 30
0.0
 40
0.1
 50
0.0
 51
90.0
  0
LINE
  8
0
  6
CONTINUOUS
 62
     2
 10
71.576149067
 20
123.8
 30
0.0
 11
71.576149067
 21
124.4
 31
0.0
  0
LINE
  8
0
  6
CONTINUOUS
 62
     2
 10
70.876149067
 20
123.7
 30
0.0
 11
71.476149067
 21
123.7
 31
0.0
  0
ARC
  8
0
  6
CONTINUOUS
 62
     2
 10
71.476149067
 20
123.8
 30
0.0
 40
0.1
 50
270.0
 51
0.0
  0
CIRCLE
  8
0
  6
CONTINUOUS
 62
     2
 10
49.276149067
 20
114.75
 30
0.0
 40
1.75
  0
LINE
  8
0
  6
CONTINUOUS
 62
     2
 10
47.54409826
 20
114.5
 30
0.0
 11
51.008199875
 21
114.5
 31
0.0
  0
LINE
  8
0
  6
CONTINUOUS
 62
     2
 10
51.008199875
 20
115.0
 30
0.0
 11
47.54409826
 21
115.0
 31
0.0
  0
LINE
  8
0
  6
LTYPE2
 62
     2
 10
49.276149067
 20
161.5
 30
0.0
 11
49.276149067
 21
97.5
 31
0.0
  0
LINE
  8
0
  6
LTYPE2
 62
     2
 10
52.776149067
 20
114.75
 30
0.0
 11
45.776149067
 21
114.75
 31
0.0
  0
CIRCLE
  8
0
  6
CONTINUOUS
 62
     2
 10
181.5
 20
126.7
 30
0.0
 40
4.25
  0
TEXT
  8
0
  6
CONTINUOUS
 62
     2
 10
178.5
 20
127.95
 30
0.1
 40
0.9
  1
ＩＮＳＰＥＣＴＩＯＮ
 50
0.0
 41
0.555555556
 51
0.0
  7
KANJI3
  0
CIRCLE
  8
0
  6
CONTINUOUS
 62
     1
 10
181.5
 20
126.7
 30
0.0
 40
3.75
  0
LINE
  8
0
  6
CONTINUOUS
 62
     1
 10
177.885791926
 20
127.7
 30
0.0
 11
185.114208074
 21
127.7
 31
0.0
  0
CIRCLE
  8
0
  6
CONTINUOUS
 62
     2
 10
162.5
 20
130.0
 30
0.0
 40
1.0
  0
CIRCLE
  8
0
  6
CONTINUOUS
 62
     2
 10
162.5
 20
130.0
 30
0.0
 40
0.8
  0
CIRCLE
  8
0
  6
CONTINUOUS
 62
     2
 10
200.5
 20
130.0
 30
0.0
 40
1.0
  0
CIRCLE
  8
0
  6
CONTINUOUS
 62
     2
 10
200.5
 20
130.0
 30
0.0
 40
0.8
  0
LINE
  8
0
  6
CONTINUOUS
 62
     2
 10
183.6
 20
123.1
 30
0.0
 11
183.957544604
 21
120.625699724
 31
0.0
  0
LINE
  8
0
  6
CONTINUOUS
 62
     2
 10
183.6
 20
123.1
 30
0.0
 11
185.146792848
 21
121.135965407
 31
0.0
  0
LINE
  8
0
  6
CONTINUOUS
 62
     2
 10
183.6
 20
123.1
 30
0.0
 11
196.0
 21
94.2
 31
0.0
  0
LINE
  8
0
  6
CONTINUOUS
 62
     2
 10
196.0
 20
94.2
 30
0.0
 11
207.7
 21
94.2
 31
0.0
  0
TEXT
  8
0
  6
CONTINUOUS
 62
     2
 10
196.0
 20
95.2
 30
0.3
 40
3.0
  1
貼ラベル
 50
0.0
 41
0.9
 51
0.0
  7
KANJI4
  0
CIRCLE
  8
0
  6
CONTINUOUS
 62
     2
 10
192.5
 20
127.0
 30
0.0
 40
1.6249975
  0
LINE
  8
0
  6
CONTINUOUS
 62
     2
 10
192.7321425
 20
126.04821575
 30
0.0
 11
192.2678575
 21
126.04821575
 31
0.0
  0
LINE
  8
0
  6
CONTINUOUS
 62
     2
 10
192.2678575
 20
127.95178425
 30
0.0
 11
192.7321425
 21
127.95178425
 31
0.0
  0
LINE
  8
0
  6
CONTINUOUS
 62
     2
 10
192.7321425
 20
127.95178425
 30
0.0
 11
192.7321425
 21
127.464285
 31
0.0
  0
ARC
  8
0
  6
CONTINUOUS
 62
     2
 10
192.964285
 20
127.464285
 30
0.0
 40
0.2321425
 50
180.0
 51
270.0
  0
LINE
  8
0
  6
CONTINUOUS
 62
     2
 10
192.2678575
 20
127.464285
 30
0.0
 11
192.2678575
 21
127.95178425
 31
0.0
  0
ARC
  8
0
  6
CONTINUOUS
 62
     2
 10
192.035715
 20
127.464285
 30
0.0
 40
0.2321425
 50
270.0
 51
0.0
  0
LINE
  8
0
  6
CONTINUOUS
 62
     2
 10
192.2678575
 20
126.04821575
 30
0.0
 11
192.2678575
 21
126.535715
 31
0.0
  0
ARC
  8
0
  6
CONTINUOUS
 62
     2
 10
192.035715
 20
126.535715
 30
0.0
 40
0.2321425
 50
0.0
 51
90.0
  0
LINE
  8
0
  6
CONTINUOUS
 62
     2
 10
192.7321425
 20
126.535715
 30
0.0
 11
192.7321425
 21
126.04821575
 31
0.0
  0
ARC
  8
0
  6
CONTINUOUS
 62
     2
 10
192.964285
 20
126.535715
 30
0.0
 40
0.2321425
 50
90.0
 51
180.0
  0
LINE
  8
0
  6
CONTINUOUS
 62
     2
 10
192.035715
 20
126.7678575
 30
0.0
 11
190.891669582
 21
126.7678575
 31
0.0
  0
LINE
  8
0
  6
CONTINUOUS
 62
     2
 10
190.891669582
 20
127.2321425
 30
0.0
 11
192.035715
 21
127.2321425
 31
0.0
  0
LINE
  8
0
  6
CONTINUOUS
 62
     2
 10
192.964285
 20
126.7678575
 30
0.0
 11
194.108330418
 21
126.7678575
 31
0.0
  0
LINE
  8
0
  6
CONTINUOUS
 62
     2
 10
194.108330418
 20
127.2321425
 30
0.0
 11
192.964285
 21
127.2321425
 31
0.0
  0
LINE
  8
0
  6
LTYPE2
 62
     2
 10
192.5
 20
129.78571
 30
0.0
 11
192.5
 21
124.21429
 31
0.0
  0
LINE
  8
0
  6
LTYPE2
 62
     2
 10
195.28571
 20
127.0
 30
0.0
 11
189.71429
 21
127.0
 31
0.0
  0
CIRCLE
  8
0
  6
CONTINUOUS
 62
     2
 10
170.5
 20
127.0
 30
0.0
 40
1.6249975
  0
LINE
  8
0
  6
CONTINUOUS
 62
     2
 10
170.7321425
 20
126.04821575
 30
0.0
 11
170.2678575
 21
126.04821575
 31
0.0
  0
LINE
  8
0
  6
CONTINUOUS
 62
     2
 10
170.2678575
 20
127.95178425
 30
0.0
 11
170.7321425
 21
127.95178425
 31
0.0
  0
LINE
  8
0
  6
CONTINUOUS
 62
     2
 10
170.7321425
 20
127.95178425
 30
0.0
 11
170.7321425
 21
127.464285
 31
0.0
  0
ARC
  8
0
  6
CONTINUOUS
 62
     2
 10
170.964285
 20
127.464285
 30
0.0
 40
0.2321425
 50
180.0
 51
270.0
  0
LINE
  8
0
  6
CONTINUOUS
 62
     2
 10
170.2678575
 20
127.464285
 30
0.0
 11
170.2678575
 21
127.95178425
 31
0.0
  0
ARC
  8
0
  6
CONTINUOUS
 62
     2
 10
170.035715
 20
127.464285
 30
0.0
 40
0.2321425
 50
270.0
 51
0.0
  0
LINE
  8
0
  6
CONTINUOUS
 62
     2
 10
170.2678575
 20
126.04821575
 30
0.0
 11
170.2678575
 21
126.535715
 31
0.0
  0
ARC
  8
0
  6
CONTINUOUS
 62
     2
 10
170.035715
 20
126.535715
 30
0.0
 40
0.2321425
 50
0.0
 51
90.0
  0
LINE
  8
0
  6
CONTINUOUS
 62
     2
 10
170.7321425
 20
126.535715
 30
0.0
 11
170.7321425
 21
126.04821575
 31
0.0
  0
ARC
  8
0
  6
CONTINUOUS
 62
     2
 10
170.964285
 20
126.535715
 30
0.0
 40
0.2321425
 50
90.0
 51
180.0
  0
LINE
  8
0
  6
CONTINUOUS
 62
     2
 10
170.035715
 20
126.7678575
 30
0.0
 11
168.891669582
 21
126.7678575
 31
0.0
  0
LINE
  8
0
  6
CONTINUOUS
 62
     2
 10
168.891669582
 20
127.2321425
 30
0.0
 11
170.035715
 21
127.2321425
 31
0.0
  0
LINE
  8
0
  6
CONTINUOUS
 62
     2
 10
170.964285
 20
126.7678575
 30
0.0
 11
172.108330418
 21
126.7678575
 31
0.0
  0
LINE
  8
0
  6
CONTINUOUS
 62
     2
 10
172.108330418
 20
127.2321425
 30
0.0
 11
170.964285
 21
127.2321425
 31
0.0
  0
LINE
  8
0
  6
LTYPE3
 62
     2
 10
185.67496807
 20
116.873601866
 30
0.0
 11
191.219154533
 21
114.855683021
 31
0.0
  0
ARC
  8
0
  6
LTYPE3
 62
     2
 10
192.568404029
 20
127.187938524
 30
0.0
 40
2.95
 50
340.0
 51
160.0
  0
LINE
  8
0
  6
LTYPE3
 62
     2
 10
189.796310806
 20
128.196897971
 30
0.0
 11
185.67496807
 21
116.873601866
 31
0.0
  0
LINE
  8
0
  6
LTYPE3
 62
     2
 10
191.219154533
 20
114.855683021
 30
0.0
 11
195.340497269
 21
126.178979126
 31
0.0
  0
ARC
  8
0
  6
LTYPE3
 62
     2
 10
192.226383885
 20
126.248245903
 30
0.0
 40
2.95
 50
160.0
 51
340.0
  0
LINE
  8
0
  6
LTYPE3
 62
     2
 10
171.780845467
 20
114.855683021
 30
0.0
 11
177.32503193
 21
116.873601866
 31
0.0
  0
ARC
  8
0
  6
LTYPE3
 62
     2
 10
170.431595971
 20
127.187938524
 30
0.0
 40
2.95
 50
20.0
 51
200.0
  0
LINE
  8
0
  6
LTYPE3
 62
     2
 10
167.659502731
 20
126.178979126
 30
0.0
 11
171.780845467
 21
114.855683021
 31
0.0
  0
LINE
  8
0
  6
LTYPE3
 62
     2
 10
177.32503193
 20
116.873601866
 30
0.0
 11
173.203689194
 21
128.196897971
 31
0.0
  0
ARC
  8
0
  6
LTYPE3
 62
     2
 10
170.773616115
 20
126.248245903
 30
0.0
 40
2.95
 50
200.0
 51
20.0
  0
LINE
  8
0
  6
CONTINUOUS
 62
     2
 10
99.376149067
 20
107.5
 30
0.0
 11
99.626149067
 21
107.5
 31
0.0
  0
LINE
  8
0
  6
CONTINUOUS
 62
     2
 10
99.626149067
 20
107.5
 30
0.0
 11
99.626149067
 21
112.5
 31
0.0
  0
LINE
  8
0
  6
CONTINUOUS
 62
     2
 10
99.626149067
 20
112.5
 30
0.0
 11
99.376149067
 21
112.5
 31
0.0
  0
LINE
  8
0
  6
LTYPE1
 62
     2
 10
108.926149067
 20
110.0
 30
0.0
 11
99.526149067
 21
110.0
 31
0.0
  0
LINE
  8
0
  6
CONTINUOUS
 62
     2
 10
99.376149067
 20
152.5
 30
0.0
 11
99.626149067
 21
152.5
 31
0.0
  0
LINE
  8
0
  6
CONTINUOUS
 62
     2
 10
99.626149067
 20
152.5
 30
0.0
 11
99.626149067
 21
147.5
 31
0.0
  0
LINE
  8
0
  6
CONTINUOUS
 62
     2
 10
99.626149067
 20
147.5
 30
0.0
 11
99.376149067
 21
147.5
 31
0.0
  0
LINE
  8
0
  6
LTYPE1
 62
     2
 10
108.926149067
 20
150.0
 30
0.0
 11
99.526149067
 21
150.0
 31
0.0
  0
LINE
  8
0
  6
CONTINUOUS
 62
     2
 10
92.876149067
 20
155.0
 30
0.0
 11
92.726149067
 21
155.0
 31
0.0
  0
LINE
  8
0
  6
CONTINUOUS
 62
     2
 10
92.726149067
 20
155.0
 30
0.0
 11
92.726149067
 21
126.5
 31
0.0
  0
LINE
  8
0
  6
CONTINUOUS
 62
     2
 10
92.726149067
 20
126.5
 30
0.0
 11
92.876149067
 21
126.5
 31
0.0
  0
ARC
  8
0
  6
CONTINUOUS
 62
     2
 10
92.126149067
 20
102.75
 30
0.0
 40
0.25
 50
180.0
 51
270.0
  0
LINE
  8
0
  6
CONTINUOUS
 62
     2
 10
91.876149067
 20
102.75
 30
0.0
 11
91.876149067
 21
108.25
 31
0.0
  0
ARC
  8
0
  6
CONTINUOUS
 62
     2
 10
92.126149067
 20
108.25
 30
0.0
 40
0.25
 50
90.0
 51
180.0
  0
LINE
  8
0
  6
CONTINUOUS
 62
     2
 10
92.126149067
 20
102.5
 30
0.0
 11
94.126149067
 21
102.5
 31
0.0
  0
LINE
  8
0
  6
CONTINUOUS
 62
     2
 10
92.126149067
 20
108.5
 30
0.0
 11
92.876149067
 21
108.5
 31
0.0
  0
LINE
  8
0
  6
CONTINUOUS
 62
     2
 10
91.876149067
 20
103.066987298
 30
0.0
 11
96.526149067
 21
103.066987298
 31
0.0
  0
LINE
  8
0
  6
CONTINUOUS
 62
     2
 10
91.876149067
 20
103.933012702
 30
0.0
 11
96.526149067
 21
103.933012702
 31
0.0
  0
LINE
  8
0
  6
CONTINUOUS
 62
     2
 10
91.876149067
 20
104.066987298
 30
0.0
 11
96.526149067
 21
104.066987298
 31
0.0
  0
LINE
  8
0
  6
CONTINUOUS
 62
     2
 10
91.876149067
 20
104.933012702
 30
0.0
 11
96.526149067
 21
104.933012702
 31
0.0
  0
LINE
  8
0
  6
CONTINUOUS
 62
     2
 10
91.876149067
 20
105.066987298
 30
0.0
 11
96.526149067
 21
105.066987298
 31
0.0
  0
LINE
  8
0
  6
CONTINUOUS
 62
     2
 10
91.876149067
 20
105.933012702
 30
0.0
 11
96.526149067
 21
105.933012702
 31
0.0
  0
LINE
  8
0
  6
CONTINUOUS
 62
     2
 10
91.876149067
 20
106.066987298
 30
0.0
 11
96.526149067
 21
106.066987298
 31
0.0
  0
LINE
  8
0
  6
CONTINUOUS
 62
     2
 10
91.876149067
 20
107.066987298
 30
0.0
 11
94.100135593
 21
107.066987298
 31
0.0
  0
LINE
  8
0
  6
CONTINUOUS
 62
     2
 10
91.876149067
 20
106.933012702
 30
0.0
 11
95.346815681
 21
106.933012702
 31
0.0
  0
LINE
  8
0
  6
CONTINUOUS
 62
     2
 10
91.876149067
 20
107.933012702
 30
0.0
 11
92.876149067
 21
107.933012702
 31
0.0
  0
LINE
  8
0
  6
CONTINUOUS
 62
     2
 10
96.526149067
 20
102.5
 30
0.0
 11
96.526149067
 21
106.806275526
 31
0.0
  0
LINE
  8
0
  6
CONTINUOUS
 62
     2
 10
96.526149067
 20
102.5
 30
0.0
 11
92.126149067
 21
102.5
 31
0.0
  0
LINE
  8
0
  6
CONTINUOUS
 62
     2
 10
99.626149067
 20
153.5
 30
0.0
 11
99.626149067
 21
161.0
 31
0.0
  0
LINE
  8
0
  6
CONTINUOUS
 62
     2
 10
99.626149067
 20
159.0
 30
0.0
 11
102.040963633
 21
158.352952387
 31
0.0
  0
LINE
  8
0
  6
CONTINUOUS
 62
     2
 10
99.626149067
 20
159.0
 30
0.0
 11
102.040963633
 21
159.647047613
 31
0.0
  0
LINE
  8
0
  6
CONTINUOUS
 62
     2
 10
99.626149067
 20
159.0
 30
0.0
 11
107.126149067
 21
159.0
 31
0.0
  0
LINE
  8
0
  6
CONTINUOUS
 62
     2
 10
107.126149067
 20
159.0
 30
0.0
 11
104.711334502
 21
159.647047613
 31
0.0
  0
LINE
  8
0
  6
CONTINUOUS
 62
     2
 10
107.126149067
 20
159.0
 30
0.0
 11
104.711334502
 21
158.352952387
 31
0.0
  0
LINE
  8
0
  6
CONTINUOUS
 62
     2
 10
107.126149067
 20
151.95
 30
0.0
 11
107.126149067
 21
161.0
 31
0.0
  0
TEXT
  8
0
  6
CONTINUOUS
 62
     2
 10
101.426149067
 20
160.0
 30
0.3
 40
3.0
  1
１５
 50
0.0
 41
0.6
 51
0.0
  7
KANJI0
  0
LINE
  8
0
  6
CONTINUOUS
 62
     2
 10
99.626149067
 20
159.0
 30
0.0
 11
102.040963633
 21
158.352952387
 31
0.0
  0
LINE
  8
0
  6
CONTINUOUS
 62
     2
 10
99.626149067
 20
159.0
 30
0.0
 11
102.040963633
 21
159.647047613
 31
0.0
  0
LINE
  8
0
  6
CONTINUOUS
 62
     2
 10
103.376149067
 20
159.0
 30
0.0
 11
99.626149067
 21
159.0
 31
0.0
  0
LINE
  8
0
  6
CONTINUOUS
 62
     2
 10
99.626149067
 20
159.0
 30
0.0
 11
99.376149067
 21
159.0
 31
0.0
  0
LINE
  8
0
  6
CONTINUOUS
 62
     2
 10
99.376149067
 20
159.0
 30
0.0
 11
95.626149067
 21
159.0
 31
0.0
  0
LINE
  8
0
  6
CONTINUOUS
 62
     2
 10
99.376149067
 20
159.0
 30
0.0
 11
96.961334502
 21
159.647047613
 31
0.0
  0
LINE
  8
0
  6
CONTINUOUS
 62
     2
 10
99.376149067
 20
159.0
 30
0.0
 11
96.961334502
 21
158.352952387
 31
0.0
  0
LINE
  8
0
  6
CONTINUOUS
 62
     2
 10
99.376149067
 20
157.5
 30
0.0
 11
99.376149067
 21
161.0
 31
0.0
  0
LINE
  8
0
  6
CONTINUOUS
 62
     2
 10
103.126149067
 20
159.0
 30
0.0
 11
99.376149067
 21
159.0
 31
0.0
  0
LINE
  8
0
  6
CONTINUOUS
 62
     2
 10
99.376149067
 20
159.0
 30
0.0
 11
92.726149067
 21
159.0
 31
0.0
  0
LINE
  8
0
  6
CONTINUOUS
 62
     2
 10
92.726149067
 20
159.0
 30
0.0
 11
88.976149067
 21
159.0
 31
0.0
  0
LINE
  8
0
  6
CONTINUOUS
 62
     2
 10
92.726149067
 20
159.0
 30
0.0
 11
90.311334502
 21
159.647047613
 31
0.0
  0
LINE
  8
0
  6
CONTINUOUS
 62
     2
 10
92.726149067
 20
159.0
 30
0.0
 11
90.311334502
 21
158.352952387
 31
0.0
  0
LINE
  8
0
  6
CONTINUOUS
 62
     2
 10
92.726149067
 20
156.0
 30
0.0
 11
92.726149067
 21
161.0
 31
0.0
  0
TEXT
  8
0
  6
CONTINUOUS
 62
     2
 10
92.501149067
 20
160.0
 30
0.2
 40
3.0
  1
１３．３
 50
0.0
 41
0.5
 51
0.0
  7
KANJI5
  0
TEXT
  8
0
  6
CONTINUOUS
 62
     2
 10
95.351149067
 20
163.2
 30
0.2
 40
3.0
  1
０．５
 50
0.0
 41
0.5
 51
0.0
  7
KANJI5
  0
LINE
  8
0
  6
CONTINUOUS
 62
     2
 10
99.526149067
 20
160.95
 30
0.0
 11
97.892815734
 21
163.4
 31
0.0
  0
LINE
  8
0
  6
CONTINUOUS
 62
     2
 10
97.326149067
 20
102.6
 30
0.0
 11
96.526149067
 21
102.6
 31
0.0
  0
LINE
  8
0
  6
CONTINUOUS
 62
     2
 10
97.326149067
 20
102.6
 30
0.0
 11
97.326149067
 21
106.3
 31
0.0
  0
LINE
  8
0
  6
CONTINUOUS
 62
     2
 10
97.326149067
 20
106.3
 30
0.0
 11
96.526149067
 21
106.3
 31
0.0
  0
LINE
  8
0
  6
CONTINUOUS
 62
     2
 10
97.326149067
 20
104.425
 30
0.0
 11
98.226149067
 21
104.425
 31
0.0
  0
LINE
  8
0
  6
CONTINUOUS
 62
     2
 10
98.226149067
 20
104.425
 30
0.0
 11
98.226149067
 21
105.575
 31
0.0
  0
LINE
  8
0
  6
CONTINUOUS
 62
     2
 10
98.226149067
 20
105.575
 30
0.0
 11
97.326149067
 21
105.575
 31
0.0
  0
LINE
  8
0
  6
CONTINUOUS
 62
     1
 10
113.876149067
 20
151.0
 30
0.0
 11
113.876149067
 21
151.15
 31
0.0
  0
LINE
  8
0
  6
CONTINUOUS
 62
     1
 10
103.376149067
 20
148.893140883
 30
0.0
 11
113.876149067
 21
148.893140883
 31
0.0
  0
LINE
  8
0
  6
CONTINUOUS
 62
     1
 10
113.876149067
 20
149.706614169
 30
0.0
 11
107.126149067
 21
149.706614169
 31
0.0
  0
LINE
  8
0
  6
CONTINUOUS
 62
     1
 10
103.376149067
 20
137.479456494
 30
0.0
 11
103.376149067
 21
135.577343461
 31
0.0
  0
LINE
  8
0
  6
CONTINUOUS
 62
     1
 10
103.376149067
 20
142.642740394
 30
0.0
 11
103.376149067
 21
140.984665249
 31
0.0
  0
LINE
  8
0
  6
CONTINUOUS
 62
     1
 10
103.376149067
 20
146.826507651
 30
0.0
 11
103.376149067
 21
145.540932432
 31
0.0
  0
LINE
  8
0
  6
CONTINUOUS
 62
     1
 10
113.876149067
 20
146.826507651
 30
0.0
 11
103.376149067
 21
146.826507651
 31
0.0
  0
LINE
  8
0
  6
CONTINUOUS
 62
     1
 10
99.376149067
 20
106.5
 30
0.0
 11
99.376149067
 21
156.5
 31
0.0
  0
LINE
  8
0
  6
CONTINUOUS
 62
     1
 10
92.876149067
 20
155.30437491
 30
0.0
 11
92.876149067
 21
107.662683264
 31
0.0
  0
LINE
  8
0
  6
CONTINUOUS
 62
     1
 10
99.376149067
 20
106.5
 30
0.0
 11
93.321505807
 21
107.165678119
 31
0.0
  0
ARC
  8
0
  6
CONTINUOUS
 62
     1
 10
93.376149067
 20
107.662683264
 30
0.0
 40
0.5
 50
180.0
 51
263.725811701
  0
ARC
  8
0
  6
CONTINUOUS
 62
     1
 10
93.376149067
 20
155.30437491
 30
0.0
 40
0.5
 50
96.581944655
 51
180.0
  0
LINE
  8
0
  6
CONTINUOUS
 62
     1
 10
99.376149067
 20
156.5
 30
0.0
 11
93.318837013
 21
155.801079378
 31
0.0
  0
LINE
  8
0
  6
CONTINUOUS
 62
     2
 10
103.948402971
 20
109.05
 30
0.0
 11
104.595450583
 21
106.635185434
 31
0.0
  0
LINE
  8
0
  6
CONTINUOUS
 62
     2
 10
103.948402971
 20
109.05
 30
0.0
 11
105.716169923
 21
107.282233047
 31
0.0
  0
LINE
  8
0
  6
CONTINUOUS
 62
     1
 10
103.376149067
 20
135.577343461
 30
0.0
 11
113.876149067
 21
135.577343461
 31
0.0
  0
LINE
  8
0
  6
CONTINUOUS
 62
     1
 10
113.876149067
 20
137.479456494
 30
0.0
 11
103.376149067
 21
137.479456494
 31
0.0
  0
LINE
  8
0
  6
CONTINUOUS
 62
     1
 10
103.376149067
 20
140.984665249
 30
0.0
 11
113.876149067
 21
140.984665249
 31
0.0
  0
LINE
  8
0
  6
CONTINUOUS
 62
     1
 10
113.876149067
 20
142.642740394
 30
0.0
 11
103.376149067
 21
142.642740394
 31
0.0
  0
LINE
  8
0
  6
CONTINUOUS
 62
     1
 10
103.376149067
 20
145.540932432
 30
0.0
 11
113.876149067
 21
145.540932432
 31
0.0
  0
LINE
  8
0
  6
CONTINUOUS
 62
     1
 10
113.876149067
 20
137.108195896
 30
0.0
 11
103.376149067
 21
137.108195896
 31
0.0
  0
LINE
  8
0
  6
CONTINUOUS
 62
     1
 10
113.876149067
 20
141.970912323
 30
0.0
 11
103.376149067
 21
141.970912323
 31
0.0
  0
LINE
  8
0
  6
CONTINUOUS
 62
     1
 10
113.876149067
 20
145.906163066
 30
0.0
 11
103.376149067
 21
145.906163066
 31
0.0
  0
LINE
  8
0
  6
CONTINUOUS
 62
     1
 10
112.376149067
 20
135.577343461
 30
0.0
 11
112.376149067
 21
137.108195896
 31
0.0
  0
LINE
  8
0
  6
CONTINUOUS
 62
     1
 10
112.376149067
 20
140.984665249
 30
0.0
 11
112.376149067
 21
141.970912323
 31
0.0
  0
LINE
  8
0
  6
CONTINUOUS
 62
     1
 10
112.376149067
 20
145.906163066
 30
0.0
 11
112.376149067
 21
145.540932432
 31
0.0
  0
LINE
  8
0
  6
CONTINUOUS
 62
     1
 10
113.876149067
 20
149.95
 30
0.0
 11
114.876149067
 21
149.95
 31
0.0
  0
LINE
  8
0
  6
CONTINUOUS
 62
     1
 10
113.876149067
 20
132.0
 30
0.0
 11
114.876149067
 21
132.0
 31
0.0
  0
LINE
  8
0
  6
CONTINUOUS
 62
     1
 10
114.876149067
 20
132.0
 30
0.0
 11
114.876149067
 21
150.0
 31
0.0
  0
LINE
  8
0
  6
CONTINUOUS
 62
     1
 10
113.876149067
 20
128.0
 30
0.0
 11
114.876149067
 21
128.0
 31
0.0
  0
LINE
  8
0
  6
CONTINUOUS
 62
     1
 10
111.077110962
 20
111.7
 30
0.0
 11
112.376149067
 21
112.45
 31
0.0
  0
LINE
  8
0
  6
CONTINUOUS
 62
     1
 10
112.376149067
 20
112.45
 30
0.0
 11
112.376149067
 21
114.406584326
 31
0.0
  0
LINE
  8
0
  6
CONTINUOUS
 62
     1
 10
113.876149067
 20
114.406584326
 30
0.0
 11
99.376149067
 21
114.406584326
 31
0.0
  0
LINE
  8
0
  6
CONTINUOUS
 62
     1
 10
113.876149067
 20
114.406584326
 30
0.0
 11
113.876149067
 21
151.0
 31
0.0
  0
LINE
  8
0
  6
CONTINUOUS
 62
     1
 10
114.876149067
 20
114.839417879
 30
0.0
 11
113.876149067
 21
114.839417879
 31
0.0
  0
LINE
  8
0
  6
CONTINUOUS
 62
     1
 10
114.876149067
 20
128.0
 30
0.0
 11
114.876149067
 21
114.839417879
 31
0.0
  0
ARC
  8
0
  6
CONTINUOUS
 62
     2
 10
116.079450419
 20
125.925864366
 30
0.0
 40
0.65
 50
278.533869283
 51
335.453150525
  0
ARC
  8
0
  6
CONTINUOUS
 62
     2
 10
116.079450419
 20
128.074135634
 30
0.0
 40
0.65
 50
24.546849475
 51
81.466130717
  0
ARC
  8
0
  6
CONTINUOUS
 62
     2
 10
112.376149067
 20
127.0
 30
0.0
 40
4.5
 50
342.620197172
 51
17.379802828
  0
LINE
  8
0
  6
CONTINUOUS
 62
     2
 10
115.576149067
 20
128.75
 30
0.0
 11
116.175906534
 21
128.718568043
 31
0.0
  0
LINE
  8
0
  6
CONTINUOUS
 62
     2
 10
115.576149067
 20
125.25
 30
0.0
 11
116.175906534
 21
125.281431957
 31
0.0
  0
LINE
  8
0
  6
CONTINUOUS
 62
     2
 10
116.869199256
 20
127.25
 30
0.0
 11
116.176149067
 21
127.25
 31
0.0
  0
LINE
  8
0
  6
CONTINUOUS
 62
     2
 10
116.176149067
 20
126.75
 30
0.0
 11
116.176149067
 21
127.25
 31
0.0
  0
LINE
  8
0
  6
CONTINUOUS
 62
     2
 10
116.176149067
 20
126.75
 30
0.0
 11
116.869199256
 21
126.75
 31
0.0
  0
LINE
  8
0
  6
CONTINUOUS
 62
     2
 10
115.576149067
 20
128.75
 30
0.0
 11
115.576149067
 21
125.25
 31
0.0
  0
ARC
  8
0
  6
CONTINUOUS
 62
     2
 10
115.076149067
 20
128.65
 30
0.0
 40
0.1
 50
90.0
 51
180.0
  0
LINE
  8
0
  6
CONTINUOUS
 62
     2
 10
115.076149067
 20
128.75
 30
0.0
 11
115.376149067
 21
128.75
 31
0.0
  0
ARC
  8
0
  6
CONTINUOUS
 62
     2
 10
115.376149067
 20
128.65
 30
0.0
 40
0.1
 50
0.0
 51
90.0
  0
LINE
  8
0
  6
CONTINUOUS
 62
     2
 10
114.976149067
 20
125.35
 30
0.0
 11
114.976149067
 21
128.65
 31
0.0
  0
ARC
  8
0
  6
CONTINUOUS
 62
     2
 10
115.076149067
 20
125.35
 30
0.0
 40
0.1
 50
180.0
 51
270.0
  0
LINE
  8
0
  6
CONTINUOUS
 62
     2
 10
115.476149067
 20
128.65
 30
0.0
 11
115.476149067
 21
125.35
 31
0.0
  0
LINE
  8
0
  6
CONTINUOUS
 62
     2
 10
115.376149067
 20
125.25
 30
0.0
 11
115.076149067
 21
125.25
 31
0.0
  0
ARC
  8
0
  6
CONTINUOUS
 62
     2
 10
115.376149067
 20
125.35
 30
0.0
 40
0.1
 50
270.0
 51
0.0
  0
LINE
  8
0
  6
CONTINUOUS
 62
     2
 10
114.876149067
 20
128.725
 30
0.0
 11
113.876149067
 21
128.725
 31
0.0
  0
LINE
  8
0
  6
CONTINUOUS
 62
     2
 10
114.876149067
 20
128.725
 30
0.0
 11
114.876149067
 21
128.0
 31
0.0
  0
LINE
  8
0
  6
LTYPE2
 62
     2
 10
119.876149067
 20
131.5
 30
0.0
 11
87.376149067
 21
131.5
 31
0.0
  0
LINE
  8
0
  6
CONTINUOUS
 62
     1
 10
102.726184067
 20
107.840054
 30
0.0
 11
102.992844067
 21
108.106714
 31
0.0
  0
LINE
  8
0
  6
CONTINUOUS
 62
     1
 10
102.726184067
 20
107.840054
 30
0.0
 11
101.392884067
 21
107.840054
 31
0.0
  0
LINE
  8
0
  6
CONTINUOUS
 62
     1
 10
102.726184067
 20
111.973284
 30
0.0
 11
102.992844067
 21
111.706624
 31
0.0
  0
LINE
  8
0
  6
CONTINUOUS
 62
     1
 10
101.392884067
 20
111.973284
 30
0.0
 11
102.726184067
 21
111.973284
 31
0.0
  0
LINE
  8
0
  6
CONTINUOUS
 62
     1
 10
101.392884067
 20
107.840054
 30
0.0
 11
101.392884067
 21
111.973284
 31
0.0
  0
LINE
  8
0
  6
CONTINUOUS
 62
     1
 10
102.992844067
 20
111.706624
 30
0.0
 11
102.992844067
 21
108.106714
 31
0.0
  0
LINE
  8
0
  6
CONTINUOUS
 62
     1
 10
102.959511567
 20
108.6067015
 30
0.0
 11
102.692851567
 21
108.8733615
 31
0.0
  0
LINE
  8
0
  6
CONTINUOUS
 62
     1
 10
101.392884067
 20
107.840054
 30
0.0
 11
101.392884067
 21
111.973284
 31
0.0
  0
LINE
  8
0
  6
CONTINUOUS
 62
     1
 10
100.892884067
 20
107.3666715
 30
0.0
 11
100.892884067
 21
112.3666715
 31
0.0
  0
LINE
  8
0
  6
CONTINUOUS
 62
     1
 10
100.892884067
 20
112.3666715
 30
0.0
 11
101.392884067
 21
111.973284
 31
0.0
  0
LINE
  8
0
  6
CONTINUOUS
 62
     1
 10
101.392884067
 20
107.840054
 30
0.0
 11
100.892884067
 21
107.3666715
 31
0.0
  0
LINE
  8
0
  6
CONTINUOUS
 62
     1
 10
102.992844067
 20
111.7
 30
0.0
 11
111.077110962
 21
111.7
 31
0.0
  0
LINE
  8
0
  6
CONTINUOUS
 62
     1
 10
99.626149067
 20
111.7
 30
0.0
 11
100.892884067
 21
111.7
 31
0.0
  0
LINE
  8
0
  6
CONTINUOUS
 62
     1
 10
101.392884067
 20
110.8733115
 30
0.0
 11
102.692851567
 21
110.8733115
 31
0.0
  0
LINE
  8
0
  6
CONTINUOUS
 62
     1
 10
101.392884067
 20
108.8733615
 30
0.0
 11
102.692851567
 21
108.8733615
 31
0.0
  0
LINE
  8
0
  6
CONTINUOUS
 62
     1
 10
107.126149067
 20
111.05
 30
0.0
 11
107.126149067
 21
109.05
 31
0.0
  0
LINE
  8
0
  6
CONTINUOUS
 62
     1
 10
102.692851567
 20
110.8733115
 30
0.0
 11
102.959511567
 21
111.1399715
 31
0.0
  0
LINE
  8
0
  6
CONTINUOUS
 62
     1
 10
102.959511567
 20
110.6066515
 30
0.0
 11
102.692851567
 21
110.8733115
 31
0.0
  0
LINE
  8
0
  6
CONTINUOUS
 62
     1
 10
102.692851567
 20
108.8733615
 30
0.0
 11
102.959511567
 21
109.1400215
 31
0.0
  0
LINE
  8
0
  6
CONTINUOUS
 62
     1
 10
107.126149067
 20
109.05
 30
0.0
 11
102.992844067
 21
109.05
 31
0.0
  0
LINE
  8
0
  6
CONTINUOUS
 62
     1
 10
102.992844067
 20
109.325
 30
0.0
 11
107.126149067
 21
109.325
 31
0.0
  0
LINE
  8
0
  6
CONTINUOUS
 62
     1
 10
102.992844067
 20
111.05
 30
0.0
 11
107.126149067
 21
111.05
 31
0.0
  0
LINE
  8
0
  6
CONTINUOUS
 62
     1
 10
107.126149067
 20
110.825
 30
0.0
 11
102.992844067
 21
110.825
 31
0.0
  0
LINE
  8
0
  6
CONTINUOUS
 62
     1
 10
100.892884067
 20
109.05
 30
0.0
 11
99.626149067
 21
109.05
 31
0.0
  0
LINE
  8
0
  6
CONTINUOUS
 62
     1
 10
99.626149067
 20
109.325
 30
0.0
 11
100.892884067
 21
109.325
 31
0.0
  0
LINE
  8
0
  6
CONTINUOUS
 62
     1
 10
99.626149067
 20
111.05
 30
0.0
 11
100.892884067
 21
111.05
 31
0.0
  0
LINE
  8
0
  6
CONTINUOUS
 62
     1
 10
100.892884067
 20
110.825
 30
0.0
 11
99.626149067
 21
110.825
 31
0.0
  0
LINE
  8
0
  6
CONTINUOUS
 62
     2
 10
99.626149067
 20
147.5
 30
0.0
 11
99.626149067
 21
152.5
 31
0.0
  0
LINE
  8
0
  6
CONTINUOUS
 62
     1
 10
102.726184067
 20
147.840054
 30
0.0
 11
102.992844067
 21
148.106714
 31
0.0
  0
LINE
  8
0
  6
CONTINUOUS
 62
     1
 10
102.726184067
 20
147.840054
 30
0.0
 11
101.392884067
 21
147.840054
 31
0.0
  0
LINE
  8
0
  6
CONTINUOUS
 62
     1
 10
102.726184067
 20
151.973284
 30
0.0
 11
102.992844067
 21
151.706624
 31
0.0
  0
LINE
  8
0
  6
CONTINUOUS
 62
     1
 10
101.392884067
 20
151.973284
 30
0.0
 11
102.726184067
 21
151.973284
 31
0.0
  0
LINE
  8
0
  6
CONTINUOUS
 62
     1
 10
101.392884067
 20
147.840054
 30
0.0
 11
101.392884067
 21
151.973284
 31
0.0
  0
LINE
  8
0
  6
CONTINUOUS
 62
     1
 10
102.992844067
 20
151.706624
 30
0.0
 11
102.992844067
 21
148.106714
 31
0.0
  0
LINE
  8
0
  6
CONTINUOUS
 62
     1
 10
102.959511567
 20
148.6067015
 30
0.0
 11
102.692851567
 21
148.8733615
 31
0.0
  0
LINE
  8
0
  6
CONTINUOUS
 62
     1
 10
101.392884067
 20
147.840054
 30
0.0
 11
101.392884067
 21
151.973284
 31
0.0
  0
LINE
  8
0
  6
CONTINUOUS
 62
     1
 10
100.892884067
 20
147.3666715
 30
0.0
 11
100.892884067
 21
152.3666715
 31
0.0
  0
LINE
  8
0
  6
CONTINUOUS
 62
     1
 10
100.892884067
 20
152.3666715
 30
0.0
 11
101.392884067
 21
151.973284
 31
0.0
  0
LINE
  8
0
  6
CONTINUOUS
 62
     1
 10
101.392884067
 20
147.840054
 30
0.0
 11
100.892884067
 21
147.3666715
 31
0.0
  0
LINE
  8
0
  6
CONTINUOUS
 62
     1
 10
101.392884067
 20
150.8733115
 30
0.0
 11
102.692851567
 21
150.8733115
 31
0.0
  0
LINE
  8
0
  6
CONTINUOUS
 62
     1
 10
101.392884067
 20
148.8733615
 30
0.0
 11
102.692851567
 21
148.8733615
 31
0.0
  0
LINE
  8
0
  6
CONTINUOUS
 62
     1
 10
107.126149067
 20
151.05
 30
0.0
 11
107.126149067
 21
149.05
 31
0.0
  0
LINE
  8
0
  6
CONTINUOUS
 62
     1
 10
102.692851567
 20
150.8733115
 30
0.0
 11
102.959511567
 21
151.1399715
 31
0.0
  0
LINE
  8
0
  6
CONTINUOUS
 62
     1
 10
102.959511567
 20
150.6066515
 30
0.0
 11
102.692851567
 21
150.8733115
 31
0.0
  0
LINE
  8
0
  6
CONTINUOUS
 62
     1
 10
102.692851567
 20
148.8733615
 30
0.0
 11
102.959511567
 21
149.1400215
 31
0.0
  0
LINE
  8
0
  6
CONTINUOUS
 62
     1
 10
107.126149067
 20
149.05
 30
0.0
 11
102.992844067
 21
149.05
 31
0.0
  0
LINE
  8
0
  6
CONTINUOUS
 62
     1
 10
102.992844067
 20
149.325
 30
0.0
 11
107.126149067
 21
149.325
 31
0.0
  0
LINE
  8
0
  6
CONTINUOUS
 62
     1
 10
102.992844067
 20
151.05
 30
0.0
 11
107.126149067
 21
151.05
 31
0.0
  0
LINE
  8
0
  6
CONTINUOUS
 62
     1
 10
107.126149067
 20
150.825
 30
0.0
 11
102.992844067
 21
150.825
 31
0.0
  0
LINE
  8
0
  6
CONTINUOUS
 62
     1
 10
100.892884067
 20
149.05
 30
0.0
 11
99.626149067
 21
149.05
 31
0.0
  0
LINE
  8
0
  6
CONTINUOUS
 62
     1
 10
99.626149067
 20
149.325
 30
0.0
 11
100.892884067
 21
149.325
 31
0.0
  0
LINE
  8
0
  6
CONTINUOUS
 62
     1
 10
99.626149067
 20
151.05
 30
0.0
 11
100.892884067
 21
151.05
 31
0.0
  0
LINE
  8
0
  6
CONTINUOUS
 62
     1
 10
100.892884067
 20
150.825
 30
0.0
 11
99.626149067
 21
150.825
 31
0.0
  0
LINE
  8
0
  6
CONTINUOUS
 62
     1
 10
102.992844067
 20
151.300114552
 30
0.0
 11
113.876149067
 21
151.15
 31
0.0
  0
LINE
  8
0
  6
CONTINUOUS
 62
     1
 10
99.626149067
 20
151.346551724
 30
0.0
 11
100.892884067
 21
151.329079517
 31
0.0
  0
LINE
  8
0
  6
CONTINUOUS
 62
     1
 10
103.376149067
 20
148.893140883
 30
0.0
 11
103.376149067
 21
149.05
 31
0.0
  0
LINE
  8
0
  6
CONTINUOUS
 62
     2
 10
99.626149067
 20
164.5
 30
0.0
 11
102.040963633
 21
163.852952387
 31
0.0
  0
LINE
  8
0
  6
CONTINUOUS
 62
     2
 10
99.626149067
 20
164.5
 30
0.0
 11
102.040963633
 21
165.147047613
 31
0.0
  0
LINE
  8
0
  6
CONTINUOUS
 62
     2
 10
99.626149067
 20
164.5
 30
0.0
 11
114.876149067
 21
164.5
 31
0.0
  0
LINE
  8
0
  6
CONTINUOUS
 62
     2
 10
114.876149067
 20
164.5
 30
0.0
 11
112.461334502
 21
165.147047613
 31
0.0
  0
LINE
  8
0
  6
CONTINUOUS
 62
     2
 10
114.876149067
 20
164.5
 30
0.0
 11
112.461334502
 21
163.852952387
 31
0.0
  0
TEXT
  8
0
  6
CONTINUOUS
 62
     2
 10
103.201149067
 20
165.5
 30
0.3
 40
3.0
  1
３０．５
 50
0.0
 41
0.6
 51
0.0
  7
KANJI0
  0
LINE
  8
0
  6
CONTINUOUS
 62
     2
 10
91.876149067
 20
169.5
 30
0.0
 11
89.461334502
 21
170.147047613
 31
0.0
  0
LINE
  8
0
  6
CONTINUOUS
 62
     2
 10
91.876149067
 20
169.5
 30
0.0
 11
89.461334502
 21
168.852952387
 31
0.0
  0
LINE
  8
0
  6
CONTINUOUS
 62
     2
 10
88.126149067
 20
169.5
 30
0.0
 11
91.876149067
 21
169.5
 31
0.0
  0
LINE
  8
0
  6
CONTINUOUS
 62
     2
 10
91.876149067
 20
169.5
 30
0.0
 11
99.626149067
 21
169.5
 31
0.0
  0
TEXT
  8
0
  6
CONTINUOUS
 62
     2
 10
91.701149067
 20
170.5
 30
0.3
 40
3.0
  1
１５．５
 50
0.0
 41
0.6
 51
0.0
  7
KANJI0
  0
LINE
  8
0
  6
CONTINUOUS
 62
     2
 10
91.876149067
 20
109.25
 30
0.0
 11
91.876149067
 21
171.5
 31
0.0
  0
LINE
  8
0
  6
CONTINUOUS
 62
     2
 10
99.626149067
 20
161.0
 30
0.0
 11
99.626149067
 21
171.5
 31
0.0
  0
LINE
  8
0
  6
CONTINUOUS
 62
     2
 10
114.876149067
 20
150.95
 30
0.0
 11
114.876149067
 21
166.5
 31
0.0
  0
ARC
  8
0
  6
LTYPE4
 62
     2
 10
120.126149067
 20
127.9
 30
0.0
 40
2.25
 50
0.0
 51
90.0
  0
LINE
  8
0
  6
LTYPE4
 62
     2
 10
122.376149067
 20
127.9
 30
0.0
 11
122.376149067
 21
125.5
 31
0.0
  0
LINE
  8
0
  6
LTYPE4
 62
     2
 10
121.376149067
 20
123.629171307
 30
0.0
 11
121.376149067
 21
115.15
 31
0.0
  0
ARC
  8
0
  6
LTYPE4
 62
     2
 10
120.126149067
 20
125.5
 30
0.0
 40
2.25
 50
303.748988596
 51
0.0
  0
ARC
  8
0
  6
LTYPE4
 62
     2
 10
119.169389935
 20
124.068163486
 30
0.0
 40
2.25
 50
348.748988596
 51
45.0
  0
LINE
  8
0
  6
LTYPE4
 62
     2
 10
113.876149067
 20
130.15
 30
0.0
 11
120.126149067
 21
130.15
 31
0.0
  0
LINE
  8
0
  6
LTYPE4
 62
     2
 10
121.376149067
 20
115.15
 30
0.0
 11
114.876149067
 21
115.15
 31
0.0
  0
LINE
  8
0
  6
CONTINUOUS
 62
     2
 10
118.176149067
 20
115.139417879
 30
0.0
 11
118.677349993
 21
112.690173581
 31
0.0
  0
LINE
  8
0
  6
CONTINUOUS
 62
     2
 10
118.176149067
 20
115.139417879
 30
0.0
 11
119.834823951
 21
113.268910559
 31
0.0
  0
LINE
  8
0
  6
CONTINUOUS
 62
     2
 10
118.176149067
 20
115.139417879
 30
0.0
 11
121.676149067
 21
108.139417879
 31
0.0
  0
LINE
  8
0
  6
CONTINUOUS
 62
     2
 10
121.676149067
 20
108.139417879
 30
0.0
 11
139.376149067
 21
108.139417879
 31
0.0
  0
TEXT
  8
0
  6
CONTINUOUS
 62
     2
 10
121.676149067
 20
109.139417879
 30
0.3
 40
3.0
  1
端子キャップ
 50
0.0
 41
0.9
 51
0.0
  7
KANJI4
  0
TEXT
  8
0
  6
CONTINUOUS
 62
     2
 10
110.691927449
 20
97.7
 30
0.3
 40
3.0
  1
４－Ｍ４取付ボルト
 50
0.0
 41
0.9
 51
0.0
  7
KANJI4
  0
LINE
  8
0
  6
CONTINUOUS
 62
     2
 10
111.078678795
 20
96.7
 30
0.0
 11
137.376149067
 21
96.7
 31
0.0
  0
LINE
  8
0
  6
CONTINUOUS
 62
     2
 10
103.948402971
 20
109.05
 30
0.0
 11
111.078678795
 21
96.7
 31
0.0
  0
TEXT
  8
0
  6
CONTINUOUS
 62
     2
 10
120.676149067
 20
104.139417879
 30
0.3
 40
3.0
  1
（オプション）
 50
0.0
 41
0.9
 51
0.0
  7
KANJI4
  0
LINE
  8
0
  6
CONTINUOUS
 62
     2
 10
125.176149067
 20
138.539417879
 30
0.0
 11
145.876149067
 21
138.539417879
 31
0.0
  0
TEXT
  8
0
  6
CONTINUOUS
 62
     2
 10
125.176149067
 20
139.539417879
 30
0.3
 40
3.0
  1
ターミナルネジ
 50
0.0
 41
0.9
 51
0.0
  7
KANJI4
  0
TEXT
  8
0
  6
CONTINUOUS
 62
     2
 10
125.176149067
 20
143.539417879
 30
0.3
 40
3.0
  1
２－Ｍ４
 50
0.0
 41
0.9
 51
0.0
  7
KANJI4
  0
LINE
  8
0
  6
CONTINUOUS
 62
     2
 10
99.626149067
 20
169.5
 30
0.0
 11
102.040963633
 21
168.852952387
 31
0.0
  0
LINE
  8
0
  6
CONTINUOUS
 62
     2
 10
99.626149067
 20
169.5
 30
0.0
 11
102.040963633
 21
170.147047613
 31
0.0
  0
LINE
  8
0
  6
CONTINUOUS
 62
     2
 10
99.626149067
 20
169.5
 30
0.0
 11
122.376149067
 21
169.5
 31
0.0
  0
LINE
  8
0
  6
CONTINUOUS
 62
     2
 10
122.376149067
 20
169.5
 30
0.0
 11
119.961334502
 21
170.147047613
 31
0.0
  0
LINE
  8
0
  6
CONTINUOUS
 62
     2
 10
122.376149067
 20
169.5
 30
0.0
 11
119.961334502
 21
168.852952387
 31
0.0
  0
LINE
  8
0
  6
CONTINUOUS
 62
     2
 10
122.376149067
 20
128.0
 30
0.0
 11
122.376149067
 21
171.5
 31
0.0
  0
TEXT
  8
0
  6
CONTINUOUS
 62
     2
 10
106.951149067
 20
170.5
 30
0.3
 40
3.0
  1
４５．５
 50
0.0
 41
0.6
 51
0.0
  7
KANJI0
  0
LINE
  8
0
  6
CONTINUOUS
 62
     2
 10
116.476149067
 20
128.4
 30
0.0
 11
118.539692479
 21
129.811307404
 31
0.0
  0
LINE
  8
0
  6
CONTINUOUS
 62
     2
 10
116.476149067
 20
128.4
 30
0.0
 11
117.557576382
 21
130.65399977
 31
0.0
  0
LINE
  8
0
  6
CONTINUOUS
 62
     2
 10
116.476149067
 20
128.4
 30
0.0
 11
125.176149067
 21
138.539417879
 31
0.0
  0
LINE
  8
0
  6
LTYPE2
 62
     2
 10
216.0
 20
130.0
 30
0.0
 11
151.0
 21
130.0
 31
0.0
  0
LINE
  8
0
  6
LTYPE2
 62
     2
 10
151.0
 20
131.5
 30
0.0
 11
212.2
 21
131.5
 31
0.0
  0
LINE
  8
0
  6
CONTINUOUS
 62
     2
 10
114.876149067
 20
164.5
 30
0.0
 11
112.461334502
 21
165.147047613
 31
0.0
  0
LINE
  8
0
  6
CONTINUOUS
 62
     2
 10
114.876149067
 20
164.5
 30
0.0
 11
112.461334502
 21
163.852952387
 31
0.0
  0
LINE
  8
0
  6
CONTINUOUS
 62
     2
 10
111.126149067
 20
164.5
 30
0.0
 11
114.876149067
 21
164.5
 31
0.0
  0
LINE
  8
0
  6
CONTINUOUS
 62
     2
 10
114.876149067
 20
164.5
 30
0.0
 11
116.876149067
 21
164.5
 31
0.0
  0
LINE
  8
0
  6
CONTINUOUS
 62
     2
 10
116.876149067
 20
164.5
 30
0.0
 11
120.626149067
 21
164.5
 31
0.0
  0
LINE
  8
0
  6
CONTINUOUS
 62
     2
 10
116.876149067
 20
164.5
 30
0.0
 11
119.290963633
 21
163.852952387
 31
0.0
  0
LINE
  8
0
  6
CONTINUOUS
 62
     2
 10
116.876149067
 20
164.5
 30
0.0
 11
119.290963633
 21
165.147047613
 31
0.0
  0
LINE
  8
0
  6
CONTINUOUS
 62
     2
 10
116.876149067
 20
128.0
 30
0.0
 11
116.876149067
 21
166.5
 31
0.0
  0
TEXT
  8
0
  6
CONTINUOUS
 62
     2
 10
114.976149067
 20
165.5
 30
0.3
 40
3.0
  1
５
 50
0.0
 41
0.6
 51
0.0
  7
KANJI0
  0
LINE
  8
0
  6
CONTINUOUS
 62
     2
 10
201.249758359
 20
137.567664418
 30
0.0
 11
198.763297681
 21
137.307831214
 31
0.0
  0
LINE
  8
0
  6
CONTINUOUS
 62
     2
 10
201.249758359
 20
137.567664418
 30
0.0
 11
199.226336848
 21
136.099411923
 31
0.0
  0
LINE
  8
0
  6
CONTINUOUS
 62
     2
 10
201.249758359
 20
137.567664418
 30
0.0
 11
161.750241641
 21
122.432335582
 31
0.0
  0
LINE
  8
0
  6
CONTINUOUS
 62
     2
 10
161.750241641
 20
122.432335582
 30
0.0
 11
164.236702319
 21
122.692168786
 31
0.0
  0
LINE
  8
0
  6
CONTINUOUS
 62
     2
 10
161.750241641
 20
122.432335582
 30
0.0
 11
163.773663152
 21
123.900588077
 31
0.0
  0
TEXT
  8
0
  6
CONTINUOUS
 62
     2
 10
189.932190808
 20
133.723794721
 30
0.3
 40
3.0
  1
φ８４．６
 50
20.965711841
 41
0.6
 51
0.0
  7
KANJI0
  0
TEXT
  8
0
  6
CONTINUOUS
 62
     2
 10
43.0
 20
43.0
 30
0.8
 40
8.0
  1
ＡＣｆ－８５ＰＺ
 50
0.0
 41
0.9
 51
0.0
  7
KANJI6
  0
TEXT
  8
0
  6
CONTINUOUS
 62
     3
 10
44.0
 20
30.0
 30
0.6
 40
6.0
  1
ＭＳ－１２３７４
 50
0.0
 41
0.9
 51
0.0
  7
KANJI7
  0
ENDSEC
  0
EOF
