  0
SECTION
  2
HEADER
  9
$ACADVER
  1
AC1009
  9
$DWGCODEPAGE
  3
dos932
  9
$EXTMIN
 10
0.0
 20
0.0
 30
0.0
  9
$EXTMAX
 10
297.0
 20
210.0
 30
0.0
  9
$LIMMIN
 10
0.0
 20
0.0
  9
$LIMMAX
 10
297.0
 20
210.0
  9
$LTSCALE
 40
1.0
  9
$PDMODE
 70
     0
  0
ENDSEC
  0
SECTION
  2
TABLES
  0
TABLE
  2
VPORT
 70
     1
  0
VPORT
  2
*ACTIVE
 70
     0
 10
0.0
 20
0.0
 11
1.0
 21
1.0
 12
148.5
 22
105.0
 13
0.0
 23
0.0
 14
10.0
 24
10.0
 15
10.0
 25
10.0
 16
0.0
 26
0.0
 36
1.0
 17
0.0
 27
0.0
 37
0.0
 40
297.0
 41
1.414285714
 42
50.0
 43
0.0
 44
0.0
 50
0.0
 51
0.0
 71
     0
 72
  1000
 73
     1
 74
     3
 75
     0
 76
     0
 77
     0
 78
     0
  0
ENDTAB
  0
TABLE
  2
LTYPE
 70
     4
  0
LTYPE
  2
CONTINUOUS
 70
    64
  3
Solid line
 72
    65
 73
     0
 40
0.0
  0
LTYPE
  2
LTYPE1
 70
    64
  3
CENTER
 72
    65
 73
     4
 40
5.0
 49
3.5
 49
-0.5
 49
0.5
 49
-0.5
  0
LTYPE
  2
LTYPE2
 70
    64
  3
HIDDEN
 72
    65
 73
     2
 40
1.0
 49
0.6
 49
-0.4
  0
LTYPE
  2
LTYPE3
 70
    64
  3
CENTER
 72
    65
 73
     4
 40
15.0
 49
10.5
 49
-1.5
 49
1.5
 49
-1.5
  0
ENDTAB
  0
TABLE
  2
LAYER
 70
   128
  0
LAYER
  2
0
 70
     0
 62
     7
  6
CONTINUOUS
  0
LAYER
  2
2
 70
     0
 62
     7
  6
CONTINUOUS
  0
LAYER
  2
3
 70
     0
 62
     7
  6
CONTINUOUS
  0
LAYER
  2
4
 70
     0
 62
     7
  6
CONTINUOUS
  0
LAYER
  2
5
 70
     0
 62
     7
  6
CONTINUOUS
  0
LAYER
  2
6
 70
     0
 62
     7
  6
CONTINUOUS
  0
LAYER
  2
7
 70
     0
 62
     7
  6
CONTINUOUS
  0
LAYER
  2
8
 70
     0
 62
     7
  6
CONTINUOUS
  0
LAYER
  2
9
 70
     0
 62
     7
  6
CONTINUOUS
  0
LAYER
  2
10
 70
     0
 62
     7
  6
CONTINUOUS
  0
LAYER
  2
11
 70
     0
 62
     7
  6
CONTINUOUS
  0
LAYER
  2
12
 70
     0
 62
     7
  6
CONTINUOUS
  0
LAYER
  2
13
 70
     0
 62
     7
  6
CONTINUOUS
  0
LAYER
  2
14
 70
     0
 62
     7
  6
CONTINUOUS
  0
LAYER
  2
15
 70
     0
 62
     7
  6
CONTINUOUS
  0
LAYER
  2
16
 70
     0
 62
     7
  6
CONTINUOUS
  0
LAYER
  2
17
 70
     0
 62
     7
  6
CONTINUOUS
  0
LAYER
  2
18
 70
     0
 62
     7
  6
CONTINUOUS
  0
LAYER
  2
19
 70
     0
 62
     7
  6
CONTINUOUS
  0
LAYER
  2
20
 70
     0
 62
     7
  6
CONTINUOUS
  0
LAYER
  2
21
 70
     0
 62
     7
  6
CONTINUOUS
  0
LAYER
  2
22
 70
     0
 62
     7
  6
CONTINUOUS
  0
LAYER
  2
23
 70
     0
 62
     7
  6
CONTINUOUS
  0
LAYER
  2
24
 70
     0
 62
     7
  6
CONTINUOUS
  0
LAYER
  2
25
 70
     0
 62
     7
  6
CONTINUOUS
  0
LAYER
  2
26
 70
     0
 62
     7
  6
CONTINUOUS
  0
LAYER
  2
27
 70
     0
 62
     7
  6
CONTINUOUS
  0
LAYER
  2
28
 70
     0
 62
     7
  6
CONTINUOUS
  0
LAYER
  2
29
 70
     0
 62
     7
  6
CONTINUOUS
  0
LAYER
  2
30
 70
     0
 62
     7
  6
CONTINUOUS
  0
LAYER
  2
31
 70
     0
 62
     7
  6
CONTINUOUS
  0
LAYER
  2
32
 70
     0
 62
     7
  6
CONTINUOUS
  0
LAYER
  2
33
 70
     0
 62
     7
  6
CONTINUOUS
  0
LAYER
  2
34
 70
     0
 62
     7
  6
CONTINUOUS
  0
LAYER
  2
35
 70
     0
 62
     7
  6
CONTINUOUS
  0
LAYER
  2
36
 70
     0
 62
     7
  6
CONTINUOUS
  0
LAYER
  2
37
 70
     0
 62
     7
  6
CONTINUOUS
  0
LAYER
  2
38
 70
     0
 62
     7
  6
CONTINUOUS
  0
LAYER
  2
39
 70
     0
 62
     7
  6
CONTINUOUS
  0
LAYER
  2
40
 70
     0
 62
     7
  6
CONTINUOUS
  0
LAYER
  2
41
 70
     0
 62
     7
  6
CONTINUOUS
  0
LAYER
  2
42
 70
     0
 62
     7
  6
CONTINUOUS
  0
LAYER
  2
43
 70
     0
 62
     7
  6
CONTINUOUS
  0
LAYER
  2
44
 70
     0
 62
     7
  6
CONTINUOUS
  0
LAYER
  2
45
 70
     0
 62
     7
  6
CONTINUOUS
  0
LAYER
  2
46
 70
     0
 62
     7
  6
CONTINUOUS
  0
LAYER
  2
47
 70
     0
 62
     7
  6
CONTINUOUS
  0
LAYER
  2
48
 70
     0
 62
     7
  6
CONTINUOUS
  0
LAYER
  2
49
 70
     0
 62
     7
  6
CONTINUOUS
  0
LAYER
  2
50
 70
     0
 62
     7
  6
CONTINUOUS
  0
LAYER
  2
51
 70
     0
 62
     7
  6
CONTINUOUS
  0
LAYER
  2
52
 70
     0
 62
     7
  6
CONTINUOUS
  0
LAYER
  2
53
 70
     0
 62
     7
  6
CONTINUOUS
  0
LAYER
  2
54
 70
     0
 62
     7
  6
CONTINUOUS
  0
LAYER
  2
55
 70
     0
 62
     7
  6
CONTINUOUS
  0
LAYER
  2
56
 70
     0
 62
     7
  6
CONTINUOUS
  0
LAYER
  2
57
 70
     0
 62
     7
  6
CONTINUOUS
  0
LAYER
  2
58
 70
     0
 62
     7
  6
CONTINUOUS
  0
LAYER
  2
59
 70
     0
 62
     7
  6
CONTINUOUS
  0
LAYER
  2
60
 70
     0
 62
     7
  6
CONTINUOUS
  0
LAYER
  2
61
 70
     0
 62
     7
  6
CONTINUOUS
  0
LAYER
  2
62
 70
     0
 62
     7
  6
CONTINUOUS
  0
LAYER
  2
63
 70
     0
 62
     7
  6
CONTINUOUS
  0
LAYER
  2
64
 70
     0
 62
     7
  6
CONTINUOUS
  0
LAYER
  2
65
 70
     0
 62
     7
  6
CONTINUOUS
  0
LAYER
  2
66
 70
     0
 62
     7
  6
CONTINUOUS
  0
LAYER
  2
67
 70
     0
 62
     7
  6
CONTINUOUS
  0
LAYER
  2
68
 70
     0
 62
     7
  6
CONTINUOUS
  0
LAYER
  2
69
 70
     0
 62
     7
  6
CONTINUOUS
  0
LAYER
  2
70
 70
     0
 62
     7
  6
CONTINUOUS
  0
LAYER
  2
71
 70
     0
 62
     7
  6
CONTINUOUS
  0
LAYER
  2
72
 70
     0
 62
     7
  6
CONTINUOUS
  0
LAYER
  2
73
 70
     0
 62
     7
  6
CONTINUOUS
  0
LAYER
  2
74
 70
     0
 62
     7
  6
CONTINUOUS
  0
LAYER
  2
75
 70
     0
 62
     7
  6
CONTINUOUS
  0
LAYER
  2
76
 70
     0
 62
     7
  6
CONTINUOUS
  0
LAYER
  2
77
 70
     0
 62
     7
  6
CONTINUOUS
  0
LAYER
  2
78
 70
     0
 62
     7
  6
CONTINUOUS
  0
LAYER
  2
79
 70
     0
 62
     7
  6
CONTINUOUS
  0
LAYER
  2
80
 70
     0
 62
     7
  6
CONTINUOUS
  0
LAYER
  2
81
 70
     0
 62
     7
  6
CONTINUOUS
  0
LAYER
  2
82
 70
     0
 62
     7
  6
CONTINUOUS
  0
LAYER
  2
83
 70
     0
 62
     7
  6
CONTINUOUS
  0
LAYER
  2
84
 70
     0
 62
     7
  6
CONTINUOUS
  0
LAYER
  2
85
 70
     0
 62
     7
  6
CONTINUOUS
  0
LAYER
  2
86
 70
     0
 62
     7
  6
CONTINUOUS
  0
LAYER
  2
87
 70
     0
 62
     7
  6
CONTINUOUS
  0
LAYER
  2
88
 70
     0
 62
     7
  6
CONTINUOUS
  0
LAYER
  2
89
 70
     0
 62
     7
  6
CONTINUOUS
  0
LAYER
  2
90
 70
     0
 62
     7
  6
CONTINUOUS
  0
LAYER
  2
91
 70
     0
 62
     7
  6
CONTINUOUS
  0
LAYER
  2
92
 70
     0
 62
     7
  6
CONTINUOUS
  0
LAYER
  2
93
 70
     0
 62
     7
  6
CONTINUOUS
  0
LAYER
  2
94
 70
     0
 62
     7
  6
CONTINUOUS
  0
LAYER
  2
95
 70
     0
 62
     7
  6
CONTINUOUS
  0
LAYER
  2
96
 70
     0
 62
     7
  6
CONTINUOUS
  0
LAYER
  2
97
 70
     0
 62
     7
  6
CONTINUOUS
  0
LAYER
  2
98
 70
     0
 62
     7
  6
CONTINUOUS
  0
LAYER
  2
99
 70
     0
 62
     7
  6
CONTINUOUS
  0
LAYER
  2
100
 70
     0
 62
     7
  6
CONTINUOUS
  0
LAYER
  2
101
 70
     0
 62
     7
  6
CONTINUOUS
  0
LAYER
  2
102
 70
     0
 62
     7
  6
CONTINUOUS
  0
LAYER
  2
103
 70
     0
 62
     7
  6
CONTINUOUS
  0
LAYER
  2
104
 70
     0
 62
     7
  6
CONTINUOUS
  0
LAYER
  2
105
 70
     0
 62
     7
  6
CONTINUOUS
  0
LAYER
  2
106
 70
     0
 62
     7
  6
CONTINUOUS
  0
LAYER
  2
107
 70
     0
 62
     7
  6
CONTINUOUS
  0
LAYER
  2
108
 70
     0
 62
     7
  6
CONTINUOUS
  0
LAYER
  2
109
 70
     0
 62
     7
  6
CONTINUOUS
  0
LAYER
  2
110
 70
     0
 62
     7
  6
CONTINUOUS
  0
LAYER
  2
111
 70
     0
 62
     7
  6
CONTINUOUS
  0
LAYER
  2
112
 70
     0
 62
     7
  6
CONTINUOUS
  0
LAYER
  2
113
 70
     0
 62
     7
  6
CONTINUOUS
  0
LAYER
  2
114
 70
     0
 62
     7
  6
CONTINUOUS
  0
LAYER
  2
115
 70
     0
 62
     7
  6
CONTINUOUS
  0
LAYER
  2
116
 70
     0
 62
     7
  6
CONTINUOUS
  0
LAYER
  2
117
 70
     0
 62
     7
  6
CONTINUOUS
  0
LAYER
  2
118
 70
     0
 62
     7
  6
CONTINUOUS
  0
LAYER
  2
119
 70
     0
 62
     7
  6
CONTINUOUS
  0
LAYER
  2
120
 70
     0
 62
     7
  6
CONTINUOUS
  0
LAYER
  2
121
 70
     0
 62
     7
  6
CONTINUOUS
  0
LAYER
  2
122
 70
     0
 62
     7
  6
CONTINUOUS
  0
LAYER
  2
123
 70
     0
 62
     7
  6
CONTINUOUS
  0
LAYER
  2
124
 70
     0
 62
     7
  6
CONTINUOUS
  0
LAYER
  2
125
 70
     0
 62
     7
  6
CONTINUOUS
  0
LAYER
  2
126
 70
     0
 62
     7
  6
CONTINUOUS
  0
LAYER
  2
127
 70
     0
 62
     7
  6
CONTINUOUS
  0
LAYER
  2
128
 70
     0
 62
     7
  6
CONTINUOUS
  0
ENDTAB
  0
TABLE
  2
STYLE
 70
    10
  0
STYLE
  2
STANDARD
 70
     0
 40
0.0
 41
1.0
 50
0.0
 71
     0
 42
0.2
  3
txt.shx
  4
extfont.shx
  0
STYLE
  2
KANJI0
 70
     0
 40
1.8
 41
0.6
 50
0.0
 71
     0
 42
1.8
  3
txt.shx
  4
extfont.shx
  0
STYLE
  2
KANJI1
 70
     0
 40
2.5
 41
0.6
 50
0.0
 71
     0
 42
2.5
  3
txt.shx
  4
extfont.shx
  0
STYLE
  2
KANJI2
 70
     0
 40
3.0
 41
0.666666667
 50
0.0
 71
     0
 42
3.0
  3
txt.shx
  4
extfont.shx
  0
STYLE
  2
KANJI3
 70
     0
 40
3.0
 41
0.9
 50
0.0
 71
     0
 42
3.0
  3
txt.shx
  4
extfont.shx
  0
STYLE
  2
KANJI4
 70
     0
 40
3.0
 41
0.9
 50
0.0
 71
     0
 42
3.0
  3
txt.shx
  4
extfont.shx
  0
STYLE
  2
KANJI5
 70
     0
 40
2.5
 41
1.0
 50
0.0
 71
     0
 42
2.5
  3
txt.shx
  4
extfont.shx
  0
STYLE
  2
KANJI6
 70
     0
 40
4.0
 41
0.9
 50
0.0
 71
     0
 42
4.0
  3
txt.shx
  4
extfont.shx
  0
STYLE
  2
KANJI7
 70
     0
 40
3.5
 41
0.9
 50
0.0
 71
     0
 42
3.5
  3
txt.shx
  4
extfont.shx
  0
STYLE
  2
KANJI8
 70
     0
 40
5.8
 41
0.827586207
 50
0.0
 71
     0
 42
5.8
  3
txt.shx
  4
extfont.shx
  0
ENDTAB
  0
TABLE
  2
VIEW
 70
     0
  0
ENDTAB
  0
ENDSEC
  0
SECTION
  2
BLOCKS
  0
ENDSEC
  0
SECTION
  2
ENTITIES
  0
ARC
  8
0
  6
CONTINUOUS
 62
     1
 10
75.0
 20
148.75
 30
0.0
 40
1.25
 50
0.0
 51
90.0
  0
LINE
  8
0
  6
CONTINUOUS
 62
     1
 10
45.0
 20
150.0
 30
0.0
 11
75.0
 21
150.0
 31
0.0
  0
ARC
  8
0
  6
CONTINUOUS
 62
     1
 10
45.0
 20
148.75
 30
0.0
 40
1.25
 50
90.0
 51
180.0
  0
LINE
  8
0
  6
CONTINUOUS
 62
     1
 10
76.25
 20
148.75
 30
0.0
 11
76.25
 21
121.25
 31
0.0
  0
ARC
  8
0
  6
CONTINUOUS
 62
     1
 10
75.0
 20
121.25
 30
0.0
 40
1.25
 50
270.0
 51
0.0
  0
LINE
  8
0
  6
CONTINUOUS
 62
     1
 10
75.0
 20
120.0
 30
0.0
 11
45.0
 21
120.0
 31
0.0
  0
LINE
  8
0
  6
CONTINUOUS
 62
     1
 10
43.75
 20
121.25
 30
0.0
 11
43.75
 21
148.75
 31
0.0
  0
ARC
  8
0
  6
CONTINUOUS
 62
     1
 10
45.0
 20
121.25
 30
0.0
 40
1.25
 50
180.0
 51
270.0
  0
ARC
  8
0
  6
CONTINUOUS
 62
     1
 10
195.0
 20
148.75
 30
0.0
 40
1.25
 50
0.0
 51
90.0
  0
LINE
  8
0
  6
CONTINUOUS
 62
     1
 10
165.0
 20
150.0
 30
0.0
 11
195.0
 21
150.0
 31
0.0
  0
ARC
  8
0
  6
CONTINUOUS
 62
     1
 10
165.0
 20
148.75
 30
0.0
 40
1.25
 50
90.0
 51
180.0
  0
LINE
  8
0
  6
CONTINUOUS
 62
     1
 10
163.75
 20
121.25
 30
0.0
 11
163.75
 21
148.75
 31
0.0
  0
ARC
  8
0
  6
CONTINUOUS
 62
     1
 10
165.0
 20
121.25
 30
0.0
 40
1.25
 50
180.0
 51
270.0
  0
LINE
  8
0
  6
CONTINUOUS
 62
     1
 10
195.0
 20
120.0
 30
0.0
 11
165.0
 21
120.0
 31
0.0
  0
LINE
  8
0
  6
CONTINUOUS
 62
     1
 10
196.25
 20
148.75
 30
0.0
 11
196.25
 21
121.25
 31
0.0
  0
ARC
  8
0
  6
CONTINUOUS
 62
     1
 10
195.0
 20
121.25
 30
0.0
 40
1.25
 50
270.0
 51
0.0
  0
CIRCLE
  8
0
  6
CONTINUOUS
 62
     1
 10
60.0
 20
70.0
 30
0.0
 40
13.375
  0
LINE
  8
0
  6
CONTINUOUS
 62
     1
 10
101.0
 20
150.0
 30
0.0
 11
101.0
 21
120.0
 31
0.0
  0
POINT
  8
0
  6
CONTINUOUS
 62
     1
 10
101.0
 20
120.0
 30
0.0
  0
LINE
  8
0
  6
CONTINUOUS
 62
     2
 10
47.40004
 20
126.756993884
 30
0.0
 11
47.40004
 21
127.30008
 31
0.0
  0
ARC
  8
0
  6
CONTINUOUS
 62
     2
 10
47.30008
 20
127.30008
 30
0.0
 40
0.09996
 50
0.0
 51
90.0
  0
LINE
  8
0
  6
CONTINUOUS
 62
     2
 10
47.30008
 20
127.40004
 30
0.0
 11
47.10016
 21
127.40004
 31
0.0
  0
LINE
  8
0
  6
CONTINUOUS
 62
     2
 10
47.10016
 20
127.40004
 30
0.0
 11
47.10016
 21
127.59996
 31
0.0
  0
LINE
  8
0
  6
CONTINUOUS
 62
     2
 10
47.10016
 20
127.59996
 30
0.0
 11
47.30008
 21
127.59996
 31
0.0
  0
ARC
  8
0
  6
CONTINUOUS
 62
     2
 10
47.30008
 20
127.69992
 30
0.0
 40
0.09996
 50
270.0
 51
0.0
  0
LINE
  8
0
  6
CONTINUOUS
 62
     2
 10
47.40004
 20
127.69992
 30
0.0
 11
47.40004
 21
128.243006116
 31
0.0
  0
LINE
  8
0
  6
CONTINUOUS
 62
     2
 10
47.59996
 20
128.243006116
 30
0.0
 11
47.59996
 21
127.69992
 31
0.0
  0
ARC
  8
0
  6
CONTINUOUS
 62
     2
 10
47.69992
 20
127.69992
 30
0.0
 40
0.09996
 50
180.0
 51
270.0
  0
LINE
  8
0
  6
CONTINUOUS
 62
     2
 10
47.699920002
 20
127.59996
 30
0.0
 11
47.899840002
 21
127.59996
 31
0.0
  0
LINE
  8
0
  6
CONTINUOUS
 62
     2
 10
47.899840002
 20
127.59996
 30
0.0
 11
47.899840002
 21
127.40004
 31
0.0
  0
LINE
  8
0
  6
CONTINUOUS
 62
     2
 10
47.899840002
 20
127.40004
 30
0.0
 11
47.69992
 21
127.40004
 31
0.0
  0
ARC
  8
0
  6
CONTINUOUS
 62
     2
 10
47.69992
 20
127.30008
 30
0.0
 40
0.09996
 50
90.0
 51
180.0
  0
LINE
  8
0
  6
CONTINUOUS
 62
     2
 10
47.59996
 20
127.30008
 30
0.0
 11
47.59996
 21
126.756993884
 31
0.0
  0
CIRCLE
  8
0
  6
CONTINUOUS
 62
     2
 10
47.5
 20
127.5
 30
0.0
 40
0.7497
  0
LINE
  8
0
  6
CONTINUOUS
 62
     2
 10
72.40004
 20
126.756993884
 30
0.0
 11
72.40004
 21
127.30008
 31
0.0
  0
ARC
  8
0
  6
CONTINUOUS
 62
     2
 10
72.30008
 20
127.30008
 30
0.0
 40
0.09996
 50
0.0
 51
90.0
  0
LINE
  8
0
  6
CONTINUOUS
 62
     2
 10
72.30008
 20
127.40004
 30
0.0
 11
72.10016
 21
127.40004
 31
0.0
  0
LINE
  8
0
  6
CONTINUOUS
 62
     2
 10
72.10016
 20
127.40004
 30
0.0
 11
72.10016
 21
127.59996
 31
0.0
  0
LINE
  8
0
  6
CONTINUOUS
 62
     2
 10
72.10016
 20
127.59996
 30
0.0
 11
72.30008
 21
127.59996
 31
0.0
  0
ARC
  8
0
  6
CONTINUOUS
 62
     2
 10
72.30008
 20
127.69992
 30
0.0
 40
0.09996
 50
270.0
 51
0.0
  0
LINE
  8
0
  6
CONTINUOUS
 62
     2
 10
72.40004
 20
127.69992
 30
0.0
 11
72.40004
 21
128.243006116
 31
0.0
  0
LINE
  8
0
  6
CONTINUOUS
 62
     2
 10
72.59996
 20
128.243006116
 30
0.0
 11
72.59996
 21
127.69992
 31
0.0
  0
ARC
  8
0
  6
CONTINUOUS
 62
     2
 10
72.69992
 20
127.69992
 30
0.0
 40
0.09996
 50
180.0
 51
270.0
  0
LINE
  8
0
  6
CONTINUOUS
 62
     2
 10
72.699920002
 20
127.59996
 30
0.0
 11
72.899840002
 21
127.59996
 31
0.0
  0
LINE
  8
0
  6
CONTINUOUS
 62
     2
 10
72.899840002
 20
127.59996
 30
0.0
 11
72.899840002
 21
127.40004
 31
0.0
  0
LINE
  8
0
  6
CONTINUOUS
 62
     2
 10
72.899840002
 20
127.40004
 30
0.0
 11
72.69992
 21
127.40004
 31
0.0
  0
ARC
  8
0
  6
CONTINUOUS
 62
     2
 10
72.69992
 20
127.30008
 30
0.0
 40
0.09996
 50
90.0
 51
180.0
  0
LINE
  8
0
  6
CONTINUOUS
 62
     2
 10
72.59996
 20
127.30008
 30
0.0
 11
72.59996
 21
126.756993884
 31
0.0
  0
CIRCLE
  8
0
  6
CONTINUOUS
 62
     2
 10
72.5
 20
127.5
 30
0.0
 40
0.7497
  0
CIRCLE
  8
0
  6
CONTINUOUS
 62
     2
 10
60.0
 20
123.25
 30
0.0
 40
1.5
  0
LINE
  8
0
  6
CONTINUOUS
 62
     2
 10
58.520980054
 20
123.5
 30
0.0
 11
61.479019946
 21
123.5
 31
0.0
  0
LINE
  8
0
  6
CONTINUOUS
 62
     2
 10
61.5
 20
123.0
 30
0.0
 11
61.479019946
 21
123.0
 31
0.0
  0
LINE
  8
0
  6
CONTINUOUS
 62
     2
 10
58.520980054
 20
123.0
 30
0.0
 11
61.479019946
 21
123.0
 31
0.0
  0
LINE
  8
0
  6
CONTINUOUS
 62
     2
 10
45.0
 20
120.75
 30
0.0
 11
75.0
 21
120.75
 31
0.0
  0
ARC
  8
0
  6
CONTINUOUS
 62
     2
 10
45.0
 20
121.25
 30
0.0
 40
0.5
 50
180.0
 51
270.0
  0
LINE
  8
0
  6
CONTINUOUS
 62
     2
 10
44.5
 20
148.75
 30
0.0
 11
44.5
 21
121.25
 31
0.0
  0
ARC
  8
0
  6
CONTINUOUS
 62
     2
 10
45.0
 20
148.75
 30
0.0
 40
0.5
 50
90.0
 51
180.0
  0
LINE
  8
0
  6
CONTINUOUS
 62
     2
 10
75.0
 20
149.25
 30
0.0
 11
45.0
 21
149.25
 31
0.0
  0
ARC
  8
0
  6
CONTINUOUS
 62
     2
 10
75.0
 20
148.75
 30
0.0
 40
0.5
 50
0.0
 51
90.0
  0
LINE
  8
0
  6
CONTINUOUS
 62
     2
 10
75.5
 20
121.25
 30
0.0
 11
75.5
 21
148.75
 31
0.0
  0
ARC
  8
0
  6
CONTINUOUS
 62
     2
 10
75.0
 20
121.25
 30
0.0
 40
0.5
 50
270.0
 51
0.0
  0
ARC
  8
0
  6
CONTINUOUS
 62
     2
 10
164.85
 20
148.95
 30
0.0
 40
0.5
 50
90.0
 51
180.0
  0
LINE
  8
0
  6
CONTINUOUS
 62
     2
 10
195.15
 20
149.45
 30
0.0
 11
164.85
 21
149.45
 31
0.0
  0
ARC
  8
0
  6
CONTINUOUS
 62
     2
 10
195.15
 20
148.95
 30
0.0
 40
0.5
 50
0.0
 51
90.0
  0
LINE
  8
0
  6
CONTINUOUS
 62
     2
 10
195.65
 20
121.05
 30
0.0
 11
195.65
 21
148.95
 31
0.0
  0
ARC
  8
0
  6
CONTINUOUS
 62
     2
 10
195.15
 20
121.05
 30
0.0
 40
0.5
 50
270.0
 51
0.0
  0
LINE
  8
0
  6
CONTINUOUS
 62
     2
 10
164.85
 20
120.55
 30
0.0
 11
195.15
 21
120.55
 31
0.0
  0
ARC
  8
0
  6
CONTINUOUS
 62
     2
 10
164.85
 20
121.05
 30
0.0
 40
0.5
 50
180.0
 51
270.0
  0
LINE
  8
0
  6
CONTINUOUS
 62
     2
 10
164.35
 20
148.95
 30
0.0
 11
164.35
 21
121.05
 31
0.0
  0
LINE
  8
0
  6
CONTINUOUS
 62
     2
 10
168.0
 20
155.0
 30
0.0
 11
170.414814566
 21
154.352952387
 31
0.0
  0
LINE
  8
0
  6
CONTINUOUS
 62
     2
 10
168.0
 20
155.0
 30
0.0
 11
170.414814566
 21
155.647047613
 31
0.0
  0
LINE
  8
0
  6
CONTINUOUS
 62
     2
 10
168.0
 20
155.0
 30
0.0
 11
180.0
 21
155.0
 31
0.0
  0
LINE
  8
0
  6
CONTINUOUS
 62
     2
 10
180.0
 20
155.0
 30
0.0
 11
177.585185434
 21
155.647047613
 31
0.0
  0
LINE
  8
0
  6
CONTINUOUS
 62
     2
 10
180.0
 20
155.0
 30
0.0
 11
177.585185434
 21
154.352952387
 31
0.0
  0
LINE
  8
0
  6
CONTINUOUS
 62
     2
 10
180.0
 20
154.9
 30
0.0
 11
180.0
 21
157.0
 31
0.0
  0
TEXT
  8
0
  6
CONTINUOUS
 62
     2
 10
173.52
 20
156.0
 30
0.18
 40
1.8
  1
±０．５
 50
0.0
 41
0.6
 51
0.0
  7
KANJI0
  0
LINE
  8
0
  6
CONTINUOUS
 62
     2
 10
180.0
 20
155.0
 30
0.0
 11
182.414814566
 21
154.352952387
 31
0.0
  0
LINE
  8
0
  6
CONTINUOUS
 62
     2
 10
180.0
 20
155.0
 30
0.0
 11
182.414814566
 21
155.647047613
 31
0.0
  0
LINE
  8
0
  6
CONTINUOUS
 62
     2
 10
180.0
 20
155.0
 30
0.0
 11
192.0
 21
155.0
 31
0.0
  0
LINE
  8
0
  6
CONTINUOUS
 62
     2
 10
192.0
 20
155.0
 30
0.0
 11
189.585185434
 21
155.647047613
 31
0.0
  0
LINE
  8
0
  6
CONTINUOUS
 62
     2
 10
192.0
 20
155.0
 30
0.0
 11
189.585185434
 21
154.352952387
 31
0.0
  0
TEXT
  8
0
  6
CONTINUOUS
 62
     2
 10
185.52
 20
156.0
 30
0.18
 40
1.8
  1
±０．５
 50
0.0
 41
0.6
 51
0.0
  7
KANJI0
  0
LINE
  8
0
  6
CONTINUOUS
 62
     2
 10
163.75
 20
160.0
 30
0.0
 11
166.164814566
 21
159.352952387
 31
0.0
  0
LINE
  8
0
  6
CONTINUOUS
 62
     2
 10
163.75
 20
160.0
 30
0.0
 11
166.164814566
 21
160.647047613
 31
0.0
  0
LINE
  8
0
  6
CONTINUOUS
 62
     2
 10
163.75
 20
160.0
 30
0.0
 11
196.25
 21
160.0
 31
0.0
  0
LINE
  8
0
  6
CONTINUOUS
 62
     2
 10
196.25
 20
160.0
 30
0.0
 11
193.835185434
 21
160.647047613
 31
0.0
  0
LINE
  8
0
  6
CONTINUOUS
 62
     2
 10
196.25
 20
160.0
 30
0.0
 11
193.835185434
 21
159.352952387
 31
0.0
  0
TEXT
  8
0
  6
CONTINUOUS
 62
     2
 10
181.38
 20
161.0
 30
0.18
 40
1.8
  1
±１
 50
0.0
 41
0.6
 51
0.0
  7
KANJI0
  0
LINE
  8
0
  6
CONTINUOUS
 62
     2
 10
206.25
 20
150.0
 30
0.0
 11
205.602952387
 21
147.585185434
 31
0.0
  0
LINE
  8
0
  6
CONTINUOUS
 62
     2
 10
206.25
 20
150.0
 30
0.0
 11
206.897047613
 21
147.585185434
 31
0.0
  0
LINE
  8
0
  6
CONTINUOUS
 62
     2
 10
206.25
 20
150.0
 30
0.0
 11
206.25
 21
120.0
 31
0.0
  0
LINE
  8
0
  6
CONTINUOUS
 62
     2
 10
206.25
 20
120.0
 30
0.0
 11
206.897047613
 21
122.414814566
 31
0.0
  0
LINE
  8
0
  6
CONTINUOUS
 62
     2
 10
206.25
 20
120.0
 30
0.0
 11
205.602952387
 21
122.414814566
 31
0.0
  0
TEXT
  8
0
  6
CONTINUOUS
 62
     2
 10
205.25
 20
135.78
 30
0.18
 40
1.8
  1
±１
 50
90.0
 41
0.6
 51
0.0
  7
KANJI0
  0
LINE
  8
0
  6
CONTINUOUS
 62
     2
 10
48.882029223
 20
62.564857043
 30
0.0
 11
51.249037019
 21
63.369390505
 31
0.0
  0
LINE
  8
0
  6
CONTINUOUS
 62
     2
 10
48.882029223
 20
62.564857043
 30
0.0
 11
50.529651374
 21
64.445107358
 31
0.0
  0
LINE
  8
0
  6
CONTINUOUS
 62
     2
 10
48.882029223
 20
62.564857043
 30
0.0
 11
71.117970777
 21
77.435142957
 31
0.0
  0
LINE
  8
0
  6
CONTINUOUS
 62
     2
 10
71.117970777
 20
77.435142957
 30
0.0
 11
68.750962981
 21
76.630609495
 31
0.0
  0
LINE
  8
0
  6
CONTINUOUS
 62
     2
 10
71.117970777
 20
77.435142957
 30
0.0
 11
69.470348626
 21
75.554892642
 31
0.0
  0
TEXT
  8
0
  6
CONTINUOUS
 62
     2
 10
205.25
 20
131.88
 30
0.25
 40
2.5
  1
６０
 50
90.0
 41
0.6
 51
0.0
  7
KANJI1
  0
TEXT
  8
0
  6
CONTINUOUS
 62
     2
 10
169.62
 20
156.0
 30
0.25
 40
2.5
  1
２４
 50
0.0
 41
0.6
 51
0.0
  7
KANJI1
  0
TEXT
  8
0
  6
CONTINUOUS
 62
     2
 10
181.62
 20
156.0
 30
0.25
 40
2.5
  1
２４
 50
0.0
 41
0.6
 51
0.0
  7
KANJI1
  0
TEXT
  8
0
  6
CONTINUOUS
 62
     2
 10
177.28
 20
161.0
 30
0.25
 40
2.5
  1
６５
 50
0.0
 41
0.6
 51
0.0
  7
KANJI1
  0
LINE
  8
0
  6
CONTINUOUS
 62
     2
 10
45.35
 20
147.9
 30
0.0
 11
45.35
 21
132.0
 31
0.0
  0
ARC
  8
0
  6
CONTINUOUS
 62
     2
 10
45.85
 20
147.9
 30
0.0
 40
0.5
 50
90.0
 51
180.0
  0
LINE
  8
0
  6
CONTINUOUS
 62
     2
 10
74.15
 20
148.4
 30
0.0
 11
45.85
 21
148.4
 31
0.0
  0
LINE
  8
0
  6
CONTINUOUS
 62
     2
 10
74.65
 20
132.0
 30
0.0
 11
74.65
 21
147.9
 31
0.0
  0
ARC
  8
0
  6
CONTINUOUS
 62
     2
 10
74.15
 20
147.9
 30
0.0
 40
0.5
 50
0.0
 51
90.0
  0
LINE
  8
0
  6
CONTINUOUS
 62
     2
 10
45.35
 20
132.0
 30
0.0
 11
74.65
 21
132.0
 31
0.0
  0
LINE
  8
0
  6
CONTINUOUS
 62
     2
 10
163.75
 20
149.75
 30
0.0
 11
163.75
 21
162.0
 31
0.0
  0
LINE
  8
0
  6
CONTINUOUS
 62
     2
 10
196.25
 20
149.75
 30
0.0
 11
196.25
 21
162.0
 31
0.0
  0
LINE
  8
0
  6
CONTINUOUS
 62
     2
 10
196.0
 20
150.0
 30
0.0
 11
208.25
 21
150.0
 31
0.0
  0
LINE
  8
0
  6
CONTINUOUS
 62
     2
 10
196.0
 20
120.0
 30
0.0
 11
208.25
 21
120.0
 31
0.0
  0
POINT
  8
0
  6
CONTINUOUS
 62
     2
 10
175.0
 20
133.35
 30
0.0
  0
LINE
  8
0
  6
CONTINUOUS
 62
     2
 10
168.0
 20
151.5
 30
0.0
 11
168.0
 21
157.0
 31
0.0
  0
LINE
  8
0
  6
CONTINUOUS
 62
     2
 10
192.0
 20
151.5
 30
0.0
 11
192.0
 21
157.0
 31
0.0
  0
CIRCLE
  8
0
  6
CONTINUOUS
 62
     2
 10
180.0
 20
141.95
 30
0.0
 40
2.0
  0
LINE
  8
0
  6
LTYPE1
 62
     2
 10
47.5
 20
129.0
 30
0.0
 11
47.5
 21
126.0
 31
0.0
  0
LINE
  8
0
  6
LTYPE1
 62
     2
 10
46.0
 20
127.5
 30
0.0
 11
49.0
 21
127.5
 31
0.0
  0
LINE
  8
0
  6
LTYPE1
 62
     2
 10
62.5
 20
123.25
 30
0.0
 11
57.5
 21
123.25
 31
0.0
  0
LINE
  8
0
  6
LTYPE1
 62
     2
 10
71.0
 20
127.5
 30
0.0
 11
74.0
 21
127.5
 31
0.0
  0
LINE
  8
0
  6
LTYPE1
 62
     2
 10
72.5
 20
129.0
 30
0.0
 11
72.5
 21
126.0
 31
0.0
  0
LINE
  8
0
  6
LTYPE1
 62
     2
 10
165.0
 20
147.0
 30
0.0
 11
171.0
 21
147.0
 31
0.0
  0
LINE
  8
0
  6
LTYPE1
 62
     2
 10
168.0
 20
151.0
 30
0.0
 11
168.0
 21
144.0
 31
0.0
  0
LINE
  8
0
  6
LTYPE1
 62
     2
 10
189.0
 20
147.0
 30
0.0
 11
195.0
 21
147.0
 31
0.0
  0
LINE
  8
0
  6
LTYPE1
 62
     2
 10
192.0
 20
151.0
 30
0.0
 11
192.0
 21
144.0
 31
0.0
  0
LINE
  8
0
  6
LTYPE1
 62
     2
 10
176.5
 20
141.95
 30
0.0
 11
183.5
 21
141.95
 31
0.0
  0
LINE
  8
0
  6
LTYPE1
 62
     2
 10
170.75
 20
136.75
 30
0.0
 11
176.75
 21
136.75
 31
0.0
  0
LINE
  8
0
  6
LTYPE1
 62
     2
 10
173.75
 20
139.75
 30
0.0
 11
173.75
 21
133.75
 31
0.0
  0
LINE
  8
0
  6
LTYPE1
 62
     2
 10
183.25
 20
136.75
 30
0.0
 11
189.25
 21
136.75
 31
0.0
  0
LINE
  8
0
  6
LTYPE1
 62
     2
 10
165.0
 20
123.0
 30
0.0
 11
171.0
 21
123.0
 31
0.0
  0
LINE
  8
0
  6
LTYPE1
 62
     2
 10
168.0
 20
126.0
 30
0.0
 11
168.0
 21
120.0
 31
0.0
  0
LINE
  8
0
  6
LTYPE1
 62
     2
 10
189.0
 20
123.0
 30
0.0
 11
195.0
 21
123.0
 31
0.0
  0
LINE
  8
0
  6
LTYPE1
 62
     2
 10
192.0
 20
126.0
 30
0.0
 11
192.0
 21
120.0
 31
0.0
  0
LINE
  8
0
  6
LTYPE1
 62
     2
 10
60.0
 20
91.0
 30
0.0
 11
60.0
 21
49.5
 31
0.0
  0
LINE
  8
0
  6
LTYPE1
 62
     2
 10
38.5
 20
70.0
 30
0.0
 11
80.0
 21
70.0
 31
0.0
  0
LINE
  8
0
  6
LTYPE1
 62
     2
 10
60.0
 20
157.225
 30
0.0
 11
60.0
 21
110.0
 31
0.0
  0
LINE
  8
0
  6
LTYPE1
 62
     2
 10
180.0
 20
160.0
 30
0.0
 11
180.0
 21
112.5
 31
0.0
  0
LINE
  8
0
  6
CONTINUOUS
 62
     2
 10
48.415470054
 20
140.4
 30
0.0
 11
50.183237007
 21
142.167766953
 31
0.0
  0
LINE
  8
0
  6
CONTINUOUS
 62
     2
 10
48.415470054
 20
140.4
 30
0.0
 11
49.062517667
 21
142.814814566
 31
0.0
  0
LINE
  8
0
  6
CONTINUOUS
 62
     2
 10
48.415470054
 20
140.4
 30
0.0
 11
59.64493279
 21
159.85
 31
0.0
  0
LINE
  8
0
  6
CONTINUOUS
 62
     2
 10
59.64493279
 20
159.85
 30
0.0
 11
65.34493279
 21
159.85
 31
0.0
  0
LINE
  8
0
  6
CONTINUOUS
 62
     2
 10
101.25
 20
159.85
 30
0.0
 11
98.835185434
 21
160.497047613
 31
0.0
  0
LINE
  8
0
  6
CONTINUOUS
 62
     2
 10
101.25
 20
159.85
 30
0.0
 11
98.835185434
 21
159.202952387
 31
0.0
  0
LINE
  8
0
  6
CONTINUOUS
 62
     2
 10
106.25
 20
155.0
 30
0.0
 11
101.25
 21
155.0
 31
0.0
  0
LINE
  8
0
  6
CONTINUOUS
 62
     2
 10
101.25
 20
154.95
 30
0.0
 11
101.25
 21
157.0
 31
0.0
  0
LINE
  8
0
  6
CONTINUOUS
 62
     2
 10
101.0
 20
151.0
 30
0.0
 11
101.0
 21
157.0
 31
0.0
  0
LINE
  8
0
  6
CONTINUOUS
 62
     2
 10
101.0
 20
155.0
 30
0.0
 11
98.585185434
 21
155.647047613
 31
0.0
  0
LINE
  8
0
  6
CONTINUOUS
 62
     2
 10
101.0
 20
155.0
 30
0.0
 11
98.585185434
 21
154.352952387
 31
0.0
  0
LINE
  8
0
  6
CONTINUOUS
 62
     2
 10
101.25
 20
155.0
 30
0.0
 11
103.664814566
 21
154.352952387
 31
0.0
  0
LINE
  8
0
  6
CONTINUOUS
 62
     2
 10
101.25
 20
155.0
 30
0.0
 11
103.664814566
 21
155.647047613
 31
0.0
  0
LINE
  8
0
  6
CONTINUOUS
 62
     2
 10
101.25
 20
155.0
 30
0.0
 11
101.25
 21
153.0
 31
0.0
  0
LINE
  8
0
  6
CONTINUOUS
 62
     2
 10
95.6
 20
155.0
 30
0.0
 11
106.25
 21
155.0
 31
0.0
  0
LINE
  8
0
  6
CONTINUOUS
 62
     2
 10
101.25
 20
159.85
 30
0.0
 11
103.664814566
 21
159.202952387
 31
0.0
  0
LINE
  8
0
  6
CONTINUOUS
 62
     2
 10
101.25
 20
159.85
 30
0.0
 11
103.664814566
 21
160.497047613
 31
0.0
  0
LINE
  8
0
  6
CONTINUOUS
 62
     2
 10
101.25
 20
155.0
 30
0.0
 11
103.25
 21
155.535898385
 31
0.0
  0
LINE
  8
0
  6
CONTINUOUS
 62
     2
 10
106.25
 20
155.0
 30
0.0
 11
104.25
 21
155.535898385
 31
0.0
  0
LINE
  8
0
  6
CONTINUOUS
 62
     2
 10
101.25
 20
155.0
 30
0.0
 11
103.25
 21
154.464101615
 31
0.0
  0
LINE
  8
0
  6
CONTINUOUS
 62
     2
 10
106.25
 20
155.0
 30
0.0
 11
104.25
 21
154.464101615
 31
0.0
  0
TEXT
  8
0
  6
CONTINUOUS
 62
     2
 10
95.0
 20
156.0
 30
0.25
 40
2.5
  1
０．５
 50
0.0
 41
0.6
 51
0.0
  7
KANJI1
  0
TEXT
  8
0
  6
CONTINUOUS
 62
     2
 10
101.8
 20
156.0
 30
0.25
 40
2.5
  1
１０
 50
0.0
 41
0.6
 51
0.0
  7
KANJI1
  0
LINE
  8
0
  6
CONTINUOUS
 62
     2
 10
101.25
 20
150.0
 30
0.0
 11
101.25
 21
161.85
 31
0.0
  0
LINE
  8
0
  6
CONTINUOUS
 62
     2
 10
106.25
 20
148.775
 30
0.0
 11
106.25
 21
157.0
 31
0.0
  0
LINE
  8
0
  6
CONTINUOUS
 62
     2
 10
110.55
 20
147.0
 30
0.0
 11
109.902952387
 21
144.585185434
 31
0.0
  0
LINE
  8
0
  6
CONTINUOUS
 62
     2
 10
110.55
 20
147.0
 30
0.0
 11
111.197047613
 21
144.585185434
 31
0.0
  0
TEXT
  8
0
  6
CONTINUOUS
 62
     2
 10
109.55
 20
130.5
 30
0.5
 40
3.0
  1
φ５２
 50
90.0
 41
0.666666667
 51
0.0
  7
KANJI2
  0
LINE
  8
0
  6
LTYPE1
 62
     2
 10
108.0
 20
147.05
 30
0.0
 11
100.2
 21
147.05
 31
0.0
  0
LINE
  8
0
  6
LTYPE1
 62
     2
 10
100.2
 20
122.95
 30
0.0
 11
107.6
 21
122.95
 31
0.0
  0
LINE
  8
0
  6
CONTINUOUS
 62
     2
 10
181.0
 20
144.0
 30
0.0
 11
181.630116473
 21
146.419287753
 31
0.0
  0
LINE
  8
0
  6
CONTINUOUS
 62
     2
 10
181.0
 20
144.0
 30
0.0
 11
182.755340749
 21
145.780106416
 31
0.0
  0
TEXT
  8
0
  6
CONTINUOUS
 62
     2
 10
191.741727709
 20
167.75
 30
0.3
 40
3.0
  1
注１
 50
0.0
 41
0.9
 51
0.0
  7
KANJI3
  0
LINE
  8
0
  6
CONTINUOUS
 62
     2
 10
191.991727709
 20
163.35
 30
0.0
 11
216.491727709
 21
163.35
 31
0.0
  0
LINE
  8
0
  6
CONTINUOUS
 62
     2
 10
181.0
 20
144.0
 30
0.0
 11
191.991727709
 21
163.35
 31
0.0
  0
TEXT
  8
0
  6
CONTINUOUS
 62
     2
 10
59.64493279
 20
160.85
 30
0.3
 40
3.0
  1
指針
 50
0.0
 41
0.9
 51
0.0
  7
KANJI3
  0
TEXT
  8
0
  6
CONTINUOUS
 62
     2
 10
191.991727709
 20
164.35
 30
0.3
 40
3.0
  1
感度調整用抵抗器
 50
0.0
 41
0.9
 51
0.0
  7
KANJI3
  0
CIRCLE
  8
0
  6
CONTINUOUS
 62
     2
 10
168.0
 20
147.0
 30
0.0
 40
2.0
  0
CIRCLE
  8
0
  6
CONTINUOUS
 62
     2
 10
168.0
 20
147.0
 30
0.0
 40
0.75
  0
LINE
  8
0
  6
CONTINUOUS
 62
     2
 10
168.0
 20
148.6
 30
0.0
 11
166.614359354
 21
147.8
 31
0.0
  0
LINE
  8
0
  6
CONTINUOUS
 62
     2
 10
166.614359354
 20
147.8
 30
0.0
 11
166.614359354
 21
146.2
 31
0.0
  0
LINE
  8
0
  6
CONTINUOUS
 62
     2
 10
166.614359354
 20
146.2
 30
0.0
 11
168.0
 21
145.4
 31
0.0
  0
LINE
  8
0
  6
CONTINUOUS
 62
     2
 10
168.0
 20
145.4
 30
0.0
 11
169.385640646
 21
146.2
 31
0.0
  0
LINE
  8
0
  6
CONTINUOUS
 62
     2
 10
169.385640646
 20
146.2
 30
0.0
 11
169.385640646
 21
147.8
 31
0.0
  0
LINE
  8
0
  6
CONTINUOUS
 62
     2
 10
169.385640646
 20
147.8
 30
0.0
 11
168.0
 21
148.6
 31
0.0
  0
CIRCLE
  8
0
  6
CONTINUOUS
 62
     2
 10
192.0
 20
147.0
 30
0.0
 40
2.0
  0
CIRCLE
  8
0
  6
CONTINUOUS
 62
     2
 10
192.0
 20
147.0
 30
0.0
 40
0.75
  0
LINE
  8
0
  6
CONTINUOUS
 62
     2
 10
192.0
 20
148.6
 30
0.0
 11
190.614359354
 21
147.8
 31
0.0
  0
LINE
  8
0
  6
CONTINUOUS
 62
     2
 10
190.614359354
 20
147.8
 30
0.0
 11
190.614359354
 21
146.2
 31
0.0
  0
LINE
  8
0
  6
CONTINUOUS
 62
     2
 10
190.614359354
 20
146.2
 30
0.0
 11
192.0
 21
145.4
 31
0.0
  0
LINE
  8
0
  6
CONTINUOUS
 62
     2
 10
192.0
 20
145.4
 30
0.0
 11
193.385640646
 21
146.2
 31
0.0
  0
LINE
  8
0
  6
CONTINUOUS
 62
     2
 10
193.385640646
 20
146.2
 30
0.0
 11
193.385640646
 21
147.8
 31
0.0
  0
LINE
  8
0
  6
CONTINUOUS
 62
     2
 10
193.385640646
 20
147.8
 30
0.0
 11
192.0
 21
148.6
 31
0.0
  0
CIRCLE
  8
0
  6
CONTINUOUS
 62
     2
 10
168.0
 20
123.0
 30
0.0
 40
2.0
  0
CIRCLE
  8
0
  6
CONTINUOUS
 62
     2
 10
168.0
 20
123.0
 30
0.0
 40
0.75
  0
LINE
  8
0
  6
CONTINUOUS
 62
     2
 10
168.0
 20
124.6
 30
0.0
 11
166.614359354
 21
123.8
 31
0.0
  0
LINE
  8
0
  6
CONTINUOUS
 62
     2
 10
166.614359354
 20
123.8
 30
0.0
 11
166.614359354
 21
122.2
 31
0.0
  0
LINE
  8
0
  6
CONTINUOUS
 62
     2
 10
166.614359354
 20
122.2
 30
0.0
 11
168.0
 21
121.4
 31
0.0
  0
LINE
  8
0
  6
CONTINUOUS
 62
     2
 10
168.0
 20
121.4
 30
0.0
 11
169.385640646
 21
122.2
 31
0.0
  0
LINE
  8
0
  6
CONTINUOUS
 62
     2
 10
169.385640646
 20
122.2
 30
0.0
 11
169.385640646
 21
123.8
 31
0.0
  0
LINE
  8
0
  6
CONTINUOUS
 62
     2
 10
169.385640646
 20
123.8
 30
0.0
 11
168.0
 21
124.6
 31
0.0
  0
CIRCLE
  8
0
  6
CONTINUOUS
 62
     2
 10
192.0
 20
123.0
 30
0.0
 40
2.0
  0
CIRCLE
  8
0
  6
CONTINUOUS
 62
     2
 10
192.0
 20
123.0
 30
0.0
 40
0.75
  0
LINE
  8
0
  6
CONTINUOUS
 62
     2
 10
192.0
 20
124.6
 30
0.0
 11
190.614359354
 21
123.8
 31
0.0
  0
LINE
  8
0
  6
CONTINUOUS
 62
     2
 10
190.614359354
 20
123.8
 30
0.0
 11
190.614359354
 21
122.2
 31
0.0
  0
LINE
  8
0
  6
CONTINUOUS
 62
     2
 10
190.614359354
 20
122.2
 30
0.0
 11
192.0
 21
121.4
 31
0.0
  0
LINE
  8
0
  6
CONTINUOUS
 62
     2
 10
192.0
 20
121.4
 30
0.0
 11
193.385640646
 21
122.2
 31
0.0
  0
LINE
  8
0
  6
CONTINUOUS
 62
     2
 10
193.385640646
 20
122.2
 30
0.0
 11
193.385640646
 21
123.8
 31
0.0
  0
LINE
  8
0
  6
CONTINUOUS
 62
     2
 10
193.385640646
 20
123.8
 30
0.0
 11
192.0
 21
124.6
 31
0.0
  0
LINE
  8
0
  6
CONTINUOUS
 62
     2
 10
173.75
 20
138.775
 30
0.0
 11
171.996298557
 21
137.7625
 31
0.0
  0
LINE
  8
0
  6
CONTINUOUS
 62
     2
 10
171.996298557
 20
137.7625
 30
0.0
 11
171.996298557
 21
135.7375
 31
0.0
  0
LINE
  8
0
  6
CONTINUOUS
 62
     2
 10
171.996298557
 20
135.7375
 30
0.0
 11
173.75
 21
134.725
 31
0.0
  0
LINE
  8
0
  6
CONTINUOUS
 62
     2
 10
173.75
 20
134.725
 30
0.0
 11
175.503701443
 21
135.7375
 31
0.0
  0
LINE
  8
0
  6
CONTINUOUS
 62
     2
 10
175.503701443
 20
135.7375
 30
0.0
 11
175.503701443
 21
137.7625
 31
0.0
  0
LINE
  8
0
  6
CONTINUOUS
 62
     2
 10
175.503701443
 20
137.7625
 30
0.0
 11
173.75
 21
138.775
 31
0.0
  0
CIRCLE
  8
0
  6
CONTINUOUS
 62
     2
 10
173.75
 20
136.75
 30
0.0
 40
0.8
  0
CIRCLE
  8
0
  6
CONTINUOUS
 62
     2
 10
173.75
 20
136.75
 30
0.0
 40
1.0
  0
CIRCLE
  8
0
  6
CONTINUOUS
 62
     2
 10
173.75
 20
136.75
 30
0.0
 40
2.25
  0
LINE
  8
0
  6
CONTINUOUS
 62
     2
 10
186.25
 20
138.775
 30
0.0
 11
184.496298557
 21
137.7625
 31
0.0
  0
LINE
  8
0
  6
CONTINUOUS
 62
     2
 10
184.496298557
 20
137.7625
 30
0.0
 11
184.496298557
 21
135.7375
 31
0.0
  0
LINE
  8
0
  6
CONTINUOUS
 62
     2
 10
184.496298557
 20
135.7375
 30
0.0
 11
186.25
 21
134.725
 31
0.0
  0
LINE
  8
0
  6
CONTINUOUS
 62
     2
 10
186.25
 20
134.725
 30
0.0
 11
188.003701443
 21
135.7375
 31
0.0
  0
LINE
  8
0
  6
CONTINUOUS
 62
     2
 10
188.003701443
 20
135.7375
 30
0.0
 11
188.003701443
 21
137.7625
 31
0.0
  0
LINE
  8
0
  6
CONTINUOUS
 62
     2
 10
188.003701443
 20
137.7625
 30
0.0
 11
186.25
 21
138.775
 31
0.0
  0
CIRCLE
  8
0
  6
CONTINUOUS
 62
     2
 10
186.25
 20
136.75
 30
0.0
 40
0.8
  0
CIRCLE
  8
0
  6
CONTINUOUS
 62
     2
 10
186.25
 20
136.75
 30
0.0
 40
1.0
  0
CIRCLE
  8
0
  6
CONTINUOUS
 62
     2
 10
186.25
 20
136.75
 30
0.0
 40
2.25
  0
LINE
  8
0
  6
CONTINUOUS
 62
     2
 10
101.0
 20
149.0
 30
0.0
 11
101.25
 21
149.0
 31
0.0
  0
LINE
  8
0
  6
CONTINUOUS
 62
     2
 10
101.25
 20
145.0
 30
0.0
 11
101.0
 21
145.0
 31
0.0
  0
LINE
  8
0
  6
CONTINUOUS
 62
     2
 10
101.25
 20
149.0
 30
0.0
 11
101.25
 21
145.0
 31
0.0
  0
LINE
  8
0
  6
CONTINUOUS
 62
     2
 10
103.6
 20
148.575
 30
0.0
 11
103.8
 21
148.375
 31
0.0
  0
LINE
  8
0
  6
CONTINUOUS
 62
     2
 10
103.575
 20
147.75
 30
0.0
 11
103.775
 21
147.95
 31
0.0
  0
LINE
  8
0
  6
CONTINUOUS
 62
     2
 10
103.775
 20
147.55
 30
0.0
 11
103.575
 21
147.75
 31
0.0
  0
LINE
  8
0
  6
CONTINUOUS
 62
     2
 10
102.6
 20
148.575
 30
0.0
 11
103.6
 21
148.575
 31
0.0
  0
LINE
  8
0
  6
CONTINUOUS
 62
     2
 10
102.6
 20
147.75
 30
0.0
 11
103.575
 21
147.75
 31
0.0
  0
LINE
  8
0
  6
CONTINUOUS
 62
     2
 10
103.6
 20
145.475
 30
0.0
 11
103.8
 21
145.675
 31
0.0
  0
LINE
  8
0
  6
CONTINUOUS
 62
     2
 10
103.6
 20
145.475
 30
0.0
 11
102.6
 21
145.475
 31
0.0
  0
LINE
  8
0
  6
CONTINUOUS
 62
     2
 10
102.6
 20
145.475
 30
0.0
 11
102.6
 21
148.575
 31
0.0
  0
LINE
  8
0
  6
CONTINUOUS
 62
     2
 10
103.8
 20
148.375
 30
0.0
 11
103.8
 21
145.675
 31
0.0
  0
LINE
  8
0
  6
CONTINUOUS
 62
     2
 10
103.8
 20
147.775
 30
0.0
 11
106.25
 21
147.775
 31
0.0
  0
LINE
  8
0
  6
CONTINUOUS
 62
     2
 10
106.23
 20
147.6
 30
0.0
 11
103.8
 21
147.6
 31
0.0
  0
LINE
  8
0
  6
CONTINUOUS
 62
     2
 10
102.6
 20
148.575
 30
0.0
 11
102.3
 21
148.875
 31
0.0
  0
LINE
  8
0
  6
CONTINUOUS
 62
     2
 10
102.3
 20
148.875
 30
0.0
 11
102.3
 21
145.175
 31
0.0
  0
LINE
  8
0
  6
CONTINUOUS
 62
     2
 10
102.6
 20
145.475
 30
0.0
 11
102.3
 21
145.175
 31
0.0
  0
LINE
  8
0
  6
CONTINUOUS
 62
     2
 10
102.3
 20
146.5
 30
0.0
 11
101.25
 21
146.5
 31
0.0
  0
LINE
  8
0
  6
CONTINUOUS
 62
     2
 10
101.25
 20
147.75
 30
0.0
 11
102.3
 21
147.75
 31
0.0
  0
LINE
  8
0
  6
CONTINUOUS
 62
     2
 10
102.3
 20
147.6
 30
0.0
 11
101.25
 21
147.6
 31
0.0
  0
LINE
  8
0
  6
CONTINUOUS
 62
     2
 10
106.25
 20
147.775
 30
0.0
 11
106.25
 21
146.325
 31
0.0
  0
LINE
  8
0
  6
CONTINUOUS
 62
     2
 10
106.25
 20
146.325
 30
0.0
 11
103.8
 21
146.325
 31
0.0
  0
LINE
  8
0
  6
CONTINUOUS
 62
     2
 10
103.8
 20
146.5
 30
0.0
 11
106.25
 21
146.5
 31
0.0
  0
LINE
  8
0
  6
CONTINUOUS
 62
     2
 10
103.585
 20
146.325
 30
0.0
 11
102.6
 21
146.325
 31
0.0
  0
LINE
  8
0
  6
CONTINUOUS
 62
     2
 10
101.25
 20
146.325
 30
0.0
 11
102.3
 21
146.325
 31
0.0
  0
LINE
  8
0
  6
CONTINUOUS
 62
     2
 10
103.585
 20
146.325
 30
0.0
 11
103.785
 21
146.525
 31
0.0
  0
LINE
  8
0
  6
CONTINUOUS
 62
     2
 10
103.785
 20
146.125
 30
0.0
 11
103.585
 21
146.325
 31
0.0
  0
TEXT
  8
0
  6
CONTINUOUS
 62
     2
 10
54.044101461
 20
67.581250152
 30
0.25
 40
2.5
  1
　５３．５
 50
33.772626229
 41
0.6
 51
0.0
  7
KANJI1
  0
TEXT
  8
0
  6
CONTINUOUS
 62
     2
 10
60.622235637
 20
73.347665521
 30
0.18
 40
1.8
  1
＋０．５
 50
33.772626229
 41
0.6
 51
0.0
  7
KANJI0
  0
TEXT
  8
0
  6
CONTINUOUS
 62
     2
 10
61.822853007
 20
71.751415248
 30
0.18
 40
1.8
  1
－０
 50
33.772626229
 41
0.6
 51
0.0
  7
KANJI0
  0
TEXT
  8
0
  6
CONTINUOUS
 62
     1
 10
51.55
 20
45.45
 30
0.3
 40
3.0
  1
パネルカット
 50
0.0
 41
0.9
 51
0.0
  7
KANJI3
  0
LINE
  8
0
  6
CONTINUOUS
 62
     1
 10
50.8
 20
44.9
 30
0.0
 11
69.3
 21
44.9
 31
0.0
  0
LINE
  8
0
  6
CONTINUOUS
 62
     2
 10
59.6
 20
121.9
 30
0.0
 11
58.222525321
 21
119.813720175
 31
0.0
  0
LINE
  8
0
  6
CONTINUOUS
 62
     2
 10
59.6
 20
121.9
 30
0.0
 11
59.450211848
 21
119.404491333
 31
0.0
  0
LINE
  8
0
  6
CONTINUOUS
 62
     2
 10
59.6
 20
121.9
 30
0.0
 11
54.6
 21
106.9
 31
0.0
  0
LINE
  8
0
  6
CONTINUOUS
 62
     2
 10
54.6
 20
106.9
 30
0.0
 11
32.3
 21
106.9
 31
0.0
  0
TEXT
  8
0
  6
CONTINUOUS
 62
     2
 10
32.3
 20
107.9
 30
0.1
 40
3.0
  1
機械的零位調整器
 50
0.0
 41
0.9
 51
0.0
  7
KANJI4
  0
LINE
  8
0
  6
CONTINUOUS
 62
     2
 10
104.861320755
 20
122.1
 30
0.0
 11
105.026353334
 21
119.605453098
 31
0.0
  0
LINE
  8
0
  6
CONTINUOUS
 62
     2
 10
104.861320755
 20
122.1
 30
0.0
 11
106.251516612
 21
120.022175301
 31
0.0
  0
LINE
  8
0
  6
CONTINUOUS
 62
     2
 10
104.861320755
 20
122.1
 30
0.0
 11
109.861320755
 21
107.4
 31
0.0
  0
POINT
  8
0
  6
CONTINUOUS
 62
     2
 10
181.261320755
 20
107.3
 30
0.0
  0
LINE
  8
0
  6
CONTINUOUS
 62
     2
 10
181.261320755
 20
107.3
 30
0.0
 11
201.461320755
 21
107.3
 31
0.0
  0
POINT
  8
0
  6
CONTINUOUS
 62
     2
 10
181.261320755
 20
107.3
 30
0.0
  0
LINE
  8
0
  6
CONTINUOUS
 62
     2
 10
181.261320755
 20
107.3
 30
0.0
 11
201.461320755
 21
107.3
 31
0.0
  0
POINT
  8
0
  6
CONTINUOUS
 62
     2
 10
181.261320755
 20
107.3
 30
0.0
  0
LINE
  8
0
  6
CONTINUOUS
 62
     2
 10
181.261320755
 20
107.3
 30
0.0
 11
201.461320755
 21
107.3
 31
0.0
  0
POINT
  8
0
  6
CONTINUOUS
 62
     2
 10
181.261320755
 20
107.3
 30
0.0
  0
LINE
  8
0
  6
CONTINUOUS
 62
     2
 10
181.261320755
 20
107.3
 30
0.0
 11
201.461320755
 21
107.3
 31
0.0
  0
LINE
  8
0
  6
CONTINUOUS
 62
     2
 10
181.261320755
 20
107.3
 30
0.0
 11
201.461320755
 21
107.3
 31
0.0
  0
POINT
  8
0
  6
CONTINUOUS
 62
     2
 10
181.261320755
 20
107.3
 30
0.0
  0
LINE
  8
0
  6
CONTINUOUS
 62
     2
 10
181.261320755
 20
107.3
 30
0.0
 11
201.461320755
 21
107.3
 31
0.0
  0
POINT
  8
0
  6
CONTINUOUS
 62
     2
 10
181.261320755
 20
107.3
 30
0.0
  0
LINE
  8
0
  6
CONTINUOUS
 62
     2
 10
181.261320755
 20
107.3
 30
0.0
 11
201.461320755
 21
107.3
 31
0.0
  0
POINT
  8
0
  6
CONTINUOUS
 62
     2
 10
181.261320755
 20
107.3
 30
0.0
  0
LINE
  8
0
  6
CONTINUOUS
 62
     2
 10
181.261320755
 20
107.3
 30
0.0
 11
201.461320755
 21
107.3
 31
0.0
  0
POINT
  8
0
  6
CONTINUOUS
 62
     2
 10
181.261320755
 20
107.3
 30
0.0
  0
LINE
  8
0
  6
CONTINUOUS
 62
     2
 10
181.261320755
 20
107.3
 30
0.0
 11
201.461320755
 21
107.3
 31
0.0
  0
POINT
  8
0
  6
CONTINUOUS
 62
     2
 10
181.261320755
 20
107.3
 30
0.0
  0
LINE
  8
0
  6
CONTINUOUS
 62
     2
 10
181.261320755
 20
107.3
 30
0.0
 11
201.461320755
 21
107.3
 31
0.0
  0
POINT
  8
0
  6
CONTINUOUS
 62
     2
 10
181.261320755
 20
107.3
 30
0.0
  0
LINE
  8
0
  6
CONTINUOUS
 62
     2
 10
181.261320755
 20
107.3
 30
0.0
 11
201.461320755
 21
107.3
 31
0.0
  0
POINT
  8
0
  6
CONTINUOUS
 62
     2
 10
181.261320755
 20
107.3
 30
0.0
  0
LINE
  8
0
  6
CONTINUOUS
 62
     2
 10
181.261320755
 20
107.3
 30
0.0
 11
201.461320755
 21
107.3
 31
0.0
  0
TEXT
  8
0
  6
CONTINUOUS
 62
     2
 10
183.311320755
 20
108.2
 30
0.1
 40
3.0
  1
直流計器のみ＋記号を表示
 50
0.0
 41
0.9
 51
0.0
  7
KANJI4
  0
LINE
  8
0
  6
CONTINUOUS
 62
     2
 10
181.261320755
 20
107.3
 30
0.0
 11
217.061320755
 21
107.3
 31
0.0
  0
TEXT
  8
0
  6
CONTINUOUS
 62
     2
 10
109.861320755
 20
108.4
 30
0.1
 40
3.0
  1
Ｍ３取付ボルト
 50
0.0
 41
0.9
 51
0.0
  7
KANJI4
  0
LINE
  8
0
  6
CONTINUOUS
 62
     2
 10
109.861320755
 20
107.4
 30
0.0
 11
128.9
 21
107.4
 31
0.0
  0
ARC
  8
0
  6
CONTINUOUS
 62
     1
 10
95.75
 20
121.191391109
 30
0.0
 40
0.5
 50
180.0
 51
262.874983651
  0
LINE
  8
0
  6
CONTINUOUS
 62
     1
 10
95.25
 20
148.808608891
 30
0.0
 11
95.25
 21
121.191391109
 31
0.0
  0
ARC
  8
0
  6
CONTINUOUS
 62
     1
 10
95.75
 20
148.808608891
 30
0.0
 40
0.5
 50
97.125016349
 51
180.0
  0
LINE
  8
0
  6
CONTINUOUS
 62
     2
 10
95.25
 20
148.4
 30
0.0
 11
95.0
 21
148.4
 31
0.0
  0
LINE
  8
0
  6
CONTINUOUS
 62
     2
 10
95.0
 20
148.4
 30
0.0
 11
95.0
 21
132.0
 31
0.0
  0
LINE
  8
0
  6
CONTINUOUS
 62
     2
 10
95.0
 20
132.0
 30
0.0
 11
95.25
 21
132.0
 31
0.0
  0
LINE
  8
0
  6
CONTINUOUS
 62
     1
 10
101.0
 20
150.0
 30
0.0
 11
95.687982633
 21
149.335997829
 31
0.0
  0
LINE
  8
0
  6
CONTINUOUS
 62
     1
 10
95.687982633
 20
120.664002171
 30
0.0
 11
101.0
 21
120.0
 31
0.0
  0
LINE
  8
0
  6
CONTINUOUS
 62
     2
 10
95.0
 20
159.85
 30
0.0
 11
97.414814566
 21
159.202952387
 31
0.0
  0
LINE
  8
0
  6
CONTINUOUS
 62
     2
 10
95.0
 20
159.85
 30
0.0
 11
97.414814566
 21
160.497047613
 31
0.0
  0
POINT
  8
0
  6
CONTINUOUS
 62
     2
 10
95.0
 20
159.85
 30
0.0
  0
LINE
  8
0
  6
CONTINUOUS
 62
     2
 10
95.0
 20
149.4
 30
0.0
 11
95.0
 21
160.65
 31
0.0
  0
LINE
  8
0
  6
CONTINUOUS
 62
     2
 10
101.25
 20
159.85
 30
0.0
 11
95.0
 21
159.85
 31
0.0
  0
TEXT
  8
0
  6
CONTINUOUS
 62
     2
 10
96.473316482
 20
160.85
 30
0.25
 40
2.5
  1
１２
 50
0.0
 41
0.6
 51
0.0
  7
KANJI1
  0
TEXT
  8
0
  6
CONTINUOUS
 62
     2
 10
134.3
 20
108.3
 30
0.1
 40
3.0
  1
Ｍ４ターミナルネジ
 50
0.0
 41
0.9
 51
0.0
  7
KANJI4
  0
LINE
  8
0
  6
CONTINUOUS
 62
     2
 10
134.3
 20
107.3
 30
0.0
 11
159.211845994
 21
107.3
 31
0.0
  0
LINE
  8
0
  6
LTYPE1
 62
     2
 10
186.25
 20
139.75
 30
0.0
 11
186.25
 21
133.75
 31
0.0
  0
LINE
  8
0
  6
CONTINUOUS
 62
     2
 10
200.0
 20
147.0
 30
0.0
 11
199.352952387
 21
144.585185434
 31
0.0
  0
LINE
  8
0
  6
CONTINUOUS
 62
     2
 10
200.0
 20
147.0
 30
0.0
 11
200.647047613
 21
144.585185434
 31
0.0
  0
LINE
  8
0
  6
CONTINUOUS
 62
     2
 10
200.0
 20
147.0
 30
0.0
 11
200.0
 21
135.0
 31
0.0
  0
LINE
  8
0
  6
CONTINUOUS
 62
     2
 10
196.5
 20
147.0
 30
0.0
 11
202.0
 21
147.0
 31
0.0
  0
LINE
  8
0
  6
CONTINUOUS
 62
     2
 10
200.0
 20
135.0
 30
0.0
 11
200.647047613
 21
137.414814566
 31
0.0
  0
LINE
  8
0
  6
CONTINUOUS
 62
     2
 10
200.0
 20
135.0
 30
0.0
 11
199.352952387
 21
137.414814566
 31
0.0
  0
LINE
  8
0
  6
CONTINUOUS
 62
     2
 10
199.9
 20
135.0
 30
0.0
 11
202.0
 21
135.0
 31
0.0
  0
LINE
  8
0
  6
CONTINUOUS
 62
     2
 10
200.0
 20
135.0
 30
0.0
 11
199.352952387
 21
132.585185434
 31
0.0
  0
LINE
  8
0
  6
CONTINUOUS
 62
     2
 10
200.0
 20
135.0
 30
0.0
 11
200.647047613
 21
132.585185434
 31
0.0
  0
LINE
  8
0
  6
CONTINUOUS
 62
     2
 10
200.0
 20
135.0
 30
0.0
 11
200.0
 21
123.0
 31
0.0
  0
LINE
  8
0
  6
CONTINUOUS
 62
     2
 10
200.0
 20
123.0
 30
0.0
 11
200.647047613
 21
125.414814566
 31
0.0
  0
LINE
  8
0
  6
CONTINUOUS
 62
     2
 10
200.0
 20
123.0
 30
0.0
 11
199.352952387
 21
125.414814566
 31
0.0
  0
LINE
  8
0
  6
CONTINUOUS
 62
     2
 10
196.5
 20
123.0
 30
0.0
 11
202.0
 21
123.0
 31
0.0
  0
TEXT
  8
0
  6
CONTINUOUS
 62
     2
 10
199.0
 20
138.018
 30
0.25
 40
2.5
  1
２４
 50
90.0
 41
0.6
 51
0.0
  7
KANJI1
  0
TEXT
  8
0
  6
CONTINUOUS
 62
     2
 10
199.0
 20
126.018
 30
0.25
 40
2.5
  1
２４
 50
90.0
 41
0.6
 51
0.0
  7
KANJI1
  0
TEXT
  8
0
  6
CONTINUOUS
 62
     2
 10
172.549
 20
140.217
 30
0.25
 40
2.5
  1
＋
 50
0.0
 41
1.0
 51
0.0
  7
KANJI5
  0
LINE
  8
0
  6
CONTINUOUS
 62
     2
 10
174.659
 20
140.613
 30
0.0
 11
174.493759757
 21
138.118466845
 31
0.0
  0
LINE
  8
0
  6
CONTINUOUS
 62
     2
 10
174.659
 20
140.613
 30
0.0
 11
175.76316433
 21
138.370050796
 31
0.0
  0
LINE
  8
0
  6
CONTINUOUS
 62
     2
 10
174.659
 20
140.613
 30
0.0
 11
181.261320755
 21
107.3
 31
0.0
  0
LINE
  8
0
  6
CONTINUOUS
 62
     2
 10
181.261320755
 20
107.3
 30
0.0
 11
180.961320755
 21
107.3
 31
0.0
  0
LINE
  8
0
  6
CONTINUOUS
 62
     2
 10
56.591131906
 20
132.0
 30
0.0
 11
48.216631329
 21
140.374368671
 31
0.0
  0
LINE
  8
0
  6
CONTINUOUS
 62
     2
 10
55.704429391
 20
132.295565953
 30
0.0
 11
47.921070032
 21
140.078802718
 31
0.0
  0
LINE
  8
0
  6
CONTINUOUS
 62
     2
 10
48.216631329
 20
140.374368671
 30
0.0
 11
47.921070032
 21
140.078802718
 31
0.0
  0
TEXT
  8
0
  6
CONTINUOUS
 62
     2
 10
199.0
 20
141.918
 30
0.18
 40
1.8
  1
±０．５
 50
90.0
 41
0.6
 51
0.0
  7
KANJI0
  0
TEXT
  8
0
  6
CONTINUOUS
 62
     2
 10
199.0
 20
129.918
 30
0.18
 40
1.8
  1
±０．５
 50
90.0
 41
0.6
 51
0.0
  7
KANJI0
  0
LINE
  8
0
  6
LTYPE2
 62
     2
 10
173.275
 20
140.25
 30
0.0
 11
186.75
 21
140.25
 31
0.0
  0
LINE
  8
0
  6
LTYPE2
 62
     2
 10
186.75
 20
128.75
 30
0.0
 11
173.25
 21
128.75
 31
0.0
  0
ARC
  8
0
  6
LTYPE2
 62
     2
 10
186.75
 20
131.75
 30
0.0
 40
3.0
 50
270.0
 51
0.0
  0
LINE
  8
0
  6
LTYPE2
 62
     2
 10
189.75
 20
137.25
 30
0.0
 11
189.75
 21
131.75
 31
0.0
  0
ARC
  8
0
  6
LTYPE2
 62
     2
 10
186.75
 20
137.25
 30
0.0
 40
3.0
 50
0.0
 51
90.0
  0
ARC
  8
0
  6
LTYPE2
 62
     2
 10
173.25
 20
137.25
 30
0.0
 40
3.0
 50
90.0
 51
180.0
  0
LINE
  8
0
  6
LTYPE2
 62
     2
 10
170.25
 20
131.75
 30
0.0
 11
170.25
 21
137.25
 31
0.0
  0
ARC
  8
0
  6
LTYPE2
 62
     2
 10
173.25
 20
131.75
 30
0.0
 40
3.0
 50
180.0
 51
270.0
  0
LINE
  8
0
  6
CONTINUOUS
 62
     2
 10
134.241727709
 20
154.35
 30
0.0
 11
150.925727709
 21
154.35
 31
0.0
  0
TEXT
  8
0
  6
CONTINUOUS
 62
     2
 10
134.241727709
 20
155.35
 30
0.3
 40
3.0
  1
端子キャップ
 50
0.0
 41
0.9
 51
0.0
  7
KANJI3
  0
CIRCLE
  8
0
  6
CONTINUOUS
 62
     1
 10
180.0
 20
135.0
 30
0.0
 40
13.0
  0
POLYLINE
  8
0
  6
CONTINUOUS
 62
     2
 66
     1
  0
VERTEX
  8
0
  6
CONTINUOUS
 62
     2
 10
110.55
 20
148.0
 30
0.0
  0
VERTEX
  8
0
  6
CONTINUOUS
 62
     2
 10
110.55
 20
122.0
 30
0.0
  0
VERTEX
  8
0
  6
CONTINUOUS
 62
     2
 10
111.197047613
 20
124.414814566
 30
0.0
  0
SEQEND
  0
LINE
  8
0
  6
CONTINUOUS
 62
     2
 10
110.55
 20
122.0
 30
0.0
 11
109.902952387
 21
124.414814566
 31
0.0
  0
LINE
  8
0
  6
CONTINUOUS
 62
     1
 10
101.0
 20
148.0
 30
0.0
 11
102.218
 21
148.0
 31
0.0
  0
LINE
  8
0
  6
CONTINUOUS
 62
     2
 10
82.0
 20
82.0
 30
0.0
 11
81.352952387
 21
79.585185434
 31
0.0
  0
LINE
  8
0
  6
CONTINUOUS
 62
     2
 10
82.0
 20
82.0
 30
0.0
 11
82.647047613
 21
79.585185434
 31
0.0
  0
LINE
  8
0
  6
CONTINUOUS
 62
     2
 10
82.0
 20
82.0
 30
0.0
 11
82.0
 21
70.0
 31
0.0
  0
LINE
  8
0
  6
CONTINUOUS
 62
     2
 10
78.5
 20
82.0
 30
0.0
 11
84.0
 21
82.0
 31
0.0
  0
LINE
  8
0
  6
CONTINUOUS
 62
     2
 10
82.0
 20
70.0
 30
0.0
 11
82.647047613
 21
72.414814566
 31
0.0
  0
LINE
  8
0
  6
CONTINUOUS
 62
     2
 10
82.0
 20
70.0
 30
0.0
 11
81.352952387
 21
72.414814566
 31
0.0
  0
LINE
  8
0
  6
CONTINUOUS
 62
     2
 10
81.9
 20
70.0
 30
0.0
 11
84.0
 21
70.0
 31
0.0
  0
LINE
  8
0
  6
CONTINUOUS
 62
     2
 10
82.0
 20
70.0
 30
0.0
 11
81.352952387
 21
67.585185434
 31
0.0
  0
LINE
  8
0
  6
CONTINUOUS
 62
     2
 10
82.0
 20
70.0
 30
0.0
 11
82.647047613
 21
67.585185434
 31
0.0
  0
LINE
  8
0
  6
CONTINUOUS
 62
     2
 10
82.0
 20
70.0
 30
0.0
 11
82.0
 21
58.0
 31
0.0
  0
LINE
  8
0
  6
CONTINUOUS
 62
     2
 10
82.0
 20
58.0
 30
0.0
 11
82.647047613
 21
60.414814566
 31
0.0
  0
LINE
  8
0
  6
CONTINUOUS
 62
     2
 10
82.0
 20
58.0
 30
0.0
 11
81.352952387
 21
60.414814566
 31
0.0
  0
LINE
  8
0
  6
CONTINUOUS
 62
     2
 10
78.5
 20
58.0
 30
0.0
 11
84.0
 21
58.0
 31
0.0
  0
TEXT
  8
0
  6
CONTINUOUS
 62
     2
 10
81.0
 20
73.018
 30
0.25
 40
2.5
  1
２４
 50
90.0
 41
0.6
 51
0.0
  7
KANJI1
  0
TEXT
  8
0
  6
CONTINUOUS
 62
     2
 10
81.0
 20
61.018
 30
0.25
 40
2.5
  1
２４
 50
90.0
 41
0.6
 51
0.0
  7
KANJI1
  0
TEXT
  8
0
  6
CONTINUOUS
 62
     2
 10
81.0
 20
76.918
 30
0.18
 40
1.8
  1
±０．５
 50
90.0
 41
0.6
 51
0.0
  7
KANJI0
  0
TEXT
  8
0
  6
CONTINUOUS
 62
     2
 10
81.0
 20
64.918
 30
0.18
 40
1.8
  1
±０．５
 50
90.0
 41
0.6
 51
0.0
  7
KANJI0
  0
CIRCLE
  8
0
  6
CONTINUOUS
 62
     1
 10
72.0
 20
82.0
 30
0.0
 40
1.0
  0
CIRCLE
  8
0
  6
CONTINUOUS
 62
     1
 10
48.0
 20
82.0
 30
0.0
 40
1.0
  0
LINE
  8
0
  6
LTYPE1
 62
     2
 10
72.0
 20
78.5
 30
0.0
 11
72.0
 21
85.5
 31
0.0
  0
LINE
  8
0
  6
CONTINUOUS
 62
     2
 10
60.0
 20
88.0
 30
0.0
 11
57.585185434
 21
88.647047613
 31
0.0
  0
LINE
  8
0
  6
CONTINUOUS
 62
     2
 10
60.0
 20
88.0
 30
0.0
 11
57.585185434
 21
87.352952387
 31
0.0
  0
LINE
  8
0
  6
CONTINUOUS
 62
     2
 10
60.0
 20
88.0
 30
0.0
 11
48.0
 21
88.0
 31
0.0
  0
LINE
  8
0
  6
CONTINUOUS
 62
     2
 10
48.0
 20
88.0
 30
0.0
 11
50.414814566
 21
87.352952387
 31
0.0
  0
LINE
  8
0
  6
CONTINUOUS
 62
     2
 10
48.0
 20
88.0
 30
0.0
 11
50.414814566
 21
88.647047613
 31
0.0
  0
LINE
  8
0
  6
CONTINUOUS
 62
     2
 10
60.0
 20
88.0
 30
0.0
 11
62.414814566
 21
87.352952387
 31
0.0
  0
LINE
  8
0
  6
CONTINUOUS
 62
     2
 10
60.0
 20
88.0
 30
0.0
 11
62.414814566
 21
88.647047613
 31
0.0
  0
LINE
  8
0
  6
CONTINUOUS
 62
     2
 10
60.0
 20
88.0
 30
0.0
 11
72.0
 21
88.0
 31
0.0
  0
LINE
  8
0
  6
CONTINUOUS
 62
     2
 10
72.0
 20
88.0
 30
0.0
 11
69.585185434
 21
88.647047613
 31
0.0
  0
LINE
  8
0
  6
CONTINUOUS
 62
     2
 10
72.0
 20
88.0
 30
0.0
 11
69.585185434
 21
87.352952387
 31
0.0
  0
TEXT
  8
0
  6
CONTINUOUS
 62
     2
 10
54.02
 20
89.1
 30
0.18
 40
1.8
  1
±０．５
 50
0.0
 41
0.6
 51
0.0
  7
KANJI0
  0
TEXT
  8
0
  6
CONTINUOUS
 62
     2
 10
50.12
 20
89.1
 30
0.25
 40
2.5
  1
２４
 50
0.0
 41
0.6
 51
0.0
  7
KANJI1
  0
TEXT
  8
0
  6
CONTINUOUS
 62
     2
 10
65.92
 20
89.1
 30
0.18
 40
1.8
  1
±０．５
 50
0.0
 41
0.6
 51
0.0
  7
KANJI0
  0
TEXT
  8
0
  6
CONTINUOUS
 62
     2
 10
62.02
 20
89.1
 30
0.25
 40
2.5
  1
２４
 50
0.0
 41
0.6
 51
0.0
  7
KANJI1
  0
LINE
  8
0
  6
CONTINUOUS
 62
     2
 10
48.0
 20
90.0
 30
0.0
 11
48.0
 21
86.0
 31
0.0
  0
LINE
  8
0
  6
CONTINUOUS
 62
     2
 10
72.0
 20
86.0
 30
0.0
 11
72.0
 21
90.0
 31
0.0
  0
LINE
  8
0
  6
LTYPE1
 62
     2
 10
44.5
 20
82.0
 30
0.0
 11
51.5
 21
82.0
 31
0.0
  0
LINE
  8
0
  6
LTYPE1
 62
     2
 10
48.0
 20
85.5
 30
0.0
 11
48.0
 21
78.5
 31
0.0
  0
LINE
  8
0
  6
LTYPE1
 62
     2
 10
68.5
 20
82.0
 30
0.0
 11
75.5
 21
82.0
 31
0.0
  0
CIRCLE
  8
0
  6
CONTINUOUS
 62
     1
 10
48.0
 20
58.0
 30
0.0
 40
1.0
  0
LINE
  8
0
  6
LTYPE1
 62
     2
 10
48.0
 20
54.5
 30
0.0
 11
48.0
 21
61.5
 31
0.0
  0
LINE
  8
0
  6
LTYPE1
 62
     2
 10
51.5
 20
58.0
 30
0.0
 11
44.5
 21
58.0
 31
0.0
  0
CIRCLE
  8
0
  6
CONTINUOUS
 62
     1
 10
72.0
 20
58.0
 30
0.0
 40
1.0
  0
LINE
  8
0
  6
LTYPE1
 62
     2
 10
72.0
 20
54.5
 30
0.0
 11
72.0
 21
61.5
 31
0.0
  0
LINE
  8
0
  6
LTYPE1
 62
     2
 10
68.5
 20
58.0
 30
0.0
 11
75.5
 21
58.0
 31
0.0
  0
LINE
  8
0
  6
CONTINUOUS
 62
     2
 10
73.449
 20
56.551
 30
0.0
 11
74.079116473
 21
54.131712247
 31
0.0
  0
LINE
  8
0
  6
CONTINUOUS
 62
     2
 10
73.449
 20
56.551
 30
0.0
 11
75.204340749
 21
54.770893584
 31
0.0
  0
LINE
  8
0
  6
CONTINUOUS
 62
     2
 10
73.449
 20
56.551
 30
0.0
 11
78.07859074
 21
48.401
 31
0.0
  0
LINE
  8
0
  6
CONTINUOUS
 62
     2
 10
78.07859074
 20
48.401
 30
0.0
 11
91.07859074
 21
48.401
 31
0.0
  0
TEXT
  8
0
  6
CONTINUOUS
 62
     2
 10
78.07859074
 20
49.401
 30
0.1
 40
3.0
  1
４－φ４
 50
0.0
 41
0.9
 51
0.0
  7
KANJI4
  0
TEXT
  8
0
  6
CONTINUOUS
 62
     2
 10
89.369
 20
49.301
 30
0.18
 40
1.8
  1
－０
 50
0.0
 41
0.6
 51
0.0
  7
KANJI0
  0
TEXT
  8
0
  6
CONTINUOUS
 62
     2
 10
89.369
 20
51.101
 30
0.18
 40
1.8
  1
＋０．５
 50
0.0
 41
0.6
 51
0.0
  7
KANJI0
  0
POLYLINE
  8
0
  6
CONTINUOUS
 62
     2
 66
     1
  0
VERTEX
  8
0
  6
CONTINUOUS
 62
     2
 10
100.875
 20
121.45
 30
0.0
  0
VERTEX
  8
0
  6
CONTINUOUS
 62
     2
 10
101.0
 20
121.45
 30
0.0
  0
VERTEX
  8
0
  6
CONTINUOUS
 62
     2
 10
101.0
 20
124.45
 30
0.0
  0
VERTEX
  8
0
  6
CONTINUOUS
 62
     2
 10
100.875
 20
124.45
 30
0.0
  0
SEQEND
  0
LINE
  8
0
  6
CONTINUOUS
 62
     2
 10
103.75
 20
123.7
 30
0.0
 11
104.75
 21
123.7
 31
0.0
  0
LINE
  8
0
  6
CONTINUOUS
 62
     2
 10
104.75
 20
123.7
 30
0.0
 11
104.75
 21
122.2
 31
0.0
  0
LINE
  8
0
  6
CONTINUOUS
 62
     2
 10
104.75
 20
122.2
 30
0.0
 11
103.75
 21
122.2
 31
0.0
  0
LINE
  8
0
  6
LTYPE3
 62
     2
 10
99.975
 20
122.95
 30
0.0
 11
105.9
 21
122.95
 31
0.0
  0
ARC
  8
0
  6
CONTINUOUS
 62
     2
 10
101.25
 20
122.95
 30
0.0
 40
2.5
 50
343.5
 51
16.5
  0
ARC
  8
0
  6
CONTINUOUS
 62
     2
 10
105.0
 20
122.95
 30
0.0
 40
2.5
 50
163.5
 51
196.3
  0
ARC
  8
0
  6
CONTINUOUS
 62
     2
 10
103.125
 20
124.0125
 30
0.0
 40
0.625
 50
325.0
 51
35.0
  0
ARC
  8
0
  6
CONTINUOUS
 62
     2
 10
103.125
 20
124.0125
 30
0.0
 40
0.625
 50
145.0
 51
215.0
  0
ARC
  8
0
  6
CONTINUOUS
 62
     2
 10
103.125
 20
121.8875
 30
0.0
 40
0.625
 50
145.0
 51
215.0
  0
ARC
  8
0
  6
CONTINUOUS
 62
     2
 10
103.125
 20
121.8875
 30
0.0
 40
0.625
 50
325.0
 51
35.0
  0
LINE
  8
0
  6
CONTINUOUS
 62
     2
 10
102.60048677
 20
122.248333228
 30
0.0
 11
103.63798677
 21
122.248333228
 31
0.0
  0
LINE
  8
0
  6
CONTINUOUS
 62
     2
 10
103.647049337
 20
123.660038362
 30
0.0
 11
102.602950663
 21
123.660038362
 31
0.0
  0
LINE
  8
0
  6
CONTINUOUS
 62
     2
 10
103.640450663
 20
124.375
 30
0.0
 11
102.5
 21
124.375
 31
0.0
  0
LINE
  8
0
  6
CONTINUOUS
 62
     2
 10
103.75
 20
121.8875
 30
0.0
 11
103.75
 21
124.0125
 31
0.0
  0
LINE
  8
0
  6
CONTINUOUS
 62
     2
 10
103.7525
 20
122.2625
 30
0.0
 11
104.74
 21
122.2625
 31
0.0
  0
LINE
  8
0
  6
CONTINUOUS
 62
     2
 10
104.75
 20
123.6425
 30
0.0
 11
103.755
 21
123.6425
 31
0.0
  0
LINE
  8
0
  6
CONTINUOUS
 62
     2
 10
101.0
 20
122.2025
 30
0.0
 11
102.05
 21
122.2025
 31
0.0
  0
LINE
  8
0
  6
CONTINUOUS
 62
     2
 10
102.05
 20
122.2625
 30
0.0
 11
101.0
 21
122.2625
 31
0.0
  0
LINE
  8
0
  6
CONTINUOUS
 62
     2
 10
102.0
 20
124.625
 30
0.0
 11
102.5
 21
124.375
 31
0.0
  0
LINE
  8
0
  6
CONTINUOUS
 62
     2
 10
102.0
 20
124.625
 30
0.0
 11
102.0
 21
121.275
 31
0.0
  0
LINE
  8
0
  6
CONTINUOUS
 62
     2
 10
102.0
 20
121.275
 30
0.0
 11
102.5
 21
121.525
 31
0.0
  0
LINE
  8
0
  6
CONTINUOUS
 62
     2
 10
102.5
 20
121.525
 30
0.0
 11
103.6375
 21
121.525
 31
0.0
  0
LINE
  8
0
  6
CONTINUOUS
 62
     2
 10
102.5
 20
124.375
 30
0.0
 11
102.5
 21
121.525
 31
0.0
  0
LINE
  8
0
  6
CONTINUOUS
 62
     2
 10
102.0
 20
123.65
 30
0.0
 11
101.0
 21
123.65
 31
0.0
  0
LINE
  8
0
  6
CONTINUOUS
 62
     2
 10
102.0
 20
123.5925
 30
0.0
 11
101.0
 21
123.5925
 31
0.0
  0
LINE
  8
0
  6
CONTINUOUS
 62
     1
 10
102.0
 20
121.825
 30
0.0
 11
101.0
 21
121.825
 31
0.0
  0
LINE
  8
0
  6
CONTINUOUS
 62
     2
 10
102.587415926
 20
121.568707963
 30
0.0
 11
102.752448504
 21
119.07416106
 31
0.0
  0
LINE
  8
0
  6
CONTINUOUS
 62
     2
 10
102.587415926
 20
121.568707963
 30
0.0
 11
103.977611783
 21
119.490883264
 31
0.0
  0
LINE
  8
0
  6
CONTINUOUS
 62
     2
 10
102.587415926
 20
121.568707963
 30
0.0
 11
109.051602308
 21
102.564
 31
0.0
  0
LINE
  8
0
  6
CONTINUOUS
 62
     2
 10
109.051602308
 20
102.564
 30
0.0
 11
128.9
 21
102.564
 31
0.0
  0
TEXT
  8
0
  6
CONTINUOUS
 62
     2
 10
109.861320755
 20
103.564
 30
0.1
 40
3.0
  1
フランジナット
 50
0.0
 41
0.9
 51
0.0
  7
KANJI4
  0
TEXT
  8
0
  6
CONTINUOUS
 62
     2
 10
110.55
 20
72.8
 30
0.3
 40
3.0
  1
注１．感度調整用抵抗器は□ＣＦ－６ＡＶ形に限り付きます。（□：Ｄ，Ｓ，Ｃ）
 50
0.0
 41
0.9
 51
0.0
  7
KANJI3
  0
LINE
  8
0
  6
CONTINUOUS
 62
     2
 10
109.15
 20
72.0
 30
0.0
 11
219.7
 21
72.0
 31
0.0
  0
POLYLINE
  8
0
  6
CONTINUOUS
 62
     2
 66
     1
  0
VERTEX
  8
0
  6
CONTINUOUS
 62
     2
 10
101.25
 20
159.85
 30
0.0
  0
VERTEX
  8
0
  6
CONTINUOUS
 62
     2
 10
113.75
 20
159.85
 30
0.0
  0
VERTEX
  8
0
  6
CONTINUOUS
 62
     2
 10
111.335185434
 20
160.497047613
 30
0.0
  0
SEQEND
  0
LINE
  8
0
  6
CONTINUOUS
 62
     2
 10
113.75
 20
159.85
 30
0.0
 11
111.335185434
 21
159.202952387
 31
0.0
  0
LINE
  8
0
  6
CONTINUOUS
 62
     2
 10
113.75
 20
148.0
 30
0.0
 11
113.75
 21
161.85
 31
0.0
  0
LINE
  8
0
  6
CONTINUOUS
 62
     2
 10
113.75
 20
159.85
 30
0.0
 11
116.164814566
 21
159.202952387
 31
0.0
  0
LINE
  8
0
  6
CONTINUOUS
 62
     2
 10
113.75
 20
159.85
 30
0.0
 11
116.164814566
 21
160.497047613
 31
0.0
  0
LINE
  8
0
  6
LTYPE1
 62
     2
 10
111.25
 20
141.95
 30
0.0
 11
116.25
 21
141.95
 31
0.0
  0
LINE
  8
0
  6
CONTINUOUS
 62
     2
 10
113.75
 20
138.8
 30
0.0
 11
114.25
 21
138.8
 31
0.0
  0
LINE
  8
0
  6
CONTINUOUS
 62
     2
 10
114.25
 20
134.8
 30
0.0
 11
113.75
 21
134.8
 31
0.0
  0
LINE
  8
0
  6
CONTINUOUS
 62
     2
 10
114.25
 20
138.8
 30
0.0
 11
114.25
 21
134.8
 31
0.0
  0
LINE
  8
0
  6
CONTINUOUS
 62
     2
 10
118.632253903
 20
138.85
 30
0.0
 11
117.382253903
 21
138.85
 31
0.0
  0
LINE
  8
0
  6
CONTINUOUS
 62
     2
 10
118.632253903
 20
138.85
 30
0.0
 11
118.882253903
 21
138.6
 31
0.0
  0
LINE
  8
0
  6
CONTINUOUS
 62
     2
 10
116.71
 20
138.6
 30
0.0
 11
117.21
 21
138.6
 31
0.0
  0
LINE
  8
0
  6
CONTINUOUS
 62
     2
 10
117.21
 20
138.6
 30
0.0
 11
116.91
 21
136.95
 31
0.0
  0
LINE
  8
0
  6
CONTINUOUS
 62
     2
 10
116.91
 20
136.95
 30
0.0
 11
116.41
 21
136.95
 31
0.0
  0
LINE
  8
0
  6
CONTINUOUS
 62
     2
 10
116.41
 20
136.95
 30
0.0
 11
116.71
 21
138.6
 31
0.0
  0
LINE
  8
0
  6
CONTINUOUS
 62
     2
 10
118.622253903
 20
137.785
 30
0.0
 11
118.882253903
 21
138.085
 31
0.0
  0
LINE
  8
0
  6
CONTINUOUS
 62
     2
 10
117.16
 20
136.65
 30
0.0
 11
116.66
 21
136.65
 31
0.0
  0
LINE
  8
0
  6
CONTINUOUS
 62
     2
 10
118.882253903
 20
136.075
 30
0.0
 11
118.582253903
 21
135.805
 31
0.0
  0
LINE
  8
0
  6
CONTINUOUS
 62
     2
 10
116.41
 20
135.05
 30
0.0
 11
116.91
 21
135.05
 31
0.0
  0
LINE
  8
0
  6
CONTINUOUS
 62
     2
 10
116.66
 20
136.65
 30
0.0
 11
116.41
 21
135.05
 31
0.0
  0
LINE
  8
0
  6
CONTINUOUS
 62
     2
 10
116.91
 20
135.05
 30
0.0
 11
117.16
 21
136.65
 31
0.0
  0
LINE
  8
0
  6
CONTINUOUS
 62
     2
 10
117.382253903
 20
138.85
 30
0.0
 11
117.382253903
 21
134.8
 31
0.0
  0
LINE
  8
0
  6
CONTINUOUS
 62
     2
 10
118.635253903
 20
137.8
 30
0.0
 11
118.885253903
 21
137.6
 31
0.0
  0
LINE
  8
0
  6
CONTINUOUS
 62
     2
 10
118.482253903
 20
137.8
 30
0.0
 11
118.635253903
 21
137.8
 31
0.0
  0
LINE
  8
0
  6
CONTINUOUS
 62
     2
 10
118.882253903
 20
135.5
 30
0.0
 11
118.582253903
 21
135.77
 31
0.0
  0
LINE
  8
0
  6
CONTINUOUS
 62
     2
 10
118.576698348
 20
135.8
 30
0.0
 11
117.382253903
 21
135.8
 31
0.0
  0
LINE
  8
0
  6
CONTINUOUS
 62
     2
 10
117.382253903
 20
137.8
 30
0.0
 11
118.635253903
 21
137.8
 31
0.0
  0
LINE
  8
0
  6
CONTINUOUS
 62
     2
 10
118.882253903
 20
135.075
 30
0.0
 11
118.882253903
 21
138.6
 31
0.0
  0
LINE
  8
0
  6
CONTINUOUS
 62
     2
 10
118.607253903
 20
134.8
 30
0.0
 11
118.882253903
 21
135.075
 31
0.0
  0
LINE
  8
0
  6
CONTINUOUS
 62
     2
 10
117.382253903
 20
134.8
 30
0.0
 11
118.607253903
 21
134.8
 31
0.0
  0
LINE
  8
0
  6
CONTINUOUS
 62
     2
 10
117.064545455
 20
137.8
 30
0.0
 11
117.382253903
 21
137.8
 31
0.0
  0
LINE
  8
0
  6
CONTINUOUS
 62
     2
 10
116.382253903
 20
137.8
 30
0.0
 11
116.564545455
 21
137.8
 31
0.0
  0
LINE
  8
0
  6
CONTINUOUS
 62
     2
 10
116.523636364
 20
137.575
 30
0.0
 11
116.382253903
 21
137.575
 31
0.0
  0
LINE
  8
0
  6
CONTINUOUS
 62
     2
 10
117.382253903
 20
137.575
 30
0.0
 11
117.023636364
 21
137.575
 31
0.0
  0
LINE
  8
0
  6
CONTINUOUS
 62
     2
 10
117.07015625
 20
136.075
 30
0.0
 11
117.382253903
 21
136.075
 31
0.0
  0
LINE
  8
0
  6
CONTINUOUS
 62
     2
 10
116.382253903
 20
136.075
 30
0.0
 11
116.57015625
 21
136.075
 31
0.0
  0
LINE
  8
0
  6
CONTINUOUS
 62
     2
 10
116.5271875
 20
135.8
 30
0.0
 11
116.382253903
 21
135.8
 31
0.0
  0
LINE
  8
0
  6
CONTINUOUS
 62
     2
 10
117.382253903
 20
135.8
 30
0.0
 11
117.0271875
 21
135.8
 31
0.0
  0
LINE
  8
0
  6
CONTINUOUS
 62
     2
 10
115.5
 20
138.85
 30
0.0
 11
114.25
 21
138.85
 31
0.0
  0
LINE
  8
0
  6
CONTINUOUS
 62
     2
 10
115.49
 20
137.785
 30
0.0
 11
115.75
 21
138.085
 31
0.0
  0
LINE
  8
0
  6
CONTINUOUS
 62
     2
 10
115.75
 20
136.075
 30
0.0
 11
115.45
 21
135.805
 31
0.0
  0
LINE
  8
0
  6
CONTINUOUS
 62
     2
 10
115.503
 20
137.8
 30
0.0
 11
115.753
 21
137.6
 31
0.0
  0
LINE
  8
0
  6
CONTINUOUS
 62
     2
 10
115.35
 20
137.8
 30
0.0
 11
115.503
 21
137.8
 31
0.0
  0
LINE
  8
0
  6
CONTINUOUS
 62
     2
 10
115.75
 20
135.5
 30
0.0
 11
115.45
 21
135.77
 31
0.0
  0
LINE
  8
0
  6
CONTINUOUS
 62
     2
 10
115.444444444
 20
135.8
 30
0.0
 11
114.25
 21
135.8
 31
0.0
  0
LINE
  8
0
  6
CONTINUOUS
 62
     2
 10
114.25
 20
137.8
 30
0.0
 11
115.503
 21
137.8
 31
0.0
  0
LINE
  8
0
  6
CONTINUOUS
 62
     2
 10
115.475
 20
134.8
 30
0.0
 11
115.75
 21
135.075
 31
0.0
  0
LINE
  8
0
  6
CONTINUOUS
 62
     2
 10
114.25
 20
134.8
 30
0.0
 11
115.475
 21
134.8
 31
0.0
  0
LINE
  8
0
  6
CONTINUOUS
 62
     2
 10
114.25
 20
138.85
 30
0.0
 11
114.25
 21
134.8
 31
0.0
  0
LINE
  8
0
  6
CONTINUOUS
 62
     2
 10
115.5
 20
138.85
 30
0.0
 11
115.75
 21
138.6
 31
0.0
  0
LINE
  8
0
  6
CONTINUOUS
 62
     2
 10
116.15
 20
134.5
 30
0.0
 11
116.375
 21
134.5
 31
0.0
  0
LINE
  8
0
  6
CONTINUOUS
 62
     2
 10
116.375
 20
134.5
 30
0.0
 11
116.375
 21
139.0
 31
0.0
  0
LINE
  8
0
  6
CONTINUOUS
 62
     2
 10
116.375
 20
139.0
 30
0.0
 11
116.15
 21
139.0
 31
0.0
  0
LINE
  8
0
  6
LTYPE1
 62
     2
 10
112.05
 20
136.75
 30
0.0
 11
121.05
 21
136.75
 31
0.0
  0
LINE
  8
0
  6
CONTINUOUS
 62
     2
 10
115.75
 20
135.075
 30
0.0
 11
115.75
 21
138.6
 31
0.0
  0
LINE
  8
0
  6
CONTINUOUS
 62
     2
 10
116.15
 20
139.0
 30
0.0
 11
116.15
 21
134.5
 31
0.0
  0
LINE
  8
0
  6
LTYPE2
 62
     2
 10
115.75
 20
138.725
 30
0.0
 11
116.15
 21
138.725
 31
0.0
  0
LINE
  8
0
  6
CONTINUOUS
 62
     2
 10
118.2
 20
134.7
 30
0.0
 11
118.694037281
 21
132.249300678
 31
0.0
  0
LINE
  8
0
  6
CONTINUOUS
 62
     2
 10
118.2
 20
134.7
 30
0.0
 11
119.853198496
 21
132.824650771
 31
0.0
  0
LINE
  8
0
  6
CONTINUOUS
 62
     2
 10
118.2
 20
134.7
 30
0.0
 11
134.3
 21
107.3
 31
0.0
  0
LINE
  8
0
  6
CONTINUOUS
 62
     2
 10
120.3
 20
137.8
 30
0.0
 11
120.3
 21
135.8
 31
0.0
  0
LINE
  8
0
  6
CONTINUOUS
 62
     2
 10
120.3
 20
137.575
 30
0.0
 11
118.885253903
 21
137.575
 31
0.0
  0
LINE
  8
0
  6
CONTINUOUS
 62
     2
 10
118.882253903
 20
137.8
 30
0.0
 11
120.3
 21
137.8
 31
0.0
  0
LINE
  8
0
  6
CONTINUOUS
 62
     2
 10
120.3
 20
135.8
 30
0.0
 11
118.882253903
 21
135.8
 31
0.0
  0
LINE
  8
0
  6
CONTINUOUS
 62
     2
 10
118.882253903
 20
136.075
 30
0.0
 11
120.3
 21
136.075
 31
0.0
  0
LINE
  8
0
  6
CONTINUOUS
 62
     2
 10
120.2
 20
138.8
 30
0.0
 11
120.2
 21
161.85
 31
0.0
  0
LINE
  8
0
  6
CONTINUOUS
 62
     2
 10
120.2
 20
159.85
 30
0.0
 11
117.785185434
 21
160.497047613
 31
0.0
  0
LINE
  8
0
  6
CONTINUOUS
 62
     2
 10
120.2
 20
159.85
 30
0.0
 11
117.785185434
 21
159.202952387
 31
0.0
  0
LINE
  8
0
  6
CONTINUOUS
 62
     2
 10
113.75
 20
159.85
 30
0.0
 11
120.2
 21
159.85
 31
0.0
  0
TEXT
  8
0
  6
CONTINUOUS
 62
     2
 10
115.205
 20
160.85
 30
0.25
 40
2.5
  1
１２
 50
0.0
 41
0.6
 51
0.0
  7
KANJI1
  0
LINE
  8
0
  6
LTYPE2
 62
     2
 10
117.75
 20
128.75
 30
0.0
 11
113.75
 21
128.75
 31
0.0
  0
ARC
  8
0
  6
LTYPE2
 62
     2
 10
117.75
 20
137.25
 30
0.0
 40
3.0
 50
0.0
 51
90.0
  0
LINE
  8
0
  6
LTYPE2
 62
     2
 10
113.75
 20
140.25
 30
0.0
 11
117.75
 21
140.25
 31
0.0
  0
ARC
  8
0
  6
LTYPE2
 62
     2
 10
117.75
 20
131.75
 30
0.0
 40
3.0
 50
270.0
 51
0.0
  0
LINE
  8
0
  6
LTYPE2
 62
     2
 10
120.75
 20
137.25
 30
0.0
 11
120.75
 21
131.75
 31
0.0
  0
LINE
  8
0
  6
CONTINUOUS
 62
     2
 10
118.2
 20
134.7
 30
0.0
 11
119.853198496
 21
132.824650771
 31
0.0
  0
LINE
  8
0
  6
LTYPE2
 62
     2
 10
113.75
 20
130.8
 30
0.0
 11
114.0
 21
130.8
 31
0.0
  0
LINE
  8
0
  6
LTYPE2
 62
     2
 10
114.0
 20
128.75
 30
0.0
 11
114.0
 21
139.65
 31
0.0
  0
LINE
  8
0
  6
LTYPE2
 62
     2
 10
113.75
 20
139.65
 30
0.0
 11
114.0
 21
139.65
 31
0.0
  0
LINE
  8
0
  6
CONTINUOUS
 62
     2
 10
120.75
 20
135.0
 30
0.0
 11
134.241727709
 21
154.35
 31
0.0
  0
LINE
  8
0
  6
CONTINUOUS
 62
     2
 10
120.75
 20
135.0
 30
0.0
 11
121.380116473
 21
137.419287753
 31
0.0
  0
LINE
  8
0
  6
CONTINUOUS
 62
     2
 10
120.75
 20
135.0
 30
0.0
 11
122.505340749
 21
136.780106416
 31
0.0
  0
LINE
  8
0
  6
CONTINUOUS
 62
     1
 10
113.5
 20
122.0
 30
0.0
 11
101.25
 21
122.0
 31
0.0
  0
ARC
  8
0
  6
CONTINUOUS
 62
     1
 10
113.5
 20
122.25
 30
0.0
 40
0.25
 50
270.0
 51
0.0
  0
ARC
  8
0
  6
CONTINUOUS
 62
     1
 10
113.5
 20
147.75
 30
0.0
 40
0.25
 50
0.0
 51
90.0
  0
LINE
  8
0
  6
CONTINUOUS
 62
     1
 10
113.75
 20
147.75
 30
0.0
 11
113.75
 21
122.25
 31
0.0
  0
LINE
  8
0
  6
CONTINUOUS
 62
     1
 10
103.849
 20
148.0
 30
0.0
 11
113.5
 21
148.0
 31
0.0
  0
TEXT
  8
0
  6
CONTINUOUS
 62
     1
 10
103.8
 20
44.5
 30
1.0
 40
4.0
  1
□ＣＦ－６Ａ
 50
0.0
 41
0.9
 51
0.0
  7
KANJI6
  0
TEXT
  8
0
  6
CONTINUOUS
 62
     1
 10
118.5
 20
33.3
 30
0.875
 40
3.5
  1
パネル用計器外形図
 50
0.0
 41
0.9
 51
0.0
  7
KANJI7
  0
TEXT
  8
0
  6
CONTINUOUS
 62
     1
 10
118.5
 20
37.8
 30
0.875
 40
3.5
  1
端子キャップ付
 50
0.0
 41
0.9
 51
0.0
  7
KANJI7
  0
TEXT
  8
0
  6
CONTINUOUS
 62
     3
 10
166.0
 20
32.0
 30
0.2
 40
5.8
  1
ＭＳ－１０４６６　Ａ
 50
0.0
 41
0.827586207
 51
0.0
  7
KANJI8
  0
TEXT
  8
0
  6
CONTINUOUS
 62
     2
 10
105.744
 20
160.85
 30
0.25
 40
2.5
  1
２５
 50
0.0
 41
0.6
 51
0.0
  7
KANJI1
  0
LINE
  8
0
  6
LTYPE1
 62
     2
 10
158.5
 20
135.0
 30
0.0
 11
202.85
 21
135.0
 31
0.0
  0
LINE
  8
0
  6
LTYPE1
 62
     2
 10
90.8
 20
135.0
 30
0.0
 11
131.8
 21
135.0
 31
0.0
  0
LINE
  8
0
  6
LTYPE1
 62
     2
 10
34.6
 20
135.0
 30
0.0
 11
79.4
 21
135.0
 31
0.0
  0
ENDSEC
  0
EOF
