  0
SECTION
  2
HEADER
  9
$ACADVER
  1
AC1009
  9
$DWGCODEPAGE
  3
dos932
  9
$EXTMIN
 10
0.0
 20
0.0
 30
0.0
  9
$EXTMAX
 10
297.0
 20
210.0
 30
0.0
  9
$LIMMIN
 10
0.0
 20
0.0
  9
$LIMMAX
 10
297.0
 20
210.0
  9
$LTSCALE
 40
1.0
  9
$PDMODE
 70
     0
  0
ENDSEC
  0
SECTION
  2
TABLES
  0
TABLE
  2
VPORT
 70
     1
  0
VPORT
  2
*ACTIVE
 70
     0
 10
0.0
 20
0.0
 11
1.0
 21
1.0
 12
148.5
 22
105.0
 13
0.0
 23
0.0
 14
10.0
 24
10.0
 15
10.0
 25
10.0
 16
0.0
 26
0.0
 36
1.0
 17
0.0
 27
0.0
 37
0.0
 40
297.0
 41
1.414285714
 42
50.0
 43
0.0
 44
0.0
 50
0.0
 51
0.0
 71
     0
 72
  1000
 73
     1
 74
     3
 75
     0
 76
     0
 77
     0
 78
     0
  0
ENDTAB
  0
TABLE
  2
LTYPE
 70
     4
  0
LTYPE
  2
CONTINUOUS
 70
    64
  3
Solid line
 72
    65
 73
     0
 40
0.0
  0
LTYPE
  2
LTYPE1
 70
    64
  3
CENTER
 72
    65
 73
     4
 40
5.0
 49
3.5
 49
-0.5
 49
0.5
 49
-0.5
  0
LTYPE
  2
LTYPE2
 70
    64
  3
CENTER
 72
    65
 73
     4
 40
3.0
 49
2.1
 49
-0.3
 49
0.3
 49
-0.3
  0
LTYPE
  2
LTYPE3
 70
    64
  3
CENTER
 72
    65
 73
     4
 40
15.0
 49
10.5
 49
-1.5
 49
1.5
 49
-1.5
  0
ENDTAB
  0
TABLE
  2
LAYER
 70
   128
  0
LAYER
  2
0
 70
     0
 62
     7
  6
CONTINUOUS
  0
LAYER
  2
2
 70
     0
 62
     7
  6
CONTINUOUS
  0
LAYER
  2
3
 70
     0
 62
     7
  6
CONTINUOUS
  0
LAYER
  2
4
 70
     0
 62
     7
  6
CONTINUOUS
  0
LAYER
  2
5
 70
     0
 62
     7
  6
CONTINUOUS
  0
LAYER
  2
6
 70
     0
 62
     7
  6
CONTINUOUS
  0
LAYER
  2
7
 70
     0
 62
     7
  6
CONTINUOUS
  0
LAYER
  2
8
 70
     0
 62
     7
  6
CONTINUOUS
  0
LAYER
  2
9
 70
     0
 62
     7
  6
CONTINUOUS
  0
LAYER
  2
10
 70
     0
 62
     7
  6
CONTINUOUS
  0
LAYER
  2
11
 70
     0
 62
     7
  6
CONTINUOUS
  0
LAYER
  2
12
 70
     0
 62
     7
  6
CONTINUOUS
  0
LAYER
  2
13
 70
     0
 62
     7
  6
CONTINUOUS
  0
LAYER
  2
14
 70
     0
 62
     7
  6
CONTINUOUS
  0
LAYER
  2
15
 70
     0
 62
     7
  6
CONTINUOUS
  0
LAYER
  2
16
 70
     0
 62
     7
  6
CONTINUOUS
  0
LAYER
  2
17
 70
     0
 62
     7
  6
CONTINUOUS
  0
LAYER
  2
18
 70
     0
 62
     7
  6
CONTINUOUS
  0
LAYER
  2
19
 70
     0
 62
     7
  6
CONTINUOUS
  0
LAYER
  2
20
 70
     0
 62
     7
  6
CONTINUOUS
  0
LAYER
  2
21
 70
     0
 62
     7
  6
CONTINUOUS
  0
LAYER
  2
22
 70
     0
 62
     7
  6
CONTINUOUS
  0
LAYER
  2
23
 70
     0
 62
     7
  6
CONTINUOUS
  0
LAYER
  2
24
 70
     0
 62
     7
  6
CONTINUOUS
  0
LAYER
  2
25
 70
     0
 62
     7
  6
CONTINUOUS
  0
LAYER
  2
26
 70
     0
 62
     7
  6
CONTINUOUS
  0
LAYER
  2
27
 70
     0
 62
     7
  6
CONTINUOUS
  0
LAYER
  2
28
 70
     0
 62
     7
  6
CONTINUOUS
  0
LAYER
  2
29
 70
     0
 62
     7
  6
CONTINUOUS
  0
LAYER
  2
30
 70
     0
 62
     7
  6
CONTINUOUS
  0
LAYER
  2
31
 70
     0
 62
     7
  6
CONTINUOUS
  0
LAYER
  2
32
 70
     0
 62
     7
  6
CONTINUOUS
  0
LAYER
  2
33
 70
     0
 62
     7
  6
CONTINUOUS
  0
LAYER
  2
34
 70
     0
 62
     7
  6
CONTINUOUS
  0
LAYER
  2
35
 70
     0
 62
     7
  6
CONTINUOUS
  0
LAYER
  2
36
 70
     0
 62
     7
  6
CONTINUOUS
  0
LAYER
  2
37
 70
     0
 62
     7
  6
CONTINUOUS
  0
LAYER
  2
38
 70
     0
 62
     7
  6
CONTINUOUS
  0
LAYER
  2
39
 70
     0
 62
     7
  6
CONTINUOUS
  0
LAYER
  2
40
 70
     0
 62
     7
  6
CONTINUOUS
  0
LAYER
  2
41
 70
     0
 62
     7
  6
CONTINUOUS
  0
LAYER
  2
42
 70
     0
 62
     7
  6
CONTINUOUS
  0
LAYER
  2
43
 70
     0
 62
     7
  6
CONTINUOUS
  0
LAYER
  2
44
 70
     0
 62
     7
  6
CONTINUOUS
  0
LAYER
  2
45
 70
     0
 62
     7
  6
CONTINUOUS
  0
LAYER
  2
46
 70
     0
 62
     7
  6
CONTINUOUS
  0
LAYER
  2
47
 70
     0
 62
     7
  6
CONTINUOUS
  0
LAYER
  2
48
 70
     0
 62
     7
  6
CONTINUOUS
  0
LAYER
  2
49
 70
     0
 62
     7
  6
CONTINUOUS
  0
LAYER
  2
50
 70
     0
 62
     7
  6
CONTINUOUS
  0
LAYER
  2
51
 70
     0
 62
     7
  6
CONTINUOUS
  0
LAYER
  2
52
 70
     0
 62
     7
  6
CONTINUOUS
  0
LAYER
  2
53
 70
     0
 62
     7
  6
CONTINUOUS
  0
LAYER
  2
54
 70
     0
 62
     7
  6
CONTINUOUS
  0
LAYER
  2
55
 70
     0
 62
     7
  6
CONTINUOUS
  0
LAYER
  2
56
 70
     0
 62
     7
  6
CONTINUOUS
  0
LAYER
  2
57
 70
     0
 62
     7
  6
CONTINUOUS
  0
LAYER
  2
58
 70
     0
 62
     7
  6
CONTINUOUS
  0
LAYER
  2
59
 70
     0
 62
     7
  6
CONTINUOUS
  0
LAYER
  2
60
 70
     0
 62
     7
  6
CONTINUOUS
  0
LAYER
  2
61
 70
     0
 62
     7
  6
CONTINUOUS
  0
LAYER
  2
62
 70
     0
 62
     7
  6
CONTINUOUS
  0
LAYER
  2
63
 70
     0
 62
     7
  6
CONTINUOUS
  0
LAYER
  2
64
 70
     0
 62
     7
  6
CONTINUOUS
  0
LAYER
  2
65
 70
     0
 62
     7
  6
CONTINUOUS
  0
LAYER
  2
66
 70
     0
 62
     7
  6
CONTINUOUS
  0
LAYER
  2
67
 70
     0
 62
     7
  6
CONTINUOUS
  0
LAYER
  2
68
 70
     0
 62
     7
  6
CONTINUOUS
  0
LAYER
  2
69
 70
     0
 62
     7
  6
CONTINUOUS
  0
LAYER
  2
70
 70
     0
 62
     7
  6
CONTINUOUS
  0
LAYER
  2
71
 70
     0
 62
     7
  6
CONTINUOUS
  0
LAYER
  2
72
 70
     0
 62
     7
  6
CONTINUOUS
  0
LAYER
  2
73
 70
     0
 62
     7
  6
CONTINUOUS
  0
LAYER
  2
74
 70
     0
 62
     7
  6
CONTINUOUS
  0
LAYER
  2
75
 70
     0
 62
     7
  6
CONTINUOUS
  0
LAYER
  2
76
 70
     0
 62
     7
  6
CONTINUOUS
  0
LAYER
  2
77
 70
     0
 62
     7
  6
CONTINUOUS
  0
LAYER
  2
78
 70
     0
 62
     7
  6
CONTINUOUS
  0
LAYER
  2
79
 70
     0
 62
     7
  6
CONTINUOUS
  0
LAYER
  2
80
 70
     0
 62
     7
  6
CONTINUOUS
  0
LAYER
  2
81
 70
     0
 62
     7
  6
CONTINUOUS
  0
LAYER
  2
82
 70
     0
 62
     7
  6
CONTINUOUS
  0
LAYER
  2
83
 70
     0
 62
     7
  6
CONTINUOUS
  0
LAYER
  2
84
 70
     0
 62
     7
  6
CONTINUOUS
  0
LAYER
  2
85
 70
     0
 62
     7
  6
CONTINUOUS
  0
LAYER
  2
86
 70
     0
 62
     7
  6
CONTINUOUS
  0
LAYER
  2
87
 70
     0
 62
     7
  6
CONTINUOUS
  0
LAYER
  2
88
 70
     0
 62
     7
  6
CONTINUOUS
  0
LAYER
  2
89
 70
     0
 62
     7
  6
CONTINUOUS
  0
LAYER
  2
90
 70
     0
 62
     7
  6
CONTINUOUS
  0
LAYER
  2
91
 70
     0
 62
     7
  6
CONTINUOUS
  0
LAYER
  2
92
 70
     0
 62
     7
  6
CONTINUOUS
  0
LAYER
  2
93
 70
     0
 62
     7
  6
CONTINUOUS
  0
LAYER
  2
94
 70
     0
 62
     7
  6
CONTINUOUS
  0
LAYER
  2
95
 70
     0
 62
     7
  6
CONTINUOUS
  0
LAYER
  2
96
 70
     0
 62
     7
  6
CONTINUOUS
  0
LAYER
  2
97
 70
     0
 62
     7
  6
CONTINUOUS
  0
LAYER
  2
98
 70
     0
 62
     7
  6
CONTINUOUS
  0
LAYER
  2
99
 70
     0
 62
     7
  6
CONTINUOUS
  0
LAYER
  2
100
 70
     0
 62
     7
  6
CONTINUOUS
  0
LAYER
  2
101
 70
     0
 62
     7
  6
CONTINUOUS
  0
LAYER
  2
102
 70
     0
 62
     7
  6
CONTINUOUS
  0
LAYER
  2
103
 70
     0
 62
     7
  6
CONTINUOUS
  0
LAYER
  2
104
 70
     0
 62
     7
  6
CONTINUOUS
  0
LAYER
  2
105
 70
     0
 62
     7
  6
CONTINUOUS
  0
LAYER
  2
106
 70
     0
 62
     7
  6
CONTINUOUS
  0
LAYER
  2
107
 70
     0
 62
     7
  6
CONTINUOUS
  0
LAYER
  2
108
 70
     0
 62
     7
  6
CONTINUOUS
  0
LAYER
  2
109
 70
     0
 62
     7
  6
CONTINUOUS
  0
LAYER
  2
110
 70
     0
 62
     7
  6
CONTINUOUS
  0
LAYER
  2
111
 70
     0
 62
     7
  6
CONTINUOUS
  0
LAYER
  2
112
 70
     0
 62
     7
  6
CONTINUOUS
  0
LAYER
  2
113
 70
     0
 62
     7
  6
CONTINUOUS
  0
LAYER
  2
114
 70
     0
 62
     7
  6
CONTINUOUS
  0
LAYER
  2
115
 70
     0
 62
     7
  6
CONTINUOUS
  0
LAYER
  2
116
 70
     0
 62
     7
  6
CONTINUOUS
  0
LAYER
  2
117
 70
     0
 62
     7
  6
CONTINUOUS
  0
LAYER
  2
118
 70
     0
 62
     7
  6
CONTINUOUS
  0
LAYER
  2
119
 70
     0
 62
     7
  6
CONTINUOUS
  0
LAYER
  2
120
 70
     0
 62
     7
  6
CONTINUOUS
  0
LAYER
  2
121
 70
     0
 62
     7
  6
CONTINUOUS
  0
LAYER
  2
122
 70
     0
 62
     7
  6
CONTINUOUS
  0
LAYER
  2
123
 70
     0
 62
     7
  6
CONTINUOUS
  0
LAYER
  2
124
 70
     0
 62
     7
  6
CONTINUOUS
  0
LAYER
  2
125
 70
     0
 62
     7
  6
CONTINUOUS
  0
LAYER
  2
126
 70
     0
 62
     7
  6
CONTINUOUS
  0
LAYER
  2
127
 70
     0
 62
     7
  6
CONTINUOUS
  0
LAYER
  2
128
 70
     0
 62
     7
  6
CONTINUOUS
  0
ENDTAB
  0
TABLE
  2
STYLE
 70
     9
  0
STYLE
  2
STANDARD
 70
     0
 40
0.0
 41
1.0
 50
0.0
 71
     0
 42
0.2
  3
txt.shx
  4
extfont.shx
  0
STYLE
  2
KANJI0
 70
     0
 40
3.0
 41
0.6
 50
0.0
 71
     0
 42
3.0
  3
txt.shx
  4
extfont.shx
  0
STYLE
  2
KANJI1
 70
     0
 40
1.8
 41
0.6
 50
0.0
 71
     0
 42
1.8
  3
txt.shx
  4
extfont.shx
  0
STYLE
  2
KANJI2
 70
     0
 40
3.0
 41
0.9
 50
0.0
 71
     0
 42
3.0
  3
txt.shx
  4
extfont.shx
  0
STYLE
  2
KANJI3
 70
     0
 40
3.0
 41
0.666666667
 50
0.0
 71
     0
 42
3.0
  3
txt.shx
  4
extfont.shx
  0
STYLE
  2
KANJI4
 70
     0
 40
8.0
 41
0.9
 50
0.0
 71
     0
 42
8.0
  3
txt.shx
  4
extfont.shx
  0
STYLE
  2
KANJI5
 70
     0
 40
7.0
 41
0.9
 50
0.0
 71
     0
 42
7.0
  3
txt.shx
  4
extfont.shx
  0
STYLE
  2
KANJI6
 70
     0
 40
6.0
 41
0.9
 50
0.0
 71
     0
 42
6.0
  3
txt.shx
  4
extfont.shx
  0
STYLE
  2
KANJI7
 70
     0
 40
2.5
 41
0.6
 50
0.0
 71
     0
 42
2.5
  3
txt.shx
  4
extfont.shx
  0
ENDTAB
  0
TABLE
  2
VIEW
 70
     0
  0
ENDTAB
  0
ENDSEC
  0
SECTION
  2
BLOCKS
  0
ENDSEC
  0
SECTION
  2
ENTITIES
  0
ARC
  8
0
  6
CONTINUOUS
 62
     1
 10
154.55
 20
111.55
 30
0.0
 40
1.0
 50
180.0
 51
270.0
  0
LINE
  8
0
  6
CONTINUOUS
 62
     1
 10
154.55
 20
110.55
 30
0.0
 11
205.45
 21
110.55
 31
0.0
  0
ARC
  8
0
  6
CONTINUOUS
 62
     1
 10
205.45
 20
111.55
 30
0.0
 40
1.0
 50
270.0
 51
0.0
  0
LINE
  8
0
  6
CONTINUOUS
 62
     1
 10
206.45
 20
111.55
 30
0.0
 11
206.45
 21
158.45
 31
0.0
  0
ARC
  8
0
  6
CONTINUOUS
 62
     1
 10
205.45
 20
158.45
 30
0.0
 40
1.0
 50
0.0
 51
90.0
  0
LINE
  8
0
  6
CONTINUOUS
 62
     1
 10
205.45
 20
159.45
 30
0.0
 11
154.55
 21
159.45
 31
0.0
  0
ARC
  8
0
  6
CONTINUOUS
 62
     1
 10
154.55
 20
158.45
 30
0.0
 40
1.0
 50
90.0
 51
180.0
  0
LINE
  8
0
  6
CONTINUOUS
 62
     1
 10
153.55
 20
158.45
 30
0.0
 11
153.55
 21
111.55
 31
0.0
  0
CIRCLE
  8
0
  6
CONTINUOUS
 62
     1
 10
180.0
 20
134.0
 30
0.0
 40
22.5
  0
LINE
  8
0
  6
CONTINUOUS
 62
     1
 10
208.0
 20
111.5
 30
0.0
 11
208.0
 21
158.5
 31
0.0
  0
ARC
  8
0
  6
CONTINUOUS
 62
     1
 10
205.5
 20
158.5
 30
0.0
 40
2.5
 50
0.0
 51
90.0
  0
LINE
  8
0
  6
CONTINUOUS
 62
     1
 10
154.5
 20
109.0
 30
0.0
 11
205.5
 21
109.0
 31
0.0
  0
ARC
  8
0
  6
CONTINUOUS
 62
     1
 10
205.5
 20
111.5
 30
0.0
 40
2.5
 50
270.0
 51
0.0
  0
ARC
  8
0
  6
CONTINUOUS
 62
     1
 10
154.5
 20
111.5
 30
0.0
 40
2.5
 50
180.0
 51
270.0
  0
LINE
  8
0
  6
CONTINUOUS
 62
     1
 10
152.0
 20
158.5
 30
0.0
 11
152.0
 21
111.5
 31
0.0
  0
LINE
  8
0
  6
CONTINUOUS
 62
     1
 10
205.5
 20
161.0
 30
0.0
 11
154.5
 21
161.0
 31
0.0
  0
ARC
  8
0
  6
CONTINUOUS
 62
     1
 10
154.5
 20
158.5
 30
0.0
 40
2.5
 50
90.0
 51
180.0
  0
CIRCLE
  8
0
  6
CONTINUOUS
 62
     1
 10
45.0
 20
60.0
 30
0.0
 40
23.5
  0
ARC
  8
0
  6
CONTINUOUS
 62
     1
 10
19.5
 20
111.5
 30
0.0
 40
2.5
 50
180.0
 51
270.0
  0
LINE
  8
0
  6
CONTINUOUS
 62
     1
 10
19.5
 20
109.0
 30
0.0
 11
70.5
 21
109.0
 31
0.0
  0
ARC
  8
0
  6
CONTINUOUS
 62
     1
 10
70.5
 20
111.5
 30
0.0
 40
2.5
 50
270.0
 51
0.0
  0
LINE
  8
0
  6
CONTINUOUS
 62
     1
 10
73.0
 20
111.5
 30
0.0
 11
73.0
 21
158.5
 31
0.0
  0
ARC
  8
0
  6
CONTINUOUS
 62
     1
 10
70.5
 20
158.5
 30
0.0
 40
2.5
 50
0.0
 51
90.0
  0
LINE
  8
0
  6
CONTINUOUS
 62
     1
 10
70.5
 20
161.0
 30
0.0
 11
19.5
 21
161.0
 31
0.0
  0
ARC
  8
0
  6
CONTINUOUS
 62
     1
 10
19.5
 20
158.5
 30
0.0
 40
2.5
 50
90.0
 51
180.0
  0
LINE
  8
0
  6
CONTINUOUS
 62
     1
 10
17.0
 20
158.5
 30
0.0
 11
17.0
 21
111.5
 31
0.0
  0
ARC
  8
0
  6
CONTINUOUS
 62
     1
 10
19.5
 20
111.5
 30
0.0
 40
1.0
 50
180.0
 51
270.0
  0
LINE
  8
0
  6
CONTINUOUS
 62
     1
 10
19.5
 20
110.5
 30
0.0
 11
70.5
 21
110.5
 31
0.0
  0
ARC
  8
0
  6
CONTINUOUS
 62
     1
 10
70.5
 20
111.5
 30
0.0
 40
1.0
 50
270.0
 51
0.0
  0
LINE
  8
0
  6
CONTINUOUS
 62
     1
 10
71.5
 20
111.5
 30
0.0
 11
71.5
 21
158.5
 31
0.0
  0
ARC
  8
0
  6
CONTINUOUS
 62
     1
 10
70.5
 20
158.5
 30
0.0
 40
1.0
 50
0.0
 51
90.0
  0
LINE
  8
0
  6
CONTINUOUS
 62
     1
 10
70.5
 20
159.5
 30
0.0
 11
19.5
 21
159.5
 31
0.0
  0
ARC
  8
0
  6
CONTINUOUS
 62
     1
 10
19.5
 20
158.5
 30
0.0
 40
1.0
 50
90.0
 51
180.0
  0
LINE
  8
0
  6
CONTINUOUS
 62
     1
 10
18.5
 20
158.5
 30
0.0
 11
18.5
 21
111.5
 31
0.0
  0
ARC
  8
0
  6
CONTINUOUS
 62
     1
 10
69.5
 20
157.5
 30
0.0
 40
1.0
 50
0.0
 51
90.0
  0
LINE
  8
0
  6
CONTINUOUS
 62
     1
 10
69.5
 20
158.5
 30
0.0
 11
20.5
 21
158.5
 31
0.0
  0
ARC
  8
0
  6
CONTINUOUS
 62
     1
 10
20.5
 20
157.5
 30
0.0
 40
1.0
 50
90.0
 51
180.0
  0
LINE
  8
0
  6
CONTINUOUS
 62
     1
 10
19.5
 20
157.5
 30
0.0
 11
19.5
 21
132.0
 31
0.0
  0
LINE
  8
0
  6
CONTINUOUS
 62
     1
 10
19.5
 20
132.0
 30
0.0
 11
70.5
 21
132.0
 31
0.0
  0
LINE
  8
0
  6
CONTINUOUS
 62
     1
 10
70.5
 20
132.0
 30
0.0
 11
70.5
 21
157.5
 31
0.0
  0
ARC
  8
0
  6
CONTINUOUS
 62
     1
 10
122.0
 20
155.5
 30
0.0
 40
1.0
 50
0.0
 51
90.0
  0
LINE
  8
0
  6
CONTINUOUS
 62
     1
 10
123.0
 20
155.5
 30
0.0
 11
123.0
 21
112.5
 31
0.0
  0
ARC
  8
0
  6
CONTINUOUS
 62
     1
 10
122.0
 20
112.5
 30
0.0
 40
1.0
 50
270.0
 51
0.0
  0
LINE
  8
0
  6
CONTINUOUS
 62
     1
 10
123.0
 20
146.5
 30
0.0
 11
124.0
 21
146.5
 31
0.0
  0
LINE
  8
0
  6
CONTINUOUS
 62
     1
 10
124.0
 20
146.5
 30
0.0
 11
124.0
 21
136.5
 31
0.0
  0
LINE
  8
0
  6
CONTINUOUS
 62
     1
 10
124.0
 20
136.5
 30
0.0
 11
123.0
 21
136.5
 31
0.0
  0
LINE
  8
0
  6
CONTINUOUS
 62
     1
 10
93.0
 20
111.0
 30
0.0
 11
93.0
 21
110.55
 31
0.0
  0
LINE
  8
0
  6
CONTINUOUS
 62
     1
 10
81.8
 20
132.0
 30
0.0
 11
81.5
 21
132.0
 31
0.0
  0
LINE
  8
0
  6
CONTINUOUS
 62
     1
 10
81.5
 20
132.0
 30
0.0
 11
81.5
 21
158.5
 31
0.0
  0
LINE
  8
0
  6
CONTINUOUS
 62
     1
 10
81.5
 20
158.5
 30
0.0
 11
81.8
 21
158.5
 31
0.0
  0
LINE
  8
0
  6
CONTINUOUS
 62
     1
 10
81.8
 20
158.5
 30
0.0
 11
81.8
 21
158.625
 31
0.0
  0
LINE
  8
0
  6
CONTINUOUS
 62
     1
 10
93.0
 20
109.0
 30
0.0
 11
82.233628319
 21
110.441924779
 31
0.0
  0
LINE
  8
0
  6
CONTINUOUS
 62
     1
 10
81.8
 20
110.9375
 30
0.0
 11
81.8
 21
132.0
 31
0.0
  0
ARC
  8
0
  6
CONTINUOUS
 62
     1
 10
82.3
 20
110.9375
 30
0.0
 40
0.5
 50
180.0
 51
262.371850331
  0
LINE
  8
0
  6
CONTINUOUS
 62
     1
 10
81.8
 20
158.5
 30
0.0
 11
81.8
 21
159.0625
 31
0.0
  0
LINE
  8
0
  6
CONTINUOUS
 62
     1
 10
82.233628319
 20
159.558075221
 30
0.0
 11
93.0
 21
161.0
 31
0.0
  0
ARC
  8
0
  6
CONTINUOUS
 62
     1
 10
82.3
 20
159.0625
 30
0.0
 40
0.5
 50
97.628149669
 51
180.0
  0
LINE
  8
0
  6
CONTINUOUS
 62
     1
 10
93.0
 20
161.0
 30
0.0
 11
93.0
 21
109.0
 31
0.0
  0
ARC
  8
0
  6
CONTINUOUS
 62
     1
 10
95.3
 20
117.0
 30
0.0
 40
14.0
 50
165.522487814
 51
194.477512186
  0
LINE
  8
0
  6
CONTINUOUS
 62
     1
 10
95.75
 20
156.5
 30
0.0
 11
122.0
 21
156.5
 31
0.0
  0
LINE
  8
0
  6
CONTINUOUS
 62
     1
 10
93.5
 20
156.5
 30
0.0
 11
95.6
 21
156.5
 31
0.0
  0
LINE
  8
0
  6
CONTINUOUS
 62
     1
 10
122.0
 20
111.5
 30
0.0
 11
95.85
 21
111.5
 31
0.0
  0
LINE
  8
0
  6
CONTINUOUS
 62
     1
 10
95.6
 20
111.5
 30
0.0
 11
93.5
 21
111.5
 31
0.0
  0
LINE
  8
0
  6
CONTINUOUS
 62
     1
 10
124.0
 20
145.5
 30
0.0
 11
124.8
 21
145.5
 31
0.0
  0
LINE
  8
0
  6
CONTINUOUS
 62
     1
 10
124.8
 20
145.5
 30
0.0
 11
124.8
 21
137.5
 31
0.0
  0
LINE
  8
0
  6
CONTINUOUS
 62
     1
 10
124.8
 20
137.5
 30
0.0
 11
124.0
 21
137.5
 31
0.0
  0
CIRCLE
  8
0
  6
CONTINUOUS
 62
     2
 10
167.5
 20
141.5
 30
0.0
 40
5.0
  0
LINE
  8
0
  6
LTYPE1
 62
     2
 10
167.5
 20
147.5
 30
0.0
 11
167.5
 21
135.5
 31
0.0
  0
LINE
  8
0
  6
LTYPE1
 62
     2
 10
161.5
 20
141.5
 30
0.0
 11
173.5
 21
141.5
 31
0.0
  0
CIRCLE
  8
0
  6
CONTINUOUS
 62
     2
 10
192.5
 20
141.5
 30
0.0
 40
5.0
  0
LINE
  8
0
  6
LTYPE1
 62
     2
 10
192.5
 20
147.5
 30
0.0
 11
192.5
 21
135.5
 31
0.0
  0
LINE
  8
0
  6
LTYPE1
 62
     2
 10
186.5
 20
141.5
 30
0.0
 11
198.5
 21
141.5
 31
0.0
  0
CIRCLE
  8
0
  6
CONTINUOUS
 62
     2
 10
161.0
 20
153.0
 30
0.0
 40
4.0
  0
CIRCLE
  8
0
  6
CONTINUOUS
 62
     2
 10
161.0
 20
153.0
 30
0.0
 40
1.5
  0
CIRCLE
  8
0
  6
CONTINUOUS
 62
     2
 10
161.0
 20
153.0
 30
0.0
 40
1.2
  0
LINE
  8
0
  6
CONTINUOUS
 62
     2
 10
177.0
 20
159.45
 30
0.0
 11
177.0
 21
158.75
 31
0.0
  0
LINE
  8
0
  6
CONTINUOUS
 62
     2
 10
177.0
 20
158.75
 30
0.0
 11
183.0
 21
158.75
 31
0.0
  0
LINE
  8
0
  6
CONTINUOUS
 62
     2
 10
183.0
 20
158.75
 30
0.0
 11
183.0
 21
159.45
 31
0.0
  0
LINE
  8
0
  6
CONTINUOUS
 62
     2
 10
216.5
 20
134.0
 30
0.0
 11
217.147047613
 21
136.414814566
 31
0.0
  0
LINE
  8
0
  6
CONTINUOUS
 62
     2
 10
216.5
 20
134.0
 30
0.0
 11
215.852952387
 21
136.414814566
 31
0.0
  0
LINE
  8
0
  6
CONTINUOUS
 62
     2
 10
216.5
 20
134.0
 30
0.0
 11
216.5
 21
153.0
 31
0.0
  0
LINE
  8
0
  6
CONTINUOUS
 62
     2
 10
216.5
 20
153.0
 30
0.0
 11
215.852952387
 21
150.585185434
 31
0.0
  0
LINE
  8
0
  6
CONTINUOUS
 62
     2
 10
216.5
 20
153.0
 30
0.0
 11
217.147047613
 21
150.585185434
 31
0.0
  0
TEXT
  8
0
  6
CONTINUOUS
 62
     2
 10
215.5
 20
139.12
 30
0.3
 40
3.0
  1
１９
 50
90.0
 41
0.6
 51
0.0
  7
KANJI0
  0
TEXT
  8
0
  6
CONTINUOUS
 62
     2
 10
215.5
 20
143.02
 30
0.18
 40
1.8
  1
±０．１
 50
90.0
 41
0.6
 51
0.0
  7
KANJI1
  0
LINE
  8
0
  6
CONTINUOUS
 62
     2
 10
216.5
 20
134.0
 30
0.0
 11
215.852952387
 21
131.585185434
 31
0.0
  0
LINE
  8
0
  6
CONTINUOUS
 62
     2
 10
216.5
 20
134.0
 30
0.0
 11
217.147047613
 21
131.585185434
 31
0.0
  0
LINE
  8
0
  6
CONTINUOUS
 62
     2
 10
216.5
 20
134.0
 30
0.0
 11
216.5
 21
115.0
 31
0.0
  0
LINE
  8
0
  6
CONTINUOUS
 62
     2
 10
216.5
 20
115.0
 30
0.0
 11
217.147047613
 21
117.414814566
 31
0.0
  0
LINE
  8
0
  6
CONTINUOUS
 62
     2
 10
216.5
 20
115.0
 30
0.0
 11
215.852952387
 21
117.414814566
 31
0.0
  0
TEXT
  8
0
  6
CONTINUOUS
 62
     2
 10
215.5
 20
120.12
 30
0.3
 40
3.0
  1
１９
 50
90.0
 41
0.6
 51
0.0
  7
KANJI0
  0
TEXT
  8
0
  6
CONTINUOUS
 62
     2
 10
215.5
 20
124.02
 30
0.18
 40
1.8
  1
±０．１
 50
90.0
 41
0.6
 51
0.0
  7
KANJI1
  0
LINE
  8
0
  6
CONTINUOUS
 62
     2
 10
180.0
 20
175.0
 30
0.0
 11
177.585185434
 21
175.647047613
 31
0.0
  0
LINE
  8
0
  6
CONTINUOUS
 62
     2
 10
180.0
 20
175.0
 30
0.0
 11
177.585185434
 21
174.352952387
 31
0.0
  0
LINE
  8
0
  6
CONTINUOUS
 62
     2
 10
180.0
 20
175.0
 30
0.0
 11
161.0
 21
175.0
 31
0.0
  0
LINE
  8
0
  6
CONTINUOUS
 62
     2
 10
161.0
 20
175.0
 30
0.0
 11
163.414814566
 21
174.352952387
 31
0.0
  0
LINE
  8
0
  6
CONTINUOUS
 62
     2
 10
161.0
 20
175.0
 30
0.0
 11
163.414814566
 21
175.647047613
 31
0.0
  0
TEXT
  8
0
  6
CONTINUOUS
 62
     2
 10
166.12
 20
176.0
 30
0.3
 40
3.0
  1
１９
 50
0.0
 41
0.6
 51
0.0
  7
KANJI0
  0
TEXT
  8
0
  6
CONTINUOUS
 62
     2
 10
170.02
 20
176.0
 30
0.18
 40
1.8
  1
±０．１
 50
0.0
 41
0.6
 51
0.0
  7
KANJI1
  0
LINE
  8
0
  6
CONTINUOUS
 62
     2
 10
180.0
 20
175.0
 30
0.0
 11
182.414814566
 21
174.352952387
 31
0.0
  0
LINE
  8
0
  6
CONTINUOUS
 62
     2
 10
180.0
 20
175.0
 30
0.0
 11
182.414814566
 21
175.647047613
 31
0.0
  0
LINE
  8
0
  6
CONTINUOUS
 62
     2
 10
180.0
 20
175.0
 30
0.0
 11
199.0
 21
175.0
 31
0.0
  0
LINE
  8
0
  6
CONTINUOUS
 62
     2
 10
199.0
 20
175.0
 30
0.0
 11
196.585185434
 21
175.647047613
 31
0.0
  0
LINE
  8
0
  6
CONTINUOUS
 62
     2
 10
199.0
 20
175.0
 30
0.0
 11
196.585185434
 21
174.352952387
 31
0.0
  0
TEXT
  8
0
  6
CONTINUOUS
 62
     2
 10
185.12
 20
176.0
 30
0.3
 40
3.0
  1
１９
 50
0.0
 41
0.6
 51
0.0
  7
KANJI0
  0
TEXT
  8
0
  6
CONTINUOUS
 62
     2
 10
189.02
 20
176.0
 30
0.18
 40
1.8
  1
±０．１
 50
0.0
 41
0.6
 51
0.0
  7
KANJI1
  0
LINE
  8
0
  6
CONTINUOUS
 62
     2
 10
167.5
 20
170.0
 30
0.0
 11
169.914814566
 21
169.352952387
 31
0.0
  0
LINE
  8
0
  6
CONTINUOUS
 62
     2
 10
167.5
 20
170.0
 30
0.0
 11
169.914814566
 21
170.647047613
 31
0.0
  0
LINE
  8
0
  6
CONTINUOUS
 62
     2
 10
167.5
 20
170.0
 30
0.0
 11
192.5
 21
170.0
 31
0.0
  0
LINE
  8
0
  6
CONTINUOUS
 62
     2
 10
192.5
 20
170.0
 30
0.0
 11
190.085185434
 21
170.647047613
 31
0.0
  0
LINE
  8
0
  6
CONTINUOUS
 62
     2
 10
192.5
 20
170.0
 30
0.0
 11
190.085185434
 21
169.352952387
 31
0.0
  0
TEXT
  8
0
  6
CONTINUOUS
 62
     2
 10
178.05
 20
171.0
 30
0.3
 40
3.0
  1
２５
 50
0.0
 41
0.6
 51
0.0
  7
KANJI0
  0
LINE
  8
0
  6
LTYPE2
 62
     2
 10
157.783705995
 20
128.047161963
 30
0.0
 11
202.216294005
 21
139.952838037
 31
0.0
  0
LINE
  8
0
  6
CONTINUOUS
 62
     2
 10
158.266668908
 20
128.176571485
 30
0.0
 11
160.766668908
 21
128.176571485
 31
0.0
  0
LINE
  8
0
  6
CONTINUOUS
 62
     2
 10
158.266668908
 20
128.176571485
 30
0.0
 11
160.431732418
 21
129.426571485
 31
0.0
  0
LINE
  8
0
  6
CONTINUOUS
 62
     2
 10
158.266668908
 20
128.176571485
 30
0.0
 11
201.733331092
 21
139.823428515
 31
0.0
  0
LINE
  8
0
  6
CONTINUOUS
 62
     2
 10
201.733331092
 20
139.823428515
 30
0.0
 11
199.233331092
 21
139.823428515
 31
0.0
  0
LINE
  8
0
  6
CONTINUOUS
 62
     2
 10
201.733331092
 20
139.823428515
 30
0.0
 11
199.568267582
 21
138.573428515
 31
0.0
  0
LINE
  8
0
  6
LTYPE1
 62
     2
 10
161.0
 20
158.0
 30
0.0
 11
161.0
 21
148.0
 31
0.0
  0
LINE
  8
0
  6
LTYPE1
 62
     2
 10
156.0
 20
153.0
 30
0.0
 11
166.0
 21
153.0
 31
0.0
  0
LINE
  8
0
  6
LTYPE1
 62
     2
 10
199.0
 20
148.0
 30
0.0
 11
199.0
 21
158.0
 31
0.0
  0
LINE
  8
0
  6
LTYPE1
 62
     2
 10
194.0
 20
153.0
 30
0.0
 11
204.0
 21
153.0
 31
0.0
  0
LINE
  8
0
  6
LTYPE1
 62
     2
 10
161.0
 20
120.0
 30
0.0
 11
161.0
 21
110.0
 31
0.0
  0
LINE
  8
0
  6
LTYPE1
 62
     2
 10
156.0
 20
115.0
 30
0.0
 11
166.0
 21
115.0
 31
0.0
  0
LINE
  8
0
  6
LTYPE1
 62
     2
 10
199.0
 20
120.0
 30
0.0
 11
199.0
 21
110.0
 31
0.0
  0
LINE
  8
0
  6
LTYPE1
 62
     2
 10
194.0
 20
115.0
 30
0.0
 11
204.0
 21
115.0
 31
0.0
  0
LINE
  8
0
  6
LTYPE3
 62
     2
 10
157.0
 20
134.0
 30
0.0
 11
203.0
 21
134.0
 31
0.0
  0
LINE
  8
0
  6
CONTINUOUS
 62
     2
 10
204.0
 20
134.0
 30
0.0
 11
218.5
 21
134.0
 31
0.0
  0
LINE
  8
0
  6
CONTINUOUS
 62
     2
 10
205.0
 20
115.0
 30
0.0
 11
218.5
 21
115.0
 31
0.0
  0
LINE
  8
0
  6
CONTINUOUS
 62
     2
 10
205.0
 20
153.0
 30
0.0
 11
218.5
 21
153.0
 31
0.0
  0
LINE
  8
0
  6
CONTINUOUS
 62
     2
 10
199.0
 20
159.0
 30
0.0
 11
199.0
 21
177.0
 31
0.0
  0
LINE
  8
0
  6
CONTINUOUS
 62
     2
 10
192.5
 20
148.5
 30
0.0
 11
192.5
 21
172.0
 31
0.0
  0
LINE
  8
0
  6
CONTINUOUS
 62
     2
 10
167.5
 20
148.5
 30
0.0
 11
167.5
 21
172.0
 31
0.0
  0
LINE
  8
0
  6
CONTINUOUS
 62
     2
 10
161.0
 20
159.0
 30
0.0
 11
161.0
 21
177.0
 31
0.0
  0
CIRCLE
  8
0
  6
CONTINUOUS
 62
     2
 10
168.5
 20
148.5
 30
0.0
 40
2.0
  0
LINE
  8
0
  6
CONTINUOUS
 62
     2
 10
167.5
 20
148.5
 30
0.0
 11
169.5
 21
148.5
 31
0.0
  0
LINE
  8
0
  6
CONTINUOUS
 62
     2
 10
168.5
 20
149.5
 30
0.0
 11
168.5
 21
147.5
 31
0.0
  0
LINE
  8
0
  6
CONTINUOUS
 62
     2
 10
211.0
 20
135.0
 30
0.0
 11
211.647047613
 21
137.414814566
 31
0.0
  0
LINE
  8
0
  6
CONTINUOUS
 62
     2
 10
211.0
 20
135.0
 30
0.0
 11
210.352952387
 21
137.414814566
 31
0.0
  0
LINE
  8
0
  6
CONTINUOUS
 62
     2
 10
211.0
 20
141.8
 30
0.0
 11
211.0
 21
129.0
 31
0.0
  0
LINE
  8
0
  6
CONTINUOUS
 62
     2
 10
211.0
 20
134.0
 30
0.0
 11
210.352952387
 21
131.585185434
 31
0.0
  0
LINE
  8
0
  6
CONTINUOUS
 62
     2
 10
211.0
 20
134.0
 30
0.0
 11
211.647047613
 21
131.585185434
 31
0.0
  0
LINE
  8
0
  6
CONTINUOUS
 62
     2
 10
12.0
 20
161.0
 30
0.0
 11
11.352952387
 21
158.585185434
 31
0.0
  0
LINE
  8
0
  6
CONTINUOUS
 62
     2
 10
12.0
 20
161.0
 30
0.0
 11
12.647047613
 21
158.585185434
 31
0.0
  0
LINE
  8
0
  6
CONTINUOUS
 62
     2
 10
12.0
 20
161.0
 30
0.0
 11
12.0
 21
109.0
 31
0.0
  0
LINE
  8
0
  6
CONTINUOUS
 62
     2
 10
12.0
 20
109.0
 30
0.0
 11
12.647047613
 21
111.414814566
 31
0.0
  0
LINE
  8
0
  6
CONTINUOUS
 62
     2
 10
12.0
 20
109.0
 30
0.0
 11
11.352952387
 21
111.414814566
 31
0.0
  0
TEXT
  8
0
  6
CONTINUOUS
 62
     2
 10
11.0
 20
133.05
 30
0.3
 40
3.0
  1
５２
 50
90.0
 41
0.6
 51
0.0
  7
KANJI0
  0
CIRCLE
  8
0
  6
CONTINUOUS
 62
     2
 10
167.5
 20
141.5
 30
0.0
 40
2.0
  0
LINE
  8
0
  6
CONTINUOUS
 62
     2
 10
167.5
 20
145.55
 30
0.0
 11
163.992597115
 21
143.525
 31
0.0
  0
LINE
  8
0
  6
CONTINUOUS
 62
     2
 10
163.992597115
 20
143.525
 30
0.0
 11
163.992597115
 21
139.475
 31
0.0
  0
LINE
  8
0
  6
CONTINUOUS
 62
     2
 10
163.992597115
 20
139.475
 30
0.0
 11
167.5
 21
137.45
 31
0.0
  0
LINE
  8
0
  6
CONTINUOUS
 62
     2
 10
167.5
 20
137.45
 30
0.0
 11
171.007402885
 21
139.475
 31
0.0
  0
LINE
  8
0
  6
CONTINUOUS
 62
     2
 10
171.007402885
 20
139.475
 30
0.0
 11
171.007402885
 21
143.525
 31
0.0
  0
LINE
  8
0
  6
CONTINUOUS
 62
     2
 10
171.007402885
 20
143.525
 30
0.0
 11
167.5
 21
145.55
 31
0.0
  0
CIRCLE
  8
0
  6
CONTINUOUS
 62
     2
 10
167.5
 20
141.5
 30
0.0
 40
1.6
  0
CIRCLE
  8
0
  6
CONTINUOUS
 62
     2
 10
192.5
 20
141.5
 30
0.0
 40
2.0
  0
LINE
  8
0
  6
CONTINUOUS
 62
     2
 10
192.5
 20
145.55
 30
0.0
 11
188.992597115
 21
143.525
 31
0.0
  0
LINE
  8
0
  6
CONTINUOUS
 62
     2
 10
188.992597115
 20
143.525
 30
0.0
 11
188.992597115
 21
139.475
 31
0.0
  0
LINE
  8
0
  6
CONTINUOUS
 62
     2
 10
188.992597115
 20
139.475
 30
0.0
 11
192.5
 21
137.45
 31
0.0
  0
LINE
  8
0
  6
CONTINUOUS
 62
     2
 10
192.5
 20
137.45
 30
0.0
 11
196.007402885
 21
139.475
 31
0.0
  0
LINE
  8
0
  6
CONTINUOUS
 62
     2
 10
196.007402885
 20
139.475
 30
0.0
 11
196.007402885
 21
143.525
 31
0.0
  0
LINE
  8
0
  6
CONTINUOUS
 62
     2
 10
196.007402885
 20
143.525
 30
0.0
 11
192.5
 21
145.55
 31
0.0
  0
CIRCLE
  8
0
  6
CONTINUOUS
 62
     2
 10
192.5
 20
141.5
 30
0.0
 40
1.6
  0
LINE
  8
0
  6
CONTINUOUS
 62
     2
 10
161.0
 20
156.2
 30
0.0
 11
158.228718708
 21
154.6
 31
0.0
  0
LINE
  8
0
  6
CONTINUOUS
 62
     2
 10
158.228718708
 20
154.6
 30
0.0
 11
158.228718708
 21
151.4
 31
0.0
  0
LINE
  8
0
  6
CONTINUOUS
 62
     2
 10
158.228718708
 20
151.4
 30
0.0
 11
161.0
 21
149.8
 31
0.0
  0
LINE
  8
0
  6
CONTINUOUS
 62
     2
 10
161.0
 20
149.8
 30
0.0
 11
163.771281292
 21
151.4
 31
0.0
  0
LINE
  8
0
  6
CONTINUOUS
 62
     2
 10
163.771281292
 20
151.4
 30
0.0
 11
163.771281292
 21
154.6
 31
0.0
  0
LINE
  8
0
  6
CONTINUOUS
 62
     2
 10
163.771281292
 20
154.6
 30
0.0
 11
161.0
 21
156.2
 31
0.0
  0
CIRCLE
  8
0
  6
CONTINUOUS
 62
     2
 10
161.0
 20
153.0
 30
0.0
 40
3.7
  0
CIRCLE
  8
0
  6
CONTINUOUS
 62
     2
 10
199.0
 20
153.0
 30
0.0
 40
4.0
  0
CIRCLE
  8
0
  6
CONTINUOUS
 62
     2
 10
199.0
 20
153.0
 30
0.0
 40
1.5
  0
CIRCLE
  8
0
  6
CONTINUOUS
 62
     2
 10
199.0
 20
153.0
 30
0.0
 40
1.2
  0
LINE
  8
0
  6
CONTINUOUS
 62
     2
 10
199.0
 20
156.2
 30
0.0
 11
196.228718708
 21
154.6
 31
0.0
  0
LINE
  8
0
  6
CONTINUOUS
 62
     2
 10
196.228718708
 20
154.6
 30
0.0
 11
196.228718708
 21
151.4
 31
0.0
  0
LINE
  8
0
  6
CONTINUOUS
 62
     2
 10
196.228718708
 20
151.4
 30
0.0
 11
199.0
 21
149.8
 31
0.0
  0
LINE
  8
0
  6
CONTINUOUS
 62
     2
 10
199.0
 20
149.8
 30
0.0
 11
201.771281292
 21
151.4
 31
0.0
  0
LINE
  8
0
  6
CONTINUOUS
 62
     2
 10
201.771281292
 20
151.4
 30
0.0
 11
201.771281292
 21
154.6
 31
0.0
  0
LINE
  8
0
  6
CONTINUOUS
 62
     2
 10
201.771281292
 20
154.6
 30
0.0
 11
199.0
 21
156.2
 31
0.0
  0
CIRCLE
  8
0
  6
CONTINUOUS
 62
     2
 10
199.0
 20
153.0
 30
0.0
 40
3.7
  0
CIRCLE
  8
0
  6
CONTINUOUS
 62
     2
 10
199.0
 20
115.0
 30
0.0
 40
4.0
  0
CIRCLE
  8
0
  6
CONTINUOUS
 62
     2
 10
199.0
 20
115.0
 30
0.0
 40
1.5
  0
CIRCLE
  8
0
  6
CONTINUOUS
 62
     2
 10
199.0
 20
115.0
 30
0.0
 40
1.2
  0
LINE
  8
0
  6
CONTINUOUS
 62
     2
 10
199.0
 20
118.2
 30
0.0
 11
196.228718708
 21
116.6
 31
0.0
  0
LINE
  8
0
  6
CONTINUOUS
 62
     2
 10
196.228718708
 20
116.6
 30
0.0
 11
196.228718708
 21
113.4
 31
0.0
  0
LINE
  8
0
  6
CONTINUOUS
 62
     2
 10
196.228718708
 20
113.4
 30
0.0
 11
199.0
 21
111.8
 31
0.0
  0
LINE
  8
0
  6
CONTINUOUS
 62
     2
 10
199.0
 20
111.8
 30
0.0
 11
201.771281292
 21
113.4
 31
0.0
  0
LINE
  8
0
  6
CONTINUOUS
 62
     2
 10
201.771281292
 20
113.4
 30
0.0
 11
201.771281292
 21
116.6
 31
0.0
  0
LINE
  8
0
  6
CONTINUOUS
 62
     2
 10
201.771281292
 20
116.6
 30
0.0
 11
199.0
 21
118.2
 31
0.0
  0
CIRCLE
  8
0
  6
CONTINUOUS
 62
     2
 10
199.0
 20
115.0
 30
0.0
 40
3.7
  0
CIRCLE
  8
0
  6
CONTINUOUS
 62
     2
 10
161.0
 20
115.0
 30
0.0
 40
4.0
  0
CIRCLE
  8
0
  6
CONTINUOUS
 62
     2
 10
161.0
 20
115.0
 30
0.0
 40
1.5
  0
CIRCLE
  8
0
  6
CONTINUOUS
 62
     2
 10
161.0
 20
115.0
 30
0.0
 40
1.2
  0
LINE
  8
0
  6
CONTINUOUS
 62
     2
 10
161.0
 20
118.2
 30
0.0
 11
158.228718708
 21
116.6
 31
0.0
  0
LINE
  8
0
  6
CONTINUOUS
 62
     2
 10
158.228718708
 20
116.6
 30
0.0
 11
158.228718708
 21
113.4
 31
0.0
  0
LINE
  8
0
  6
CONTINUOUS
 62
     2
 10
158.228718708
 20
113.4
 30
0.0
 11
161.0
 21
111.8
 31
0.0
  0
LINE
  8
0
  6
CONTINUOUS
 62
     2
 10
161.0
 20
111.8
 30
0.0
 11
163.771281292
 21
113.4
 31
0.0
  0
LINE
  8
0
  6
CONTINUOUS
 62
     2
 10
163.771281292
 20
113.4
 30
0.0
 11
163.771281292
 21
116.6
 31
0.0
  0
LINE
  8
0
  6
CONTINUOUS
 62
     2
 10
163.771281292
 20
116.6
 30
0.0
 11
161.0
 21
118.2
 31
0.0
  0
CIRCLE
  8
0
  6
CONTINUOUS
 62
     2
 10
161.0
 20
115.0
 30
0.0
 40
3.7
  0
LINE
  8
0
  6
CONTINUOUS
 62
     2
 10
180.0
 20
177.0
 30
0.0
 11
180.0
 21
174.0
 31
0.0
  0
LINE
  8
0
  6
LTYPE1
 62
     2
 10
20.0
 20
135.0
 30
0.0
 11
216.5
 21
135.0
 31
0.0
  0
CIRCLE
  8
0
  6
CONTINUOUS
 62
     2
 10
26.0
 20
79.0
 30
0.0
 40
2.0
  0
CIRCLE
  8
0
  6
CONTINUOUS
 62
     2
 10
64.0
 20
79.0
 30
0.0
 40
2.0
  0
CIRCLE
  8
0
  6
CONTINUOUS
 62
     2
 10
26.0
 20
41.0
 30
0.0
 40
2.0
  0
CIRCLE
  8
0
  6
CONTINUOUS
 62
     2
 10
64.0
 20
41.0
 30
0.0
 40
2.0
  0
LINE
  8
0
  6
CONTINUOUS
 62
     2
 10
64.987842817
 20
39.260986898
 30
0.0
 11
65.61795929
 21
36.841699145
 31
0.0
  0
LINE
  8
0
  6
CONTINUOUS
 62
     2
 10
64.987842817
 20
39.260986898
 30
0.0
 11
66.743183566
 21
37.480880481
 31
0.0
  0
LINE
  8
0
  6
CONTINUOUS
 62
     2
 10
69.617433557
 20
31.110986898
 30
0.0
 11
82.617433557
 21
31.110986898
 31
0.0
  0
LINE
  8
0
  6
CONTINUOUS
 62
     2
 10
64.987842817
 20
39.260986898
 30
0.0
 11
69.617433557
 21
31.110986898
 31
0.0
  0
TEXT
  8
0
  6
CONTINUOUS
 62
     2
 10
36.55
 20
30.55
 30
0.3
 40
3.0
  1
パネルカット
 50
0.0
 41
0.9
 51
0.0
  7
KANJI2
  0
LINE
  8
0
  6
CONTINUOUS
 62
     2
 10
35.8
 20
30.0
 30
0.0
 11
54.3
 21
30.0
 31
0.0
  0
LINE
  8
0
  6
LTYPE1
 62
     2
 10
26.0
 20
44.5
 30
0.0
 11
26.0
 21
37.5
 31
0.0
  0
LINE
  8
0
  6
LTYPE1
 62
     2
 10
22.5
 20
41.0
 30
0.0
 11
29.5
 21
41.0
 31
0.0
  0
LINE
  8
0
  6
LTYPE1
 62
     2
 10
64.0
 20
44.5
 30
0.0
 11
64.0
 21
37.5
 31
0.0
  0
LINE
  8
0
  6
LTYPE1
 62
     2
 10
60.5
 20
41.0
 30
0.0
 11
67.5
 21
41.0
 31
0.0
  0
LINE
  8
0
  6
LTYPE1
 62
     2
 10
64.0
 20
82.5
 30
0.0
 11
64.0
 21
75.5
 31
0.0
  0
LINE
  8
0
  6
LTYPE1
 62
     2
 10
60.5
 20
79.0
 30
0.0
 11
67.5
 21
79.0
 31
0.0
  0
LINE
  8
0
  6
LTYPE1
 62
     2
 10
26.0
 20
82.5
 30
0.0
 11
26.0
 21
75.5
 31
0.0
  0
LINE
  8
0
  6
LTYPE1
 62
     2
 10
22.5
 20
79.0
 30
0.0
 11
29.5
 21
79.0
 31
0.0
  0
LINE
  8
0
  6
CONTINUOUS
 62
     2
 10
67.5
 20
79.0
 30
0.0
 11
76.0
 21
79.0
 31
0.0
  0
LINE
  8
0
  6
CONTINUOUS
 62
     2
 10
74.0
 20
79.0
 30
0.0
 11
73.352952387
 21
76.585185434
 31
0.0
  0
LINE
  8
0
  6
CONTINUOUS
 62
     2
 10
74.0
 20
79.0
 30
0.0
 11
74.647047613
 21
76.585185434
 31
0.0
  0
LINE
  8
0
  6
CONTINUOUS
 62
     2
 10
74.0
 20
79.0
 30
0.0
 11
74.0
 21
60.0
 31
0.0
  0
LINE
  8
0
  6
CONTINUOUS
 62
     2
 10
74.0
 20
60.0
 30
0.0
 11
74.647047613
 21
62.414814566
 31
0.0
  0
LINE
  8
0
  6
CONTINUOUS
 62
     2
 10
74.0
 20
60.0
 30
0.0
 11
73.352952387
 21
62.414814566
 31
0.0
  0
TEXT
  8
0
  6
CONTINUOUS
 62
     2
 10
73.0
 20
65.12
 30
0.3
 40
3.0
  1
１９
 50
90.0
 41
0.6
 51
0.0
  7
KANJI0
  0
TEXT
  8
0
  6
CONTINUOUS
 62
     2
 10
73.0
 20
69.02
 30
0.18
 40
1.8
  1
±０．５
 50
90.0
 41
0.6
 51
0.0
  7
KANJI1
  0
LINE
  8
0
  6
CONTINUOUS
 62
     2
 10
74.0
 20
60.0
 30
0.0
 11
73.352952387
 21
57.585185434
 31
0.0
  0
LINE
  8
0
  6
CONTINUOUS
 62
     2
 10
74.0
 20
60.0
 30
0.0
 11
74.647047613
 21
57.585185434
 31
0.0
  0
LINE
  8
0
  6
CONTINUOUS
 62
     2
 10
74.0
 20
60.0
 30
0.0
 11
74.0
 21
41.0
 31
0.0
  0
LINE
  8
0
  6
CONTINUOUS
 62
     2
 10
74.0
 20
41.0
 30
0.0
 11
74.647047613
 21
43.414814566
 31
0.0
  0
LINE
  8
0
  6
CONTINUOUS
 62
     2
 10
74.0
 20
41.0
 30
0.0
 11
73.352952387
 21
43.414814566
 31
0.0
  0
LINE
  8
0
  6
CONTINUOUS
 62
     2
 10
67.5
 20
41.0
 30
0.0
 11
76.0
 21
41.0
 31
0.0
  0
TEXT
  8
0
  6
CONTINUOUS
 62
     2
 10
73.0
 20
46.12
 30
0.3
 40
3.0
  1
１９
 50
90.0
 41
0.6
 51
0.0
  7
KANJI0
  0
TEXT
  8
0
  6
CONTINUOUS
 62
     2
 10
73.0
 20
50.02
 30
0.18
 40
1.8
  1
±０．５
 50
90.0
 41
0.6
 51
0.0
  7
KANJI1
  0
LINE
  8
0
  6
CONTINUOUS
 62
     2
 10
25.465621438
 20
46.936384337
 30
0.0
 11
27.832629234
 21
47.740917799
 31
0.0
  0
LINE
  8
0
  6
CONTINUOUS
 62
     2
 10
25.465621438
 20
46.936384337
 30
0.0
 11
27.113243589
 21
48.816634652
 31
0.0
  0
LINE
  8
0
  6
CONTINUOUS
 62
     2
 10
64.534378562
 20
73.063615663
 30
0.0
 11
62.167370766
 21
72.259082201
 31
0.0
  0
LINE
  8
0
  6
CONTINUOUS
 62
     2
 10
64.534378562
 20
73.063615663
 30
0.0
 11
62.886756411
 21
71.183365348
 31
0.0
  0
TEXT
  8
0
  6
CONTINUOUS
 62
     2
 10
69.617433557
 20
32.110986898
 30
0.3
 40
3.0
  1
４－φ４
 50
0.0
 41
0.6
 51
0.0
  7
KANJI0
  0
TEXT
  8
0
  6
CONTINUOUS
 62
     2
 10
77.907842817
 20
32.010986898
 30
0.18
 40
1.8
  1
－０
 50
0.0
 41
0.6
 51
0.0
  7
KANJI1
  0
TEXT
  8
0
  6
CONTINUOUS
 62
     2
 10
77.907842817
 20
33.810986898
 30
0.18
 40
1.8
  1
＋０．５
 50
0.0
 41
0.6
 51
0.0
  7
KANJI1
  0
LINE
  8
0
  6
CONTINUOUS
 62
     2
 10
25.465621438
 20
46.936384337
 30
0.0
 11
64.534378562
 21
73.063615663
 31
0.0
  0
LINE
  8
0
  6
LTYPE1
 62
     2
 10
20.0
 20
60.0
 30
0.0
 11
70.0
 21
60.0
 31
0.0
  0
LINE
  8
0
  6
CONTINUOUS
 62
     2
 10
70.0
 20
60.0
 30
0.0
 11
76.0
 21
60.0
 31
0.0
  0
LINE
  8
0
  6
LTYPE1
 62
     2
 10
45.0
 20
85.0
 30
0.0
 11
45.0
 21
35.0
 31
0.0
  0
LINE
  8
0
  6
CONTINUOUS
 62
     2
 10
26.0
 20
89.0
 30
0.0
 11
28.414814566
 21
88.352952387
 31
0.0
  0
LINE
  8
0
  6
CONTINUOUS
 62
     2
 10
26.0
 20
89.0
 30
0.0
 11
28.414814566
 21
89.647047613
 31
0.0
  0
LINE
  8
0
  6
CONTINUOUS
 62
     2
 10
26.0
 20
89.0
 30
0.0
 11
45.0
 21
89.0
 31
0.0
  0
LINE
  8
0
  6
CONTINUOUS
 62
     2
 10
45.0
 20
89.0
 30
0.0
 11
42.585185434
 21
89.647047613
 31
0.0
  0
LINE
  8
0
  6
CONTINUOUS
 62
     2
 10
45.0
 20
89.0
 30
0.0
 11
42.585185434
 21
88.352952387
 31
0.0
  0
TEXT
  8
0
  6
CONTINUOUS
 62
     2
 10
31.12
 20
90.0
 30
0.3
 40
3.0
  1
１９
 50
0.0
 41
0.6
 51
0.0
  7
KANJI0
  0
TEXT
  8
0
  6
CONTINUOUS
 62
     2
 10
35.02
 20
90.0
 30
0.18
 40
1.8
  1
±０．５
 50
0.0
 41
0.6
 51
0.0
  7
KANJI1
  0
LINE
  8
0
  6
CONTINUOUS
 62
     2
 10
45.0
 20
89.0
 30
0.0
 11
47.414814566
 21
88.352952387
 31
0.0
  0
LINE
  8
0
  6
CONTINUOUS
 62
     2
 10
45.0
 20
89.0
 30
0.0
 11
47.414814566
 21
89.647047613
 31
0.0
  0
LINE
  8
0
  6
CONTINUOUS
 62
     2
 10
45.0
 20
89.0
 30
0.0
 11
64.0
 21
89.0
 31
0.0
  0
LINE
  8
0
  6
CONTINUOUS
 62
     2
 10
64.0
 20
89.0
 30
0.0
 11
61.585185434
 21
89.647047613
 31
0.0
  0
LINE
  8
0
  6
CONTINUOUS
 62
     2
 10
64.0
 20
89.0
 30
0.0
 11
61.585185434
 21
88.352952387
 31
0.0
  0
TEXT
  8
0
  6
CONTINUOUS
 62
     2
 10
50.12
 20
90.0
 30
0.3
 40
3.0
  1
１９
 50
0.0
 41
0.6
 51
0.0
  7
KANJI0
  0
TEXT
  8
0
  6
CONTINUOUS
 62
     2
 10
54.02
 20
90.0
 30
0.18
 40
1.8
  1
±０．５
 50
0.0
 41
0.6
 51
0.0
  7
KANJI1
  0
LINE
  8
0
  6
CONTINUOUS
 62
     2
 10
26.0
 20
82.5
 30
0.0
 11
26.0
 21
91.0
 31
0.0
  0
LINE
  8
0
  6
CONTINUOUS
 62
     2
 10
45.0
 20
81.0
 30
0.0
 11
45.0
 21
91.0
 31
0.0
  0
LINE
  8
0
  6
CONTINUOUS
 62
     2
 10
64.0
 20
82.5
 30
0.0
 11
64.0
 21
91.0
 31
0.0
  0
LINE
  8
0
  6
LTYPE1
 62
     2
 10
67.0
 20
125.5
 30
0.0
 11
67.0
 21
119.5
 31
0.0
  0
LINE
  8
0
  6
LTYPE1
 62
     2
 10
70.0
 20
122.5
 30
0.0
 11
64.0
 21
122.5
 31
0.0
  0
LINE
  8
0
  6
LTYPE3
 62
     2
 10
45.0
 20
166.0
 30
0.0
 11
45.0
 21
102.0
 31
0.0
  0
LINE
  8
0
  6
CONTINUOUS
 62
     2
 10
17.0
 20
159.6
 30
0.0
 11
17.0
 21
173.0
 31
0.0
  0
LINE
  8
0
  6
CONTINUOUS
 62
     2
 10
17.0
 20
171.0
 30
0.0
 11
19.414814566
 21
170.352952387
 31
0.0
  0
LINE
  8
0
  6
CONTINUOUS
 62
     2
 10
17.0
 20
171.0
 30
0.0
 11
19.414814566
 21
171.647047613
 31
0.0
  0
LINE
  8
0
  6
CONTINUOUS
 62
     2
 10
17.0
 20
171.0
 30
0.0
 11
73.0
 21
171.0
 31
0.0
  0
LINE
  8
0
  6
CONTINUOUS
 62
     2
 10
73.0
 20
171.0
 30
0.0
 11
70.585185434
 21
171.647047613
 31
0.0
  0
LINE
  8
0
  6
CONTINUOUS
 62
     2
 10
73.0
 20
171.0
 30
0.0
 11
70.585185434
 21
170.352952387
 31
0.0
  0
LINE
  8
0
  6
CONTINUOUS
 62
     2
 10
73.0
 20
159.6
 30
0.0
 11
73.0
 21
173.0
 31
0.0
  0
TEXT
  8
0
  6
CONTINUOUS
 62
     2
 10
43.05
 20
172.0
 30
0.3
 40
3.0
  1
５６
 50
0.0
 41
0.6
 51
0.0
  7
KANJI0
  0
CIRCLE
  8
0
  6
CONTINUOUS
 62
     2
 10
45.0
 20
117.0
 30
0.0
 40
3.5
  0
CIRCLE
  8
0
  6
CONTINUOUS
 62
     2
 10
23.0
 20
122.5
 30
0.0
 40
2.9
  0
CIRCLE
  8
0
  6
CONTINUOUS
 62
     2
 10
67.0
 20
122.5
 30
0.0
 40
2.9
  0
LINE
  8
0
  6
CONTINUOUS
 62
     2
 10
68.75
 20
122.1
 30
0.0
 11
67.8
 21
122.1
 31
0.0
  0
ARC
  8
0
  6
CONTINUOUS
 62
     2
 10
67.8
 20
121.7
 30
0.0
 40
0.4
 50
90.0
 51
180.0
  0
ARC
  8
0
  6
CONTINUOUS
 62
     2
 10
66.2
 20
121.7
 30
0.0
 40
0.4
 50
0.0
 51
90.0
  0
LINE
  8
0
  6
CONTINUOUS
 62
     2
 10
66.2
 20
122.1
 30
0.0
 11
65.25
 21
122.1
 31
0.0
  0
LINE
  8
0
  6
CONTINUOUS
 62
     2
 10
65.25
 20
122.1
 30
0.0
 11
65.25
 21
122.9
 31
0.0
  0
LINE
  8
0
  6
CONTINUOUS
 62
     2
 10
65.25
 20
122.9
 30
0.0
 11
66.2
 21
122.9
 31
0.0
  0
ARC
  8
0
  6
CONTINUOUS
 62
     2
 10
66.2
 20
123.3
 30
0.0
 40
0.4
 50
270.0
 51
0.0
  0
ARC
  8
0
  6
CONTINUOUS
 62
     2
 10
67.8
 20
123.3
 30
0.0
 40
0.4
 50
180.0
 51
270.0
  0
LINE
  8
0
  6
CONTINUOUS
 62
     2
 10
67.8
 20
122.9
 30
0.0
 11
68.75
 21
122.9
 31
0.0
  0
LINE
  8
0
  6
CONTINUOUS
 62
     2
 10
68.75
 20
122.9
 30
0.0
 11
68.75
 21
122.1
 31
0.0
  0
LINE
  8
0
  6
LTYPE1
 62
     2
 10
71.0
 20
122.5
 30
0.0
 11
63.0
 21
122.5
 31
0.0
  0
LINE
  8
0
  6
LTYPE1
 62
     2
 10
67.0
 20
118.5
 30
0.0
 11
67.0
 21
126.5
 31
0.0
  0
LINE
  8
0
  6
LTYPE1
 62
     2
 10
67.0
 20
126.5
 30
0.0
 11
67.0
 21
118.5
 31
0.0
  0
LINE
  8
0
  6
LTYPE1
 62
     2
 10
71.0
 20
122.5
 30
0.0
 11
63.0
 21
122.5
 31
0.0
  0
LINE
  8
0
  6
CONTINUOUS
 62
     2
 10
67.4
 20
124.25
 30
0.0
 11
67.4
 21
123.3
 31
0.0
  0
LINE
  8
0
  6
CONTINUOUS
 62
     2
 10
66.6
 20
123.3
 30
0.0
 11
66.6
 21
124.25
 31
0.0
  0
LINE
  8
0
  6
CONTINUOUS
 62
     2
 10
66.6
 20
124.25
 30
0.0
 11
67.4
 21
124.25
 31
0.0
  0
LINE
  8
0
  6
CONTINUOUS
 62
     2
 10
67.4
 20
120.75
 30
0.0
 11
67.4
 21
121.7
 31
0.0
  0
LINE
  8
0
  6
CONTINUOUS
 62
     2
 10
66.6
 20
121.7
 30
0.0
 11
66.6
 21
120.75
 31
0.0
  0
LINE
  8
0
  6
CONTINUOUS
 62
     2
 10
66.6
 20
120.75
 30
0.0
 11
67.4
 21
120.75
 31
0.0
  0
LINE
  8
0
  6
LTYPE1
 62
     2
 10
20.0
 20
122.5
 30
0.0
 11
26.0
 21
122.5
 31
0.0
  0
LINE
  8
0
  6
LTYPE1
 62
     2
 10
23.0
 20
125.5
 30
0.0
 11
23.0
 21
119.5
 31
0.0
  0
LINE
  8
0
  6
CONTINUOUS
 62
     2
 10
23.4
 20
124.25
 30
0.0
 11
23.4
 21
123.3
 31
0.0
  0
ARC
  8
0
  6
CONTINUOUS
 62
     2
 10
23.8
 20
123.3
 30
0.0
 40
0.4
 50
180.0
 51
270.0
  0
ARC
  8
0
  6
CONTINUOUS
 62
     2
 10
23.8
 20
121.7
 30
0.0
 40
0.4
 50
90.0
 51
180.0
  0
LINE
  8
0
  6
CONTINUOUS
 62
     2
 10
23.4
 20
121.7
 30
0.0
 11
23.4
 21
120.75
 31
0.0
  0
LINE
  8
0
  6
CONTINUOUS
 62
     2
 10
23.4
 20
120.75
 30
0.0
 11
22.6
 21
120.75
 31
0.0
  0
LINE
  8
0
  6
CONTINUOUS
 62
     2
 10
22.6
 20
120.75
 30
0.0
 11
22.6
 21
121.7
 31
0.0
  0
ARC
  8
0
  6
CONTINUOUS
 62
     2
 10
22.2
 20
121.7
 30
0.0
 40
0.4
 50
0.0
 51
90.0
  0
ARC
  8
0
  6
CONTINUOUS
 62
     2
 10
22.2
 20
123.3
 30
0.0
 40
0.4
 50
270.0
 51
0.0
  0
LINE
  8
0
  6
CONTINUOUS
 62
     2
 10
22.6
 20
123.3
 30
0.0
 11
22.6
 21
124.25
 31
0.0
  0
LINE
  8
0
  6
CONTINUOUS
 62
     2
 10
22.6
 20
124.25
 30
0.0
 11
23.4
 21
124.25
 31
0.0
  0
LINE
  8
0
  6
LTYPE1
 62
     2
 10
23.0
 20
126.5
 30
0.0
 11
23.0
 21
118.5
 31
0.0
  0
LINE
  8
0
  6
LTYPE1
 62
     2
 10
27.0
 20
122.5
 30
0.0
 11
19.0
 21
122.5
 31
0.0
  0
LINE
  8
0
  6
LTYPE1
 62
     2
 10
19.0
 20
122.5
 30
0.0
 11
27.0
 21
122.5
 31
0.0
  0
LINE
  8
0
  6
LTYPE1
 62
     2
 10
23.0
 20
126.5
 30
0.0
 11
23.0
 21
118.5
 31
0.0
  0
LINE
  8
0
  6
CONTINUOUS
 62
     2
 10
21.25
 20
122.9
 30
0.0
 11
22.2
 21
122.9
 31
0.0
  0
LINE
  8
0
  6
CONTINUOUS
 62
     2
 10
22.2
 20
122.1
 30
0.0
 11
21.25
 21
122.1
 31
0.0
  0
LINE
  8
0
  6
CONTINUOUS
 62
     2
 10
21.25
 20
122.1
 30
0.0
 11
21.25
 21
122.9
 31
0.0
  0
LINE
  8
0
  6
CONTINUOUS
 62
     2
 10
24.75
 20
122.9
 30
0.0
 11
23.8
 21
122.9
 31
0.0
  0
LINE
  8
0
  6
CONTINUOUS
 62
     2
 10
23.8
 20
122.1
 30
0.0
 11
24.75
 21
122.1
 31
0.0
  0
LINE
  8
0
  6
CONTINUOUS
 62
     2
 10
24.75
 20
122.1
 30
0.0
 11
24.75
 21
122.9
 31
0.0
  0
LINE
  8
0
  6
CONTINUOUS
 62
     2
 10
41.535898385
 20
116.5
 30
0.0
 11
48.464101615
 21
116.5
 31
0.0
  0
LINE
  8
0
  6
CONTINUOUS
 62
     2
 10
48.464101615
 20
117.5
 30
0.0
 11
41.535898385
 21
117.5
 31
0.0
  0
LINE
  8
0
  6
CONTINUOUS
 62
     2
 10
93.0
 20
175.0
 30
0.0
 11
95.414814566
 21
174.352952387
 31
0.0
  0
LINE
  8
0
  6
CONTINUOUS
 62
     2
 10
93.0
 20
175.0
 30
0.0
 11
95.414814566
 21
175.647047613
 31
0.0
  0
LINE
  8
0
  6
CONTINUOUS
 62
     2
 10
93.0
 20
175.0
 30
0.0
 11
95.414814566
 21
174.352952387
 31
0.0
  0
LINE
  8
0
  6
CONTINUOUS
 62
     2
 10
93.0
 20
175.0
 30
0.0
 11
95.414814566
 21
175.647047613
 31
0.0
  0
LINE
  8
0
  6
CONTINUOUS
 62
     2
 10
93.0
 20
175.0
 30
0.0
 11
123.0
 21
175.0
 31
0.0
  0
LINE
  8
0
  6
CONTINUOUS
 62
     2
 10
123.0
 20
175.0
 30
0.0
 11
120.585185434
 21
175.647047613
 31
0.0
  0
LINE
  8
0
  6
CONTINUOUS
 62
     2
 10
123.0
 20
175.0
 30
0.0
 11
120.585185434
 21
174.352952387
 31
0.0
  0
LINE
  8
0
  6
CONTINUOUS
 62
     2
 10
123.0
 20
156.5
 30
0.0
 11
123.0
 21
177.0
 31
0.0
  0
TEXT
  8
0
  6
CONTINUOUS
 62
     2
 10
106.05
 20
176.0
 30
0.3
 40
3.0
  1
３０
 50
0.0
 41
0.6
 51
0.0
  7
KANJI0
  0
LINE
  8
0
  6
LTYPE1
 62
     2
 10
122.5
 20
124.5
 30
0.0
 11
88.5
 21
124.5
 31
0.0
  0
LINE
  8
0
  6
CONTINUOUS
 62
     2
 10
93.0
 20
162.0
 30
0.0
 11
93.0
 21
177.0
 31
0.0
  0
LINE
  8
0
  6
LTYPE2
 62
     2
 10
83.8
 20
117.0
 30
0.0
 11
79.8
 21
117.0
 31
0.0
  0
LINE
  8
0
  6
CONTINUOUS
 62
     2
 10
93.0
 20
156.9
 30
0.0
 11
93.5
 21
156.9
 31
0.0
  0
LINE
  8
0
  6
CONTINUOUS
 62
     2
 10
93.5
 20
148.9
 30
0.0
 11
93.0
 21
148.9
 31
0.0
  0
LINE
  8
0
  6
CONTINUOUS
 62
     2
 10
93.5
 20
156.9
 30
0.0
 11
93.5
 21
148.9
 31
0.0
  0
LINE
  8
0
  6
CONTINUOUS
 62
     2
 10
98.2
 20
156.05
 30
0.0
 11
98.6
 21
155.65
 31
0.0
  0
LINE
  8
0
  6
CONTINUOUS
 62
     2
 10
98.15
 20
154.4
 30
0.0
 11
98.55
 21
154.8
 31
0.0
  0
LINE
  8
0
  6
CONTINUOUS
 62
     2
 10
98.55
 20
154.0
 30
0.0
 11
98.15
 21
154.4
 31
0.0
  0
LINE
  8
0
  6
CONTINUOUS
 62
     2
 10
96.2
 20
156.05
 30
0.0
 11
98.2
 21
156.05
 31
0.0
  0
LINE
  8
0
  6
CONTINUOUS
 62
     2
 10
96.2
 20
154.4
 30
0.0
 11
98.15
 21
154.4
 31
0.0
  0
LINE
  8
0
  6
CONTINUOUS
 62
     2
 10
98.2
 20
149.85
 30
0.0
 11
98.6
 21
150.25
 31
0.0
  0
LINE
  8
0
  6
CONTINUOUS
 62
     2
 10
98.2
 20
149.85
 30
0.0
 11
96.2
 21
149.85
 31
0.0
  0
LINE
  8
0
  6
CONTINUOUS
 62
     2
 10
96.2
 20
149.85
 30
0.0
 11
96.2
 21
156.05
 31
0.0
  0
LINE
  8
0
  6
CONTINUOUS
 62
     2
 10
98.6
 20
155.65
 30
0.0
 11
98.6
 21
150.25
 31
0.0
  0
LINE
  8
0
  6
CONTINUOUS
 62
     2
 10
96.2
 20
156.05
 30
0.0
 11
95.6
 21
156.65
 31
0.0
  0
LINE
  8
0
  6
CONTINUOUS
 62
     2
 10
95.6
 20
156.65
 30
0.0
 11
95.6
 21
149.25
 31
0.0
  0
LINE
  8
0
  6
CONTINUOUS
 62
     2
 10
96.2
 20
149.85
 30
0.0
 11
95.6
 21
149.25
 31
0.0
  0
LINE
  8
0
  6
CONTINUOUS
 62
     2
 10
98.17
 20
151.55
 30
0.0
 11
96.2
 21
151.55
 31
0.0
  0
LINE
  8
0
  6
CONTINUOUS
 62
     2
 10
98.17
 20
151.55
 30
0.0
 11
98.57
 21
151.95
 31
0.0
  0
LINE
  8
0
  6
CONTINUOUS
 62
     2
 10
98.57
 20
151.15
 30
0.0
 11
98.17
 21
151.55
 31
0.0
  0
LINE
  8
0
  6
CONTINUOUS
 62
     2
 10
93.0
 20
118.9
 30
0.0
 11
93.5
 21
118.9
 31
0.0
  0
LINE
  8
0
  6
CONTINUOUS
 62
     2
 10
93.5
 20
110.9
 30
0.0
 11
93.0
 21
110.9
 31
0.0
  0
LINE
  8
0
  6
CONTINUOUS
 62
     2
 10
93.5
 20
118.9
 30
0.0
 11
93.5
 21
110.9
 31
0.0
  0
LINE
  8
0
  6
CONTINUOUS
 62
     2
 10
98.2
 20
118.05
 30
0.0
 11
98.6
 21
117.65
 31
0.0
  0
LINE
  8
0
  6
CONTINUOUS
 62
     2
 10
98.15
 20
116.4
 30
0.0
 11
98.55
 21
116.8
 31
0.0
  0
LINE
  8
0
  6
CONTINUOUS
 62
     2
 10
98.55
 20
116.0
 30
0.0
 11
98.15
 21
116.4
 31
0.0
  0
LINE
  8
0
  6
CONTINUOUS
 62
     2
 10
96.2
 20
118.05
 30
0.0
 11
98.2
 21
118.05
 31
0.0
  0
LINE
  8
0
  6
CONTINUOUS
 62
     2
 10
96.2
 20
116.4
 30
0.0
 11
98.15
 21
116.4
 31
0.0
  0
LINE
  8
0
  6
CONTINUOUS
 62
     2
 10
98.2
 20
111.85
 30
0.0
 11
98.6
 21
112.25
 31
0.0
  0
LINE
  8
0
  6
CONTINUOUS
 62
     2
 10
98.2
 20
111.85
 30
0.0
 11
96.2
 21
111.85
 31
0.0
  0
LINE
  8
0
  6
CONTINUOUS
 62
     2
 10
96.2
 20
111.85
 30
0.0
 11
96.2
 21
118.05
 31
0.0
  0
LINE
  8
0
  6
CONTINUOUS
 62
     2
 10
98.6
 20
117.65
 30
0.0
 11
98.6
 21
112.25
 31
0.0
  0
LINE
  8
0
  6
CONTINUOUS
 62
     2
 10
96.2
 20
118.05
 30
0.0
 11
95.6
 21
118.65
 31
0.0
  0
LINE
  8
0
  6
CONTINUOUS
 62
     2
 10
95.6
 20
118.65
 30
0.0
 11
95.6
 21
111.25
 31
0.0
  0
LINE
  8
0
  6
CONTINUOUS
 62
     2
 10
96.2
 20
111.85
 30
0.0
 11
95.6
 21
111.25
 31
0.0
  0
LINE
  8
0
  6
CONTINUOUS
 62
     2
 10
98.17
 20
113.55
 30
0.0
 11
96.2
 21
113.55
 31
0.0
  0
LINE
  8
0
  6
CONTINUOUS
 62
     2
 10
98.17
 20
113.55
 30
0.0
 11
98.57
 21
113.95
 31
0.0
  0
LINE
  8
0
  6
CONTINUOUS
 62
     2
 10
98.57
 20
113.15
 30
0.0
 11
98.17
 21
113.55
 31
0.0
  0
LINE
  8
0
  6
LTYPE2
 62
     2
 10
90.0
 20
153.0
 30
0.0
 11
106.5
 21
153.0
 31
0.0
  0
LINE
  8
0
  6
LTYPE2
 62
     2
 10
90.0
 20
115.0
 30
0.0
 11
106.5
 21
115.0
 31
0.0
  0
LINE
  8
0
  6
CONTINUOUS
 62
     2
 10
90.0
 20
160.598214286
 30
0.0
 11
90.0
 21
109.401785714
 31
0.0
  0
LINE
  8
0
  6
CONTINUOUS
 62
     2
 10
81.8
 20
132.0
 30
0.0
 11
90.0
 21
132.0
 31
0.0
  0
LINE
  8
0
  6
CONTINUOUS
 62
     2
 10
95.6
 20
154.5
 30
0.0
 11
93.5
 21
154.5
 31
0.0
  0
LINE
  8
0
  6
CONTINUOUS
 62
     2
 10
93.5
 20
151.5
 30
0.0
 11
95.6
 21
151.5
 31
0.0
  0
LINE
  8
0
  6
CONTINUOUS
 62
     2
 10
103.5
 20
154.2
 30
0.0
 11
98.6
 21
154.2
 31
0.0
  0
LINE
  8
0
  6
CONTINUOUS
 62
     2
 10
95.6
 20
154.2
 30
0.0
 11
93.5
 21
154.2
 31
0.0
  0
LINE
  8
0
  6
CONTINUOUS
 62
     2
 10
93.5
 20
151.8
 30
0.0
 11
95.6
 21
151.8
 31
0.0
  0
LINE
  8
0
  6
CONTINUOUS
 62
     2
 10
98.6
 20
151.8
 30
0.0
 11
103.5
 21
151.8
 31
0.0
  0
LINE
  8
0
  6
CONTINUOUS
 62
     2
 10
95.6
 20
116.5
 30
0.0
 11
93.5
 21
116.5
 31
0.0
  0
LINE
  8
0
  6
CONTINUOUS
 62
     2
 10
93.5
 20
113.5
 30
0.0
 11
95.6
 21
113.5
 31
0.0
  0
LINE
  8
0
  6
CONTINUOUS
 62
     2
 10
95.6
 20
116.2
 30
0.0
 11
93.5
 21
116.2
 31
0.0
  0
LINE
  8
0
  6
CONTINUOUS
 62
     2
 10
93.5
 20
113.8
 30
0.0
 11
95.6
 21
113.8
 31
0.0
  0
LINE
  8
0
  6
CONTINUOUS
 62
     2
 10
93.5
 20
157.9
 30
0.0
 11
93.5
 21
172.0
 31
0.0
  0
LINE
  8
0
  6
CONTINUOUS
 62
     2
 10
127.2
 20
143.5
 30
0.0
 11
126.8
 21
143.5
 31
0.0
  0
LINE
  8
0
  6
CONTINUOUS
 62
     2
 10
125.7
 20
143.5
 30
0.0
 11
125.0
 21
143.5
 31
0.0
  0
LINE
  8
0
  6
CONTINUOUS
 62
     2
 10
125.0
 20
139.5
 30
0.0
 11
125.6
 21
139.5
 31
0.0
  0
LINE
  8
0
  6
CONTINUOUS
 62
     2
 10
126.7
 20
139.5
 30
0.0
 11
127.2
 21
139.5
 31
0.0
  0
LINE
  8
0
  6
CONTINUOUS
 62
     2
 10
127.3
 20
145.6
 30
0.0
 11
124.8
 21
145.6
 31
0.0
  0
LINE
  8
0
  6
CONTINUOUS
 62
     2
 10
127.3
 20
145.6
 30
0.0
 11
127.8
 21
145.1
 31
0.0
  0
LINE
  8
0
  6
CONTINUOUS
 62
     2
 10
127.28
 20
143.47
 30
0.0
 11
127.8
 21
144.07
 31
0.0
  0
LINE
  8
0
  6
CONTINUOUS
 62
     2
 10
127.8
 20
138.9
 30
0.0
 11
127.2
 21
139.44
 31
0.0
  0
LINE
  8
0
  6
CONTINUOUS
 62
     2
 10
127.8
 20
140.05
 30
0.0
 11
127.2
 21
139.51
 31
0.0
  0
LINE
  8
0
  6
CONTINUOUS
 62
     2
 10
127.2
 20
137.45
 30
0.0
 11
127.8
 21
138.05
 31
0.0
  0
LINE
  8
0
  6
CONTINUOUS
 62
     2
 10
127.8
 20
138.01
 30
0.0
 11
127.8
 21
145.1
 31
0.0
  0
LINE
  8
0
  6
CONTINUOUS
 62
     2
 10
127.306
 20
143.5
 30
0.0
 11
127.806
 21
143.1
 31
0.0
  0
LINE
  8
0
  6
CONTINUOUS
 62
     2
 10
127.306
 20
143.5
 30
0.0
 11
124.8
 21
143.5
 31
0.0
  0
LINE
  8
0
  6
CONTINUOUS
 62
     2
 10
124.8
 20
139.5
 30
0.0
 11
127.233333333
 21
139.5
 31
0.0
  0
LINE
  8
0
  6
CONTINUOUS
 62
     2
 10
130.172507806
 20
144.945
 30
0.0
 11
131.172507806
 21
144.945
 31
0.0
  0
LINE
  8
0
  6
CONTINUOUS
 62
     2
 10
131.172507806
 20
144.945
 30
0.0
 11
130.572507806
 21
141.645
 31
0.0
  0
LINE
  8
0
  6
CONTINUOUS
 62
     2
 10
130.572507806
 20
141.645
 30
0.0
 11
129.572507806
 21
141.645
 31
0.0
  0
LINE
  8
0
  6
CONTINUOUS
 62
     2
 10
129.572507806
 20
141.645
 30
0.0
 11
130.172507806
 21
144.945
 31
0.0
  0
LINE
  8
0
  6
CONTINUOUS
 62
     2
 10
131.072507806
 20
141.045
 30
0.0
 11
130.072507806
 21
141.045
 31
0.0
  0
LINE
  8
0
  6
CONTINUOUS
 62
     2
 10
129.572507806
 20
137.845
 30
0.0
 11
130.572507806
 21
137.845
 31
0.0
  0
LINE
  8
0
  6
CONTINUOUS
 62
     2
 10
130.072507806
 20
141.045
 30
0.0
 11
129.572507806
 21
137.845
 31
0.0
  0
LINE
  8
0
  6
CONTINUOUS
 62
     2
 10
130.572507806
 20
137.845
 30
0.0
 11
131.072507806
 21
141.045
 31
0.0
  0
LINE
  8
0
  6
CONTINUOUS
 62
     2
 10
134.150507806
 20
143.5
 30
0.0
 11
130.909780534
 21
143.5
 31
0.0
  0
LINE
  8
0
  6
CONTINUOUS
 62
     2
 10
130.831101556
 20
139.5
 30
0.0
 11
134.07784114
 21
139.5
 31
0.0
  0
LINE
  8
0
  6
CONTINUOUS
 62
     2
 10
133.644507806
 20
145.6
 30
0.0
 11
131.144507806
 21
145.6
 31
0.0
  0
LINE
  8
0
  6
CONTINUOUS
 62
     2
 10
133.644507806
 20
145.6
 30
0.0
 11
134.144507806
 21
145.1
 31
0.0
  0
LINE
  8
0
  6
CONTINUOUS
 62
     2
 10
133.624507806
 20
143.47
 30
0.0
 11
134.144507806
 21
144.07
 31
0.0
  0
LINE
  8
0
  6
CONTINUOUS
 62
     2
 10
134.144507806
 20
138.9
 30
0.0
 11
133.544507806
 21
139.44
 31
0.0
  0
LINE
  8
0
  6
CONTINUOUS
 62
     2
 10
134.144507806
 20
140.05
 30
0.0
 11
133.544507806
 21
139.51
 31
0.0
  0
LINE
  8
0
  6
CONTINUOUS
 62
     2
 10
133.544507806
 20
137.45
 30
0.0
 11
134.144507806
 21
138.05
 31
0.0
  0
LINE
  8
0
  6
CONTINUOUS
 62
     2
 10
134.144507806
 20
138.01
 30
0.0
 11
134.144507806
 21
145.1
 31
0.0
  0
LINE
  8
0
  6
CONTINUOUS
 62
     2
 10
133.650507806
 20
143.5
 30
0.0
 11
134.150507806
 21
143.1
 31
0.0
  0
LINE
  8
0
  6
CONTINUOUS
 62
     2
 10
131.144507806
 20
145.6
 30
0.0
 11
131.144507806
 21
137.4
 31
0.0
  0
LINE
  8
0
  6
CONTINUOUS
 62
     2
 10
124.8
 20
137.4
 30
0.0
 11
127.2
 21
137.4
 31
0.0
  0
LINE
  8
0
  6
CONTINUOUS
 62
     2
 10
131.144507806
 20
137.4
 30
0.0
 11
133.544507806
 21
137.4
 31
0.0
  0
LINE
  8
0
  6
CONTINUOUS
 62
     2
 10
124.8
 20
146.6
 30
0.0
 11
124.8
 21
177.0
 31
0.0
  0
LINE
  8
0
  6
CONTINUOUS
 62
     2
 10
124.8
 20
175.0
 30
0.0
 11
127.214814566
 21
174.352952387
 31
0.0
  0
LINE
  8
0
  6
CONTINUOUS
 62
     2
 10
124.8
 20
175.0
 30
0.0
 11
127.214814566
 21
175.647047613
 31
0.0
  0
LINE
  8
0
  6
CONTINUOUS
 62
     2
 10
124.8
 20
175.0
 30
0.0
 11
135.8
 21
175.0
 31
0.0
  0
LINE
  8
0
  6
CONTINUOUS
 62
     2
 10
135.8
 20
175.0
 30
0.0
 11
133.385185434
 21
175.647047613
 31
0.0
  0
LINE
  8
0
  6
CONTINUOUS
 62
     2
 10
135.8
 20
175.0
 30
0.0
 11
133.385185434
 21
174.352952387
 31
0.0
  0
TEXT
  8
0
  6
CONTINUOUS
 62
     2
 10
128.35
 20
176.0
 30
0.3
 40
3.0
  1
１１
 50
0.0
 41
0.6
 51
0.0
  7
KANJI0
  0
LINE
  8
0
  6
CONTINUOUS
 62
     2
 10
135.8
 20
143.1
 30
0.0
 11
134.144507806
 21
143.1048
 31
0.0
  0
LINE
  8
0
  6
CONTINUOUS
 62
     2
 10
135.8
 20
139.9
 30
0.0
 11
134.144507806
 21
139.9
 31
0.0
  0
LINE
  8
0
  6
CONTINUOUS
 62
     2
 10
131.144507806
 20
139.9
 30
0.0
 11
130.893601556
 21
139.9
 31
0.0
  0
LINE
  8
0
  6
CONTINUOUS
 62
     2
 10
131.144507806
 20
143.1
 30
0.0
 11
130.837053261
 21
143.1
 31
0.0
  0
LINE
  8
0
  6
LTYPE1
 62
     2
 10
138.8
 20
141.5
 30
0.0
 11
118.0
 21
141.5
 31
0.0
  0
LINE
  8
0
  6
CONTINUOUS
 62
     2
 10
124.8
 20
175.0
 30
0.0
 11
127.214814566
 21
174.352952387
 31
0.0
  0
LINE
  8
0
  6
CONTINUOUS
 62
     2
 10
124.8
 20
175.0
 30
0.0
 11
127.214814566
 21
175.647047613
 31
0.0
  0
LINE
  8
0
  6
CONTINUOUS
 62
     2
 10
129.8
 20
175.0
 30
0.0
 11
118.0
 21
175.0
 31
0.0
  0
LINE
  8
0
  6
CONTINUOUS
 62
     2
 10
123.0
 20
175.0
 30
0.0
 11
120.585185434
 21
175.647047613
 31
0.0
  0
LINE
  8
0
  6
CONTINUOUS
 62
     2
 10
123.0
 20
175.0
 30
0.0
 11
120.585185434
 21
174.352952387
 31
0.0
  0
TEXT
  8
0
  6
CONTINUOUS
 62
     2
 10
121.3
 20
176.5
 30
0.3
 40
3.0
  1
１．８
 50
0.0
 41
0.6
 51
0.0
  7
KANJI0
  0
LINE
  8
0
  6
CONTINUOUS
 62
     2
 10
93.5
 20
165.0
 30
0.0
 11
95.914814566
 21
164.352952387
 31
0.0
  0
LINE
  8
0
  6
CONTINUOUS
 62
     2
 10
93.5
 20
165.0
 30
0.0
 11
95.914814566
 21
165.647047613
 31
0.0
  0
LINE
  8
0
  6
CONTINUOUS
 62
     2
 10
93.5
 20
165.0
 30
0.0
 11
103.5
 21
165.0
 31
0.0
  0
LINE
  8
0
  6
CONTINUOUS
 62
     2
 10
103.5
 20
165.0
 30
0.0
 11
101.085185434
 21
165.647047613
 31
0.0
  0
LINE
  8
0
  6
CONTINUOUS
 62
     2
 10
103.5
 20
165.0
 30
0.0
 11
101.085185434
 21
164.352952387
 31
0.0
  0
TEXT
  8
0
  6
CONTINUOUS
 62
     2
 10
96.55
 20
166.0
 30
0.3
 40
3.0
  1
１０
 50
0.0
 41
0.6
 51
0.0
  7
KANJI0
  0
LINE
  8
0
  6
CONTINUOUS
 62
     2
 10
93.5
 20
165.0
 30
0.0
 11
95.914814566
 21
164.352952387
 31
0.0
  0
LINE
  8
0
  6
CONTINUOUS
 62
     2
 10
93.5
 20
165.0
 30
0.0
 11
95.914814566
 21
165.647047613
 31
0.0
  0
LINE
  8
0
  6
CONTINUOUS
 62
     2
 10
98.5
 20
165.0
 30
0.0
 11
82.0
 21
165.0
 31
0.0
  0
LINE
  8
0
  6
CONTINUOUS
 62
     2
 10
93.0
 20
165.0
 30
0.0
 11
90.585185434
 21
165.647047613
 31
0.0
  0
LINE
  8
0
  6
CONTINUOUS
 62
     2
 10
93.0
 20
165.0
 30
0.0
 11
90.585185434
 21
164.352952387
 31
0.0
  0
TEXT
  8
0
  6
CONTINUOUS
 62
     2
 10
82.0
 20
166.0
 30
0.3
 40
3.0
  1
０．５
 50
0.0
 41
0.6
 51
0.0
  7
KANJI0
  0
LINE
  8
0
  6
CONTINUOUS
 62
     2
 10
93.5
 20
170.0
 30
0.0
 11
91.085185434
 21
170.647047613
 31
0.0
  0
LINE
  8
0
  6
CONTINUOUS
 62
     2
 10
93.5
 20
170.0
 30
0.0
 11
91.085185434
 21
169.352952387
 31
0.0
  0
LINE
  8
0
  6
CONTINUOUS
 62
     2
 10
93.5
 20
170.0
 30
0.0
 11
81.5
 21
170.0
 31
0.0
  0
LINE
  8
0
  6
CONTINUOUS
 62
     2
 10
81.5
 20
170.0
 30
0.0
 11
83.914814566
 21
169.352952387
 31
0.0
  0
LINE
  8
0
  6
CONTINUOUS
 62
     2
 10
81.5
 20
170.0
 30
0.0
 11
83.914814566
 21
170.647047613
 31
0.0
  0
LINE
  8
0
  6
CONTINUOUS
 62
     2
 10
81.5
 20
159.5
 30
0.0
 11
81.5
 21
172.0
 31
0.0
  0
TEXT
  8
0
  6
CONTINUOUS
 62
     2
 10
85.55
 20
171.0
 30
0.3
 40
3.0
  1
１２
 50
0.0
 41
0.6
 51
0.0
  7
KANJI0
  0
LINE
  8
0
  6
CONTINUOUS
 62
     2
 10
103.5
 20
154.2
 30
0.0
 11
103.2
 21
154.5
 31
0.0
  0
LINE
  8
0
  6
CONTINUOUS
 62
     2
 10
103.5
 20
151.8
 30
0.0
 11
103.2
 21
151.5
 31
0.0
  0
LINE
  8
0
  6
CONTINUOUS
 62
     2
 10
103.2
 20
151.5
 30
0.0
 11
98.6
 21
151.5
 31
0.0
  0
LINE
  8
0
  6
CONTINUOUS
 62
     2
 10
103.2
 20
154.5
 30
0.0
 11
98.6
 21
154.5
 31
0.0
  0
LINE
  8
0
  6
CONTINUOUS
 62
     2
 10
103.5
 20
154.2
 30
0.0
 11
103.5
 21
151.8
 31
0.0
  0
LINE
  8
0
  6
CONTINUOUS
 62
     2
 10
103.2
 20
151.5
 30
0.0
 11
103.2
 21
154.5
 31
0.0
  0
LINE
  8
0
  6
CONTINUOUS
 62
     2
 10
103.5
 20
155.2
 30
0.0
 11
103.5
 21
167.0
 31
0.0
  0
LINE
  8
0
  6
CONTINUOUS
 62
     2
 10
135.8
 20
143.1
 30
0.0
 11
135.4
 21
143.5
 31
0.0
  0
LINE
  8
0
  6
CONTINUOUS
 62
     2
 10
135.8
 20
139.9
 30
0.0
 11
135.4
 21
139.5
 31
0.0
  0
LINE
  8
0
  6
CONTINUOUS
 62
     2
 10
135.4
 20
139.5
 30
0.0
 11
135.4
 21
143.5
 31
0.0
  0
LINE
  8
0
  6
CONTINUOUS
 62
     2
 10
134.144507806
 20
143.5
 30
0.0
 11
135.4
 21
143.5
 31
0.0
  0
LINE
  8
0
  6
CONTINUOUS
 62
     2
 10
135.8
 20
143.1
 30
0.0
 11
135.8
 21
139.9
 31
0.0
  0
LINE
  8
0
  6
CONTINUOUS
 62
     2
 10
135.4
 20
139.5
 30
0.0
 11
134.144507806
 21
139.5
 31
0.0
  0
LINE
  8
0
  6
CONTINUOUS
 62
     2
 10
135.8
 20
144.1
 30
0.0
 11
135.8
 21
177.0
 31
0.0
  0
LINE
  8
0
  6
CONTINUOUS
 62
     2
 10
103.5
 20
116.2
 30
0.0
 11
98.6
 21
116.2
 31
0.0
  0
LINE
  8
0
  6
CONTINUOUS
 62
     2
 10
98.6
 20
113.8
 30
0.0
 11
103.5
 21
113.8
 31
0.0
  0
LINE
  8
0
  6
CONTINUOUS
 62
     2
 10
103.5
 20
116.2
 30
0.0
 11
103.2
 21
116.5
 31
0.0
  0
LINE
  8
0
  6
CONTINUOUS
 62
     2
 10
103.5
 20
113.8
 30
0.0
 11
103.2
 21
113.5
 31
0.0
  0
LINE
  8
0
  6
CONTINUOUS
 62
     2
 10
103.2
 20
113.5
 30
0.0
 11
98.6
 21
113.5
 31
0.0
  0
LINE
  8
0
  6
CONTINUOUS
 62
     2
 10
103.2
 20
116.5
 30
0.0
 11
98.6
 21
116.5
 31
0.0
  0
LINE
  8
0
  6
CONTINUOUS
 62
     2
 10
103.5
 20
116.2
 30
0.0
 11
103.5
 21
113.8
 31
0.0
  0
LINE
  8
0
  6
CONTINUOUS
 62
     2
 10
103.2
 20
113.5
 30
0.0
 11
103.2
 21
116.5
 31
0.0
  0
LINE
  8
0
  6
CONTINUOUS
 62
     2
 10
102.2
 20
113.5
 30
0.0
 11
102.847047613
 21
111.085185434
 31
0.0
  0
LINE
  8
0
  6
CONTINUOUS
 62
     2
 10
102.2
 20
113.5
 30
0.0
 11
103.967766953
 21
111.732233047
 31
0.0
  0
LINE
  8
0
  6
CONTINUOUS
 62
     2
 10
102.2
 20
113.5
 30
0.0
 11
107.684827557
 21
104.0
 31
0.0
  0
LINE
  8
0
  6
CONTINUOUS
 62
     2
 10
107.684827557
 20
104.0
 30
0.0
 11
126.284827557
 21
104.0
 31
0.0
  0
TEXT
  8
0
  6
CONTINUOUS
 62
     2
 10
107.684827557
 20
105.0
 30
0.3
 40
3.0
  1
４－Ｍ３取付ボルト
 50
0.0
 41
0.6
 51
0.0
  7
KANJI0
  0
LINE
  8
0
  6
CONTINUOUS
 62
     2
 10
18.5
 20
161.0
 30
0.0
 11
10.0
 21
161.0
 31
0.0
  0
LINE
  8
0
  6
CONTINUOUS
 62
     2
 10
18.5
 20
109.0
 30
0.0
 11
10.0
 21
109.0
 31
0.0
  0
LINE
  8
0
  6
CONTINUOUS
 62
     2
 10
134.4
 20
139.5
 30
0.0
 11
135.047047613
 21
137.085185434
 31
0.0
  0
LINE
  8
0
  6
CONTINUOUS
 62
     2
 10
134.4
 20
139.5
 30
0.0
 11
136.167766953
 21
137.732233047
 31
0.0
  0
LINE
  8
0
  6
CONTINUOUS
 62
     2
 10
134.4
 20
139.5
 30
0.0
 11
154.895934556
 21
104.0
 31
0.0
  0
LINE
  8
0
  6
CONTINUOUS
 62
     2
 10
154.895934556
 20
104.0
 30
0.0
 11
184.295934556
 21
104.0
 31
0.0
  0
TEXT
  8
0
  6
CONTINUOUS
 62
     2
 10
154.895934556
 20
105.0
 30
0.3
 40
3.0
  1
２－Ｍ４（Ｍ５）タ－ミナルネジ
 50
0.0
 41
0.6
 51
0.0
  7
KANJI0
  0
ARC
  8
0
  6
CONTINUOUS
 62
     2
 10
45.0
 20
124.5
 30
0.0
 40
28.0
 50
134.181461021
 51
135.818538979
  0
LINE
  8
0
  6
CONTINUOUS
 62
     2
 10
38.065685425
 20
132.0
 30
0.0
 11
25.485873247
 21
144.579812178
 31
0.0
  0
LINE
  8
0
  6
CONTINUOUS
 62
     2
 10
36.934314575
 20
132.0
 30
0.0
 11
24.920187822
 21
144.014126753
 31
0.0
  0
LINE
  8
0
  6
CONTINUOUS
 62
     2
 10
43.25
 20
113.968911087
 30
0.0
 11
41.482971973
 21
112.200405517
 31
0.0
  0
LINE
  8
0
  6
CONTINUOUS
 62
     2
 10
43.25
 20
113.968911087
 30
0.0
 11
42.603961624
 21
111.553826323
 31
0.0
  0
LINE
  8
0
  6
CONTINUOUS
 62
     2
 10
43.25
 20
113.968911087
 30
0.0
 11
37.5
 21
104.0
 31
0.0
  0
LINE
  8
0
  6
CONTINUOUS
 62
     2
 10
37.5
 20
104.0
 30
0.0
 11
27.3
 21
104.0
 31
0.0
  0
TEXT
  8
0
  6
CONTINUOUS
 62
     2
 10
27.3
 20
105.0
 30
0.3
 40
3.0
  1
零位調整器
 50
0.0
 41
0.6
 51
0.0
  7
KANJI0
  0
LINE
  8
0
  6
CONTINUOUS
 62
     2
 10
25.485873247
 20
144.579812178
 30
0.0
 11
27.2536402
 21
146.34757913
 31
0.0
  0
LINE
  8
0
  6
CONTINUOUS
 62
     2
 10
25.485873247
 20
144.579812178
 30
0.0
 11
26.13292086
 21
146.994626743
 31
0.0
  0
LINE
  8
0
  6
CONTINUOUS
 62
     2
 10
25.485873247
 20
144.579812178
 30
0.0
 11
35.485873247
 21
161.900320253
 31
0.0
  0
LINE
  8
0
  6
CONTINUOUS
 62
     2
 10
37.852824453
 20
166.0
 30
0.0
 11
41.752824453
 21
166.0
 31
0.0
  0
TEXT
  8
0
  6
CONTINUOUS
 62
     2
 10
37.852824453
 20
167.0
 30
0.3
 40
3.0
  1
指針
 50
0.0
 41
0.6
 51
0.0
  7
KANJI0
  0
LINE
  8
0
  6
CONTINUOUS
 62
     2
 10
25.485873247
 20
144.579812178
 30
0.0
 11
37.852824453
 21
166.0
 31
0.0
  0
TEXT
  8
0
  6
CONTINUOUS
 62
     2
 10
126.15
 20
171.0
 30
0.3
 40
3.0
  1
（１２）
 50
0.0
 41
0.6
 51
0.0
  7
KANJI0
  0
TEXT
  8
0
  6
CONTINUOUS
 62
     2
 10
114.65
 20
72.8
 30
0.3
 40
3.0
  1
注１．計器裏面の＋表示は直流計器のみ表示します。
 50
0.0
 41
0.9
 51
0.0
  7
KANJI2
  0
LINE
  8
0
  6
CONTINUOUS
 62
     2
 10
185.0
 20
72.0
 30
0.0
 11
114.0
 21
72.0
 31
0.0
  0
LINE
  8
0
  6
CONTINUOUS
 62
     2
 10
114.0
 20
67.0
 30
0.0
 11
224.5
 21
67.0
 31
0.0
  0
TEXT
  8
0
  6
CONTINUOUS
 62
     2
 10
122.65
 20
62.8
 30
0.3
 40
3.0
  1
ネジとなります。　またタ－ミナル長さも１２ｍｍとなります。
 50
0.0
 41
0.9
 51
0.0
  7
KANJI2
  0
TEXT
  8
0
  6
CONTINUOUS
 62
     2
 10
114.65
 20
67.8
 30
0.3
 40
3.0
  1
注２．ＡＣＦ－５形交流電流計で１０Ａ以上，３０Ａ以下の場合はＭ５タ－ミナル
 50
0.0
 41
0.9
 51
0.0
  7
KANJI2
  0
TEXT
  8
0
  6
CONTINUOUS
 62
     2
 10
114.65
 20
57.8
 30
0.3
 40
3.0
  1
注３．Ｍ４タ－ミナルネジは長さ１１ｍｍを標準としていますが，指示により
 50
0.0
 41
0.9
 51
0.0
  7
KANJI2
  0
LINE
  8
0
  6
CONTINUOUS
 62
     2
 10
122.0
 20
62.0
 30
0.0
 11
208.0
 21
62.0
 31
0.0
  0
LINE
  8
0
  6
CONTINUOUS
 62
     2
 10
219.0
 20
57.0
 30
0.0
 11
114.0
 21
57.0
 31
0.0
  0
TEXT
  8
0
  6
CONTINUOUS
 62
     2
 10
122.65
 20
52.8
 30
0.3
 40
3.0
  1
６ｍｍも製作可能です。
 50
0.0
 41
0.9
 51
0.0
  7
KANJI2
  0
LINE
  8
0
  6
CONTINUOUS
 62
     2
 10
155.0
 20
52.0
 30
0.0
 11
122.0
 21
52.0
 31
0.0
  0
TEXT
  8
0
  6
CONTINUOUS
 62
     2
 10
171.5
 20
147.5
 30
0.3
 40
3.0
  1
注１
 50
0.0
 41
0.9
 51
0.0
  7
KANJI2
  0
TEXT
  8
0
  6
CONTINUOUS
 62
     2
 10
154.895934556
 20
100.0
 30
0.3
 40
3.0
  1
注２，３
 50
0.0
 41
0.9
 51
0.0
  7
KANJI2
  0
LINE
  8
0
  6
CONTINUOUS
 62
     2
 10
127.8
 20
143.5
 30
0.0
 11
129.909780534
 21
143.5
 31
0.0
  0
LINE
  8
0
  6
CONTINUOUS
 62
     2
 10
129.837053261
 20
143.1
 30
0.0
 11
127.806
 21
143.1
 31
0.0
  0
LINE
  8
0
  6
CONTINUOUS
 62
     2
 10
129.893601556
 20
139.9
 30
0.0
 11
127.8
 21
139.9
 31
0.0
  0
LINE
  8
0
  6
CONTINUOUS
 62
     2
 10
127.8
 20
139.5
 30
0.0
 11
129.831101556
 21
139.5
 31
0.0
  0
CIRCLE
  8
0
  6
CONTINUOUS
 62
     2
 10
45.0
 20
124.5
 30
0.0
 40
3.0
  0
CIRCLE
  8
0
  6
CONTINUOUS
 62
     2
 10
45.0
 20
124.5
 30
0.0
 40
2.75
  0
LINE
  8
0
  6
CONTINUOUS
 62
     2
 10
42.295836543
 20
125.0
 30
0.0
 11
47.704163457
 21
125.0
 31
0.0
  0
LINE
  8
0
  6
CONTINUOUS
 62
     2
 10
42.295836543
 20
124.0
 30
0.0
 11
47.704163457
 21
124.0
 31
0.0
  0
LINE
  8
0
  6
CONTINUOUS
 62
     2
 10
47.105820341
 20
123.418464801
 30
0.0
 11
48.033238049
 21
121.096849761
 31
0.0
  0
LINE
  8
0
  6
CONTINUOUS
 62
     2
 10
47.105820341
 20
123.418464801
 30
0.0
 11
49.069795156
 21
121.871596052
 31
0.0
  0
LINE
  8
0
  6
CONTINUOUS
 62
     2
 10
47.105820341
 20
123.418464801
 30
0.0
 11
61.619621352
 21
104.0
 31
0.0
  0
LINE
  8
0
  6
CONTINUOUS
 62
     2
 10
61.619621352
 20
104.0
 30
0.0
 11
77.419621352
 21
104.0
 31
0.0
  0
TEXT
  8
0
  6
CONTINUOUS
 62
     2
 10
61.619621352
 20
105.0
 30
0.3
 40
3.0
  1
予定指針調整器
 50
0.0
 41
0.666666667
 51
0.0
  7
KANJI3
  0
LINE
  8
0
  6
CONTINUOUS
 62
     2
 10
81.8
 20
127.5
 30
0.0
 11
81.4
 21
127.5
 31
0.0
  0
LINE
  8
0
  6
CONTINUOUS
 62
     2
 10
81.4
 20
127.5
 30
0.0
 11
81.4
 21
121.5
 31
0.0
  0
LINE
  8
0
  6
CONTINUOUS
 62
     2
 10
81.4
 20
121.5
 30
0.0
 11
81.8
 21
121.5
 31
0.0
  0
LINE
  8
0
  6
CONTINUOUS
 62
     2
 10
80.1
 20
125.0
 30
0.0
 11
81.4
 21
125.0
 31
0.0
  0
LINE
  8
0
  6
CONTINUOUS
 62
     2
 10
80.1
 20
124.0
 30
0.0
 11
81.4
 21
124.0
 31
0.0
  0
LINE
  8
0
  6
CONTINUOUS
 62
     2
 10
80.6
 20
127.25
 30
0.0
 11
81.4
 21
127.25
 31
0.0
  0
LINE
  8
0
  6
CONTINUOUS
 62
     2
 10
80.6
 20
127.25
 30
0.0
 11
80.6
 21
125.0
 31
0.0
  0
LINE
  8
0
  6
CONTINUOUS
 62
     2
 10
80.6
 20
124.0
 30
0.0
 11
80.6
 21
121.75
 31
0.0
  0
LINE
  8
0
  6
CONTINUOUS
 62
     2
 10
80.6
 20
121.75
 30
0.0
 11
81.4
 21
121.75
 31
0.0
  0
LINE
  8
0
  6
CONTINUOUS
 62
     2
 10
80.1
 20
125.0
 30
0.0
 11
80.1
 21
125.91278555
 31
0.0
  0
LINE
  8
0
  6
CONTINUOUS
 62
     2
 10
80.186188451
 20
126.318924016
 30
0.0
 11
80.6
 21
127.25
 31
0.0
  0
ARC
  8
0
  6
CONTINUOUS
 62
     2
 10
81.1
 20
125.91278555
 30
0.0
 40
1.0
 50
156.037511025
 51
180.0
  0
LINE
  8
0
  6
CONTINUOUS
 62
     2
 10
80.1
 20
124.0
 30
0.0
 11
80.1
 21
123.08721445
 31
0.0
  0
LINE
  8
0
  6
CONTINUOUS
 62
     2
 10
80.186188451
 20
122.681075984
 30
0.0
 11
80.6
 21
121.75
 31
0.0
  0
ARC
  8
0
  6
CONTINUOUS
 62
     2
 10
81.1
 20
123.08721445
 30
0.0
 40
1.0
 50
180.0
 51
203.962488975
  0
LINE
  8
0
  6
CONTINUOUS
 62
     2
 10
54.934952424
 20
149.582133828
 30
0.0
 11
47.890566394
 21
132.0
 31
0.0
  0
LINE
  8
0
  6
CONTINUOUS
 62
     2
 10
54.934952424
 20
149.582133828
 30
0.0
 11
54.605820341
 21
149.718464801
 31
0.0
  0
LINE
  8
0
  6
CONTINUOUS
 62
     2
 10
54.605820341
 20
149.718464801
 30
0.0
 11
47.024046119
 21
132.0
 31
0.0
  0
LINE
  8
0
  6
CONTINUOUS
 62
     2
 10
54.805820341
 20
149.718464801
 30
0.0
 11
56.467011226
 21
151.586738026
 31
0.0
  0
LINE
  8
0
  6
CONTINUOUS
 62
     2
 10
54.805820341
 20
149.718464801
 30
0.0
 11
55.310317235
 21
152.167032317
 31
0.0
  0
LINE
  8
0
  6
CONTINUOUS
 62
     2
 10
54.805820341
 20
149.718464801
 30
0.0
 11
69.705820341
 21
179.418464801
 31
0.0
  0
LINE
  8
0
  6
CONTINUOUS
 62
     2
 10
69.705820341
 20
179.418464801
 30
0.0
 11
87.805820341
 21
179.418464801
 31
0.0
  0
TEXT
  8
0
  6
CONTINUOUS
 62
     2
 10
69.705820341
 20
180.418464801
 30
0.3
 40
3.0
  1
予定指針（赤色）
 50
0.0
 41
0.666666667
 51
0.0
  7
KANJI3
  0
TEXT
  8
0
  6
CONTINUOUS
 62
     1
 10
101.6
 20
37.0
 30
2.0
 40
8.0
  1
□ＣＦ－５
 50
0.0
 41
0.9
 51
0.0
  7
KANJI4
  0
TEXT
  8
0
  6
CONTINUOUS
 62
     1
 10
95.0
 20
24.0
 30
1.75
 40
7.0
  1
予定指針付
 50
0.0
 41
0.9
 51
0.0
  7
KANJI5
  0
TEXT
  8
0
  6
CONTINUOUS
 62
     1
 10
95.0
 20
14.0
 30
1.75
 40
7.0
  1
パネル用計器外形図
 50
0.0
 41
0.9
 51
0.0
  7
KANJI5
  0
TEXT
  8
0
  6
CONTINUOUS
 62
     3
 10
176.0
 20
15.0
 30
0.6
 40
6.0
  1
ＭＳ－１０５５１
 50
0.0
 41
0.9
 51
0.0
  7
KANJI6
  0
TEXT
  8
0
  6
CONTINUOUS
 62
     2
 10
211.0
 20
139.8
 30
0.3
 40
3.0
  1
１
 50
90.0
 41
0.6
 51
0.0
  7
KANJI0
  0
TEXT
  8
0
  6
CONTINUOUS
 62
     2
 10
181.510425836
 20
135.53037462
 30
0.3
 40
3.0
  1
φ４５
 50
15.0
 41
0.6
 51
0.0
  7
KANJI0
  0
LINE
  8
0
  6
LTYPE3
 62
     2
 10
180.0
 20
168.7
 30
0.0
 11
180.0
 21
108.0
 31
0.0
  0
TEXT
  8
0
  6
CONTINUOUS
 62
     2
 10
30.544101461
 20
51.581250152
 30
0.25
 40
2.5
  1
φ４７
 50
33.772626229
 41
0.6
 51
0.0
  7
KANJI7
  0
TEXT
  8
0
  6
CONTINUOUS
 62
     2
 10
35.322853007
 20
54.745165248
 30
0.18
 40
1.8
  1
－０
 50
33.772626229
 41
0.6
 51
0.0
  7
KANJI1
  0
TEXT
  8
0
  6
CONTINUOUS
 62
     2
 10
34.322235637
 20
56.241415521
 30
0.18
 40
1.8
  1
＋０．５
 50
33.772626229
 41
0.6
 51
0.0
  7
KANJI1
  0
ENDSEC
  0
EOF
