  0
SECTION
  2
HEADER
  9
$ACADVER
  1
AC1009
  9
$DWGCODEPAGE
  3
dos932
  9
$EXTMIN
 10
0.0
 20
0.0
 30
0.0
  9
$EXTMAX
 10
297.0
 20
210.0
 30
0.0
  9
$LIMMIN
 10
0.0
 20
0.0
  9
$LIMMAX
 10
297.0
 20
210.0
  9
$LTSCALE
 40
1.0
  9
$PDMODE
 70
     0
  0
ENDSEC
  0
SECTION
  2
TABLES
  0
TABLE
  2
VPORT
 70
     1
  0
VPORT
  2
*ACTIVE
 70
     0
 10
0.0
 20
0.0
 11
1.0
 21
1.0
 12
148.5
 22
105.0
 13
0.0
 23
0.0
 14
10.0
 24
10.0
 15
10.0
 25
10.0
 16
0.0
 26
0.0
 36
1.0
 17
0.0
 27
0.0
 37
0.0
 40
297.0
 41
1.414285714
 42
50.0
 43
0.0
 44
0.0
 50
0.0
 51
0.0
 71
     0
 72
  1000
 73
     1
 74
     3
 75
     0
 76
     0
 77
     0
 78
     0
  0
ENDTAB
  0
TABLE
  2
LTYPE
 70
     4
  0
LTYPE
  2
CONTINUOUS
 70
    64
  3
Solid line
 72
    65
 73
     0
 40
0.0
  0
LTYPE
  2
LTYPE1
 70
    64
  3
CENTER
 72
    65
 73
     4
 40
15.0
 49
10.5
 49
-1.5
 49
1.5
 49
-1.5
  0
LTYPE
  2
LTYPE2
 70
    64
  3
HIDDEN
 72
    65
 73
     2
 40
1.0
 49
0.6
 49
-0.4
  0
LTYPE
  2
LTYPE3
 70
    64
  3
CENTER
 72
    65
 73
     4
 40
5.0
 49
3.5
 49
-0.5
 49
0.5
 49
-0.5
  0
ENDTAB
  0
TABLE
  2
LAYER
 70
   128
  0
LAYER
  2
0
 70
     0
 62
     7
  6
CONTINUOUS
  0
LAYER
  2
2
 70
     0
 62
     7
  6
CONTINUOUS
  0
LAYER
  2
3
 70
     0
 62
     7
  6
CONTINUOUS
  0
LAYER
  2
4
 70
     0
 62
     7
  6
CONTINUOUS
  0
LAYER
  2
5
 70
     0
 62
     7
  6
CONTINUOUS
  0
LAYER
  2
6
 70
     0
 62
     7
  6
CONTINUOUS
  0
LAYER
  2
7
 70
     0
 62
     7
  6
CONTINUOUS
  0
LAYER
  2
8
 70
     0
 62
     7
  6
CONTINUOUS
  0
LAYER
  2
9
 70
     0
 62
     7
  6
CONTINUOUS
  0
LAYER
  2
10
 70
     0
 62
     7
  6
CONTINUOUS
  0
LAYER
  2
11
 70
     0
 62
     7
  6
CONTINUOUS
  0
LAYER
  2
12
 70
     0
 62
     7
  6
CONTINUOUS
  0
LAYER
  2
13
 70
     0
 62
     7
  6
CONTINUOUS
  0
LAYER
  2
14
 70
     0
 62
     7
  6
CONTINUOUS
  0
LAYER
  2
15
 70
     0
 62
     7
  6
CONTINUOUS
  0
LAYER
  2
16
 70
     0
 62
     7
  6
CONTINUOUS
  0
LAYER
  2
17
 70
     0
 62
     7
  6
CONTINUOUS
  0
LAYER
  2
18
 70
     0
 62
     7
  6
CONTINUOUS
  0
LAYER
  2
19
 70
     0
 62
     7
  6
CONTINUOUS
  0
LAYER
  2
20
 70
     0
 62
     7
  6
CONTINUOUS
  0
LAYER
  2
21
 70
     0
 62
     7
  6
CONTINUOUS
  0
LAYER
  2
22
 70
     0
 62
     7
  6
CONTINUOUS
  0
LAYER
  2
23
 70
     0
 62
     7
  6
CONTINUOUS
  0
LAYER
  2
24
 70
     0
 62
     7
  6
CONTINUOUS
  0
LAYER
  2
25
 70
     0
 62
     7
  6
CONTINUOUS
  0
LAYER
  2
26
 70
     0
 62
     7
  6
CONTINUOUS
  0
LAYER
  2
27
 70
     0
 62
     7
  6
CONTINUOUS
  0
LAYER
  2
28
 70
     0
 62
     7
  6
CONTINUOUS
  0
LAYER
  2
29
 70
     0
 62
     7
  6
CONTINUOUS
  0
LAYER
  2
30
 70
     0
 62
     7
  6
CONTINUOUS
  0
LAYER
  2
31
 70
     0
 62
     7
  6
CONTINUOUS
  0
LAYER
  2
32
 70
     0
 62
     7
  6
CONTINUOUS
  0
LAYER
  2
33
 70
     0
 62
     7
  6
CONTINUOUS
  0
LAYER
  2
34
 70
     0
 62
     7
  6
CONTINUOUS
  0
LAYER
  2
35
 70
     0
 62
     7
  6
CONTINUOUS
  0
LAYER
  2
36
 70
     0
 62
     7
  6
CONTINUOUS
  0
LAYER
  2
37
 70
     0
 62
     7
  6
CONTINUOUS
  0
LAYER
  2
38
 70
     0
 62
     7
  6
CONTINUOUS
  0
LAYER
  2
39
 70
     0
 62
     7
  6
CONTINUOUS
  0
LAYER
  2
40
 70
     0
 62
     7
  6
CONTINUOUS
  0
LAYER
  2
41
 70
     0
 62
     7
  6
CONTINUOUS
  0
LAYER
  2
42
 70
     0
 62
     7
  6
CONTINUOUS
  0
LAYER
  2
43
 70
     0
 62
     7
  6
CONTINUOUS
  0
LAYER
  2
44
 70
     0
 62
     7
  6
CONTINUOUS
  0
LAYER
  2
45
 70
     0
 62
     7
  6
CONTINUOUS
  0
LAYER
  2
46
 70
     0
 62
     7
  6
CONTINUOUS
  0
LAYER
  2
47
 70
     0
 62
     7
  6
CONTINUOUS
  0
LAYER
  2
48
 70
     0
 62
     7
  6
CONTINUOUS
  0
LAYER
  2
49
 70
     0
 62
     7
  6
CONTINUOUS
  0
LAYER
  2
50
 70
     0
 62
     7
  6
CONTINUOUS
  0
LAYER
  2
51
 70
     0
 62
     7
  6
CONTINUOUS
  0
LAYER
  2
52
 70
     0
 62
     7
  6
CONTINUOUS
  0
LAYER
  2
53
 70
     0
 62
     7
  6
CONTINUOUS
  0
LAYER
  2
54
 70
     0
 62
     7
  6
CONTINUOUS
  0
LAYER
  2
55
 70
     0
 62
     7
  6
CONTINUOUS
  0
LAYER
  2
56
 70
     0
 62
     7
  6
CONTINUOUS
  0
LAYER
  2
57
 70
     0
 62
     7
  6
CONTINUOUS
  0
LAYER
  2
58
 70
     0
 62
     7
  6
CONTINUOUS
  0
LAYER
  2
59
 70
     0
 62
     7
  6
CONTINUOUS
  0
LAYER
  2
60
 70
     0
 62
     7
  6
CONTINUOUS
  0
LAYER
  2
61
 70
     0
 62
     7
  6
CONTINUOUS
  0
LAYER
  2
62
 70
     0
 62
     7
  6
CONTINUOUS
  0
LAYER
  2
63
 70
     0
 62
     7
  6
CONTINUOUS
  0
LAYER
  2
64
 70
     0
 62
     7
  6
CONTINUOUS
  0
LAYER
  2
65
 70
     0
 62
     7
  6
CONTINUOUS
  0
LAYER
  2
66
 70
     0
 62
     7
  6
CONTINUOUS
  0
LAYER
  2
67
 70
     0
 62
     7
  6
CONTINUOUS
  0
LAYER
  2
68
 70
     0
 62
     7
  6
CONTINUOUS
  0
LAYER
  2
69
 70
     0
 62
     7
  6
CONTINUOUS
  0
LAYER
  2
70
 70
     0
 62
     7
  6
CONTINUOUS
  0
LAYER
  2
71
 70
     0
 62
     7
  6
CONTINUOUS
  0
LAYER
  2
72
 70
     0
 62
     7
  6
CONTINUOUS
  0
LAYER
  2
73
 70
     0
 62
     7
  6
CONTINUOUS
  0
LAYER
  2
74
 70
     0
 62
     7
  6
CONTINUOUS
  0
LAYER
  2
75
 70
     0
 62
     7
  6
CONTINUOUS
  0
LAYER
  2
76
 70
     0
 62
     7
  6
CONTINUOUS
  0
LAYER
  2
77
 70
     0
 62
     7
  6
CONTINUOUS
  0
LAYER
  2
78
 70
     0
 62
     7
  6
CONTINUOUS
  0
LAYER
  2
79
 70
     0
 62
     7
  6
CONTINUOUS
  0
LAYER
  2
80
 70
     0
 62
     7
  6
CONTINUOUS
  0
LAYER
  2
81
 70
     0
 62
     7
  6
CONTINUOUS
  0
LAYER
  2
82
 70
     0
 62
     7
  6
CONTINUOUS
  0
LAYER
  2
83
 70
     0
 62
     7
  6
CONTINUOUS
  0
LAYER
  2
84
 70
     0
 62
     7
  6
CONTINUOUS
  0
LAYER
  2
85
 70
     0
 62
     7
  6
CONTINUOUS
  0
LAYER
  2
86
 70
     0
 62
     7
  6
CONTINUOUS
  0
LAYER
  2
87
 70
     0
 62
     7
  6
CONTINUOUS
  0
LAYER
  2
88
 70
     0
 62
     7
  6
CONTINUOUS
  0
LAYER
  2
89
 70
     0
 62
     7
  6
CONTINUOUS
  0
LAYER
  2
90
 70
     0
 62
     7
  6
CONTINUOUS
  0
LAYER
  2
91
 70
     0
 62
     7
  6
CONTINUOUS
  0
LAYER
  2
92
 70
     0
 62
     7
  6
CONTINUOUS
  0
LAYER
  2
93
 70
     0
 62
     7
  6
CONTINUOUS
  0
LAYER
  2
94
 70
     0
 62
     7
  6
CONTINUOUS
  0
LAYER
  2
95
 70
     0
 62
     7
  6
CONTINUOUS
  0
LAYER
  2
96
 70
     0
 62
     7
  6
CONTINUOUS
  0
LAYER
  2
97
 70
     0
 62
     7
  6
CONTINUOUS
  0
LAYER
  2
98
 70
     0
 62
     7
  6
CONTINUOUS
  0
LAYER
  2
99
 70
     0
 62
     7
  6
CONTINUOUS
  0
LAYER
  2
100
 70
     0
 62
     7
  6
CONTINUOUS
  0
LAYER
  2
101
 70
     0
 62
     7
  6
CONTINUOUS
  0
LAYER
  2
102
 70
     0
 62
     7
  6
CONTINUOUS
  0
LAYER
  2
103
 70
     0
 62
     7
  6
CONTINUOUS
  0
LAYER
  2
104
 70
     0
 62
     7
  6
CONTINUOUS
  0
LAYER
  2
105
 70
     0
 62
     7
  6
CONTINUOUS
  0
LAYER
  2
106
 70
     0
 62
     7
  6
CONTINUOUS
  0
LAYER
  2
107
 70
     0
 62
     7
  6
CONTINUOUS
  0
LAYER
  2
108
 70
     0
 62
     7
  6
CONTINUOUS
  0
LAYER
  2
109
 70
     0
 62
     7
  6
CONTINUOUS
  0
LAYER
  2
110
 70
     0
 62
     7
  6
CONTINUOUS
  0
LAYER
  2
111
 70
     0
 62
     7
  6
CONTINUOUS
  0
LAYER
  2
112
 70
     0
 62
     7
  6
CONTINUOUS
  0
LAYER
  2
113
 70
     0
 62
     7
  6
CONTINUOUS
  0
LAYER
  2
114
 70
     0
 62
     7
  6
CONTINUOUS
  0
LAYER
  2
115
 70
     0
 62
     7
  6
CONTINUOUS
  0
LAYER
  2
116
 70
     0
 62
     7
  6
CONTINUOUS
  0
LAYER
  2
117
 70
     0
 62
     7
  6
CONTINUOUS
  0
LAYER
  2
118
 70
     0
 62
     7
  6
CONTINUOUS
  0
LAYER
  2
119
 70
     0
 62
     7
  6
CONTINUOUS
  0
LAYER
  2
120
 70
     0
 62
     7
  6
CONTINUOUS
  0
LAYER
  2
121
 70
     0
 62
     7
  6
CONTINUOUS
  0
LAYER
  2
122
 70
     0
 62
     7
  6
CONTINUOUS
  0
LAYER
  2
123
 70
     0
 62
     7
  6
CONTINUOUS
  0
LAYER
  2
124
 70
     0
 62
     7
  6
CONTINUOUS
  0
LAYER
  2
125
 70
     0
 62
     7
  6
CONTINUOUS
  0
LAYER
  2
126
 70
     0
 62
     7
  6
CONTINUOUS
  0
LAYER
  2
127
 70
     0
 62
     7
  6
CONTINUOUS
  0
LAYER
  2
128
 70
     0
 62
     7
  6
CONTINUOUS
  0
ENDTAB
  0
TABLE
  2
STYLE
 70
    10
  0
STYLE
  2
STANDARD
 70
     0
 40
0.0
 41
1.0
 50
0.0
 71
     0
 42
0.2
  3
txt.shx
  4
extfont.shx
  0
STYLE
  2
KANJI0
 70
     0
 40
3.0
 41
0.9
 50
0.0
 71
     0
 42
3.0
  3
txt.shx
  4
extfont.shx
  0
STYLE
  2
KANJI1
 70
     0
 40
3.0
 41
0.9
 50
0.0
 71
     0
 42
3.0
  3
txt.shx
  4
extfont.shx
  0
STYLE
  2
KANJI2
 70
     0
 40
3.0
 41
0.6
 50
0.0
 71
     0
 42
3.0
  3
txt.shx
  4
extfont.shx
  0
STYLE
  2
KANJI3
 70
     0
 40
1.8
 41
0.6
 50
0.0
 71
     0
 42
1.8
  3
txt.shx
  4
extfont.shx
  0
STYLE
  2
KANJI4
 70
     0
 40
1.8
 41
0.666666667
 50
0.0
 71
     0
 42
1.8
  3
txt.shx
  4
extfont.shx
  0
STYLE
  2
KANJI5
 70
     0
 40
3.0
 41
0.666666667
 50
0.0
 71
     0
 42
3.0
  3
txt.shx
  4
extfont.shx
  0
STYLE
  2
KANJI6
 70
     0
 40
3.0
 41
0.3
 50
0.0
 71
     0
 42
3.0
  3
txt.shx
  4
extfont.shx
  0
STYLE
  2
KANJI7
 70
     0
 40
6.0
 41
0.9
 50
0.0
 71
     0
 42
6.0
  3
txt.shx
  4
extfont.shx
  0
STYLE
  2
KANJI8
 70
     0
 40
3.5
 41
0.9
 50
0.0
 71
     0
 42
3.5
  3
txt.shx
  4
extfont.shx
  0
ENDTAB
  0
TABLE
  2
VIEW
 70
     0
  0
ENDTAB
  0
ENDSEC
  0
SECTION
  2
BLOCKS
  0
ENDSEC
  0
SECTION
  2
ENTITIES
  0
ARC
  8
0
  6
CONTINUOUS
 62
     1
 10
19.5
 20
103.5
 30
0.0
 40
1.5
 50
180.0
 51
270.0
  0
LINE
  8
0
  6
CONTINUOUS
 62
     1
 10
18.0
 20
150.5
 30
0.0
 11
18.0
 21
103.5
 31
0.0
  0
ARC
  8
0
  6
CONTINUOUS
 62
     1
 10
19.5
 20
150.5
 30
0.0
 40
1.5
 50
90.0
 51
180.0
  0
LINE
  8
0
  6
CONTINUOUS
 62
     1
 10
76.5
 20
152.0
 30
0.0
 11
19.5
 21
152.0
 31
0.0
  0
ARC
  8
0
  6
CONTINUOUS
 62
     1
 10
76.5
 20
150.5
 30
0.0
 40
1.5
 50
0.0
 51
90.0
  0
LINE
  8
0
  6
CONTINUOUS
 62
     1
 10
19.5
 20
102.0
 30
0.0
 11
76.5
 21
102.0
 31
0.0
  0
LINE
  8
0
  6
CONTINUOUS
 62
     1
 10
78.0
 20
103.5
 30
0.0
 11
78.0
 21
150.5
 31
0.0
  0
ARC
  8
0
  6
CONTINUOUS
 62
     1
 10
76.5
 20
103.5
 30
0.0
 40
1.5
 50
270.0
 51
0.0
  0
ARC
  8
0
  6
CONTINUOUS
 62
     1
 10
141.5
 20
103.5
 30
0.0
 40
1.5
 50
180.0
 51
270.0
  0
LINE
  8
0
  6
CONTINUOUS
 62
     1
 10
140.0
 20
150.5
 30
0.0
 11
140.0
 21
103.5
 31
0.0
  0
ARC
  8
0
  6
CONTINUOUS
 62
     1
 10
141.5
 20
150.5
 30
0.0
 40
1.5
 50
90.0
 51
180.0
  0
LINE
  8
0
  6
CONTINUOUS
 62
     1
 10
198.5
 20
152.0
 30
0.0
 11
141.5
 21
152.0
 31
0.0
  0
ARC
  8
0
  6
CONTINUOUS
 62
     1
 10
198.5
 20
150.5
 30
0.0
 40
1.5
 50
0.0
 51
90.0
  0
LINE
  8
0
  6
CONTINUOUS
 62
     1
 10
141.5
 20
102.0
 30
0.0
 11
198.5
 21
102.0
 31
0.0
  0
LINE
  8
0
  6
CONTINUOUS
 62
     1
 10
200.0
 20
103.5
 30
0.0
 11
200.0
 21
150.5
 31
0.0
  0
ARC
  8
0
  6
CONTINUOUS
 62
     1
 10
198.5
 20
103.5
 30
0.0
 40
1.5
 50
270.0
 51
0.0
  0
CIRCLE
  8
0
  6
CONTINUOUS
 62
     1
 10
170.0
 20
124.5
 30
0.0
 40
21.25
  0
ARC
  8
0
  6
CONTINUOUS
 62
     1
 10
170.0
 20
119.5
 30
0.0
 40
15.5
 50
98.617876465
 51
81.382123535
  0
ARC
  8
0
  6
CONTINUOUS
 62
     1
 10
170.0
 20
135.75
 30
0.0
 40
2.5
 50
201.547273438
 51
338.674825052
  0
TEXT
  8
0
  6
CONTINUOUS
 62
     1
 10
40.05
 20
23.149428846
 30
0.5
 40
3.0
  1
パネルカット
 50
0.0
 41
0.9
 51
0.0
  7
KANJI0
  0
CIRCLE
  8
0
  6
CONTINUOUS
 62
     1
 10
48.0
 20
52.0
 30
0.0
 40
21.75
  0
CIRCLE
  8
0
  6
CONTINUOUS
 62
     1
 10
23.0
 20
74.5
 30
0.0
 40
1.25
  0
CIRCLE
  8
0
  6
CONTINUOUS
 62
     1
 10
23.0
 20
34.5
 30
0.0
 40
1.25
  0
CIRCLE
  8
0
  6
CONTINUOUS
 62
     1
 10
73.0
 20
34.5
 30
0.0
 40
1.25
  0
CIRCLE
  8
0
  6
CONTINUOUS
 62
     1
 10
73.0
 20
74.5
 30
0.0
 40
1.25
  0
LINE
  8
0
  6
CONTINUOUS
 62
     1
 10
98.7
 20
152.0
 30
0.0
 11
98.7
 21
102.0
 31
0.0
  0
LINE
  8
0
  6
CONTINUOUS
 62
     1
 10
113.7
 20
134.825
 30
0.0
 11
113.7
 21
103.75
 31
0.0
  0
LINE
  8
0
  6
CONTINUOUS
 62
     1
 10
113.2
 20
103.25
 30
0.0
 11
98.7
 21
103.25
 31
0.0
  0
ARC
  8
0
  6
CONTINUOUS
 62
     1
 10
113.2
 20
103.75
 30
0.0
 40
0.5
 50
270.0
 51
0.0
  0
LINE
  8
0
  6
CONTINUOUS
 62
     1
 10
113.7
 20
103.9
 30
0.0
 11
114.719936306
 21
103.981594904
 31
0.0
  0
ARC
  8
0
  6
CONTINUOUS
 62
     1
 10
114.7
 20
104.230798724
 30
0.0
 40
0.25
 50
274.57392126
 51
0.0
  0
LINE
  8
0
  6
CONTINUOUS
 62
     1
 10
113.7
 20
134.825
 30
0.0
 11
114.719936306
 21
134.743405096
 31
0.0
  0
LINE
  8
0
  6
CONTINUOUS
 62
     1
 10
114.95
 20
104.230798724
 30
0.0
 11
114.95
 21
134.494201276
 31
0.0
  0
ARC
  8
0
  6
CONTINUOUS
 62
     1
 10
114.7
 20
134.494201276
 30
0.0
 40
0.25
 50
0.0
 51
85.42607874
  0
LINE
  8
0
  6
CONTINUOUS
 62
     1
 10
101.872253903
 20
145.75
 30
0.0
 11
113.2
 21
145.75
 31
0.0
  0
LINE
  8
0
  6
CONTINUOUS
 62
     1
 10
113.7
 20
145.25
 30
0.0
 11
113.7
 21
134.825
 31
0.0
  0
ARC
  8
0
  6
CONTINUOUS
 62
     1
 10
113.2
 20
145.25
 30
0.0
 40
0.5
 50
0.0
 51
90.0
  0
LINE
  8
0
  6
CONTINUOUS
 62
     1
 10
93.364329413
 20
151.072057289
 30
0.0
 11
98.7
 21
152.0
 31
0.0
  0
ARC
  8
0
  6
CONTINUOUS
 62
     1
 10
93.45
 20
150.579451412
 30
0.0
 40
0.5
 50
99.865806943
 51
180.0
  0
LINE
  8
0
  6
CONTINUOUS
 62
     1
 10
93.364329413
 20
102.927942711
 30
0.0
 11
98.7
 21
102.0
 31
0.0
  0
LINE
  8
0
  6
CONTINUOUS
 62
     1
 10
92.95
 20
150.579451412
 30
0.0
 11
92.95
 21
103.420548588
 31
0.0
  0
ARC
  8
0
  6
CONTINUOUS
 62
     1
 10
93.45
 20
103.420548588
 30
0.0
 40
0.5
 50
180.0
 51
260.134193057
  0
ARC
  8
0
  6
CONTINUOUS
 62
     2
 10
19.5
 20
150.5
 30
0.0
 40
0.5
 50
90.0
 51
180.0
  0
LINE
  8
0
  6
CONTINUOUS
 62
     2
 10
76.5
 20
151.0
 30
0.0
 11
19.5
 21
151.0
 31
0.0
  0
ARC
  8
0
  6
CONTINUOUS
 62
     2
 10
76.5
 20
150.5
 30
0.0
 40
0.5
 50
0.0
 51
90.0
  0
LINE
  8
0
  6
CONTINUOUS
 62
     2
 10
77.0
 20
103.5
 30
0.0
 11
77.0
 21
150.5
 31
0.0
  0
ARC
  8
0
  6
CONTINUOUS
 62
     2
 10
76.5
 20
103.5
 30
0.0
 40
0.5
 50
270.0
 51
0.0
  0
LINE
  8
0
  6
CONTINUOUS
 62
     2
 10
19.0
 20
150.5
 30
0.0
 11
19.0
 21
103.5
 31
0.0
  0
LINE
  8
0
  6
CONTINUOUS
 62
     2
 10
19.5
 20
103.0
 30
0.0
 11
76.5
 21
103.0
 31
0.0
  0
ARC
  8
0
  6
CONTINUOUS
 62
     2
 10
19.5
 20
103.5
 30
0.0
 40
0.5
 50
180.0
 51
270.0
  0
LINE
  8
0
  6
CONTINUOUS
 62
     2
 10
19.75
 20
119.5
 30
0.0
 11
76.25
 21
119.5
 31
0.0
  0
LINE
  8
0
  6
CONTINUOUS
 62
     2
 10
76.25
 20
119.5
 30
0.0
 11
76.25
 21
149.75
 31
0.0
  0
ARC
  8
0
  6
CONTINUOUS
 62
     2
 10
75.75
 20
149.75
 30
0.0
 40
0.5
 50
0.0
 51
90.0
  0
LINE
  8
0
  6
CONTINUOUS
 62
     2
 10
19.75
 20
149.75
 30
0.0
 11
19.75
 21
119.5
 31
0.0
  0
LINE
  8
0
  6
CONTINUOUS
 62
     2
 10
75.75
 20
150.25
 30
0.0
 11
20.25
 21
150.25
 31
0.0
  0
ARC
  8
0
  6
CONTINUOUS
 62
     2
 10
20.25
 20
149.75
 30
0.0
 40
0.5
 50
90.0
 51
180.0
  0
CIRCLE
  8
0
  6
CONTINUOUS
 62
     2
 10
73.0
 20
116.5
 30
0.0
 40
1.5
  0
LINE
  8
0
  6
CONTINUOUS
 62
     2
 10
72.125
 20
116.7
 30
0.0
 11
72.6
 21
116.7
 31
0.0
  0
ARC
  8
0
  6
CONTINUOUS
 62
     2
 10
72.6
 20
116.9
 30
0.0
 40
0.2
 50
270.0
 51
0.0
  0
LINE
  8
0
  6
CONTINUOUS
 62
     2
 10
72.8
 20
116.9
 30
0.0
 11
72.8
 21
117.375
 31
0.0
  0
LINE
  8
0
  6
CONTINUOUS
 62
     2
 10
72.8
 20
117.375
 30
0.0
 11
73.2
 21
117.375
 31
0.0
  0
LINE
  8
0
  6
CONTINUOUS
 62
     2
 10
73.2
 20
117.375
 30
0.0
 11
73.2
 21
116.9
 31
0.0
  0
ARC
  8
0
  6
CONTINUOUS
 62
     2
 10
73.4
 20
116.9
 30
0.0
 40
0.2
 50
180.0
 51
270.0
  0
LINE
  8
0
  6
CONTINUOUS
 62
     2
 10
73.4
 20
116.7
 30
0.0
 11
73.875
 21
116.7
 31
0.0
  0
LINE
  8
0
  6
CONTINUOUS
 62
     2
 10
73.875
 20
116.7
 30
0.0
 11
73.875
 21
116.3
 31
0.0
  0
LINE
  8
0
  6
CONTINUOUS
 62
     2
 10
73.875
 20
116.3
 30
0.0
 11
73.4
 21
116.3
 31
0.0
  0
ARC
  8
0
  6
CONTINUOUS
 62
     2
 10
73.4
 20
116.1
 30
0.0
 40
0.2
 50
90.0
 51
180.0
  0
LINE
  8
0
  6
CONTINUOUS
 62
     2
 10
73.2
 20
116.1
 30
0.0
 11
73.2
 21
115.625
 31
0.0
  0
LINE
  8
0
  6
CONTINUOUS
 62
     2
 10
73.2
 20
115.625
 30
0.0
 11
72.8
 21
115.625
 31
0.0
  0
LINE
  8
0
  6
CONTINUOUS
 62
     2
 10
72.8
 20
115.625
 30
0.0
 11
72.8
 21
116.1
 31
0.0
  0
ARC
  8
0
  6
CONTINUOUS
 62
     2
 10
72.6
 20
116.1
 30
0.0
 40
0.2
 50
0.0
 51
90.0
  0
LINE
  8
0
  6
CONTINUOUS
 62
     2
 10
72.6
 20
116.3
 30
0.0
 11
72.125
 21
116.3
 31
0.0
  0
LINE
  8
0
  6
CONTINUOUS
 62
     2
 10
72.125
 20
116.3
 30
0.0
 11
72.125
 21
116.7
 31
0.0
  0
CIRCLE
  8
0
  6
CONTINUOUS
 62
     2
 10
23.0
 20
116.5
 30
0.0
 40
1.5
  0
LINE
  8
0
  6
CONTINUOUS
 62
     2
 10
22.125
 20
116.7
 30
0.0
 11
22.6
 21
116.7
 31
0.0
  0
ARC
  8
0
  6
CONTINUOUS
 62
     2
 10
22.6
 20
116.9
 30
0.0
 40
0.2
 50
270.0
 51
0.0
  0
LINE
  8
0
  6
CONTINUOUS
 62
     2
 10
22.8
 20
116.9
 30
0.0
 11
22.8
 21
117.375
 31
0.0
  0
LINE
  8
0
  6
CONTINUOUS
 62
     2
 10
22.8
 20
117.375
 30
0.0
 11
23.2
 21
117.375
 31
0.0
  0
LINE
  8
0
  6
CONTINUOUS
 62
     2
 10
23.2
 20
117.375
 30
0.0
 11
23.2
 21
116.9
 31
0.0
  0
ARC
  8
0
  6
CONTINUOUS
 62
     2
 10
23.4
 20
116.9
 30
0.0
 40
0.2
 50
180.0
 51
270.0
  0
LINE
  8
0
  6
CONTINUOUS
 62
     2
 10
23.4
 20
116.7
 30
0.0
 11
23.875
 21
116.7
 31
0.0
  0
LINE
  8
0
  6
CONTINUOUS
 62
     2
 10
23.875
 20
116.7
 30
0.0
 11
23.875
 21
116.3
 31
0.0
  0
LINE
  8
0
  6
CONTINUOUS
 62
     2
 10
23.875
 20
116.3
 30
0.0
 11
23.4
 21
116.3
 31
0.0
  0
ARC
  8
0
  6
CONTINUOUS
 62
     2
 10
23.4
 20
116.1
 30
0.0
 40
0.2
 50
90.0
 51
180.0
  0
LINE
  8
0
  6
CONTINUOUS
 62
     2
 10
23.2
 20
116.1
 30
0.0
 11
23.2
 21
115.625
 31
0.0
  0
LINE
  8
0
  6
CONTINUOUS
 62
     2
 10
23.2
 20
115.625
 30
0.0
 11
22.8
 21
115.625
 31
0.0
  0
LINE
  8
0
  6
CONTINUOUS
 62
     2
 10
22.8
 20
115.625
 30
0.0
 11
22.8
 21
116.1
 31
0.0
  0
ARC
  8
0
  6
CONTINUOUS
 62
     2
 10
22.6
 20
116.1
 30
0.0
 40
0.2
 50
0.0
 51
90.0
  0
LINE
  8
0
  6
CONTINUOUS
 62
     2
 10
22.6
 20
116.3
 30
0.0
 11
22.125
 21
116.3
 31
0.0
  0
LINE
  8
0
  6
CONTINUOUS
 62
     2
 10
22.125
 20
116.3
 30
0.0
 11
22.125
 21
116.7
 31
0.0
  0
CIRCLE
  8
0
  6
CONTINUOUS
 62
     2
 10
48.0
 20
106.55
 30
0.0
 40
1.8
  0
LINE
  8
0
  6
CONTINUOUS
 62
     2
 10
46.25
 20
106.35
 30
0.0
 11
49.7
 21
106.35
 31
0.0
  0
LINE
  8
0
  6
CONTINUOUS
 62
     2
 10
49.7
 20
106.75
 30
0.0
 11
46.25
 21
106.75
 31
0.0
  0
LINE
  8
0
  6
CONTINUOUS
 62
     2
 10
25.2
 20
134.25
 30
0.0
 11
39.05
 21
119.5
 31
0.0
  0
LINE
  8
0
  6
CONTINUOUS
 62
     2
 10
41.35
 20
119.5
 30
0.0
 11
25.25
 21
134.35
 31
0.0
  0
TEXT
  8
0
  6
CONTINUOUS
 62
     2
 10
109.15
 20
67.25
 30
0.3
 40
3.0
  1
注）
 50
0.0
 41
0.9
 51
0.0
  7
KANJI1
  0
LINE
  8
0
  6
LTYPE1
 62
     2
 10
23.224101968
 20
127.0
 30
0.0
 11
14.624101968
 21
127.0
 31
0.0
  0
ARC
  8
0
  6
CONTINUOUS
 62
     2
 10
198.5
 20
103.5
 30
0.0
 40
0.5
 50
270.0
 51
0.0
  0
LINE
  8
0
  6
CONTINUOUS
 62
     2
 10
199.0
 20
103.5
 30
0.0
 11
199.0
 21
150.5
 31
0.0
  0
ARC
  8
0
  6
CONTINUOUS
 62
     2
 10
198.5
 20
150.5
 30
0.0
 40
0.5
 50
0.0
 51
90.0
  0
LINE
  8
0
  6
CONTINUOUS
 62
     2
 10
198.5
 20
151.0
 30
0.0
 11
141.5
 21
151.0
 31
0.0
  0
ARC
  8
0
  6
CONTINUOUS
 62
     2
 10
141.5
 20
150.5
 30
0.0
 40
0.5
 50
90.0
 51
180.0
  0
LINE
  8
0
  6
CONTINUOUS
 62
     2
 10
141.5
 20
103.0
 30
0.0
 11
198.5
 21
103.0
 31
0.0
  0
LINE
  8
0
  6
CONTINUOUS
 62
     2
 10
141.0
 20
150.5
 30
0.0
 11
141.0
 21
103.5
 31
0.0
  0
ARC
  8
0
  6
CONTINUOUS
 62
     2
 10
141.5
 20
103.5
 30
0.0
 40
0.5
 50
180.0
 51
270.0
  0
LINE
  8
0
  6
CONTINUOUS
 62
     2
 10
145.0
 20
149.025
 30
0.0
 11
143.246298557
 21
148.0125
 31
0.0
  0
LINE
  8
0
  6
CONTINUOUS
 62
     2
 10
143.246298557
 20
148.0125
 30
0.0
 11
143.246298557
 21
145.9875
 31
0.0
  0
LINE
  8
0
  6
CONTINUOUS
 62
     2
 10
143.246298557
 20
145.9875
 30
0.0
 11
145.0
 21
144.975
 31
0.0
  0
LINE
  8
0
  6
CONTINUOUS
 62
     2
 10
145.0
 20
144.975
 30
0.0
 11
146.753701443
 21
145.9875
 31
0.0
  0
LINE
  8
0
  6
CONTINUOUS
 62
     2
 10
146.753701443
 20
145.9875
 30
0.0
 11
146.753701443
 21
148.0125
 31
0.0
  0
LINE
  8
0
  6
CONTINUOUS
 62
     2
 10
146.753701443
 20
148.0125
 30
0.0
 11
145.0
 21
149.025
 31
0.0
  0
CIRCLE
  8
0
  6
CONTINUOUS
 62
     2
 10
145.0
 20
147.0
 30
0.0
 40
0.8
  0
CIRCLE
  8
0
  6
CONTINUOUS
 62
     2
 10
145.0
 20
147.0
 30
0.0
 40
1.0
  0
ARC
  8
0
  6
LTYPE2
 62
     2
 10
163.25
 20
130.0
 30
0.0
 40
3.0
 50
90.0
 51
180.0
  0
LINE
  8
0
  6
LTYPE2
 62
     2
 10
160.25
 20
124.5
 30
0.0
 11
160.25
 21
130.0
 31
0.0
  0
LINE
  8
0
  6
LTYPE2
 62
     2
 10
176.75
 20
121.5
 30
0.0
 11
163.25
 21
121.5
 31
0.0
  0
ARC
  8
0
  6
LTYPE2
 62
     2
 10
163.25
 20
124.5
 30
0.0
 40
3.0
 50
180.0
 51
270.0
  0
LINE
  8
0
  6
LTYPE2
 62
     2
 10
163.275
 20
133.0
 30
0.0
 11
176.75
 21
133.0
 31
0.0
  0
ARC
  8
0
  6
LTYPE2
 62
     2
 10
176.75
 20
130.0
 30
0.0
 40
3.0
 50
0.0
 51
90.0
  0
ARC
  8
0
  6
LTYPE2
 62
     2
 10
176.75
 20
124.5
 30
0.0
 40
3.0
 50
270.0
 51
0.0
  0
LINE
  8
0
  6
LTYPE2
 62
     2
 10
179.75
 20
130.0
 30
0.0
 11
179.75
 21
124.5
 31
0.0
  0
CIRCLE
  8
0
  6
CONTINUOUS
 62
     2
 10
170.0
 20
135.75
 30
0.0
 40
2.0
  0
LINE
  8
0
  6
CONTINUOUS
 62
     2
 10
205.0
 20
147.0
 30
0.0
 11
204.352952387
 21
144.585185434
 31
0.0
  0
LINE
  8
0
  6
CONTINUOUS
 62
     2
 10
205.0
 20
147.0
 30
0.0
 11
205.647047613
 21
144.585185434
 31
0.0
  0
LINE
  8
0
  6
CONTINUOUS
 62
     2
 10
205.0
 20
147.0
 30
0.0
 11
205.0
 21
124.5
 31
0.0
  0
LINE
  8
0
  6
CONTINUOUS
 62
     2
 10
205.0
 20
124.5
 30
0.0
 11
205.647047613
 21
126.914814566
 31
0.0
  0
LINE
  8
0
  6
CONTINUOUS
 62
     2
 10
205.0
 20
124.5
 30
0.0
 11
204.352952387
 21
126.914814566
 31
0.0
  0
TEXT
  8
0
  6
CONTINUOUS
 62
     2
 10
204.0
 20
131.37
 30
0.3
 40
3.0
  1
４５
 50
90.0
 41
0.6
 51
0.0
  7
KANJI2
  0
TEXT
  8
0
  6
CONTINUOUS
 62
     2
 10
204.0
 20
135.27
 30
0.18
 40
1.8
  1
±０．５
 50
90.0
 41
0.6
 51
0.0
  7
KANJI3
  0
LINE
  8
0
  6
CONTINUOUS
 62
     2
 10
205.0
 20
124.5
 30
0.0
 11
204.352952387
 21
122.085185434
 31
0.0
  0
LINE
  8
0
  6
CONTINUOUS
 62
     2
 10
205.0
 20
124.5
 30
0.0
 11
205.647047613
 21
122.085185434
 31
0.0
  0
LINE
  8
0
  6
CONTINUOUS
 62
     2
 10
205.0
 20
124.5
 30
0.0
 11
205.0
 21
107.0
 31
0.0
  0
LINE
  8
0
  6
CONTINUOUS
 62
     2
 10
205.0
 20
107.0
 30
0.0
 11
205.647047613
 21
109.414814566
 31
0.0
  0
LINE
  8
0
  6
CONTINUOUS
 62
     2
 10
205.0
 20
107.0
 30
0.0
 11
204.352952387
 21
109.414814566
 31
0.0
  0
TEXT
  8
0
  6
CONTINUOUS
 62
     2
 10
204.0
 20
111.37
 30
0.3
 40
3.0
  1
３５
 50
90.0
 41
0.6
 51
0.0
  7
KANJI2
  0
TEXT
  8
0
  6
CONTINUOUS
 62
     2
 10
204.0
 20
115.27
 30
0.18
 40
1.8
  1
±０．５
 50
90.0
 41
0.6
 51
0.0
  7
KANJI3
  0
LINE
  8
0
  6
CONTINUOUS
 62
     2
 10
170.0
 20
157.0
 30
0.0
 11
167.585185434
 21
157.647047613
 31
0.0
  0
LINE
  8
0
  6
CONTINUOUS
 62
     2
 10
170.0
 20
157.0
 30
0.0
 11
167.585185434
 21
156.352952387
 31
0.0
  0
LINE
  8
0
  6
CONTINUOUS
 62
     2
 10
170.0
 20
157.0
 30
0.0
 11
145.0
 21
157.0
 31
0.0
  0
LINE
  8
0
  6
CONTINUOUS
 62
     2
 10
145.0
 20
157.0
 30
0.0
 11
147.414814566
 21
156.352952387
 31
0.0
  0
LINE
  8
0
  6
CONTINUOUS
 62
     2
 10
145.0
 20
157.0
 30
0.0
 11
147.414814566
 21
157.647047613
 31
0.0
  0
TEXT
  8
0
  6
CONTINUOUS
 62
     2
 10
156.9
 20
158.0
 30
0.3
 40
1.8
  1
±０．５
 50
0.0
 41
0.666666667
 51
0.0
  7
KANJI4
  0
LINE
  8
0
  6
CONTINUOUS
 62
     2
 10
170.0
 20
157.0
 30
0.0
 11
172.414814566
 21
156.352952387
 31
0.0
  0
LINE
  8
0
  6
CONTINUOUS
 62
     2
 10
170.0
 20
157.0
 30
0.0
 11
172.414814566
 21
157.647047613
 31
0.0
  0
LINE
  8
0
  6
CONTINUOUS
 62
     2
 10
170.0
 20
157.0
 30
0.0
 11
195.0
 21
157.0
 31
0.0
  0
LINE
  8
0
  6
CONTINUOUS
 62
     2
 10
195.0
 20
157.0
 30
0.0
 11
192.585185434
 21
157.647047613
 31
0.0
  0
LINE
  8
0
  6
CONTINUOUS
 62
     2
 10
195.0
 20
157.0
 30
0.0
 11
192.585185434
 21
156.352952387
 31
0.0
  0
TEXT
  8
0
  6
CONTINUOUS
 62
     2
 10
152.4
 20
158.0
 30
0.5
 40
3.0
  1
５０
 50
0.0
 41
0.666666667
 51
0.0
  7
KANJI5
  0
LINE
  8
0
  6
CONTINUOUS
 62
     2
 10
140.0
 20
151.5
 30
0.0
 11
140.0
 21
164.0
 31
0.0
  0
LINE
  8
0
  6
CONTINUOUS
 62
     2
 10
140.0
 20
162.0
 30
0.0
 11
142.414814566
 21
161.352952387
 31
0.0
  0
LINE
  8
0
  6
CONTINUOUS
 62
     2
 10
140.0
 20
162.0
 30
0.0
 11
142.414814566
 21
162.647047613
 31
0.0
  0
LINE
  8
0
  6
CONTINUOUS
 62
     2
 10
140.0
 20
162.0
 30
0.0
 11
200.0
 21
162.0
 31
0.0
  0
LINE
  8
0
  6
CONTINUOUS
 62
     2
 10
200.0
 20
162.0
 30
0.0
 11
197.585185434
 21
162.647047613
 31
0.0
  0
LINE
  8
0
  6
CONTINUOUS
 62
     2
 10
200.0
 20
162.0
 30
0.0
 11
197.585185434
 21
161.352952387
 31
0.0
  0
LINE
  8
0
  6
CONTINUOUS
 62
     2
 10
200.0
 20
151.5
 30
0.0
 11
200.0
 21
164.0
 31
0.0
  0
TEXT
  8
0
  6
CONTINUOUS
 62
     2
 10
163.7
 20
163.0
 30
0.5
 40
3.0
  1
１２０
 50
0.0
 41
0.666666667
 51
0.0
  7
KANJI5
  0
TEXT
  8
0
  6
CONTINUOUS
 62
     2
 10
170.6
 20
163.0
 30
0.3
 40
1.8
  1
±１．５
 50
0.0
 41
0.666666667
 51
0.0
  7
KANJI4
  0
LINE
  8
0
  6
CONTINUOUS
 62
     2
 10
145.0
 20
109.025
 30
0.0
 11
143.246298557
 21
108.0125
 31
0.0
  0
LINE
  8
0
  6
CONTINUOUS
 62
     2
 10
143.246298557
 20
108.0125
 30
0.0
 11
143.246298557
 21
105.9875
 31
0.0
  0
LINE
  8
0
  6
CONTINUOUS
 62
     2
 10
143.246298557
 20
105.9875
 30
0.0
 11
145.0
 21
104.975
 31
0.0
  0
LINE
  8
0
  6
CONTINUOUS
 62
     2
 10
145.0
 20
104.975
 30
0.0
 11
146.753701443
 21
105.9875
 31
0.0
  0
LINE
  8
0
  6
CONTINUOUS
 62
     2
 10
146.753701443
 20
105.9875
 30
0.0
 11
146.753701443
 21
108.0125
 31
0.0
  0
LINE
  8
0
  6
CONTINUOUS
 62
     2
 10
146.753701443
 20
108.0125
 30
0.0
 11
145.0
 21
109.025
 31
0.0
  0
CIRCLE
  8
0
  6
CONTINUOUS
 62
     2
 10
145.0
 20
107.0
 30
0.0
 40
0.8
  0
CIRCLE
  8
0
  6
CONTINUOUS
 62
     2
 10
145.0
 20
107.0
 30
0.0
 40
1.0
  0
LINE
  8
0
  6
CONTINUOUS
 62
     2
 10
195.0
 20
109.025
 30
0.0
 11
193.246298557
 21
108.0125
 31
0.0
  0
LINE
  8
0
  6
CONTINUOUS
 62
     2
 10
193.246298557
 20
108.0125
 30
0.0
 11
193.246298557
 21
105.9875
 31
0.0
  0
LINE
  8
0
  6
CONTINUOUS
 62
     2
 10
193.246298557
 20
105.9875
 30
0.0
 11
195.0
 21
104.975
 31
0.0
  0
LINE
  8
0
  6
CONTINUOUS
 62
     2
 10
195.0
 20
104.975
 30
0.0
 11
196.753701443
 21
105.9875
 31
0.0
  0
LINE
  8
0
  6
CONTINUOUS
 62
     2
 10
196.753701443
 20
105.9875
 30
0.0
 11
196.753701443
 21
108.0125
 31
0.0
  0
LINE
  8
0
  6
CONTINUOUS
 62
     2
 10
196.753701443
 20
108.0125
 30
0.0
 11
195.0
 21
109.025
 31
0.0
  0
CIRCLE
  8
0
  6
CONTINUOUS
 62
     2
 10
195.0
 20
107.0
 30
0.0
 40
0.8
  0
CIRCLE
  8
0
  6
CONTINUOUS
 62
     2
 10
195.0
 20
107.0
 30
0.0
 40
1.0
  0
LINE
  8
0
  6
CONTINUOUS
 62
     2
 10
195.0
 20
149.025
 30
0.0
 11
193.246298557
 21
148.0125
 31
0.0
  0
LINE
  8
0
  6
CONTINUOUS
 62
     2
 10
193.246298557
 20
148.0125
 30
0.0
 11
193.246298557
 21
145.9875
 31
0.0
  0
LINE
  8
0
  6
CONTINUOUS
 62
     2
 10
193.246298557
 20
145.9875
 30
0.0
 11
195.0
 21
144.975
 31
0.0
  0
LINE
  8
0
  6
CONTINUOUS
 62
     2
 10
195.0
 20
144.975
 30
0.0
 11
196.753701443
 21
145.9875
 31
0.0
  0
LINE
  8
0
  6
CONTINUOUS
 62
     2
 10
196.753701443
 20
145.9875
 30
0.0
 11
196.753701443
 21
148.0125
 31
0.0
  0
LINE
  8
0
  6
CONTINUOUS
 62
     2
 10
196.753701443
 20
148.0125
 30
0.0
 11
195.0
 21
149.025
 31
0.0
  0
CIRCLE
  8
0
  6
CONTINUOUS
 62
     2
 10
195.0
 20
147.0
 30
0.0
 40
0.8
  0
CIRCLE
  8
0
  6
CONTINUOUS
 62
     2
 10
195.0
 20
147.0
 30
0.0
 40
1.0
  0
LINE
  8
0
  6
CONTINUOUS
 62
     2
 10
39.2
 20
22.449428846
 30
0.0
 11
58.55
 21
22.449428846
 31
0.0
  0
LINE
  8
0
  6
CONTINUOUS
 62
     2
 10
28.881944789
 20
41.628767434
 30
0.0
 11
31.313082235
 21
42.211494399
 31
0.0
  0
LINE
  8
0
  6
CONTINUOUS
 62
     2
 10
28.881944789
 20
41.628767434
 30
0.0
 11
30.696008095
 21
43.348992512
 31
0.0
  0
LINE
  8
0
  6
CONTINUOUS
 62
     2
 10
28.881944789
 20
41.628767434
 30
0.0
 11
67.118055211
 21
62.371232566
 31
0.0
  0
LINE
  8
0
  6
CONTINUOUS
 62
     2
 10
67.118055211
 20
62.371232566
 30
0.0
 11
64.686917765
 21
61.788505601
 31
0.0
  0
LINE
  8
0
  6
CONTINUOUS
 62
     2
 10
67.118055211
 20
62.371232566
 30
0.0
 11
65.303991905
 21
60.651007488
 31
0.0
  0
TEXT
  8
0
  6
CONTINUOUS
 62
     2
 10
32.223161721
 20
44.578991044
 30
0.3
 40
3.0
  1
φ８７
 50
28.479107811
 41
0.6
 51
0.0
  7
KANJI2
  0
TEXT
  8
0
  6
CONTINUOUS
 62
     2
 10
37.497107986
 20
47.440020717
 30
0.18
 40
1.8
  1
±１
 50
28.479107811
 41
0.6
 51
0.0
  7
KANJI3
  0
LINE
  8
0
  6
LTYPE3
 62
     2
 10
48.0
 20
159.95
 30
0.0
 11
48.0
 21
94.95
 31
0.0
  0
LINE
  8
0
  6
LTYPE3
 62
     2
 10
21.0
 20
116.5
 30
0.0
 11
25.0
 21
116.5
 31
0.0
  0
LINE
  8
0
  6
LTYPE3
 62
     2
 10
23.0
 20
118.5
 30
0.0
 11
23.0
 21
114.5
 31
0.0
  0
LINE
  8
0
  6
LTYPE3
 62
     2
 10
45.5
 20
106.55
 30
0.0
 11
50.5
 21
106.55
 31
0.0
  0
LINE
  8
0
  6
LTYPE3
 62
     2
 10
71.0
 20
116.5
 30
0.0
 11
75.0
 21
116.5
 31
0.0
  0
LINE
  8
0
  6
LTYPE3
 62
     2
 10
73.0
 20
118.5
 30
0.0
 11
73.0
 21
114.5
 31
0.0
  0
LINE
  8
0
  6
LTYPE3
 62
     2
 10
142.0
 20
147.0
 30
0.0
 11
148.0
 21
147.0
 31
0.0
  0
LINE
  8
0
  6
LTYPE3
 62
     2
 10
145.0
 20
150.0
 30
0.0
 11
145.0
 21
144.0
 31
0.0
  0
LINE
  8
0
  6
LTYPE3
 62
     2
 10
192.0
 20
147.0
 30
0.0
 11
198.0
 21
147.0
 31
0.0
  0
LINE
  8
0
  6
LTYPE3
 62
     2
 10
195.0
 20
150.0
 30
0.0
 11
195.0
 21
144.0
 31
0.0
  0
LINE
  8
0
  6
LTYPE3
 62
     2
 10
166.3
 20
135.75
 30
0.0
 11
173.6
 21
135.75
 31
0.0
  0
LINE
  8
0
  6
LTYPE3
 62
     2
 10
160.75
 20
129.5
 30
0.0
 11
166.75
 21
129.5
 31
0.0
  0
LINE
  8
0
  6
LTYPE3
 62
     2
 10
163.75
 20
132.5
 30
0.0
 11
163.75
 21
126.5
 31
0.0
  0
LINE
  8
0
  6
LTYPE3
 62
     2
 10
173.25
 20
129.5
 30
0.0
 11
179.25
 21
129.5
 31
0.0
  0
LINE
  8
0
  6
LTYPE3
 62
     2
 10
176.25
 20
132.5
 30
0.0
 11
176.25
 21
126.5
 31
0.0
  0
LINE
  8
0
  6
LTYPE3
 62
     2
 10
142.0
 20
107.0
 30
0.0
 11
148.0
 21
107.0
 31
0.0
  0
LINE
  8
0
  6
LTYPE3
 62
     2
 10
145.0
 20
110.0
 30
0.0
 11
145.0
 21
104.0
 31
0.0
  0
LINE
  8
0
  6
LTYPE3
 62
     2
 10
192.0
 20
107.0
 30
0.0
 11
198.0
 21
107.0
 31
0.0
  0
LINE
  8
0
  6
LTYPE3
 62
     2
 10
195.0
 20
110.0
 30
0.0
 11
195.0
 21
104.0
 31
0.0
  0
LINE
  8
0
  6
LTYPE3
 62
     2
 10
23.0
 20
77.0
 30
0.0
 11
23.0
 21
72.0
 31
0.0
  0
LINE
  8
0
  6
LTYPE3
 62
     2
 10
20.5
 20
74.5
 30
0.0
 11
25.5
 21
74.5
 31
0.0
  0
LINE
  8
0
  6
LTYPE3
 62
     2
 10
73.0
 20
77.0
 30
0.0
 11
73.0
 21
72.0
 31
0.0
  0
LINE
  8
0
  6
LTYPE3
 62
     2
 10
70.5
 20
74.5
 30
0.0
 11
75.5
 21
74.5
 31
0.0
  0
LINE
  8
0
  6
LTYPE3
 62
     2
 10
73.0
 20
37.0
 30
0.0
 11
73.0
 21
32.0
 31
0.0
  0
LINE
  8
0
  6
LTYPE3
 62
     2
 10
70.5
 20
34.5
 30
0.0
 11
75.5
 21
34.5
 31
0.0
  0
LINE
  8
0
  6
LTYPE3
 62
     2
 10
23.0
 20
37.0
 30
0.0
 11
23.0
 21
32.0
 31
0.0
  0
LINE
  8
0
  6
LTYPE3
 62
     2
 10
20.5
 20
34.5
 30
0.0
 11
25.5
 21
34.5
 31
0.0
  0
LINE
  8
0
  6
CONTINUOUS
 62
     2
 10
74.0
 20
33.5
 30
0.0
 11
74.630116473
 21
31.080712247
 31
0.0
  0
LINE
  8
0
  6
CONTINUOUS
 62
     2
 10
74.0
 20
33.5
 30
0.0
 11
75.755340749
 21
31.719893584
 31
0.0
  0
TEXT
  8
0
  6
CONTINUOUS
 62
     2
 10
79.112431492
 20
25.5
 30
0.3
 40
3.0
  1
４－φ５
 50
0.0
 41
0.6
 51
0.0
  7
KANJI2
  0
TEXT
  8
0
  6
CONTINUOUS
 62
     2
 10
87.612431492
 20
25.5
 30
0.3
 40
1.8
  1
－０
 50
0.0
 41
0.666666667
 51
0.0
  7
KANJI4
  0
TEXT
  8
0
  6
CONTINUOUS
 62
     2
 10
87.612431492
 20
27.3
 30
0.3
 40
1.8
  1
＋０．５
 50
0.0
 41
0.666666667
 51
0.0
  7
KANJI4
  0
LINE
  8
0
  6
CONTINUOUS
 62
     2
 10
79.112431492
 20
24.5
 30
0.0
 11
93.712431492
 21
24.5
 31
0.0
  0
LINE
  8
0
  6
CONTINUOUS
 62
     2
 10
74.0
 20
33.5
 30
0.0
 11
79.112431492
 21
24.5
 31
0.0
  0
LINE
  8
0
  6
CONTINUOUS
 62
     2
 10
23.0
 20
80.75
 30
0.0
 11
25.414814566
 21
80.102952387
 31
0.0
  0
LINE
  8
0
  6
CONTINUOUS
 62
     2
 10
23.0
 20
80.75
 30
0.0
 11
25.414814566
 21
81.397047613
 31
0.0
  0
LINE
  8
0
  6
CONTINUOUS
 62
     2
 10
23.0
 20
80.75
 30
0.0
 11
48.0
 21
80.75
 31
0.0
  0
LINE
  8
0
  6
CONTINUOUS
 62
     2
 10
48.0
 20
80.75
 30
0.0
 11
45.585185434
 21
81.397047613
 31
0.0
  0
LINE
  8
0
  6
CONTINUOUS
 62
     2
 10
48.0
 20
80.75
 30
0.0
 11
45.585185434
 21
80.102952387
 31
0.0
  0
TEXT
  8
0
  6
CONTINUOUS
 62
     2
 10
34.9
 20
81.75
 30
0.3
 40
1.8
  1
±０．５
 50
0.0
 41
0.666666667
 51
0.0
  7
KANJI4
  0
LINE
  8
0
  6
CONTINUOUS
 62
     2
 10
48.0
 20
80.75
 30
0.0
 11
50.414814566
 21
80.102952387
 31
0.0
  0
LINE
  8
0
  6
CONTINUOUS
 62
     2
 10
48.0
 20
80.75
 30
0.0
 11
50.414814566
 21
81.397047613
 31
0.0
  0
LINE
  8
0
  6
CONTINUOUS
 62
     2
 10
48.0
 20
80.75
 30
0.0
 11
73.0
 21
80.75
 31
0.0
  0
LINE
  8
0
  6
CONTINUOUS
 62
     2
 10
73.0
 20
80.75
 30
0.0
 11
70.585185434
 21
81.397047613
 31
0.0
  0
LINE
  8
0
  6
CONTINUOUS
 62
     2
 10
73.0
 20
80.75
 30
0.0
 11
70.585185434
 21
80.102952387
 31
0.0
  0
TEXT
  8
0
  6
CONTINUOUS
 62
     2
 10
59.9
 20
81.75
 30
0.3
 40
1.8
  1
±０．５
 50
0.0
 41
0.666666667
 51
0.0
  7
KANJI4
  0
TEXT
  8
0
  6
CONTINUOUS
 62
     2
 10
55.4
 20
81.75
 30
0.5
 40
3.0
  1
５０
 50
0.0
 41
0.666666667
 51
0.0
  7
KANJI5
  0
TEXT
  8
0
  6
CONTINUOUS
 62
     2
 10
30.4
 20
81.75
 30
0.5
 40
3.0
  1
５０
 50
0.0
 41
0.666666667
 51
0.0
  7
KANJI5
  0
LINE
  8
0
  6
CONTINUOUS
 62
     2
 10
23.0
 20
77.5
 30
0.0
 11
23.0
 21
82.75
 31
0.0
  0
LINE
  8
0
  6
CONTINUOUS
 62
     2
 10
73.0
 20
77.5
 30
0.0
 11
73.0
 21
82.75
 31
0.0
  0
LINE
  8
0
  6
LTYPE3
 62
     2
 10
48.0
 20
77.0
 30
0.0
 11
48.0
 21
27.749428846
 31
0.0
  0
LINE
  8
0
  6
CONTINUOUS
 62
     2
 10
48.0
 20
77.5
 30
0.0
 11
48.0
 21
82.75
 31
0.0
  0
LINE
  8
0
  6
LTYPE3
 62
     2
 10
19.19
 20
52.0
 30
0.0
 11
75.5
 21
52.0
 31
0.0
  0
LINE
  8
0
  6
CONTINUOUS
 62
     2
 10
79.25
 20
52.0
 30
0.0
 11
79.897047613
 21
54.414814566
 31
0.0
  0
LINE
  8
0
  6
CONTINUOUS
 62
     2
 10
79.25
 20
52.0
 30
0.0
 11
78.602952387
 21
54.414814566
 31
0.0
  0
LINE
  8
0
  6
CONTINUOUS
 62
     2
 10
79.25
 20
52.0
 30
0.0
 11
79.25
 21
74.5
 31
0.0
  0
LINE
  8
0
  6
CONTINUOUS
 62
     2
 10
79.25
 20
74.5
 30
0.0
 11
78.602952387
 21
72.085185434
 31
0.0
  0
LINE
  8
0
  6
CONTINUOUS
 62
     2
 10
79.25
 20
74.5
 30
0.0
 11
79.897047613
 21
72.085185434
 31
0.0
  0
TEXT
  8
0
  6
CONTINUOUS
 62
     2
 10
78.25
 20
58.87
 30
0.3
 40
3.0
  1
４５
 50
90.0
 41
0.6
 51
0.0
  7
KANJI2
  0
TEXT
  8
0
  6
CONTINUOUS
 62
     2
 10
78.25
 20
62.77
 30
0.18
 40
1.8
  1
±０．５
 50
90.0
 41
0.6
 51
0.0
  7
KANJI3
  0
LINE
  8
0
  6
CONTINUOUS
 62
     2
 10
79.25
 20
34.5
 30
0.0
 11
79.897047613
 21
36.914814566
 31
0.0
  0
LINE
  8
0
  6
CONTINUOUS
 62
     2
 10
79.25
 20
34.5
 30
0.0
 11
78.602952387
 21
36.914814566
 31
0.0
  0
LINE
  8
0
  6
CONTINUOUS
 62
     2
 10
79.25
 20
34.5
 30
0.0
 11
79.25
 21
52.0
 31
0.0
  0
LINE
  8
0
  6
CONTINUOUS
 62
     2
 10
79.25
 20
52.0
 30
0.0
 11
78.602952387
 21
49.585185434
 31
0.0
  0
LINE
  8
0
  6
CONTINUOUS
 62
     2
 10
79.25
 20
52.0
 30
0.0
 11
79.897047613
 21
49.585185434
 31
0.0
  0
TEXT
  8
0
  6
CONTINUOUS
 62
     2
 10
78.25
 20
38.87
 30
0.3
 40
3.0
  1
３５
 50
90.0
 41
0.6
 51
0.0
  7
KANJI2
  0
TEXT
  8
0
  6
CONTINUOUS
 62
     2
 10
78.25
 20
42.77
 30
0.18
 40
1.8
  1
±０．５
 50
90.0
 41
0.6
 51
0.0
  7
KANJI3
  0
LINE
  8
0
  6
CONTINUOUS
 62
     2
 10
76.0
 20
74.5
 30
0.0
 11
81.25
 21
74.5
 31
0.0
  0
LINE
  8
0
  6
CONTINUOUS
 62
     2
 10
76.0
 20
52.0
 30
0.0
 11
81.25
 21
52.0
 31
0.0
  0
LINE
  8
0
  6
CONTINUOUS
 62
     2
 10
76.0
 20
34.5
 30
0.0
 11
81.25
 21
34.5
 31
0.0
  0
LINE
  8
0
  6
CONTINUOUS
 62
     2
 10
145.0
 20
150.5
 30
0.0
 11
145.0
 21
159.0
 31
0.0
  0
LINE
  8
0
  6
LTYPE3
 62
     2
 10
170.0
 20
154.0
 30
0.0
 11
170.0
 21
98.0
 31
0.0
  0
LINE
  8
0
  6
CONTINUOUS
 62
     2
 10
170.0
 20
154.5
 30
0.0
 11
170.0
 21
159.0
 31
0.0
  0
LINE
  8
0
  6
CONTINUOUS
 62
     2
 10
195.0
 20
150.5
 30
0.0
 11
195.0
 21
159.0
 31
0.0
  0
LINE
  8
0
  6
CONTINUOUS
 62
     2
 10
198.5
 20
147.0
 30
0.0
 11
207.0
 21
147.0
 31
0.0
  0
LINE
  8
0
  6
CONTINUOUS
 62
     2
 10
198.5
 20
107.0
 30
0.0
 11
207.0
 21
107.0
 31
0.0
  0
LINE
  8
0
  6
LTYPE3
 62
     2
 10
202.0
 20
124.5
 30
0.0
 11
138.125
 21
124.5
 31
0.0
  0
LINE
  8
0
  6
CONTINUOUS
 62
     2
 10
210.5
 20
102.0
 30
0.0
 11
211.147047613
 21
104.414814566
 31
0.0
  0
LINE
  8
0
  6
CONTINUOUS
 62
     2
 10
210.5
 20
102.0
 30
0.0
 11
209.852952387
 21
104.414814566
 31
0.0
  0
LINE
  8
0
  6
CONTINUOUS
 62
     2
 10
210.5
 20
102.0
 30
0.0
 11
210.5
 21
152.0
 31
0.0
  0
LINE
  8
0
  6
CONTINUOUS
 62
     2
 10
210.5
 20
152.0
 30
0.0
 11
209.852952387
 21
149.585185434
 31
0.0
  0
LINE
  8
0
  6
CONTINUOUS
 62
     2
 10
210.5
 20
152.0
 30
0.0
 11
211.147047613
 21
149.585185434
 31
0.0
  0
TEXT
  8
0
  6
CONTINUOUS
 62
     2
 10
209.5
 20
122.83
 30
0.3
 40
3.0
  1
１００
 50
90.0
 41
0.6
 51
0.0
  7
KANJI2
  0
TEXT
  8
0
  6
CONTINUOUS
 62
     2
 10
209.5
 20
128.83
 30
0.18
 40
1.8
  1
±１
 50
90.0
 41
0.6
 51
0.0
  7
KANJI3
  0
LINE
  8
0
  6
CONTINUOUS
 62
     2
 10
199.4125
 20
102.0
 30
0.0
 11
212.5
 21
102.0
 31
0.0
  0
LINE
  8
0
  6
CONTINUOUS
 62
     2
 10
199.5
 20
152.0
 30
0.0
 11
212.5
 21
152.0
 31
0.0
  0
LINE
  8
0
  6
CONTINUOUS
 62
     2
 10
202.5
 20
124.5
 30
0.0
 11
207.0
 21
124.5
 31
0.0
  0
LINE
  8
0
  6
CONTINUOUS
 62
     2
 10
49.53242657
 20
105.0
 30
0.0
 11
50.162543043
 21
102.580712247
 31
0.0
  0
LINE
  8
0
  6
CONTINUOUS
 62
     2
 10
49.53242657
 20
105.0
 30
0.0
 11
51.287767319
 21
103.219893584
 31
0.0
  0
LINE
  8
0
  6
CONTINUOUS
 62
     2
 10
49.53242657
 20
105.0
 30
0.0
 11
58.337169696
 21
89.5
 31
0.0
  0
LINE
  8
0
  6
CONTINUOUS
 62
     2
 10
26.137169696
 20
134.5
 30
0.0
 11
26.767286169
 21
136.919287753
 31
0.0
  0
LINE
  8
0
  6
CONTINUOUS
 62
     2
 10
26.137169696
 20
134.5
 30
0.0
 11
27.892510445
 21
136.280106416
 31
0.0
  0
TEXT
  8
0
  6
CONTINUOUS
 62
     2
 10
41.758488145
 20
163.0
 30
0.3
 40
3.0
  1
指針
 50
0.0
 41
0.9
 51
0.0
  7
KANJI1
  0
LINE
  8
0
  6
CONTINUOUS
 62
     2
 10
26.137169696
 20
134.5
 30
0.0
 11
41.758488145
 21
162.0
 31
0.0
  0
LINE
  8
0
  6
CONTINUOUS
 62
     2
 10
41.758488145
 20
162.0
 30
0.0
 11
47.858488145
 21
162.0
 31
0.0
  0
LINE
  8
0
  6
CONTINUOUS
 62
     2
 10
171.687169696
 20
137.5
 30
0.0
 11
172.317286169
 21
139.919287753
 31
0.0
  0
LINE
  8
0
  6
CONTINUOUS
 62
     2
 10
171.687169696
 20
137.5
 30
0.0
 11
173.442510445
 21
139.280106416
 31
0.0
  0
TEXT
  8
0
  6
CONTINUOUS
 62
     2
 10
187.876536089
 20
167.0
 30
0.3
 40
3.0
  1
感度調整用抵抗器
 50
0.0
 41
0.9
 51
0.0
  7
KANJI1
  0
LINE
  8
0
  6
CONTINUOUS
 62
     2
 10
171.687169696
 20
137.5
 30
0.0
 11
187.876536089
 21
166.0
 31
0.0
  0
LINE
  8
0
  6
CONTINUOUS
 62
     2
 10
187.876536089
 20
166.0
 30
0.0
 11
212.276536089
 21
166.0
 31
0.0
  0
TEXT
  8
0
  6
CONTINUOUS
 62
     2
 10
187.783332154
 20
170.85
 30
0.5
 40
3.0
  1
注
 50
0.0
 41
0.9
 51
0.0
  7
KANJI0
  0
LINE
  8
0
  6
CONTINUOUS
 62
     2
 10
99.2
 20
152.075
 30
0.0
 11
99.2
 21
163.375
 31
0.0
  0
LINE
  8
0
  6
CONTINUOUS
 62
     2
 10
92.95
 20
150.25
 30
0.0
 11
92.7
 21
150.25
 31
0.0
  0
LINE
  8
0
  6
CONTINUOUS
 62
     2
 10
92.7
 20
150.25
 30
0.0
 11
92.7
 21
119.5
 31
0.0
  0
LINE
  8
0
  6
CONTINUOUS
 62
     2
 10
92.7
 20
119.5
 30
0.0
 11
92.95
 21
119.5
 31
0.0
  0
LINE
  8
0
  6
CONTINUOUS
 62
     2
 10
108.7
 20
145.75
 30
0.0
 11
108.052952387
 21
143.335185434
 31
0.0
  0
LINE
  8
0
  6
CONTINUOUS
 62
     2
 10
108.7
 20
145.75
 30
0.0
 11
109.347047613
 21
143.335185434
 31
0.0
  0
LINE
  8
0
  6
CONTINUOUS
 62
     2
 10
108.7
 20
145.75
 30
0.0
 11
108.7
 21
103.25
 31
0.0
  0
LINE
  8
0
  6
CONTINUOUS
 62
     2
 10
108.7
 20
103.25
 30
0.0
 11
109.347047613
 21
105.664814566
 31
0.0
  0
LINE
  8
0
  6
CONTINUOUS
 62
     2
 10
108.7
 20
103.25
 30
0.0
 11
108.052952387
 21
105.664814566
 31
0.0
  0
LINE
  8
0
  6
CONTINUOUS
 62
     2
 10
99.2
 20
156.975
 30
0.0
 11
99.2
 21
159.0
 31
0.0
  0
LINE
  8
0
  6
CONTINUOUS
 62
     2
 10
92.7
 20
162.0
 30
0.0
 11
95.114814566
 21
161.352952387
 31
0.0
  0
LINE
  8
0
  6
CONTINUOUS
 62
     2
 10
92.7
 20
162.0
 30
0.0
 11
95.114814566
 21
162.647047613
 31
0.0
  0
LINE
  8
0
  6
CONTINUOUS
 62
     2
 10
92.7
 20
162.0
 30
0.0
 11
99.2
 21
162.0
 31
0.0
  0
LINE
  8
0
  6
CONTINUOUS
 62
     2
 10
99.2
 20
162.0
 30
0.0
 11
96.785185434
 21
162.647047613
 31
0.0
  0
LINE
  8
0
  6
CONTINUOUS
 62
     2
 10
99.2
 20
162.0
 30
0.0
 11
96.785185434
 21
161.352952387
 31
0.0
  0
LINE
  8
0
  6
CONTINUOUS
 62
     2
 10
99.2
 20
162.0
 30
0.0
 11
101.614814566
 21
161.352952387
 31
0.0
  0
LINE
  8
0
  6
CONTINUOUS
 62
     2
 10
99.2
 20
162.0
 30
0.0
 11
101.614814566
 21
162.647047613
 31
0.0
  0
LINE
  8
0
  6
CONTINUOUS
 62
     2
 10
99.2
 20
162.0
 30
0.0
 11
114.95
 21
162.0
 31
0.0
  0
LINE
  8
0
  6
CONTINUOUS
 62
     2
 10
114.95
 20
162.0
 30
0.0
 11
112.535185434
 21
162.647047613
 31
0.0
  0
LINE
  8
0
  6
CONTINUOUS
 62
     2
 10
114.95
 20
162.0
 30
0.0
 11
112.535185434
 21
161.352952387
 31
0.0
  0
TEXT
  8
0
  6
CONTINUOUS
 62
     2
 10
105.125
 20
163.0
 30
0.3
 40
3.0
  1
３２
 50
0.0
 41
0.6
 51
0.0
  7
KANJI2
  0
LINE
  8
0
  6
CONTINUOUS
 62
     2
 10
114.95
 20
162.0
 30
0.0
 11
117.364814566
 21
161.352952387
 31
0.0
  0
LINE
  8
0
  6
CONTINUOUS
 62
     2
 10
114.95
 20
162.0
 30
0.0
 11
117.364814566
 21
162.647047613
 31
0.0
  0
LINE
  8
0
  6
CONTINUOUS
 62
     2
 10
114.95
 20
162.0
 30
0.0
 11
120.9
 21
162.0
 31
0.0
  0
LINE
  8
0
  6
CONTINUOUS
 62
     2
 10
120.9
 20
162.0
 30
0.0
 11
118.485185434
 21
162.647047613
 31
0.0
  0
LINE
  8
0
  6
CONTINUOUS
 62
     2
 10
120.9
 20
162.0
 30
0.0
 11
118.485185434
 21
161.352952387
 31
0.0
  0
TEXT
  8
0
  6
CONTINUOUS
 62
     2
 10
114.805
 20
163.0
 30
0.3
 40
3.0
  1
１１
 50
0.0
 41
0.6
 51
0.0
  7
KANJI2
  0
TEXT
  8
0
  6
CONTINUOUS
 62
     2
 10
118.705
 20
163.0
 30
0.18
 40
1.8
  1
±１
 50
0.0
 41
0.6
 51
0.0
  7
KANJI3
  0
LINE
  8
0
  6
CONTINUOUS
 62
     2
 10
99.2
 20
157.0
 30
0.0
 11
101.614814566
 21
156.352952387
 31
0.0
  0
LINE
  8
0
  6
CONTINUOUS
 62
     2
 10
99.2
 20
157.0
 30
0.0
 11
101.614814566
 21
157.647047613
 31
0.0
  0
LINE
  8
0
  6
CONTINUOUS
 62
     2
 10
99.2
 20
157.0
 30
0.0
 11
104.65
 21
157.0
 31
0.0
  0
LINE
  8
0
  6
CONTINUOUS
 62
     2
 10
104.65
 20
157.0
 30
0.0
 11
102.235185434
 21
157.647047613
 31
0.0
  0
LINE
  8
0
  6
CONTINUOUS
 62
     2
 10
104.65
 20
157.0
 30
0.0
 11
102.235185434
 21
156.352952387
 31
0.0
  0
LINE
  8
0
  6
CONTINUOUS
 62
     2
 10
104.65
 20
149.05
 30
0.0
 11
104.65
 21
159.0
 31
0.0
  0
TEXT
  8
0
  6
CONTINUOUS
 62
     2
 10
99.675
 20
158.0
 30
0.5
 40
3.0
  1
１０
 50
0.0
 41
0.666666667
 51
0.0
  7
KANJI5
  0
LINE
  8
0
  6
CONTINUOUS
 62
     2
 10
98.7
 20
157.0
 30
0.0
 11
96.285185434
 21
157.647047613
 31
0.0
  0
LINE
  8
0
  6
CONTINUOUS
 62
     2
 10
98.7
 20
157.0
 30
0.0
 11
96.285185434
 21
156.352952387
 31
0.0
  0
TEXT
  8
0
  6
CONTINUOUS
 62
     2
 10
94.607166115
 20
158.0
 30
0.3
 40
3.0
  1
０．５
 50
0.0
 41
0.3
 51
0.0
  7
KANJI6
  0
LINE
  8
0
  6
CONTINUOUS
 62
     2
 10
120.9
 20
131.55
 30
0.0
 11
120.9
 21
164.0
 31
0.0
  0
LINE
  8
0
  6
CONTINUOUS
 62
     2
 10
99.2
 20
150.05
 30
0.0
 11
99.2
 21
164.0
 31
0.0
  0
LINE
  8
0
  6
CONTINUOUS
 62
     2
 10
92.7
 20
151.25
 30
0.0
 11
92.7
 21
164.0
 31
0.0
  0
LINE
  8
0
  6
CONTINUOUS
 62
     2
 10
98.7
 20
153.0
 30
0.0
 11
98.7
 21
159.0
 31
0.0
  0
LINE
  8
0
  6
CONTINUOUS
 62
     2
 10
114.95
 20
97.0
 30
0.0
 11
117.364814566
 21
96.352952387
 31
0.0
  0
LINE
  8
0
  6
CONTINUOUS
 62
     2
 10
114.95
 20
97.0
 30
0.0
 11
117.364814566
 21
97.647047613
 31
0.0
  0
LINE
  8
0
  6
CONTINUOUS
 62
     2
 10
114.95
 20
97.0
 30
0.0
 11
121.95
 21
97.0
 31
0.0
  0
LINE
  8
0
  6
CONTINUOUS
 62
     2
 10
121.95
 20
97.0
 30
0.0
 11
119.535185434
 21
97.647047613
 31
0.0
  0
LINE
  8
0
  6
CONTINUOUS
 62
     2
 10
121.95
 20
97.0
 30
0.0
 11
119.535185434
 21
96.352952387
 31
0.0
  0
TEXT
  8
0
  6
CONTINUOUS
 62
     2
 10
116.5
 20
98.0
 30
0.3
 40
3.0
  1
１４
 50
0.0
 41
0.6
 51
0.0
  7
KANJI2
  0
LINE
  8
0
  6
CONTINUOUS
 62
     2
 10
121.95
 20
123.5
 30
0.0
 11
121.95
 21
95.0
 31
0.0
  0
LINE
  8
0
  6
CONTINUOUS
 62
     2
 10
114.95
 20
103.230798724
 30
0.0
 11
114.95
 21
95.0
 31
0.0
  0
LINE
  8
0
  6
CONTINUOUS
 62
     2
 10
99.2
 20
157.0
 30
0.0
 11
93.2
 21
157.0
 31
0.0
  0
LINE
  8
0
  6
LTYPE3
 62
     2
 10
106.45
 20
147.0
 30
0.0
 11
97.05
 21
147.0
 31
0.0
  0
LINE
  8
0
  6
LTYPE3
 62
     2
 10
113.65
 20
129.5
 30
0.0
 11
122.65
 21
129.5
 31
0.0
  0
LINE
  8
0
  6
LTYPE3
 62
     2
 10
106.45
 20
107.0
 30
0.0
 11
97.05
 21
107.0
 31
0.0
  0
LINE
  8
0
  6
LTYPE3
 62
     2
 10
115.7
 20
135.75
 30
0.0
 11
111.7
 21
135.75
 31
0.0
  0
LINE
  8
0
  6
CONTINUOUS
 62
     2
 10
114.95
 20
134.994201276
 30
0.0
 11
114.95
 21
164.0
 31
0.0
  0
TEXT
  8
0
  6
CONTINUOUS
 62
     2
 10
91.65
 20
164.25
 30
0.3
 40
3.0
  1
１２．５
 50
0.0
 41
0.6
 51
0.0
  7
KANJI2
  0
LINE
  8
0
  6
CONTINUOUS
 62
     2
 10
119.125885559
 20
127.5
 30
0.0
 11
119.756002032
 21
125.080712247
 31
0.0
  0
LINE
  8
0
  6
CONTINUOUS
 62
     2
 10
119.125885559
 20
127.5
 30
0.0
 11
120.881226308
 21
125.719893584
 31
0.0
  0
LINE
  8
0
  6
CONTINUOUS
 62
     2
 10
101.411707416
 20
104.5
 30
0.0
 11
102.041823889
 21
102.080712247
 31
0.0
  0
LINE
  8
0
  6
CONTINUOUS
 62
     2
 10
101.411707416
 20
104.5
 30
0.0
 11
103.167048165
 21
102.719893584
 31
0.0
  0
LINE
  8
0
  6
CONTINUOUS
 62
     2
 10
101.411707416
 20
104.5
 30
0.0
 11
109.93242657
 21
89.5
 31
0.0
  0
LINE
  8
0
  6
CONTINUOUS
 62
     2
 10
109.93242657
 20
89.5
 30
0.0
 11
130.53242657
 21
89.5
 31
0.0
  0
TEXT
  8
0
  6
CONTINUOUS
 62
     2
 10
140.711707416
 20
90.5
 30
0.3
 40
3.0
  1
Ｍ４ターミナルネジ
 50
0.0
 41
0.9
 51
0.0
  7
KANJI1
  0
LINE
  8
0
  6
CONTINUOUS
 62
     2
 10
119.125885559
 20
127.5
 30
0.0
 11
140.711707416
 21
89.5
 31
0.0
  0
LINE
  8
0
  6
CONTINUOUS
 62
     2
 10
140.711707416
 20
89.5
 30
0.0
 11
168.411707416
 21
89.5
 31
0.0
  0
LINE
  8
0
  6
CONTINUOUS
 62
     2
 10
135.0
 20
127.0
 30
0.0
 11
135.647047613
 21
129.414814566
 31
0.0
  0
LINE
  8
0
  6
CONTINUOUS
 62
     2
 10
135.0
 20
127.0
 30
0.0
 11
134.352952387
 21
129.414814566
 31
0.0
  0
LINE
  8
0
  6
CONTINUOUS
 62
     2
 10
135.0
 20
132.0
 30
0.0
 11
135.0
 21
119.5
 31
0.0
  0
LINE
  8
0
  6
CONTINUOUS
 62
     2
 10
135.0
 20
124.5
 30
0.0
 11
134.352952387
 21
122.085185434
 31
0.0
  0
LINE
  8
0
  6
CONTINUOUS
 62
     2
 10
135.0
 20
124.5
 30
0.0
 11
135.647047613
 21
122.085185434
 31
0.0
  0
LINE
  8
0
  6
CONTINUOUS
 62
     2
 10
138.125
 20
124.5
 30
0.0
 11
133.0
 21
124.5
 31
0.0
  0
TEXT
  8
0
  6
CONTINUOUS
 62
     2
 10
134.0
 20
124.75
 30
0.5
 40
3.0
  1
５
 50
90.0
 41
0.666666667
 51
0.0
  7
KANJI5
  0
LINE
  8
0
  6
CONTINUOUS
 62
     2
 10
116.576536089
 20
133.5
 30
0.0
 11
117.206652562
 21
135.919287753
 31
0.0
  0
LINE
  8
0
  6
CONTINUOUS
 62
     2
 10
116.576536089
 20
133.5
 30
0.0
 11
118.331876838
 21
135.280106416
 31
0.0
  0
TEXT
  8
0
  6
CONTINUOUS
 62
     2
 10
122.062431492
 20
143.5
 30
0.3
 40
3.0
  1
端子キャップ
 50
0.0
 41
0.9
 51
0.0
  7
KANJI1
  0
LINE
  8
0
  6
CONTINUOUS
 62
     2
 10
116.576536089
 20
133.5
 30
0.0
 11
121.688967581
 21
142.5
 31
0.0
  0
LINE
  8
0
  6
CONTINUOUS
 62
     2
 10
121.688967581
 20
142.5
 30
0.0
 11
139.862431492
 21
142.5
 31
0.0
  0
TEXT
  8
0
  6
CONTINUOUS
 62
     2
 10
109.93242657
 20
90.5
 30
0.3
 40
3.0
  1
Ｍ４取付ボルト
 50
0.0
 41
0.9
 51
0.0
  7
KANJI1
  0
LINE
  8
0
  6
CONTINUOUS
 62
     2
 10
98.7
 20
149.05
 30
0.0
 11
99.2
 21
149.05
 31
0.0
  0
LINE
  8
0
  6
CONTINUOUS
 62
     2
 10
101.622253903
 20
149.1
 30
0.0
 11
100.372253903
 21
149.1
 31
0.0
  0
LINE
  8
0
  6
CONTINUOUS
 62
     2
 10
101.622253903
 20
149.1
 30
0.0
 11
101.872253903
 21
148.85
 31
0.0
  0
LINE
  8
0
  6
CONTINUOUS
 62
     2
 10
101.872253903
 20
148.05
 30
0.0
 11
104.65
 21
148.05
 31
0.0
  0
LINE
  8
0
  6
CONTINUOUS
 62
     2
 10
104.65
 20
147.825
 30
0.0
 11
101.872253903
 21
147.825
 31
0.0
  0
LINE
  8
0
  6
CONTINUOUS
 62
     2
 10
101.612253903
 20
148.035
 30
0.0
 11
101.872253903
 21
148.335
 31
0.0
  0
LINE
  8
0
  6
CONTINUOUS
 62
     2
 10
104.65
 20
146.05
 30
0.0
 11
101.872253903
 21
146.05
 31
0.0
  0
LINE
  8
0
  6
CONTINUOUS
 62
     2
 10
101.872253903
 20
146.325
 30
0.0
 11
104.65
 21
146.325
 31
0.0
  0
LINE
  8
0
  6
CONTINUOUS
 62
     2
 10
101.872253903
 20
145.75
 30
0.0
 11
101.572253903
 21
146.02
 31
0.0
  0
LINE
  8
0
  6
CONTINUOUS
 62
     2
 10
101.872253903
 20
146.325
 30
0.0
 11
101.572253903
 21
146.055
 31
0.0
  0
LINE
  8
0
  6
CONTINUOUS
 62
     2
 10
104.65
 20
148.05
 30
0.0
 11
104.65
 21
146.05
 31
0.0
  0
LINE
  8
0
  6
CONTINUOUS
 62
     2
 10
99.2
 20
145.05
 30
0.0
 11
98.7
 21
145.05
 31
0.0
  0
LINE
  8
0
  6
CONTINUOUS
 62
     2
 10
101.572253903
 20
145.025
 30
0.0
 11
101.872253903
 21
145.325
 31
0.0
  0
LINE
  8
0
  6
CONTINUOUS
 62
     2
 10
100.372253903
 20
145.05
 30
0.0
 11
101.622253903
 21
145.05
 31
0.0
  0
LINE
  8
0
  6
CONTINUOUS
 62
     2
 10
99.2
 20
149.05
 30
0.0
 11
99.2
 21
145.05
 31
0.0
  0
LINE
  8
0
  6
CONTINUOUS
 62
     2
 10
100.372253903
 20
149.1
 30
0.0
 11
100.372253903
 21
145.05
 31
0.0
  0
LINE
  8
0
  6
CONTINUOUS
 62
     2
 10
101.872253903
 20
145.305
 30
0.0
 11
101.872253903
 21
148.85
 31
0.0
  0
LINE
  8
0
  6
CONTINUOUS
 62
     2
 10
101.625253903
 20
148.05
 30
0.0
 11
101.875253903
 21
147.85
 31
0.0
  0
LINE
  8
0
  6
CONTINUOUS
 62
     2
 10
101.625253903
 20
148.05
 30
0.0
 11
100.372253903
 21
148.05
 31
0.0
  0
LINE
  8
0
  6
CONTINUOUS
 62
     2
 10
100.372253903
 20
146.05
 30
0.0
 11
101.58892057
 21
146.05
 31
0.0
  0
LINE
  8
0
  6
CONTINUOUS
 62
     2
 10
100.372253903
 20
149.1
 30
0.0
 11
99.972253903
 21
149.5
 31
0.0
  0
LINE
  8
0
  6
CONTINUOUS
 62
     2
 10
99.972253903
 20
149.5
 30
0.0
 11
99.972253903
 21
144.65
 31
0.0
  0
LINE
  8
0
  6
CONTINUOUS
 62
     2
 10
100.372253903
 20
145.05
 30
0.0
 11
99.972253903
 21
144.65
 31
0.0
  0
LINE
  8
0
  6
CONTINUOUS
 62
     2
 10
99.2
 20
146.05
 30
0.0
 11
99.972253903
 21
146.05
 31
0.0
  0
LINE
  8
0
  6
CONTINUOUS
 62
     2
 10
99.972253903
 20
146.325
 30
0.0
 11
99.2
 21
146.325
 31
0.0
  0
LINE
  8
0
  6
CONTINUOUS
 62
     2
 10
99.972253903
 20
148.05
 30
0.0
 11
99.2
 21
148.05
 31
0.0
  0
LINE
  8
0
  6
CONTINUOUS
 62
     2
 10
99.2
 20
147.825
 30
0.0
 11
99.972253903
 21
147.825
 31
0.0
  0
LINE
  8
0
  6
CONTINUOUS
 62
     2
 10
98.7
 20
109.05
 30
0.0
 11
99.2
 21
109.05
 31
0.0
  0
LINE
  8
0
  6
CONTINUOUS
 62
     2
 10
101.622253903
 20
109.1
 30
0.0
 11
100.372253903
 21
109.1
 31
0.0
  0
LINE
  8
0
  6
CONTINUOUS
 62
     2
 10
101.622253903
 20
109.1
 30
0.0
 11
101.872253903
 21
108.85
 31
0.0
  0
LINE
  8
0
  6
CONTINUOUS
 62
     2
 10
101.872253903
 20
108.05
 30
0.0
 11
104.65
 21
108.05
 31
0.0
  0
LINE
  8
0
  6
CONTINUOUS
 62
     2
 10
104.65
 20
107.825
 30
0.0
 11
101.872253903
 21
107.825
 31
0.0
  0
LINE
  8
0
  6
CONTINUOUS
 62
     2
 10
101.612253903
 20
108.035
 30
0.0
 11
101.872253903
 21
108.335
 31
0.0
  0
LINE
  8
0
  6
CONTINUOUS
 62
     2
 10
104.65
 20
106.05
 30
0.0
 11
101.872253903
 21
106.05
 31
0.0
  0
LINE
  8
0
  6
CONTINUOUS
 62
     2
 10
101.872253903
 20
106.325
 30
0.0
 11
104.65
 21
106.325
 31
0.0
  0
LINE
  8
0
  6
CONTINUOUS
 62
     2
 10
101.872253903
 20
105.75
 30
0.0
 11
101.572253903
 21
106.02
 31
0.0
  0
LINE
  8
0
  6
CONTINUOUS
 62
     2
 10
101.872253903
 20
106.325
 30
0.0
 11
101.572253903
 21
106.055
 31
0.0
  0
LINE
  8
0
  6
CONTINUOUS
 62
     2
 10
104.65
 20
108.05
 30
0.0
 11
104.65
 21
106.05
 31
0.0
  0
LINE
  8
0
  6
CONTINUOUS
 62
     2
 10
99.2
 20
105.05
 30
0.0
 11
98.7
 21
105.05
 31
0.0
  0
LINE
  8
0
  6
CONTINUOUS
 62
     2
 10
101.572253903
 20
105.025
 30
0.0
 11
101.872253903
 21
105.325
 31
0.0
  0
LINE
  8
0
  6
CONTINUOUS
 62
     2
 10
100.372253903
 20
105.05
 30
0.0
 11
101.622253903
 21
105.05
 31
0.0
  0
LINE
  8
0
  6
CONTINUOUS
 62
     2
 10
99.2
 20
109.05
 30
0.0
 11
99.2
 21
105.05
 31
0.0
  0
LINE
  8
0
  6
CONTINUOUS
 62
     2
 10
100.372253903
 20
109.1
 30
0.0
 11
100.372253903
 21
105.05
 31
0.0
  0
LINE
  8
0
  6
CONTINUOUS
 62
     2
 10
101.872253903
 20
105.305
 30
0.0
 11
101.872253903
 21
108.85
 31
0.0
  0
LINE
  8
0
  6
CONTINUOUS
 62
     2
 10
101.625253903
 20
108.05
 30
0.0
 11
101.875253903
 21
107.85
 31
0.0
  0
LINE
  8
0
  6
CONTINUOUS
 62
     2
 10
101.625253903
 20
108.05
 30
0.0
 11
100.372253903
 21
108.05
 31
0.0
  0
LINE
  8
0
  6
CONTINUOUS
 62
     2
 10
100.372253903
 20
106.05
 30
0.0
 11
101.58892057
 21
106.05
 31
0.0
  0
LINE
  8
0
  6
CONTINUOUS
 62
     2
 10
100.372253903
 20
109.1
 30
0.0
 11
99.972253903
 21
109.5
 31
0.0
  0
LINE
  8
0
  6
CONTINUOUS
 62
     2
 10
99.972253903
 20
109.5
 30
0.0
 11
99.972253903
 21
104.65
 31
0.0
  0
LINE
  8
0
  6
CONTINUOUS
 62
     2
 10
100.372253903
 20
105.05
 30
0.0
 11
99.972253903
 21
104.65
 31
0.0
  0
LINE
  8
0
  6
CONTINUOUS
 62
     2
 10
99.2
 20
106.05
 30
0.0
 11
99.972253903
 21
106.05
 31
0.0
  0
LINE
  8
0
  6
CONTINUOUS
 62
     2
 10
99.972253903
 20
106.325
 30
0.0
 11
99.2
 21
106.325
 31
0.0
  0
LINE
  8
0
  6
CONTINUOUS
 62
     2
 10
99.972253903
 20
108.05
 30
0.0
 11
99.2
 21
108.05
 31
0.0
  0
LINE
  8
0
  6
CONTINUOUS
 62
     2
 10
99.2
 20
107.825
 30
0.0
 11
99.972253903
 21
107.825
 31
0.0
  0
LINE
  8
0
  6
LTYPE2
 62
     2
 10
114.95
 20
123.55
 30
0.0
 11
115.2
 21
123.55
 31
0.0
  0
LINE
  8
0
  6
CONTINUOUS
 62
     2
 10
114.95
 20
131.55
 30
0.0
 11
115.45
 21
131.55
 31
0.0
  0
LINE
  8
0
  6
CONTINUOUS
 62
     2
 10
115.45
 20
127.55
 30
0.0
 11
114.95
 21
127.55
 31
0.0
  0
LINE
  8
0
  6
CONTINUOUS
 62
     2
 10
115.45
 20
131.55
 30
0.0
 11
115.45
 21
127.55
 31
0.0
  0
LINE
  8
0
  6
CONTINUOUS
 62
     2
 10
115.45
 20
131.35
 30
0.0
 11
115.45
 21
131.475
 31
0.0
  0
LINE
  8
0
  6
LTYPE2
 62
     2
 10
115.85
 20
131.475
 30
0.0
 11
115.85
 21
126.1
 31
0.0
  0
LINE
  8
0
  6
LTYPE2
 62
     2
 10
115.45
 20
131.475
 30
0.0
 11
115.85
 21
131.475
 31
0.0
  0
LINE
  8
0
  6
LTYPE2
 62
     2
 10
114.95
 20
126.1
 30
0.0
 11
117.45
 21
126.1
 31
0.0
  0
LINE
  8
0
  6
LTYPE2
 62
     2
 10
117.45
 20
126.1
 30
0.0
 11
117.45
 21
123.1
 31
0.0
  0
LINE
  8
0
  6
LTYPE2
 62
     2
 10
115.45
 20
127.55
 30
0.0
 11
115.45
 21
126.1
 31
0.0
  0
ARC
  8
0
  6
LTYPE2
 62
     2
 10
118.95
 20
130.0
 30
0.0
 40
3.0
 50
0.0
 51
90.0
  0
LINE
  8
0
  6
LTYPE2
 62
     2
 10
114.95
 20
132.4
 30
0.0
 11
115.2
 21
132.4
 31
0.0
  0
LINE
  8
0
  6
LTYPE2
 62
     2
 10
115.2
 20
121.5
 30
0.0
 11
115.2
 21
132.4
 31
0.0
  0
LINE
  8
0
  6
LTYPE2
 62
     2
 10
114.95
 20
133.0
 30
0.0
 11
118.95
 21
133.0
 31
0.0
  0
LINE
  8
0
  6
LTYPE2
 62
     2
 10
121.95
 20
130.0
 30
0.0
 11
121.95
 21
124.5
 31
0.0
  0
LINE
  8
0
  6
LTYPE2
 62
     2
 10
118.95
 20
121.5
 30
0.0
 11
114.95
 21
121.5
 31
0.0
  0
ARC
  8
0
  6
LTYPE2
 62
     2
 10
118.95
 20
124.5
 30
0.0
 40
3.0
 50
270.0
 51
0.0
  0
LINE
  8
0
  6
CONTINUOUS
 62
     2
 10
118.772253903
 20
131.6
 30
0.0
 11
117.522253903
 21
131.6
 31
0.0
  0
LINE
  8
0
  6
CONTINUOUS
 62
     2
 10
118.772253903
 20
131.6
 30
0.0
 11
119.022253903
 21
131.35
 31
0.0
  0
LINE
  8
0
  6
CONTINUOUS
 62
     2
 10
116.85
 20
131.35
 30
0.0
 11
117.35
 21
131.35
 31
0.0
  0
LINE
  8
0
  6
CONTINUOUS
 62
     2
 10
117.35
 20
131.35
 30
0.0
 11
117.05
 21
129.7
 31
0.0
  0
LINE
  8
0
  6
CONTINUOUS
 62
     2
 10
117.05
 20
129.7
 30
0.0
 11
116.55
 21
129.7
 31
0.0
  0
LINE
  8
0
  6
CONTINUOUS
 62
     2
 10
116.55
 20
129.7
 30
0.0
 11
116.85
 21
131.35
 31
0.0
  0
LINE
  8
0
  6
CONTINUOUS
 62
     2
 10
118.762253903
 20
130.535
 30
0.0
 11
119.022253903
 21
130.835
 31
0.0
  0
LINE
  8
0
  6
CONTINUOUS
 62
     2
 10
117.163636364
 20
130.325
 30
0.0
 11
117.522253903
 21
130.325
 31
0.0
  0
LINE
  8
0
  6
CONTINUOUS
 62
     2
 10
117.3
 20
129.4
 30
0.0
 11
116.8
 21
129.4
 31
0.0
  0
LINE
  8
0
  6
CONTINUOUS
 62
     2
 10
119.022253903
 20
128.825
 30
0.0
 11
118.722253903
 21
128.555
 31
0.0
  0
LINE
  8
0
  6
CONTINUOUS
 62
     2
 10
117.522253903
 20
128.825
 30
0.0
 11
117.222253903
 21
128.825
 31
0.0
  0
LINE
  8
0
  6
CONTINUOUS
 62
     2
 10
118.722253903
 20
127.525
 30
0.0
 11
119.022253903
 21
127.825
 31
0.0
  0
LINE
  8
0
  6
CONTINUOUS
 62
     2
 10
117.522253903
 20
127.55
 30
0.0
 11
118.772253903
 21
127.55
 31
0.0
  0
LINE
  8
0
  6
CONTINUOUS
 62
     2
 10
116.55
 20
127.8
 30
0.0
 11
117.05
 21
127.8
 31
0.0
  0
LINE
  8
0
  6
CONTINUOUS
 62
     2
 10
116.8
 20
129.4
 30
0.0
 11
116.55
 21
127.8
 31
0.0
  0
LINE
  8
0
  6
CONTINUOUS
 62
     2
 10
117.05
 20
127.8
 30
0.0
 11
117.3
 21
129.4
 31
0.0
  0
LINE
  8
0
  6
CONTINUOUS
 62
     2
 10
117.522253903
 20
131.6
 30
0.0
 11
117.522253903
 21
127.55
 31
0.0
  0
LINE
  8
0
  6
CONTINUOUS
 62
     2
 10
119.022253903
 20
127.805
 30
0.0
 11
119.022253903
 21
131.35
 31
0.0
  0
LINE
  8
0
  6
CONTINUOUS
 62
     2
 10
118.775253903
 20
130.55
 30
0.0
 11
119.025253903
 21
130.35
 31
0.0
  0
LINE
  8
0
  6
CONTINUOUS
 62
     2
 10
118.622253903
 20
130.55
 30
0.0
 11
118.775253903
 21
130.55
 31
0.0
  0
LINE
  8
0
  6
CONTINUOUS
 62
     2
 10
117.204545455
 20
130.55
 30
0.0
 11
118.775253903
 21
130.55
 31
0.0
  0
LINE
  8
0
  6
CONTINUOUS
 62
     2
 10
119.022253903
 20
128.25
 30
0.0
 11
118.722253903
 21
128.52
 31
0.0
  0
LINE
  8
0
  6
CONTINUOUS
 62
     2
 10
118.716698348
 20
128.55
 30
0.0
 11
117.1671875
 21
128.55
 31
0.0
  0
LINE
  8
0
  6
CONTINUOUS
 62
     2
 10
120.9
 20
130.325
 30
0.0
 11
119.022253903
 21
130.325
 31
0.0
  0
LINE
  8
0
  6
CONTINUOUS
 62
     2
 10
119.022253903
 20
130.55
 30
0.0
 11
120.9
 21
130.55
 31
0.0
  0
LINE
  8
0
  6
CONTINUOUS
 62
     2
 10
119.022253903
 20
128.825
 30
0.0
 11
120.9
 21
128.825
 31
0.0
  0
LINE
  8
0
  6
CONTINUOUS
 62
     2
 10
120.9
 20
128.55
 30
0.0
 11
119.022253903
 21
128.55
 31
0.0
  0
LINE
  8
0
  6
CONTINUOUS
 62
     2
 10
115.85
 20
127.25
 30
0.0
 11
116.075
 21
127.25
 31
0.0
  0
LINE
  8
0
  6
CONTINUOUS
 62
     2
 10
116.075
 20
127.25
 30
0.0
 11
116.075
 21
131.75
 31
0.0
  0
LINE
  8
0
  6
CONTINUOUS
 62
     2
 10
116.075
 20
131.75
 30
0.0
 11
115.85
 21
131.75
 31
0.0
  0
LINE
  8
0
  6
CONTINUOUS
 62
     2
 10
115.85
 20
131.75
 30
0.0
 11
115.85
 21
127.25
 31
0.0
  0
LINE
  8
0
  6
CONTINUOUS
 62
     2
 10
115.85
 20
130.55
 30
0.0
 11
115.45
 21
130.55
 31
0.0
  0
LINE
  8
0
  6
CONTINUOUS
 62
     2
 10
116.7044
 20
130.55
 30
0.0
 11
116.075
 21
130.55
 31
0.0
  0
LINE
  8
0
  6
CONTINUOUS
 62
     2
 10
115.85
 20
130.325
 30
0.0
 11
115.45
 21
130.325
 31
0.0
  0
LINE
  8
0
  6
CONTINUOUS
 62
     2
 10
116.7044
 20
130.325
 30
0.0
 11
116.075
 21
130.325
 31
0.0
  0
LINE
  8
0
  6
CONTINUOUS
 62
     2
 10
115.85
 20
128.825
 30
0.0
 11
115.45
 21
128.825
 31
0.0
  0
LINE
  8
0
  6
CONTINUOUS
 62
     2
 10
116.7044
 20
128.825
 30
0.0
 11
116.075
 21
128.825
 31
0.0
  0
LINE
  8
0
  6
CONTINUOUS
 62
     2
 10
115.85
 20
128.55
 30
0.0
 11
115.45
 21
128.55
 31
0.0
  0
LINE
  8
0
  6
CONTINUOUS
 62
     2
 10
116.6044
 20
128.55
 30
0.0
 11
116.075
 21
128.55
 31
0.0
  0
LINE
  8
0
  6
CONTINUOUS
 62
     2
 10
120.9
 20
130.55
 30
0.0
 11
120.9
 21
128.55
 31
0.0
  0
POINT
  8
0
  6
CONTINUOUS
 62
     2
 10
165.0
 20
126.1
 30
0.0
  0
LINE
  8
0
  6
LTYPE2
 62
     2
 10
165.0
 20
126.1
 30
0.0
 11
162.5
 21
126.1
 31
0.0
  0
LINE
  8
0
  6
LTYPE2
 62
     2
 10
162.5
 20
126.1
 30
0.0
 11
162.5
 21
123.1
 31
0.0
  0
LINE
  8
0
  6
LTYPE2
 62
     2
 10
165.0
 20
126.1
 30
0.0
 11
165.0
 21
123.1
 31
0.0
  0
LINE
  8
0
  6
CONTINUOUS
 62
     2
 10
163.75
 20
131.525
 30
0.0
 11
161.996298557
 21
130.5125
 31
0.0
  0
LINE
  8
0
  6
CONTINUOUS
 62
     2
 10
161.996298557
 20
130.5125
 30
0.0
 11
161.996298557
 21
128.4875
 31
0.0
  0
LINE
  8
0
  6
CONTINUOUS
 62
     2
 10
161.996298557
 20
128.4875
 30
0.0
 11
163.75
 21
127.475
 31
0.0
  0
LINE
  8
0
  6
CONTINUOUS
 62
     2
 10
163.75
 20
127.475
 30
0.0
 11
165.503701443
 21
128.4875
 31
0.0
  0
LINE
  8
0
  6
CONTINUOUS
 62
     2
 10
165.503701443
 20
128.4875
 30
0.0
 11
165.503701443
 21
130.5125
 31
0.0
  0
LINE
  8
0
  6
CONTINUOUS
 62
     2
 10
165.503701443
 20
130.5125
 30
0.0
 11
163.75
 21
131.525
 31
0.0
  0
CIRCLE
  8
0
  6
CONTINUOUS
 62
     2
 10
163.75
 20
129.5
 30
0.0
 40
0.8
  0
CIRCLE
  8
0
  6
CONTINUOUS
 62
     2
 10
163.75
 20
129.5
 30
0.0
 40
1.0
  0
ARC
  8
0
  6
LTYPE2
 62
     2
 10
163.75
 20
129.5
 30
0.0
 40
1.975
 50
328.025496594
 51
217.415803658
  0
LINE
  8
0
  6
LTYPE2
 62
     2
 10
165.318637944
 20
128.3
 30
0.0
 11
164.66147392
 21
127.350763076
 31
0.0
  0
LINE
  8
0
  6
LTYPE2
 62
     2
 10
162.181362056
 20
128.3
 30
0.0
 11
162.838529527
 21
127.350758098
 31
0.0
  0
ARC
  8
0
  6
LTYPE2
 62
     2
 10
161.194145143
 20
126.21233814
 30
0.0
 40
2.0
 50
10.612929601
 51
34.695153531
  0
ARC
  8
0
  6
LTYPE2
 62
     2
 10
166.305858303
 20
126.212343118
 30
0.0
 40
2.0
 50
145.304846469
 51
169.387402194
  0
LINE
  8
0
  6
LTYPE2
 62
     2
 10
164.340068544
 20
126.580678053
 30
0.0
 11
164.250002697
 21
126.1
 31
0.0
  0
LINE
  8
0
  6
LTYPE2
 62
     2
 10
163.159932769
 20
126.580684458
 30
0.0
 11
163.250002697
 21
126.1
 31
0.0
  0
CIRCLE
  8
0
  6
CONTINUOUS
 62
     2
 10
163.75
 20
129.5
 30
0.0
 40
2.25
  0
POINT
  8
0
  6
CONTINUOUS
 62
     2
 10
177.5
 20
126.1
 30
0.0
  0
LINE
  8
0
  6
LTYPE2
 62
     2
 10
177.5
 20
126.1
 30
0.0
 11
175.0
 21
126.1
 31
0.0
  0
LINE
  8
0
  6
LTYPE2
 62
     2
 10
175.0
 20
126.1
 30
0.0
 11
175.0
 21
123.1
 31
0.0
  0
LINE
  8
0
  6
LTYPE2
 62
     2
 10
177.5
 20
126.1
 30
0.0
 11
177.5
 21
123.1
 31
0.0
  0
LINE
  8
0
  6
CONTINUOUS
 62
     2
 10
176.25
 20
131.525
 30
0.0
 11
174.496298557
 21
130.5125
 31
0.0
  0
LINE
  8
0
  6
CONTINUOUS
 62
     2
 10
174.496298557
 20
130.5125
 30
0.0
 11
174.496298557
 21
128.4875
 31
0.0
  0
LINE
  8
0
  6
CONTINUOUS
 62
     2
 10
174.496298557
 20
128.4875
 30
0.0
 11
176.25
 21
127.475
 31
0.0
  0
LINE
  8
0
  6
CONTINUOUS
 62
     2
 10
176.25
 20
127.475
 30
0.0
 11
178.003701443
 21
128.4875
 31
0.0
  0
LINE
  8
0
  6
CONTINUOUS
 62
     2
 10
178.003701443
 20
128.4875
 30
0.0
 11
178.003701443
 21
130.5125
 31
0.0
  0
LINE
  8
0
  6
CONTINUOUS
 62
     2
 10
178.003701443
 20
130.5125
 30
0.0
 11
176.25
 21
131.525
 31
0.0
  0
CIRCLE
  8
0
  6
CONTINUOUS
 62
     2
 10
176.25
 20
129.5
 30
0.0
 40
0.8
  0
CIRCLE
  8
0
  6
CONTINUOUS
 62
     2
 10
176.25
 20
129.5
 30
0.0
 40
1.0
  0
ARC
  8
0
  6
LTYPE2
 62
     2
 10
176.25
 20
129.5
 30
0.0
 40
1.975
 50
328.025496594
 51
217.415803658
  0
LINE
  8
0
  6
LTYPE2
 62
     2
 10
177.818637944
 20
128.3
 30
0.0
 11
177.16147392
 21
127.350763076
 31
0.0
  0
LINE
  8
0
  6
LTYPE2
 62
     2
 10
174.681362056
 20
128.3
 30
0.0
 11
175.338529527
 21
127.350758098
 31
0.0
  0
ARC
  8
0
  6
LTYPE2
 62
     2
 10
173.694145143
 20
126.21233814
 30
0.0
 40
2.0
 50
10.612929601
 51
34.695153531
  0
ARC
  8
0
  6
LTYPE2
 62
     2
 10
178.805858303
 20
126.212343118
 30
0.0
 40
2.0
 50
145.304846469
 51
169.387402194
  0
LINE
  8
0
  6
LTYPE2
 62
     2
 10
176.840068544
 20
126.580678053
 30
0.0
 11
176.750002697
 21
126.1
 31
0.0
  0
LINE
  8
0
  6
LTYPE2
 62
     2
 10
175.659932769
 20
126.580684458
 30
0.0
 11
175.750002697
 21
126.1
 31
0.0
  0
CIRCLE
  8
0
  6
CONTINUOUS
 62
     2
 10
176.25
 20
129.5
 30
0.0
 40
2.25
  0
TEXT
  8
0
  6
CONTINUOUS
 62
     2
 10
115.15
 20
67.25
 30
0.3
 40
3.0
  1
感度調整用抵抗器は□ＣＦ－１２ＮＶ形に限り付きます。
 50
0.0
 41
0.9
 51
0.0
  7
KANJI1
  0
LINE
  8
0
  6
CONTINUOUS
 62
     2
 10
108.45
 20
66.45
 30
0.0
 11
192.142
 21
66.45
 31
0.0
  0
TEXT
  8
0
  6
CONTINUOUS
 62
     2
 10
58.337169696
 20
90.5
 30
0.3
 40
3.0
  1
機械的零位調整器
 50
0.0
 41
0.9
 51
0.0
  7
KANJI1
  0
LINE
  8
0
  6
CONTINUOUS
 62
     2
 10
58.337169696
 20
89.5
 30
0.0
 11
82.301
 21
89.5
 31
0.0
  0
TEXT
  8
0
  6
CONTINUOUS
 62
     2
 10
126.364431492
 20
147.7
 30
0.3
 40
3.0
  1
（オプション）
 50
0.0
 41
0.6
 51
0.0
  7
KANJI2
  0
TEXT
  8
0
  6
CONTINUOUS
 62
     2
 10
107.7
 20
118.0
 30
0.5
 40
3.0
  1
φ８５
 50
90.0
 41
0.666666667
 51
0.0
  7
KANJI5
  0
TEXT
  8
0
  6
CONTINUOUS
 62
     3
 10
123.0
 20
24.0
 30
0.6
 40
6.0
  1
ＭＳ－１０５８２Ａ
 50
0.0
 41
0.9
 51
0.0
  7
KANJI7
  0
TEXT
  8
0
  6
CONTINUOUS
 62
     1
 10
122.5
 20
34.5
 30
0.35
 40
3.5
  1
配電盤用パネル計器
 50
0.0
 41
0.9
 51
0.0
  7
KANJI8
  0
TEXT
  8
0
  6
CONTINUOUS
 62
     1
 10
123.0
 20
46.0
 30
0.35
 40
3.5
  1
□ＣＦ－１２Ｎ
 50
0.0
 41
0.9
 51
0.0
  7
KANJI8
  0
TEXT
  8
0
  6
CONTINUOUS
 62
     2
 10
122.34677201
 20
39.01928776
 30
0.3
 40
3.0
  1
端子キャップ付（オプション）
 50
0.0
 41
0.9
 51
0.0
  7
KANJI1
  0
LINE
  8
0
  6
LTYPE3
 62
     2
 10
23.224101968
 20
127.0
 30
0.0
 11
80.1
 21
127.0
 31
0.0
  0
LINE
  8
0
  6
LTYPE3
 62
     2
 10
131.4
 20
127.0
 30
0.0
 11
202.0
 21
127.0
 31
0.0
  0
LINE
  8
0
  6
LTYPE3
 62
     2
 10
90.2
 20
127.0
 30
0.0
 11
124.6
 21
127.0
 31
0.0
  0
TEXT
  8
0
  6
CONTINUOUS
 62
     2
 10
177.8
 20
158.0
 30
0.3
 40
1.8
  1
±０．５
 50
0.0
 41
0.666666667
 51
0.0
  7
KANJI4
  0
TEXT
  8
0
  6
CONTINUOUS
 62
     2
 10
173.3
 20
158.0
 30
0.5
 40
3.0
  1
５０
 50
0.0
 41
0.666666667
 51
0.0
  7
KANJI5
  0
ENDSEC
  0
EOF
