  0
SECTION
  2
HEADER
  9
$ACADVER
  1
AC1009
  9
$DWGCODEPAGE
  3
dos932
  9
$EXTMIN
 10
0.0
 20
0.0
 30
0.0
  9
$EXTMAX
 10
297.0
 20
210.0
 30
0.0
  9
$LIMMIN
 10
0.0
 20
0.0
  9
$LIMMAX
 10
297.0
 20
210.0
  9
$LTSCALE
 40
1.0
  9
$PDMODE
 70
     0
  0
ENDSEC
  0
SECTION
  2
TABLES
  0
TABLE
  2
VPORT
 70
     1
  0
VPORT
  2
*ACTIVE
 70
     0
 10
0.0
 20
0.0
 11
1.0
 21
1.0
 12
148.5
 22
105.0
 13
0.0
 23
0.0
 14
10.0
 24
10.0
 15
10.0
 25
10.0
 16
0.0
 26
0.0
 36
1.0
 17
0.0
 27
0.0
 37
0.0
 40
297.0
 41
1.414285714
 42
50.0
 43
0.0
 44
0.0
 50
0.0
 51
0.0
 71
     0
 72
  1000
 73
     1
 74
     3
 75
     0
 76
     0
 77
     0
 78
     0
  0
ENDTAB
  0
TABLE
  2
LTYPE
 70
     3
  0
LTYPE
  2
CONTINUOUS
 70
    64
  3
Solid line
 72
    65
 73
     0
 40
0.0
  0
LTYPE
  2
LTYPE1
 70
    64
  3
CENTER
 72
    65
 73
     4
 40
5.0
 49
3.5
 49
-0.5
 49
0.5
 49
-0.5
  0
LTYPE
  2
LTYPE2
 70
    64
  3
HIDDEN
 72
    65
 73
     2
 40
1.0
 49
0.6
 49
-0.4
  0
ENDTAB
  0
TABLE
  2
LAYER
 70
   128
  0
LAYER
  2
0
 70
     0
 62
     7
  6
CONTINUOUS
  0
LAYER
  2
2
 70
     0
 62
     7
  6
CONTINUOUS
  0
LAYER
  2
3
 70
     0
 62
     7
  6
CONTINUOUS
  0
LAYER
  2
4
 70
     0
 62
     7
  6
CONTINUOUS
  0
LAYER
  2
5
 70
     0
 62
     7
  6
CONTINUOUS
  0
LAYER
  2
6
 70
     0
 62
     7
  6
CONTINUOUS
  0
LAYER
  2
7
 70
     0
 62
     7
  6
CONTINUOUS
  0
LAYER
  2
8
 70
     0
 62
     7
  6
CONTINUOUS
  0
LAYER
  2
9
 70
     0
 62
     7
  6
CONTINUOUS
  0
LAYER
  2
10
 70
     0
 62
     7
  6
CONTINUOUS
  0
LAYER
  2
11
 70
     0
 62
     7
  6
CONTINUOUS
  0
LAYER
  2
12
 70
     0
 62
     7
  6
CONTINUOUS
  0
LAYER
  2
13
 70
     0
 62
     7
  6
CONTINUOUS
  0
LAYER
  2
14
 70
     0
 62
     7
  6
CONTINUOUS
  0
LAYER
  2
15
 70
     0
 62
     7
  6
CONTINUOUS
  0
LAYER
  2
16
 70
     0
 62
     7
  6
CONTINUOUS
  0
LAYER
  2
17
 70
     0
 62
     7
  6
CONTINUOUS
  0
LAYER
  2
18
 70
     0
 62
     7
  6
CONTINUOUS
  0
LAYER
  2
19
 70
     0
 62
     7
  6
CONTINUOUS
  0
LAYER
  2
20
 70
     0
 62
     7
  6
CONTINUOUS
  0
LAYER
  2
21
 70
     0
 62
     7
  6
CONTINUOUS
  0
LAYER
  2
22
 70
     0
 62
     7
  6
CONTINUOUS
  0
LAYER
  2
23
 70
     0
 62
     7
  6
CONTINUOUS
  0
LAYER
  2
24
 70
     0
 62
     7
  6
CONTINUOUS
  0
LAYER
  2
25
 70
     0
 62
     7
  6
CONTINUOUS
  0
LAYER
  2
26
 70
     0
 62
     7
  6
CONTINUOUS
  0
LAYER
  2
27
 70
     0
 62
     7
  6
CONTINUOUS
  0
LAYER
  2
28
 70
     0
 62
     7
  6
CONTINUOUS
  0
LAYER
  2
29
 70
     0
 62
     7
  6
CONTINUOUS
  0
LAYER
  2
30
 70
     0
 62
     7
  6
CONTINUOUS
  0
LAYER
  2
31
 70
     0
 62
     7
  6
CONTINUOUS
  0
LAYER
  2
32
 70
     0
 62
     7
  6
CONTINUOUS
  0
LAYER
  2
33
 70
     0
 62
     7
  6
CONTINUOUS
  0
LAYER
  2
34
 70
     0
 62
     7
  6
CONTINUOUS
  0
LAYER
  2
35
 70
     0
 62
     7
  6
CONTINUOUS
  0
LAYER
  2
36
 70
     0
 62
     7
  6
CONTINUOUS
  0
LAYER
  2
37
 70
     0
 62
     7
  6
CONTINUOUS
  0
LAYER
  2
38
 70
     0
 62
     7
  6
CONTINUOUS
  0
LAYER
  2
39
 70
     0
 62
     7
  6
CONTINUOUS
  0
LAYER
  2
40
 70
     0
 62
     7
  6
CONTINUOUS
  0
LAYER
  2
41
 70
     0
 62
     7
  6
CONTINUOUS
  0
LAYER
  2
42
 70
     0
 62
     7
  6
CONTINUOUS
  0
LAYER
  2
43
 70
     0
 62
     7
  6
CONTINUOUS
  0
LAYER
  2
44
 70
     0
 62
     7
  6
CONTINUOUS
  0
LAYER
  2
45
 70
     0
 62
     7
  6
CONTINUOUS
  0
LAYER
  2
46
 70
     0
 62
     7
  6
CONTINUOUS
  0
LAYER
  2
47
 70
     0
 62
     7
  6
CONTINUOUS
  0
LAYER
  2
48
 70
     0
 62
     7
  6
CONTINUOUS
  0
LAYER
  2
49
 70
     0
 62
     7
  6
CONTINUOUS
  0
LAYER
  2
50
 70
     0
 62
     7
  6
CONTINUOUS
  0
LAYER
  2
51
 70
     0
 62
     7
  6
CONTINUOUS
  0
LAYER
  2
52
 70
     0
 62
     7
  6
CONTINUOUS
  0
LAYER
  2
53
 70
     0
 62
     7
  6
CONTINUOUS
  0
LAYER
  2
54
 70
     0
 62
     7
  6
CONTINUOUS
  0
LAYER
  2
55
 70
     0
 62
     7
  6
CONTINUOUS
  0
LAYER
  2
56
 70
     0
 62
     7
  6
CONTINUOUS
  0
LAYER
  2
57
 70
     0
 62
     7
  6
CONTINUOUS
  0
LAYER
  2
58
 70
     0
 62
     7
  6
CONTINUOUS
  0
LAYER
  2
59
 70
     0
 62
     7
  6
CONTINUOUS
  0
LAYER
  2
60
 70
     0
 62
     7
  6
CONTINUOUS
  0
LAYER
  2
61
 70
     0
 62
     7
  6
CONTINUOUS
  0
LAYER
  2
62
 70
     0
 62
     7
  6
CONTINUOUS
  0
LAYER
  2
63
 70
     0
 62
     7
  6
CONTINUOUS
  0
LAYER
  2
64
 70
     0
 62
     7
  6
CONTINUOUS
  0
LAYER
  2
65
 70
     0
 62
     7
  6
CONTINUOUS
  0
LAYER
  2
66
 70
     0
 62
     7
  6
CONTINUOUS
  0
LAYER
  2
67
 70
     0
 62
     7
  6
CONTINUOUS
  0
LAYER
  2
68
 70
     0
 62
     7
  6
CONTINUOUS
  0
LAYER
  2
69
 70
     0
 62
     7
  6
CONTINUOUS
  0
LAYER
  2
70
 70
     0
 62
     7
  6
CONTINUOUS
  0
LAYER
  2
71
 70
     0
 62
     7
  6
CONTINUOUS
  0
LAYER
  2
72
 70
     0
 62
     7
  6
CONTINUOUS
  0
LAYER
  2
73
 70
     0
 62
     7
  6
CONTINUOUS
  0
LAYER
  2
74
 70
     0
 62
     7
  6
CONTINUOUS
  0
LAYER
  2
75
 70
     0
 62
     7
  6
CONTINUOUS
  0
LAYER
  2
76
 70
     0
 62
     7
  6
CONTINUOUS
  0
LAYER
  2
77
 70
     0
 62
     7
  6
CONTINUOUS
  0
LAYER
  2
78
 70
     0
 62
     7
  6
CONTINUOUS
  0
LAYER
  2
79
 70
     0
 62
     7
  6
CONTINUOUS
  0
LAYER
  2
80
 70
     0
 62
     7
  6
CONTINUOUS
  0
LAYER
  2
81
 70
     0
 62
     7
  6
CONTINUOUS
  0
LAYER
  2
82
 70
     0
 62
     7
  6
CONTINUOUS
  0
LAYER
  2
83
 70
     0
 62
     7
  6
CONTINUOUS
  0
LAYER
  2
84
 70
     0
 62
     7
  6
CONTINUOUS
  0
LAYER
  2
85
 70
     0
 62
     7
  6
CONTINUOUS
  0
LAYER
  2
86
 70
     0
 62
     7
  6
CONTINUOUS
  0
LAYER
  2
87
 70
     0
 62
     7
  6
CONTINUOUS
  0
LAYER
  2
88
 70
     0
 62
     7
  6
CONTINUOUS
  0
LAYER
  2
89
 70
     0
 62
     7
  6
CONTINUOUS
  0
LAYER
  2
90
 70
     0
 62
     7
  6
CONTINUOUS
  0
LAYER
  2
91
 70
     0
 62
     7
  6
CONTINUOUS
  0
LAYER
  2
92
 70
     0
 62
     7
  6
CONTINUOUS
  0
LAYER
  2
93
 70
     0
 62
     7
  6
CONTINUOUS
  0
LAYER
  2
94
 70
     0
 62
     7
  6
CONTINUOUS
  0
LAYER
  2
95
 70
     0
 62
     7
  6
CONTINUOUS
  0
LAYER
  2
96
 70
     0
 62
     7
  6
CONTINUOUS
  0
LAYER
  2
97
 70
     0
 62
     7
  6
CONTINUOUS
  0
LAYER
  2
98
 70
     0
 62
     7
  6
CONTINUOUS
  0
LAYER
  2
99
 70
     0
 62
     7
  6
CONTINUOUS
  0
LAYER
  2
100
 70
     0
 62
     7
  6
CONTINUOUS
  0
LAYER
  2
101
 70
     0
 62
     7
  6
CONTINUOUS
  0
LAYER
  2
102
 70
     0
 62
     7
  6
CONTINUOUS
  0
LAYER
  2
103
 70
     0
 62
     7
  6
CONTINUOUS
  0
LAYER
  2
104
 70
     0
 62
     7
  6
CONTINUOUS
  0
LAYER
  2
105
 70
     0
 62
     7
  6
CONTINUOUS
  0
LAYER
  2
106
 70
     0
 62
     7
  6
CONTINUOUS
  0
LAYER
  2
107
 70
     0
 62
     7
  6
CONTINUOUS
  0
LAYER
  2
108
 70
     0
 62
     7
  6
CONTINUOUS
  0
LAYER
  2
109
 70
     0
 62
     7
  6
CONTINUOUS
  0
LAYER
  2
110
 70
     0
 62
     7
  6
CONTINUOUS
  0
LAYER
  2
111
 70
     0
 62
     7
  6
CONTINUOUS
  0
LAYER
  2
112
 70
     0
 62
     7
  6
CONTINUOUS
  0
LAYER
  2
113
 70
     0
 62
     7
  6
CONTINUOUS
  0
LAYER
  2
114
 70
     0
 62
     7
  6
CONTINUOUS
  0
LAYER
  2
115
 70
     0
 62
     7
  6
CONTINUOUS
  0
LAYER
  2
116
 70
     0
 62
     7
  6
CONTINUOUS
  0
LAYER
  2
117
 70
     0
 62
     7
  6
CONTINUOUS
  0
LAYER
  2
118
 70
     0
 62
     7
  6
CONTINUOUS
  0
LAYER
  2
119
 70
     0
 62
     7
  6
CONTINUOUS
  0
LAYER
  2
120
 70
     0
 62
     7
  6
CONTINUOUS
  0
LAYER
  2
121
 70
     0
 62
     7
  6
CONTINUOUS
  0
LAYER
  2
122
 70
     0
 62
     7
  6
CONTINUOUS
  0
LAYER
  2
123
 70
     0
 62
     7
  6
CONTINUOUS
  0
LAYER
  2
124
 70
     0
 62
     7
  6
CONTINUOUS
  0
LAYER
  2
125
 70
     0
 62
     7
  6
CONTINUOUS
  0
LAYER
  2
126
 70
     0
 62
     7
  6
CONTINUOUS
  0
LAYER
  2
127
 70
     0
 62
     7
  6
CONTINUOUS
  0
LAYER
  2
128
 70
     0
 62
     7
  6
CONTINUOUS
  0
ENDTAB
  0
TABLE
  2
STYLE
 70
    13
  0
STYLE
  2
STANDARD
 70
     0
 40
0.0
 41
1.0
 50
0.0
 71
     0
 42
0.2
  3
txt.shx
  4
extfont.shx
  0
STYLE
  2
KANJI0
 70
     0
 40
4.0
 41
0.9
 50
0.0
 71
     0
 42
4.0
  3
txt.shx
  4
extfont.shx
  0
STYLE
  2
KANJI1
 70
     0
 40
2.5
 41
0.6
 50
0.0
 71
     0
 42
2.5
  3
txt.shx
  4
extfont.shx
  0
STYLE
  2
KANJI2
 70
     0
 40
1.8
 41
0.6
 50
0.0
 71
     0
 42
1.8
  3
txt.shx
  4
extfont.shx
  0
STYLE
  2
KANJI3
 70
     0
 40
3.0
 41
0.6
 50
0.0
 71
     0
 42
3.0
  3
txt.shx
  4
extfont.shx
  0
STYLE
  2
KANJI4
 70
     0
 40
3.0
 41
0.666666667
 50
0.0
 71
     0
 42
3.0
  3
txt.shx
  4
extfont.shx
  0
STYLE
  2
KANJI5
 70
     0
 40
3.0
 41
0.3
 50
0.0
 71
     0
 42
3.0
  3
txt.shx
  4
extfont.shx
  0
STYLE
  2
KANJI6
 70
     0
 40
3.0
 41
0.9
 50
0.0
 71
     0
 42
3.0
  3
txt.shx
  4
extfont.shx
  0
STYLE
  2
KANJI7
 70
     0
 40
3.0
 41
0.9
 50
0.0
 71
     0
 42
3.0
  3
txt.shx
  4
extfont.shx
  0
STYLE
  2
KANJI8
 70
     0
 40
4.0
 41
0.9
 50
0.0
 71
     0
 42
4.0
  3
txt.shx
  4
extfont.shx
  0
STYLE
  2
KANJI9
 70
     0
 40
3.5
 41
0.9
 50
0.0
 71
     0
 42
3.5
  3
txt.shx
  4
extfont.shx
  0
STYLE
  2
KANJI10
 70
     0
 40
3.0
 41
0.9
 50
0.0
 71
     0
 42
3.0
  3
txt.shx
  4
extfont.shx
  0
STYLE
  2
KANJI11
 70
     0
 40
6.0
 41
0.9
 50
0.0
 71
     0
 42
6.0
  3
txt.shx
  4
extfont.shx
  0
ENDTAB
  0
TABLE
  2
VIEW
 70
     0
  0
ENDTAB
  0
ENDSEC
  0
SECTION
  2
BLOCKS
  0
ENDSEC
  0
SECTION
  2
ENTITIES
  0
TEXT
  8
0
  6
CONTINUOUS
 62
     1
 10
33.4575
 20
33.778455967
 30
0.6
 40
4.0
  1
パネルカット
 50
0.0
 41
0.9
 51
0.0
  7
KANJI0
  0
LINE
  8
0
  6
CONTINUOUS
 62
     1
 10
31.6575
 20
33.178455967
 30
0.0
 11
58.2575
 21
33.178455967
 31
0.0
  0
CIRCLE
  8
0
  6
CONTINUOUS
 62
     1
 10
43.986544033
 20
63.538455967
 30
0.0
 40
13.375
  0
CIRCLE
  8
0
  6
CONTINUOUS
 62
     1
 10
31.980798284
 20
52.538455967
 30
0.0
 40
1.0
  0
CIRCLE
  8
0
  6
CONTINUOUS
 62
     1
 10
56.0
 20
52.538455967
 30
0.0
 40
1.0
  0
CIRCLE
  8
0
  6
CONTINUOUS
 62
     1
 10
56.0
 20
76.538455967
 30
0.0
 40
1.0
  0
CIRCLE
  8
0
  6
CONTINUOUS
 62
     1
 10
32.0025
 20
76.538455967
 30
0.0
 40
1.0
  0
ARC
  8
0
  6
CONTINUOUS
 62
     1
 10
29.0
 20
133.75
 30
0.0
 40
1.25
 50
90.0
 51
180.0
  0
LINE
  8
0
  6
CONTINUOUS
 62
     1
 10
29.0
 20
135.0
 30
0.0
 11
59.0
 21
135.0
 31
0.0
  0
ARC
  8
0
  6
CONTINUOUS
 62
     1
 10
59.0
 20
133.75
 30
0.0
 40
1.25
 50
0.0
 51
90.0
  0
LINE
  8
0
  6
CONTINUOUS
 62
     1
 10
27.75
 20
106.25
 30
0.0
 11
27.75
 21
133.75
 31
0.0
  0
ARC
  8
0
  6
CONTINUOUS
 62
     1
 10
29.0
 20
106.25
 30
0.0
 40
1.25
 50
180.0
 51
270.0
  0
LINE
  8
0
  6
CONTINUOUS
 62
     1
 10
60.25
 20
133.75
 30
0.0
 11
60.25
 21
106.25
 31
0.0
  0
LINE
  8
0
  6
CONTINUOUS
 62
     1
 10
59.0
 20
105.0
 30
0.0
 11
29.0
 21
105.0
 31
0.0
  0
ARC
  8
0
  6
CONTINUOUS
 62
     1
 10
59.0
 20
106.25
 30
0.0
 40
1.25
 50
270.0
 51
0.0
  0
ARC
  8
0
  6
CONTINUOUS
 62
     1
 10
165.01
 20
133.75
 30
0.0
 40
1.25
 50
90.0
 51
180.0
  0
LINE
  8
0
  6
CONTINUOUS
 62
     1
 10
163.76
 20
106.25
 30
0.0
 11
163.76
 21
133.75
 31
0.0
  0
ARC
  8
0
  6
CONTINUOUS
 62
     1
 10
165.01
 20
106.25
 30
0.0
 40
1.25
 50
180.0
 51
270.0
  0
LINE
  8
0
  6
CONTINUOUS
 62
     1
 10
195.01
 20
105.0
 30
0.0
 11
165.01
 21
105.0
 31
0.0
  0
ARC
  8
0
  6
CONTINUOUS
 62
     1
 10
195.01
 20
106.25
 30
0.0
 40
1.25
 50
270.0
 51
0.0
  0
LINE
  8
0
  6
CONTINUOUS
 62
     1
 10
165.01
 20
135.0
 30
0.0
 11
195.01
 21
135.0
 31
0.0
  0
LINE
  8
0
  6
CONTINUOUS
 62
     1
 10
196.26
 20
133.75
 30
0.0
 11
196.26
 21
106.25
 31
0.0
  0
ARC
  8
0
  6
CONTINUOUS
 62
     1
 10
195.01
 20
133.75
 30
0.0
 40
1.25
 50
0.0
 51
90.0
  0
CIRCLE
  8
0
  6
CONTINUOUS
 62
     1
 10
180.01
 20
119.0
 30
0.0
 40
13.0
  0
LINE
  8
0
  6
CONTINUOUS
 62
     1
 10
170.875587047
 20
128.25
 30
0.0
 11
189.144412953
 21
128.25
 31
0.0
  0
LINE
  8
0
  6
CONTINUOUS
 62
     1
 10
169.219379073
 20
111.75
 30
0.0
 11
190.800620927
 21
111.75
 31
0.0
  0
LINE
  8
0
  6
CONTINUOUS
 62
     1
 10
93.5
 20
135.0
 30
0.0
 11
88.185330408
 21
134.306782227
 31
0.0
  0
ARC
  8
0
  6
CONTINUOUS
 62
     1
 10
88.25
 20
133.810982022
 30
0.0
 40
0.5
 50
97.431407971
 51
180.0
  0
LINE
  8
0
  6
CONTINUOUS
 62
     1
 10
87.75
 20
133.810982022
 30
0.0
 11
87.75
 21
106.189017978
 31
0.0
  0
LINE
  8
0
  6
CONTINUOUS
 62
     1
 10
88.185330408
 20
105.693217773
 30
0.0
 11
93.5
 21
105.0
 31
0.0
  0
ARC
  8
0
  6
CONTINUOUS
 62
     1
 10
88.25
 20
106.189017978
 30
0.0
 40
0.5
 50
180.0
 51
262.568592029
  0
LINE
  8
0
  6
CONTINUOUS
 62
     1
 10
93.5
 20
135.0
 30
0.0
 11
93.5
 21
105.0
 31
0.0
  0
LINE
  8
0
  6
CONTINUOUS
 62
     1
 10
98.76
 20
132.0
 30
0.0
 11
108.51
 21
132.0
 31
0.0
  0
ARC
  8
0
  6
CONTINUOUS
 62
     1
 10
108.51
 20
131.75
 30
0.0
 40
0.25
 50
0.0
 51
90.0
  0
LINE
  8
0
  6
CONTINUOUS
 62
     1
 10
108.76
 20
131.75
 30
0.0
 11
108.76
 21
106.25
 31
0.0
  0
LINE
  8
0
  6
CONTINUOUS
 62
     1
 10
108.51
 20
106.0
 30
0.0
 11
93.5
 21
106.0
 31
0.0
  0
ARC
  8
0
  6
CONTINUOUS
 62
     1
 10
108.51
 20
106.25
 30
0.0
 40
0.25
 50
270.0
 51
0.0
  0
LINE
  8
0
  6
CONTINUOUS
 62
     1
 10
108.76
 20
128.25
 30
0.0
 11
128.51
 21
128.25
 31
0.0
  0
ARC
  8
0
  6
CONTINUOUS
 62
     1
 10
128.51
 20
128.0
 30
0.0
 40
0.25
 50
0.0
 51
90.0
  0
LINE
  8
0
  6
CONTINUOUS
 62
     1
 10
128.51
 20
111.75
 30
0.0
 11
108.76
 21
111.75
 31
0.0
  0
LINE
  8
0
  6
CONTINUOUS
 62
     1
 10
128.76
 20
128.0
 30
0.0
 11
128.76
 21
112.0
 31
0.0
  0
ARC
  8
0
  6
CONTINUOUS
 62
     1
 10
128.51
 20
112.0
 30
0.0
 40
0.25
 50
270.0
 51
0.0
  0
LINE
  8
0
  6
CONTINUOUS
 62
     2
 10
33.330798284
 20
55.454786779
 30
0.0
 11
35.6457268
 21
56.398770873
 31
0.0
  0
LINE
  8
0
  6
CONTINUOUS
 62
     2
 10
33.330798284
 20
55.454786779
 30
0.0
 11
34.86359314
 21
57.429765242
 31
0.0
  0
LINE
  8
0
  6
CONTINUOUS
 62
     2
 10
54.642289781
 20
71.622125156
 30
0.0
 11
52.327361266
 21
70.678141062
 31
0.0
  0
LINE
  8
0
  6
CONTINUOUS
 62
     2
 10
54.642289781
 20
71.622125156
 30
0.0
 11
53.109494926
 21
69.647146692
 31
0.0
  0
LINE
  8
0
  6
CONTINUOUS
 62
     2
 10
33.330798284
 20
55.454786779
 30
0.0
 11
54.642289781
 21
71.622125156
 31
0.0
  0
TEXT
  8
0
  6
CONTINUOUS
 62
     2
 10
34.282157551
 20
57.535147238
 30
0.25
 40
2.5
  1
φ５３．５
 50
37.184706453
 41
0.6
 51
0.0
  7
KANJI1
  0
TEXT
  8
0
  6
CONTINUOUS
 62
     2
 10
40.062305177
 20
63.161466126
 30
0.18
 40
1.8
  1
＋０．５
 50
37.184706453
 41
0.6
 51
0.0
  7
KANJI2
  0
TEXT
  8
0
  6
CONTINUOUS
 62
     2
 10
41.562305177
 20
61.661466126
 30
0.18
 40
1.8
  1
－０
 50
37.184706453
 41
0.6
 51
0.0
  7
KANJI2
  0
CIRCLE
  8
0
  6
CONTINUOUS
 62
     2
 10
31.500001349
 20
112.75
 30
0.0
 40
1.5
  0
LINE
  8
0
  6
CONTINUOUS
 62
     2
 10
30.625001349
 20
112.95
 30
0.0
 11
31.100001349
 21
112.95
 31
0.0
  0
ARC
  8
0
  6
CONTINUOUS
 62
     2
 10
31.100001349
 20
113.15
 30
0.0
 40
0.2
 50
270.0
 51
0.0
  0
LINE
  8
0
  6
CONTINUOUS
 62
     2
 10
31.300001349
 20
113.15
 30
0.0
 11
31.300001349
 21
113.625
 31
0.0
  0
LINE
  8
0
  6
CONTINUOUS
 62
     2
 10
31.300001349
 20
113.625
 30
0.0
 11
31.700001349
 21
113.625
 31
0.0
  0
LINE
  8
0
  6
CONTINUOUS
 62
     2
 10
31.700001349
 20
113.625
 30
0.0
 11
31.700001349
 21
113.15
 31
0.0
  0
ARC
  8
0
  6
CONTINUOUS
 62
     2
 10
31.900001349
 20
113.15
 30
0.0
 40
0.2
 50
180.0
 51
270.0
  0
LINE
  8
0
  6
CONTINUOUS
 62
     2
 10
31.900001349
 20
112.95
 30
0.0
 11
32.375001349
 21
112.95
 31
0.0
  0
LINE
  8
0
  6
CONTINUOUS
 62
     2
 10
32.375001349
 20
112.95
 30
0.0
 11
32.375001349
 21
112.55
 31
0.0
  0
LINE
  8
0
  6
CONTINUOUS
 62
     2
 10
32.375001349
 20
112.55
 30
0.0
 11
31.900001349
 21
112.55
 31
0.0
  0
ARC
  8
0
  6
CONTINUOUS
 62
     2
 10
31.900001349
 20
112.35
 30
0.0
 40
0.2
 50
90.0
 51
180.0
  0
LINE
  8
0
  6
CONTINUOUS
 62
     2
 10
31.700001349
 20
112.35
 30
0.0
 11
31.700001349
 21
111.875
 31
0.0
  0
LINE
  8
0
  6
CONTINUOUS
 62
     2
 10
31.700001349
 20
111.875
 30
0.0
 11
31.300001349
 21
111.875
 31
0.0
  0
LINE
  8
0
  6
CONTINUOUS
 62
     2
 10
31.300001349
 20
111.875
 30
0.0
 11
31.300001349
 21
112.35
 31
0.0
  0
ARC
  8
0
  6
CONTINUOUS
 62
     2
 10
31.100001349
 20
112.35
 30
0.0
 40
0.2
 50
0.0
 51
90.0
  0
LINE
  8
0
  6
CONTINUOUS
 62
     2
 10
31.100001349
 20
112.55
 30
0.0
 11
30.625001349
 21
112.55
 31
0.0
  0
LINE
  8
0
  6
CONTINUOUS
 62
     2
 10
30.625001349
 20
112.55
 30
0.0
 11
30.625001349
 21
112.95
 31
0.0
  0
CIRCLE
  8
0
  6
CONTINUOUS
 62
     2
 10
56.500001349
 20
112.75
 30
0.0
 40
1.5
  0
LINE
  8
0
  6
CONTINUOUS
 62
     2
 10
55.625001349
 20
112.95
 30
0.0
 11
56.100001349
 21
112.95
 31
0.0
  0
ARC
  8
0
  6
CONTINUOUS
 62
     2
 10
56.100001349
 20
113.15
 30
0.0
 40
0.2
 50
270.0
 51
0.0
  0
LINE
  8
0
  6
CONTINUOUS
 62
     2
 10
56.300001349
 20
113.15
 30
0.0
 11
56.300001349
 21
113.625
 31
0.0
  0
LINE
  8
0
  6
CONTINUOUS
 62
     2
 10
56.300001349
 20
113.625
 30
0.0
 11
56.700001349
 21
113.625
 31
0.0
  0
LINE
  8
0
  6
CONTINUOUS
 62
     2
 10
56.700001349
 20
113.625
 30
0.0
 11
56.700001349
 21
113.15
 31
0.0
  0
ARC
  8
0
  6
CONTINUOUS
 62
     2
 10
56.900001349
 20
113.15
 30
0.0
 40
0.2
 50
180.0
 51
270.0
  0
LINE
  8
0
  6
CONTINUOUS
 62
     2
 10
56.900001349
 20
112.95
 30
0.0
 11
57.375001349
 21
112.95
 31
0.0
  0
LINE
  8
0
  6
CONTINUOUS
 62
     2
 10
57.375001349
 20
112.95
 30
0.0
 11
57.375001349
 21
112.55
 31
0.0
  0
LINE
  8
0
  6
CONTINUOUS
 62
     2
 10
57.375001349
 20
112.55
 30
0.0
 11
56.900001349
 21
112.55
 31
0.0
  0
ARC
  8
0
  6
CONTINUOUS
 62
     2
 10
56.900001349
 20
112.35
 30
0.0
 40
0.2
 50
90.0
 51
180.0
  0
LINE
  8
0
  6
CONTINUOUS
 62
     2
 10
56.700001349
 20
112.35
 30
0.0
 11
56.700001349
 21
111.875
 31
0.0
  0
LINE
  8
0
  6
CONTINUOUS
 62
     2
 10
56.700001349
 20
111.875
 30
0.0
 11
56.300001349
 21
111.875
 31
0.0
  0
LINE
  8
0
  6
CONTINUOUS
 62
     2
 10
56.300001349
 20
111.875
 30
0.0
 11
56.300001349
 21
112.35
 31
0.0
  0
ARC
  8
0
  6
CONTINUOUS
 62
     2
 10
56.100001349
 20
112.35
 30
0.0
 40
0.2
 50
0.0
 51
90.0
  0
LINE
  8
0
  6
CONTINUOUS
 62
     2
 10
56.100001349
 20
112.55
 30
0.0
 11
55.625001349
 21
112.55
 31
0.0
  0
LINE
  8
0
  6
CONTINUOUS
 62
     2
 10
55.625001349
 20
112.55
 30
0.0
 11
55.625001349
 21
112.95
 31
0.0
  0
LINE
  8
0
  6
CONTINUOUS
 62
     2
 10
58.65
 20
117.0
 30
0.0
 11
29.35
 21
117.0
 31
0.0
  0
ARC
  8
0
  6
CONTINUOUS
 62
     2
 10
29.0
 20
133.75
 30
0.0
 40
0.5
 50
90.0
 51
180.0
  0
LINE
  8
0
  6
CONTINUOUS
 62
     2
 10
29.35
 20
132.9
 30
0.0
 11
29.35
 21
117.0
 31
0.0
  0
ARC
  8
0
  6
CONTINUOUS
 62
     2
 10
29.85
 20
132.9
 30
0.0
 40
0.5
 50
90.0
 51
180.0
  0
LINE
  8
0
  6
CONTINUOUS
 62
     2
 10
58.65
 20
132.9
 30
0.0
 11
58.65
 21
117.0
 31
0.0
  0
LINE
  8
0
  6
CONTINUOUS
 62
     2
 10
29.85
 20
133.4
 30
0.0
 11
58.15
 21
133.4
 31
0.0
  0
ARC
  8
0
  6
CONTINUOUS
 62
     2
 10
58.15
 20
132.9
 30
0.0
 40
0.5
 50
0.0
 51
90.0
  0
LINE
  8
0
  6
CONTINUOUS
 62
     2
 10
29.0
 20
134.25
 30
0.0
 11
59.0
 21
134.25
 31
0.0
  0
ARC
  8
0
  6
CONTINUOUS
 62
     2
 10
59.0
 20
133.75
 30
0.0
 40
0.5
 50
0.0
 51
90.0
  0
LINE
  8
0
  6
CONTINUOUS
 62
     2
 10
59.5
 20
133.75
 30
0.0
 11
59.5
 21
106.25
 31
0.0
  0
ARC
  8
0
  6
CONTINUOUS
 62
     2
 10
59.0
 20
106.25
 30
0.0
 40
0.5
 50
270.0
 51
0.0
  0
LINE
  8
0
  6
CONTINUOUS
 62
     2
 10
28.5
 20
106.25
 30
0.0
 11
28.5
 21
133.75
 31
0.0
  0
LINE
  8
0
  6
CONTINUOUS
 62
     2
 10
59.0
 20
105.75
 30
0.0
 11
29.0
 21
105.75
 31
0.0
  0
ARC
  8
0
  6
CONTINUOUS
 62
     2
 10
29.0
 20
106.25
 30
0.0
 40
0.5
 50
180.0
 51
270.0
  0
LINE
  8
0
  6
CONTINUOUS
 62
     2
 10
30.986544033
 20
125.763455967
 30
0.0
 11
39.204718295
 21
117.0
 31
0.0
  0
LINE
  8
0
  6
CONTINUOUS
 62
     2
 10
31.036544033
 20
125.813455967
 30
0.0
 11
40.414216828
 21
117.0
 31
0.0
  0
CIRCLE
  8
0
  6
CONTINUOUS
 62
     2
 10
44.0
 20
113.0
 30
0.0
 40
1.5
  0
CIRCLE
  8
0
  6
CONTINUOUS
 62
     2
 10
44.0
 20
113.0
 30
0.0
 40
1.375
  0
LINE
  8
0
  6
CONTINUOUS
 62
     2
 10
42.647918272
 20
113.25
 30
0.0
 11
45.352081728
 21
113.25
 31
0.0
  0
LINE
  8
0
  6
CONTINUOUS
 62
     2
 10
42.647918272
 20
112.75
 30
0.0
 11
45.352081728
 21
112.75
 31
0.0
  0
LINE
  8
0
  6
CONTINUOUS
 62
     2
 10
50.175694704
 20
128.301414801
 30
0.0
 11
50.452858564
 21
128.186609772
 31
0.0
  0
LINE
  8
0
  6
CONTINUOUS
 62
     2
 10
50.175694704
 20
128.301414801
 30
0.0
 11
45.353446955
 21
117.0
 31
0.0
  0
LINE
  8
0
  6
CONTINUOUS
 62
     2
 10
45.957607362
 20
117.0
 30
0.0
 11
50.452858564
 21
128.186609772
 31
0.0
  0
LINE
  8
0
  6
CONTINUOUS
 62
     2
 10
32.0
 20
82.538455967
 30
0.0
 11
34.414814566
 21
81.891408355
 31
0.0
  0
LINE
  8
0
  6
CONTINUOUS
 62
     2
 10
32.0
 20
82.538455967
 30
0.0
 11
34.414814566
 21
83.18550358
 31
0.0
  0
LINE
  8
0
  6
CONTINUOUS
 62
     2
 10
32.0
 20
82.538455967
 30
0.0
 11
44.0
 21
82.538455967
 31
0.0
  0
LINE
  8
0
  6
CONTINUOUS
 62
     2
 10
44.0
 20
82.538455967
 30
0.0
 11
41.585185434
 21
83.18550358
 31
0.0
  0
LINE
  8
0
  6
CONTINUOUS
 62
     2
 10
44.0
 20
82.538455967
 30
0.0
 11
41.585185434
 21
81.891408355
 31
0.0
  0
TEXT
  8
0
  6
CONTINUOUS
 62
     2
 10
33.62
 20
83.538455967
 30
0.3
 40
3.0
  1
２４
 50
0.0
 41
0.6
 51
0.0
  7
KANJI3
  0
TEXT
  8
0
  6
CONTINUOUS
 62
     2
 10
37.52
 20
83.538455967
 30
0.18
 40
1.8
  1
±０．５
 50
0.0
 41
0.6
 51
0.0
  7
KANJI2
  0
LINE
  8
0
  6
CONTINUOUS
 62
     2
 10
44.0
 20
82.538455967
 30
0.0
 11
46.414814566
 21
81.891408355
 31
0.0
  0
LINE
  8
0
  6
CONTINUOUS
 62
     2
 10
44.0
 20
82.538455967
 30
0.0
 11
46.414814566
 21
83.18550358
 31
0.0
  0
LINE
  8
0
  6
CONTINUOUS
 62
     2
 10
44.0
 20
82.538455967
 30
0.0
 11
55.9995
 21
82.538455967
 31
0.0
  0
LINE
  8
0
  6
CONTINUOUS
 62
     2
 10
55.9995
 20
82.538455967
 30
0.0
 11
53.584685434
 21
83.18550358
 31
0.0
  0
LINE
  8
0
  6
CONTINUOUS
 62
     2
 10
55.9995
 20
82.538455967
 30
0.0
 11
53.584685434
 21
81.891408355
 31
0.0
  0
TEXT
  8
0
  6
CONTINUOUS
 62
     2
 10
45.61975
 20
83.538455967
 30
0.3
 40
3.0
  1
２４
 50
0.0
 41
0.6
 51
0.0
  7
KANJI3
  0
TEXT
  8
0
  6
CONTINUOUS
 62
     2
 10
49.51975
 20
83.538455967
 30
0.18
 40
1.8
  1
±０．５
 50
0.0
 41
0.6
 51
0.0
  7
KANJI2
  0
LINE
  8
0
  6
CONTINUOUS
 62
     2
 10
32.0025
 20
79.538455967
 30
0.0
 11
32.0
 21
84.538455967
 31
0.0
  0
LINE
  8
0
  6
CONTINUOUS
 62
     2
 10
56.0
 20
79.538455967
 30
0.0
 11
56.0
 21
84.538455967
 31
0.0
  0
LINE
  8
0
  6
CONTINUOUS
 62
     2
 10
62.0
 20
76.538455967
 30
0.0
 11
61.352952387
 21
74.123641402
 31
0.0
  0
LINE
  8
0
  6
CONTINUOUS
 62
     2
 10
62.0
 20
76.538455967
 30
0.0
 11
62.647047613
 21
74.123641402
 31
0.0
  0
LINE
  8
0
  6
CONTINUOUS
 62
     2
 10
62.0
 20
76.538455967
 30
0.0
 11
62.0
 21
63.538455967
 31
0.0
  0
LINE
  8
0
  6
CONTINUOUS
 62
     2
 10
62.0
 20
63.538455967
 30
0.0
 11
62.647047613
 21
65.953270533
 31
0.0
  0
LINE
  8
0
  6
CONTINUOUS
 62
     2
 10
62.0
 20
63.538455967
 30
0.0
 11
61.352952387
 21
65.953270533
 31
0.0
  0
TEXT
  8
0
  6
CONTINUOUS
 62
     2
 10
61.0
 20
65.658455967
 30
0.3
 40
3.0
  1
２６
 50
90.0
 41
0.6
 51
0.0
  7
KANJI3
  0
TEXT
  8
0
  6
CONTINUOUS
 62
     2
 10
61.0
 20
69.558455967
 30
0.18
 40
1.8
  1
±０．５
 50
90.0
 41
0.6
 51
0.0
  7
KANJI2
  0
LINE
  8
0
  6
CONTINUOUS
 62
     2
 10
62.0
 20
63.538455967
 30
0.0
 11
61.352952387
 21
61.123641402
 31
0.0
  0
LINE
  8
0
  6
CONTINUOUS
 62
     2
 10
62.0
 20
63.538455967
 30
0.0
 11
62.647047613
 21
61.123641402
 31
0.0
  0
LINE
  8
0
  6
CONTINUOUS
 62
     2
 10
62.0
 20
63.538455967
 30
0.0
 11
62.0
 21
52.538455967
 31
0.0
  0
LINE
  8
0
  6
CONTINUOUS
 62
     2
 10
62.0
 20
52.538455967
 30
0.0
 11
62.647047613
 21
54.953270533
 31
0.0
  0
LINE
  8
0
  6
CONTINUOUS
 62
     2
 10
62.0
 20
52.538455967
 30
0.0
 11
61.352952387
 21
54.953270533
 31
0.0
  0
TEXT
  8
0
  6
CONTINUOUS
 62
     2
 10
61.0
 20
53.658455967
 30
0.3
 40
3.0
  1
２２
 50
90.0
 41
0.6
 51
0.0
  7
KANJI3
  0
TEXT
  8
0
  6
CONTINUOUS
 62
     2
 10
61.0
 20
57.558455967
 30
0.18
 40
1.8
  1
±０．５
 50
90.0
 41
0.6
 51
0.0
  7
KANJI2
  0
LINE
  8
0
  6
CONTINUOUS
 62
     2
 10
59.0
 20
76.538455967
 30
0.0
 11
64.0
 21
76.538455967
 31
0.0
  0
LINE
  8
0
  6
CONTINUOUS
 62
     2
 10
59.0
 20
52.538455967
 30
0.0
 11
64.0
 21
52.538455967
 31
0.0
  0
LINE
  8
0
  6
LTYPE1
 62
     2
 10
29.5025
 20
76.538455967
 30
0.0
 11
34.5025
 21
76.538455967
 31
0.0
  0
LINE
  8
0
  6
LTYPE1
 62
     2
 10
32.0025
 20
79.038455967
 30
0.0
 11
32.0025
 21
74.038455967
 31
0.0
  0
LINE
  8
0
  6
LTYPE1
 62
     2
 10
53.5
 20
76.538455967
 30
0.0
 11
58.5
 21
76.538455967
 31
0.0
  0
LINE
  8
0
  6
LTYPE1
 62
     2
 10
56.0
 20
79.038455967
 30
0.0
 11
56.0
 21
74.038455967
 31
0.0
  0
LINE
  8
0
  6
LTYPE1
 62
     2
 10
56.0
 20
55.038455967
 30
0.0
 11
56.0
 21
50.038455967
 31
0.0
  0
LINE
  8
0
  6
LTYPE1
 62
     2
 10
53.5
 20
52.538455967
 30
0.0
 11
58.5
 21
52.538455967
 31
0.0
  0
LINE
  8
0
  6
LTYPE1
 62
     2
 10
29.480798284
 20
52.538455967
 30
0.0
 11
34.480798284
 21
52.538455967
 31
0.0
  0
LINE
  8
0
  6
LTYPE1
 62
     2
 10
31.980798284
 20
55.038455967
 30
0.0
 11
31.980798284
 21
50.038455967
 31
0.0
  0
LINE
  8
0
  6
LTYPE1
 62
     2
 10
31.500001349
 20
114.75
 30
0.0
 11
31.500001349
 21
110.75
 31
0.0
  0
LINE
  8
0
  6
LTYPE1
 62
     2
 10
29.500001349
 20
112.75
 30
0.0
 11
33.500001349
 21
112.75
 31
0.0
  0
LINE
  8
0
  6
LTYPE1
 62
     2
 10
40.8
 20
108.25
 30
0.0
 11
47.2
 21
108.25
 31
0.0
  0
LINE
  8
0
  6
LTYPE1
 62
     2
 10
54.500001349
 20
112.75
 30
0.0
 11
58.500001349
 21
112.75
 31
0.0
  0
LINE
  8
0
  6
LTYPE1
 62
     2
 10
56.500001349
 20
114.75
 30
0.0
 11
56.500001349
 21
110.75
 31
0.0
  0
LINE
  8
0
  6
CONTINUOUS
 62
     2
 10
44.0
 20
79.538455967
 30
0.0
 11
44.0
 21
84.538455967
 31
0.0
  0
LINE
  8
0
  6
CONTINUOUS
 62
     2
 10
59.0
 20
63.538455967
 30
0.0
 11
64.0
 21
63.538455967
 31
0.0
  0
ARC
  8
0
  6
CONTINUOUS
 62
     2
 10
195.01
 20
133.75
 30
0.0
 40
0.5
 50
0.0
 51
90.0
  0
LINE
  8
0
  6
CONTINUOUS
 62
     2
 10
165.01
 20
134.25
 30
0.0
 11
195.01
 21
134.25
 31
0.0
  0
ARC
  8
0
  6
CONTINUOUS
 62
     2
 10
165.01
 20
133.75
 30
0.0
 40
0.5
 50
90.0
 51
180.0
  0
LINE
  8
0
  6
CONTINUOUS
 62
     2
 10
164.51
 20
106.25
 30
0.0
 11
164.51
 21
133.75
 31
0.0
  0
ARC
  8
0
  6
CONTINUOUS
 62
     2
 10
165.01
 20
106.25
 30
0.0
 40
0.5
 50
180.0
 51
270.0
  0
LINE
  8
0
  6
CONTINUOUS
 62
     2
 10
195.51
 20
133.75
 30
0.0
 11
195.51
 21
106.25
 31
0.0
  0
LINE
  8
0
  6
CONTINUOUS
 62
     2
 10
195.01
 20
105.75
 30
0.0
 11
165.01
 21
105.75
 31
0.0
  0
ARC
  8
0
  6
CONTINUOUS
 62
     2
 10
195.01
 20
106.25
 30
0.0
 40
0.5
 50
270.0
 51
0.0
  0
LINE
  8
0
  6
CONTINUOUS
 62
     2
 10
162.01
 20
120.0
 30
0.0
 11
162.657047613
 21
122.414814566
 31
0.0
  0
LINE
  8
0
  6
CONTINUOUS
 62
     2
 10
162.01
 20
120.0
 30
0.0
 11
161.362952387
 21
122.414814566
 31
0.0
  0
LINE
  8
0
  6
CONTINUOUS
 62
     2
 10
162.01
 20
126.8
 30
0.0
 11
162.01
 21
114.0
 31
0.0
  0
LINE
  8
0
  6
CONTINUOUS
 62
     2
 10
162.01
 20
119.0
 30
0.0
 11
161.362952387
 21
116.585185434
 31
0.0
  0
LINE
  8
0
  6
CONTINUOUS
 62
     2
 10
162.01
 20
119.0
 30
0.0
 11
162.657047613
 21
116.585185434
 31
0.0
  0
TEXT
  8
0
  6
CONTINUOUS
 62
     2
 10
161.01
 20
125.0
 30
0.3
 40
3.0
  1
２
 50
90.0
 41
0.6
 51
0.0
  7
KANJI3
  0
CIRCLE
  8
0
  6
CONTINUOUS
 62
     2
 10
168.01
 20
132.0
 30
0.0
 40
2.0
  0
CIRCLE
  8
0
  6
CONTINUOUS
 62
     2
 10
168.01
 20
132.0
 30
0.0
 40
0.75
  0
LINE
  8
0
  6
CONTINUOUS
 62
     2
 10
168.01
 20
133.6
 30
0.0
 11
166.624359354
 21
132.8
 31
0.0
  0
LINE
  8
0
  6
CONTINUOUS
 62
     2
 10
166.624359354
 20
132.8
 30
0.0
 11
166.624359354
 21
131.2
 31
0.0
  0
LINE
  8
0
  6
CONTINUOUS
 62
     2
 10
166.624359354
 20
131.2
 30
0.0
 11
168.01
 21
130.4
 31
0.0
  0
LINE
  8
0
  6
CONTINUOUS
 62
     2
 10
168.01
 20
130.4
 30
0.0
 11
169.395640646
 21
131.2
 31
0.0
  0
LINE
  8
0
  6
CONTINUOUS
 62
     2
 10
169.395640646
 20
131.2
 30
0.0
 11
169.395640646
 21
132.8
 31
0.0
  0
LINE
  8
0
  6
CONTINUOUS
 62
     2
 10
169.395640646
 20
132.8
 30
0.0
 11
168.01
 21
133.6
 31
0.0
  0
CIRCLE
  8
0
  6
CONTINUOUS
 62
     2
 10
168.01
 20
108.0
 30
0.0
 40
2.0
  0
CIRCLE
  8
0
  6
CONTINUOUS
 62
     2
 10
168.01
 20
108.0
 30
0.0
 40
0.75
  0
LINE
  8
0
  6
CONTINUOUS
 62
     2
 10
168.01
 20
109.6
 30
0.0
 11
166.624359354
 21
108.8
 31
0.0
  0
LINE
  8
0
  6
CONTINUOUS
 62
     2
 10
166.624359354
 20
108.8
 30
0.0
 11
166.624359354
 21
107.2
 31
0.0
  0
LINE
  8
0
  6
CONTINUOUS
 62
     2
 10
166.624359354
 20
107.2
 30
0.0
 11
168.01
 21
106.4
 31
0.0
  0
LINE
  8
0
  6
CONTINUOUS
 62
     2
 10
168.01
 20
106.4
 30
0.0
 11
169.395640646
 21
107.2
 31
0.0
  0
LINE
  8
0
  6
CONTINUOUS
 62
     2
 10
169.395640646
 20
107.2
 30
0.0
 11
169.395640646
 21
108.8
 31
0.0
  0
LINE
  8
0
  6
CONTINUOUS
 62
     2
 10
169.395640646
 20
108.8
 30
0.0
 11
168.01
 21
109.6
 31
0.0
  0
CIRCLE
  8
0
  6
CONTINUOUS
 62
     2
 10
192.01
 20
108.0
 30
0.0
 40
2.0
  0
CIRCLE
  8
0
  6
CONTINUOUS
 62
     2
 10
192.01
 20
108.0
 30
0.0
 40
0.75
  0
LINE
  8
0
  6
CONTINUOUS
 62
     2
 10
192.01
 20
109.6
 30
0.0
 11
190.624359354
 21
108.8
 31
0.0
  0
LINE
  8
0
  6
CONTINUOUS
 62
     2
 10
190.624359354
 20
108.8
 30
0.0
 11
190.624359354
 21
107.2
 31
0.0
  0
LINE
  8
0
  6
CONTINUOUS
 62
     2
 10
190.624359354
 20
107.2
 30
0.0
 11
192.01
 21
106.4
 31
0.0
  0
LINE
  8
0
  6
CONTINUOUS
 62
     2
 10
192.01
 20
106.4
 30
0.0
 11
193.395640646
 21
107.2
 31
0.0
  0
LINE
  8
0
  6
CONTINUOUS
 62
     2
 10
193.395640646
 20
107.2
 30
0.0
 11
193.395640646
 21
108.8
 31
0.0
  0
LINE
  8
0
  6
CONTINUOUS
 62
     2
 10
193.395640646
 20
108.8
 30
0.0
 11
192.01
 21
109.6
 31
0.0
  0
CIRCLE
  8
0
  6
CONTINUOUS
 62
     2
 10
192.01
 20
132.0
 30
0.0
 40
2.0
  0
CIRCLE
  8
0
  6
CONTINUOUS
 62
     2
 10
192.01
 20
132.0
 30
0.0
 40
0.75
  0
LINE
  8
0
  6
CONTINUOUS
 62
     2
 10
192.01
 20
133.6
 30
0.0
 11
190.624359354
 21
132.8
 31
0.0
  0
LINE
  8
0
  6
CONTINUOUS
 62
     2
 10
190.624359354
 20
132.8
 30
0.0
 11
190.624359354
 21
131.2
 31
0.0
  0
LINE
  8
0
  6
CONTINUOUS
 62
     2
 10
190.624359354
 20
131.2
 30
0.0
 11
192.01
 21
130.4
 31
0.0
  0
LINE
  8
0
  6
CONTINUOUS
 62
     2
 10
192.01
 20
130.4
 30
0.0
 11
193.395640646
 21
131.2
 31
0.0
  0
LINE
  8
0
  6
CONTINUOUS
 62
     2
 10
193.395640646
 20
131.2
 30
0.0
 11
193.395640646
 21
132.8
 31
0.0
  0
LINE
  8
0
  6
CONTINUOUS
 62
     2
 10
193.395640646
 20
132.8
 30
0.0
 11
192.01
 21
133.6
 31
0.0
  0
ARC
  8
0
  6
LTYPE2
 62
     2
 10
173.26
 20
122.25
 30
0.0
 40
3.0
 50
90.0
 51
180.0
  0
LINE
  8
0
  6
LTYPE2
 62
     2
 10
170.26
 20
116.75
 30
0.0
 11
170.26
 21
122.25
 31
0.0
  0
LINE
  8
0
  6
LTYPE2
 62
     2
 10
186.76
 20
113.75
 30
0.0
 11
173.26
 21
113.75
 31
0.0
  0
ARC
  8
0
  6
LTYPE2
 62
     2
 10
173.26
 20
116.75
 30
0.0
 40
3.0
 50
180.0
 51
270.0
  0
LINE
  8
0
  6
LTYPE2
 62
     2
 10
173.285
 20
125.25
 30
0.0
 11
186.76
 21
125.25
 31
0.0
  0
ARC
  8
0
  6
LTYPE2
 62
     2
 10
186.76
 20
122.25
 30
0.0
 40
3.0
 50
0.0
 51
90.0
  0
ARC
  8
0
  6
LTYPE2
 62
     2
 10
186.76
 20
116.75
 30
0.0
 40
3.0
 50
270.0
 51
0.0
  0
LINE
  8
0
  6
LTYPE2
 62
     2
 10
189.76
 20
122.25
 30
0.0
 11
189.76
 21
116.75
 31
0.0
  0
POINT
  8
0
  6
CONTINUOUS
 62
     2
 10
175.01
 20
118.35
 30
0.0
  0
POINT
  8
0
  6
CONTINUOUS
 62
     2
 10
187.51
 20
118.35
 30
0.0
  0
LINE
  8
0
  6
LTYPE2
 62
     2
 10
175.01
 20
118.35
 30
0.0
 11
172.51
 21
118.35
 31
0.0
  0
LINE
  8
0
  6
LTYPE2
 62
     2
 10
172.51
 20
118.35
 30
0.0
 11
172.51
 21
115.35
 31
0.0
  0
LINE
  8
0
  6
LTYPE2
 62
     2
 10
175.01
 20
118.35
 30
0.0
 11
175.01
 21
115.35
 31
0.0
  0
LINE
  8
0
  6
LTYPE2
 62
     2
 10
187.51
 20
118.35
 30
0.0
 11
185.01
 21
118.35
 31
0.0
  0
LINE
  8
0
  6
LTYPE2
 62
     2
 10
185.01
 20
118.35
 30
0.0
 11
185.01
 21
115.35
 31
0.0
  0
LINE
  8
0
  6
LTYPE2
 62
     2
 10
187.51
 20
118.35
 30
0.0
 11
187.51
 21
115.35
 31
0.0
  0
LINE
  8
0
  6
LTYPE1
 62
     2
 10
170.76
 20
121.75
 30
0.0
 11
176.76
 21
121.75
 31
0.0
  0
LINE
  8
0
  6
LTYPE1
 62
     2
 10
173.76
 20
124.75
 30
0.0
 11
173.76
 21
118.75
 31
0.0
  0
LINE
  8
0
  6
LTYPE1
 62
     2
 10
183.26
 20
121.75
 30
0.0
 11
189.26
 21
121.75
 31
0.0
  0
LINE
  8
0
  6
LTYPE1
 62
     2
 10
186.26
 20
124.75
 30
0.0
 11
186.26
 21
118.75
 31
0.0
  0
LINE
  8
0
  6
CONTINUOUS
 62
     2
 10
168.01
 20
140.0
 30
0.0
 11
170.424814566
 21
139.352952387
 31
0.0
  0
LINE
  8
0
  6
CONTINUOUS
 62
     2
 10
168.01
 20
140.0
 30
0.0
 11
170.424814566
 21
140.647047613
 31
0.0
  0
LINE
  8
0
  6
CONTINUOUS
 62
     2
 10
168.01
 20
140.0
 30
0.0
 11
180.01
 21
140.0
 31
0.0
  0
LINE
  8
0
  6
CONTINUOUS
 62
     2
 10
180.01
 20
140.0
 30
0.0
 11
177.595185434
 21
140.647047613
 31
0.0
  0
LINE
  8
0
  6
CONTINUOUS
 62
     2
 10
180.01
 20
140.0
 30
0.0
 11
177.595185434
 21
139.352952387
 31
0.0
  0
TEXT
  8
0
  6
CONTINUOUS
 62
     2
 10
169.63
 20
141.0
 30
0.3
 40
3.0
  1
２４
 50
0.0
 41
0.6
 51
0.0
  7
KANJI3
  0
TEXT
  8
0
  6
CONTINUOUS
 62
     2
 10
173.53
 20
141.0
 30
0.18
 40
1.8
  1
±０．５
 50
0.0
 41
0.6
 51
0.0
  7
KANJI2
  0
LINE
  8
0
  6
CONTINUOUS
 62
     2
 10
180.01
 20
140.0
 30
0.0
 11
182.424814566
 21
139.352952387
 31
0.0
  0
LINE
  8
0
  6
CONTINUOUS
 62
     2
 10
180.01
 20
140.0
 30
0.0
 11
182.424814566
 21
140.647047613
 31
0.0
  0
LINE
  8
0
  6
CONTINUOUS
 62
     2
 10
180.01
 20
140.0
 30
0.0
 11
192.01
 21
140.0
 31
0.0
  0
LINE
  8
0
  6
CONTINUOUS
 62
     2
 10
192.01
 20
140.0
 30
0.0
 11
189.595185434
 21
140.647047613
 31
0.0
  0
LINE
  8
0
  6
CONTINUOUS
 62
     2
 10
192.01
 20
140.0
 30
0.0
 11
189.595185434
 21
139.352952387
 31
0.0
  0
TEXT
  8
0
  6
CONTINUOUS
 62
     2
 10
181.63
 20
141.0
 30
0.3
 40
3.0
  1
２４
 50
0.0
 41
0.6
 51
0.0
  7
KANJI3
  0
TEXT
  8
0
  6
CONTINUOUS
 62
     2
 10
185.53
 20
141.0
 30
0.18
 40
1.8
  1
±０．５
 50
0.0
 41
0.6
 51
0.0
  7
KANJI2
  0
LINE
  8
0
  6
CONTINUOUS
 62
     2
 10
201.26
 20
132.0
 30
0.0
 11
200.612952387
 21
129.585185434
 31
0.0
  0
LINE
  8
0
  6
CONTINUOUS
 62
     2
 10
201.26
 20
132.0
 30
0.0
 11
201.907047613
 21
129.585185434
 31
0.0
  0
LINE
  8
0
  6
CONTINUOUS
 62
     2
 10
201.26
 20
132.0
 30
0.0
 11
201.26
 21
119.0
 31
0.0
  0
LINE
  8
0
  6
CONTINUOUS
 62
     2
 10
201.26
 20
119.0
 30
0.0
 11
201.907047613
 21
121.414814566
 31
0.0
  0
LINE
  8
0
  6
CONTINUOUS
 62
     2
 10
201.26
 20
119.0
 30
0.0
 11
200.612952387
 21
121.414814566
 31
0.0
  0
TEXT
  8
0
  6
CONTINUOUS
 62
     2
 10
200.26
 20
121.12
 30
0.3
 40
3.0
  1
２６
 50
90.0
 41
0.6
 51
0.0
  7
KANJI3
  0
TEXT
  8
0
  6
CONTINUOUS
 62
     2
 10
200.26
 20
125.02
 30
0.18
 40
1.8
  1
±０．５
 50
90.0
 41
0.6
 51
0.0
  7
KANJI2
  0
LINE
  8
0
  6
CONTINUOUS
 62
     2
 10
201.26
 20
119.0
 30
0.0
 11
200.612952387
 21
116.585185434
 31
0.0
  0
LINE
  8
0
  6
CONTINUOUS
 62
     2
 10
201.26
 20
119.0
 30
0.0
 11
201.907047613
 21
116.585185434
 31
0.0
  0
LINE
  8
0
  6
CONTINUOUS
 62
     2
 10
201.26
 20
119.0
 30
0.0
 11
201.26
 21
108.0
 31
0.0
  0
LINE
  8
0
  6
CONTINUOUS
 62
     2
 10
201.26
 20
108.0
 30
0.0
 11
201.907047613
 21
110.414814566
 31
0.0
  0
LINE
  8
0
  6
CONTINUOUS
 62
     2
 10
201.26
 20
108.0
 30
0.0
 11
200.612952387
 21
110.414814566
 31
0.0
  0
TEXT
  8
0
  6
CONTINUOUS
 62
     2
 10
200.26
 20
109.12
 30
0.3
 40
3.0
  1
２２
 50
90.0
 41
0.6
 51
0.0
  7
KANJI3
  0
TEXT
  8
0
  6
CONTINUOUS
 62
     2
 10
200.26
 20
113.02
 30
0.18
 40
1.8
  1
±０．５
 50
90.0
 41
0.6
 51
0.0
  7
KANJI2
  0
LINE
  8
0
  6
CONTINUOUS
 62
     2
 10
206.76
 20
135.0
 30
0.0
 11
206.112952387
 21
132.585185434
 31
0.0
  0
LINE
  8
0
  6
CONTINUOUS
 62
     2
 10
206.76
 20
135.0
 30
0.0
 11
207.407047613
 21
132.585185434
 31
0.0
  0
LINE
  8
0
  6
CONTINUOUS
 62
     2
 10
206.76
 20
135.0
 30
0.0
 11
206.76
 21
105.0
 31
0.0
  0
LINE
  8
0
  6
CONTINUOUS
 62
     2
 10
206.76
 20
105.0
 30
0.0
 11
207.407047613
 21
107.414814566
 31
0.0
  0
LINE
  8
0
  6
CONTINUOUS
 62
     2
 10
206.76
 20
105.0
 30
0.0
 11
206.112952387
 21
107.414814566
 31
0.0
  0
TEXT
  8
0
  6
CONTINUOUS
 62
     2
 10
205.76
 20
116.88
 30
0.3
 40
3.0
  1
６０
 50
90.0
 41
0.6
 51
0.0
  7
KANJI3
  0
TEXT
  8
0
  6
CONTINUOUS
 62
     2
 10
205.76
 20
120.78
 30
0.18
 40
1.8
  1
±１
 50
90.0
 41
0.6
 51
0.0
  7
KANJI2
  0
LINE
  8
0
  6
CONTINUOUS
 62
     2
 10
196.01
 20
135.0
 30
0.0
 11
208.76
 21
135.0
 31
0.0
  0
LINE
  8
0
  6
CONTINUOUS
 62
     2
 10
196.01
 20
105.0
 30
0.0
 11
208.76
 21
105.0
 31
0.0
  0
LINE
  8
0
  6
CONTINUOUS
 62
     2
 10
198.76
 20
119.0
 30
0.0
 11
203.26
 21
119.0
 31
0.0
  0
LINE
  8
0
  6
CONTINUOUS
 62
     2
 10
87.75
 20
133.4
 30
0.0
 11
87.5
 21
133.4
 31
0.0
  0
LINE
  8
0
  6
CONTINUOUS
 62
     2
 10
87.5
 20
133.4
 30
0.0
 11
87.5
 21
117.0
 31
0.0
  0
LINE
  8
0
  6
CONTINUOUS
 62
     2
 10
87.5
 20
117.0
 30
0.0
 11
87.75
 21
117.0
 31
0.0
  0
LINE
  8
0
  6
CONTINUOUS
 62
     2
 10
128.76
 20
111.0
 30
0.0
 11
128.76
 21
104.0
 31
0.0
  0
LINE
  8
0
  6
CONTINUOUS
 62
     2
 10
128.76
 20
106.0
 30
0.0
 11
131.174814566
 21
105.352952387
 31
0.0
  0
LINE
  8
0
  6
CONTINUOUS
 62
     2
 10
128.76
 20
106.0
 30
0.0
 11
131.174814566
 21
106.647047613
 31
0.0
  0
LINE
  8
0
  6
CONTINUOUS
 62
     2
 10
128.76
 20
106.0
 30
0.0
 11
135.76
 21
106.0
 31
0.0
  0
LINE
  8
0
  6
CONTINUOUS
 62
     2
 10
135.76
 20
106.0
 30
0.0
 11
133.345185434
 21
106.647047613
 31
0.0
  0
LINE
  8
0
  6
CONTINUOUS
 62
     2
 10
135.76
 20
106.0
 30
0.0
 11
133.345185434
 21
105.352952387
 31
0.0
  0
LINE
  8
0
  6
CONTINUOUS
 62
     2
 10
135.76
 20
115.75
 30
0.0
 11
135.76
 21
104.0
 31
0.0
  0
TEXT
  8
0
  6
CONTINUOUS
 62
     2
 10
130.31
 20
107.0
 30
0.3
 40
3.0
  1
１４
 50
0.0
 41
0.6
 51
0.0
  7
KANJI3
  0
LINE
  8
0
  6
CONTINUOUS
 62
     2
 10
87.75
 20
114.5
 30
0.0
 11
87.55
 21
114.5
 31
0.0
  0
LINE
  8
0
  6
CONTINUOUS
 62
     2
 10
87.55
 20
114.5
 30
0.0
 11
87.55
 21
111.5
 31
0.0
  0
LINE
  8
0
  6
CONTINUOUS
 62
     2
 10
87.55
 20
111.5
 30
0.0
 11
87.75
 21
111.5
 31
0.0
  0
LINE
  8
0
  6
CONTINUOUS
 62
     2
 10
86.9
 20
113.25
 30
0.0
 11
87.55
 21
113.25
 31
0.0
  0
LINE
  8
0
  6
CONTINUOUS
 62
     2
 10
86.9
 20
112.75
 30
0.0
 11
87.55
 21
112.75
 31
0.0
  0
LINE
  8
0
  6
CONTINUOUS
 62
     2
 10
87.15
 20
114.375
 30
0.0
 11
87.55
 21
114.375
 31
0.0
  0
LINE
  8
0
  6
CONTINUOUS
 62
     2
 10
87.15
 20
114.375
 30
0.0
 11
87.15
 21
113.25
 31
0.0
  0
LINE
  8
0
  6
CONTINUOUS
 62
     2
 10
87.15
 20
112.75
 30
0.0
 11
87.15
 21
111.625
 31
0.0
  0
LINE
  8
0
  6
CONTINUOUS
 62
     2
 10
87.15
 20
111.625
 30
0.0
 11
87.55
 21
111.625
 31
0.0
  0
LINE
  8
0
  6
CONTINUOUS
 62
     2
 10
86.9
 20
113.25
 30
0.0
 11
86.9
 21
113.706392775
 31
0.0
  0
LINE
  8
0
  6
CONTINUOUS
 62
     2
 10
86.943094226
 20
113.909462008
 30
0.0
 11
87.15
 21
114.375
 31
0.0
  0
ARC
  8
0
  6
CONTINUOUS
 62
     2
 10
87.4
 20
113.706392775
 30
0.0
 40
0.5
 50
156.037511025
 51
180.0
  0
LINE
  8
0
  6
CONTINUOUS
 62
     2
 10
86.9
 20
112.75
 30
0.0
 11
86.9
 21
112.293607225
 31
0.0
  0
LINE
  8
0
  6
CONTINUOUS
 62
     2
 10
86.943094226
 20
112.090537992
 30
0.0
 11
87.15
 21
111.625
 31
0.0
  0
ARC
  8
0
  6
CONTINUOUS
 62
     2
 10
87.4
 20
112.293607225
 30
0.0
 40
0.5
 50
180.0
 51
203.962488975
  0
LINE
  8
0
  6
CONTINUOUS
 62
     2
 10
104.0
 20
132.038455967
 30
0.0
 11
103.352952387
 21
129.623641402
 31
0.0
  0
LINE
  8
0
  6
CONTINUOUS
 62
     2
 10
104.0
 20
132.038455967
 30
0.0
 11
104.647047613
 21
129.623641402
 31
0.0
  0
LINE
  8
0
  6
CONTINUOUS
 62
     2
 10
104.0
 20
132.038455967
 30
0.0
 11
104.0
 21
106.038455967
 31
0.0
  0
LINE
  8
0
  6
CONTINUOUS
 62
     2
 10
104.0
 20
106.038455967
 30
0.0
 11
104.647047613
 21
108.453270533
 31
0.0
  0
LINE
  8
0
  6
CONTINUOUS
 62
     2
 10
104.0
 20
106.038455967
 30
0.0
 11
103.352952387
 21
108.453270533
 31
0.0
  0
TEXT
  8
0
  6
CONTINUOUS
 62
     2
 10
103.0
 20
115.538455967
 30
0.5
 40
3.0
  1
φ５２
 50
90.0
 41
0.666666667
 51
0.0
  7
KANJI4
  0
TEXT
  8
0
  6
CONTINUOUS
 62
     2
 10
94.310000769
 20
141.0
 30
0.3
 40
3.0
  1
１０
 50
0.0
 41
0.6
 51
0.0
  7
KANJI3
  0
LINE
  8
0
  6
CONTINUOUS
 62
     2
 10
98.76
 20
140.0
 30
0.0
 11
96.95
 21
140.484988038
 31
0.0
  0
LINE
  8
0
  6
CONTINUOUS
 62
     2
 10
98.76
 20
140.0
 30
0.0
 11
96.95
 21
139.515011962
 31
0.0
  0
LINE
  8
0
  6
CONTINUOUS
 62
     2
 10
93.760001538
 20
140.0
 30
0.0
 11
95.55
 21
139.520371358
 31
0.0
  0
LINE
  8
0
  6
CONTINUOUS
 62
     2
 10
93.760001538
 20
140.0
 30
0.0
 11
95.55
 21
140.479628642
 31
0.0
  0
TEXT
  8
0
  6
CONTINUOUS
 62
     2
 10
89.335
 20
141.025
 30
0.3
 40
3.0
  1
０．５
 50
0.0
 41
0.3
 51
0.0
  7
KANJI5
  0
LINE
  8
0
  6
CONTINUOUS
 62
     2
 10
93.5
 20
135.5
 30
0.0
 11
93.5
 21
142.0
 31
0.0
  0
LINE
  8
0
  6
CONTINUOUS
 62
     2
 10
93.5
 20
140.0
 30
0.0
 11
91.085185434
 21
140.647047613
 31
0.0
  0
LINE
  8
0
  6
CONTINUOUS
 62
     2
 10
93.5
 20
140.0
 30
0.0
 11
91.085185434
 21
139.352952387
 31
0.0
  0
LINE
  8
0
  6
CONTINUOUS
 62
     2
 10
93.5
 20
140.0
 30
0.0
 11
89.05
 21
140.0
 31
0.0
  0
LINE
  8
0
  6
CONTINUOUS
 62
     2
 10
98.76
 20
133.825
 30
0.0
 11
98.76
 21
142.0
 31
0.0
  0
LINE
  8
0
  6
CONTINUOUS
 62
     2
 10
108.75
 20
145.0
 30
0.0
 11
106.335185434
 21
145.647047613
 31
0.0
  0
LINE
  8
0
  6
CONTINUOUS
 62
     2
 10
108.75
 20
145.0
 30
0.0
 11
106.335185434
 21
144.352952387
 31
0.0
  0
LINE
  8
0
  6
CONTINUOUS
 62
     2
 10
108.75
 20
145.0
 30
0.0
 11
93.76
 21
145.0
 31
0.0
  0
LINE
  8
0
  6
CONTINUOUS
 62
     2
 10
93.76
 20
145.0
 30
0.0
 11
96.174814566
 21
144.352952387
 31
0.0
  0
LINE
  8
0
  6
CONTINUOUS
 62
     2
 10
93.76
 20
145.0
 30
0.0
 11
96.174814566
 21
145.647047613
 31
0.0
  0
TEXT
  8
0
  6
CONTINUOUS
 62
     2
 10
99.305
 20
146.0
 30
0.3
 40
3.0
  1
３０
 50
0.0
 41
0.6
 51
0.0
  7
KANJI3
  0
TEXT
  8
0
  6
CONTINUOUS
 62
     2
 10
88.485000769
 20
146.025
 30
0.3
 40
3.0
  1
１２．５
 50
0.0
 41
0.3
 51
0.0
  7
KANJI5
  0
LINE
  8
0
  6
CONTINUOUS
 62
     2
 10
108.75
 20
145.0
 30
0.0
 11
111.164814566
 21
144.352952387
 31
0.0
  0
LINE
  8
0
  6
CONTINUOUS
 62
     2
 10
108.75
 20
145.0
 30
0.0
 11
111.164814566
 21
145.647047613
 31
0.0
  0
LINE
  8
0
  6
CONTINUOUS
 62
     2
 10
108.75
 20
145.0
 30
0.0
 11
128.76
 21
145.0
 31
0.0
  0
LINE
  8
0
  6
CONTINUOUS
 62
     2
 10
128.76
 20
145.0
 30
0.0
 11
126.345185434
 21
145.647047613
 31
0.0
  0
LINE
  8
0
  6
CONTINUOUS
 62
     2
 10
128.76
 20
145.0
 30
0.0
 11
126.345185434
 21
144.352952387
 31
0.0
  0
TEXT
  8
0
  6
CONTINUOUS
 62
     2
 10
116.805
 20
146.0
 30
0.3
 40
3.0
  1
４０
 50
0.0
 41
0.6
 51
0.0
  7
KANJI3
  0
LINE
  8
0
  6
CONTINUOUS
 62
     2
 10
128.76
 20
145.0
 30
0.0
 11
126.345185434
 21
145.647047613
 31
0.0
  0
LINE
  8
0
  6
CONTINUOUS
 62
     2
 10
128.76
 20
145.0
 30
0.0
 11
126.345185434
 21
144.352952387
 31
0.0
  0
LINE
  8
0
  6
CONTINUOUS
 62
     2
 10
123.76
 20
145.0
 30
0.0
 11
138.76
 21
145.0
 31
0.0
  0
LINE
  8
0
  6
CONTINUOUS
 62
     2
 10
133.76
 20
145.0
 30
0.0
 11
136.174814566
 21
144.352952387
 31
0.0
  0
LINE
  8
0
  6
CONTINUOUS
 62
     2
 10
133.76
 20
145.0
 30
0.0
 11
136.174814566
 21
145.647047613
 31
0.0
  0
TEXT
  8
0
  6
CONTINUOUS
 62
     2
 10
129.31
 20
146.0
 30
0.3
 40
3.0
  1
１０
 50
0.0
 41
0.6
 51
0.0
  7
KANJI3
  0
LINE
  8
0
  6
CONTINUOUS
 62
     2
 10
93.76
 20
145.0
 30
0.0
 11
91.345185434
 21
145.647047613
 31
0.0
  0
LINE
  8
0
  6
CONTINUOUS
 62
     2
 10
93.76
 20
145.0
 30
0.0
 11
91.345185434
 21
144.352952387
 31
0.0
  0
LINE
  8
0
  6
CONTINUOUS
 62
     2
 10
93.76
 20
145.0
 30
0.0
 11
87.510001538
 21
145.0
 31
0.0
  0
LINE
  8
0
  6
CONTINUOUS
 62
     2
 10
87.510001538
 20
145.0
 30
0.0
 11
89.924816104
 21
144.352952387
 31
0.0
  0
LINE
  8
0
  6
CONTINUOUS
 62
     2
 10
87.510001538
 20
145.0
 30
0.0
 11
89.924816104
 21
145.647047613
 31
0.0
  0
LINE
  8
0
  6
CONTINUOUS
 62
     2
 10
87.510001538
 20
147.0
 30
0.0
 11
87.510001538
 21
134.325
 31
0.0
  0
LINE
  8
0
  6
CONTINUOUS
 62
     2
 10
93.76
 20
134.55
 30
0.0
 11
93.76
 21
147.0
 31
0.0
  0
LINE
  8
0
  6
CONTINUOUS
 62
     2
 10
108.75
 20
133.0
 30
0.0
 11
108.75
 21
147.0
 31
0.0
  0
LINE
  8
0
  6
CONTINUOUS
 62
     2
 10
128.76
 20
129.0
 30
0.0
 11
128.76
 21
147.0
 31
0.0
  0
LINE
  8
0
  6
CONTINUOUS
 62
     2
 10
133.76
 20
123.8
 30
0.0
 11
133.76
 21
147.0
 31
0.0
  0
LINE
  8
0
  6
LTYPE1
 62
     2
 10
92.71
 20
132.0
 30
0.0
 11
100.11
 21
132.0
 31
0.0
  0
LINE
  8
0
  6
LTYPE1
 62
     2
 10
92.7
 20
108.0
 30
0.0
 11
100.1
 21
108.0
 31
0.0
  0
LINE
  8
0
  6
LTYPE1
 62
     2
 10
136.11
 20
121.75
 30
0.0
 11
126.71
 21
121.75
 31
0.0
  0
TEXT
  8
0
  6
CONTINUOUS
 62
     2
 10
133.32
 20
147.875
 30
0.18
 40
1.8
  1
±１
 50
0.0
 41
0.6
 51
0.0
  7
KANJI2
  0
LINE
  8
0
  6
CONTINUOUS
 62
     2
 10
163.76
 20
145.0
 30
0.0
 11
166.174814566
 21
144.352952387
 31
0.0
  0
LINE
  8
0
  6
CONTINUOUS
 62
     2
 10
163.76
 20
145.0
 30
0.0
 11
166.174814566
 21
145.647047613
 31
0.0
  0
LINE
  8
0
  6
CONTINUOUS
 62
     2
 10
163.76
 20
145.0
 30
0.0
 11
196.26
 21
145.0
 31
0.0
  0
LINE
  8
0
  6
CONTINUOUS
 62
     2
 10
196.26
 20
145.0
 30
0.0
 11
193.845185434
 21
145.647047613
 31
0.0
  0
LINE
  8
0
  6
CONTINUOUS
 62
     2
 10
196.26
 20
145.0
 30
0.0
 11
193.845185434
 21
144.352952387
 31
0.0
  0
TEXT
  8
0
  6
CONTINUOUS
 62
     2
 10
176.89
 20
146.0
 30
0.3
 40
3.0
  1
６５
 50
0.0
 41
0.6
 51
0.0
  7
KANJI3
  0
TEXT
  8
0
  6
CONTINUOUS
 62
     2
 10
180.79
 20
146.0
 30
0.18
 40
1.8
  1
±１
 50
0.0
 41
0.6
 51
0.0
  7
KANJI2
  0
LINE
  8
0
  6
CONTINUOUS
 62
     2
 10
163.76
 20
134.75
 30
0.0
 11
163.76
 21
147.0
 31
0.0
  0
LINE
  8
0
  6
CONTINUOUS
 62
     2
 10
196.26
 20
134.75
 30
0.0
 11
196.26
 21
147.0
 31
0.0
  0
LINE
  8
0
  6
LTYPE1
 62
     2
 10
180.01
 20
137.0
 30
0.0
 11
180.01
 21
103.5
 31
0.0
  0
LINE
  8
0
  6
LTYPE1
 62
     2
 10
160.51
 20
119.0
 30
0.0
 11
198.26
 21
119.0
 31
0.0
  0
LINE
  8
0
  6
CONTINUOUS
 62
     2
 10
93.5
 20
140.0
 30
0.0
 11
98.76
 21
140.0
 31
0.0
  0
LINE
  8
0
  6
LTYPE1
 62
     2
 10
168.01
 20
134.5
 30
0.0
 11
168.01
 21
129.5
 31
0.0
  0
LINE
  8
0
  6
LTYPE1
 62
     2
 10
165.51
 20
132.0
 30
0.0
 11
170.51
 21
132.0
 31
0.0
  0
LINE
  8
0
  6
LTYPE1
 62
     2
 10
189.51
 20
132.0
 30
0.0
 11
194.51
 21
132.0
 31
0.0
  0
LINE
  8
0
  6
LTYPE1
 62
     2
 10
192.01
 20
134.5
 30
0.0
 11
192.01
 21
129.5
 31
0.0
  0
LINE
  8
0
  6
LTYPE1
 62
     2
 10
192.01
 20
110.5
 30
0.0
 11
192.01
 21
105.5
 31
0.0
  0
LINE
  8
0
  6
LTYPE1
 62
     2
 10
189.51
 20
108.0
 30
0.0
 11
194.51
 21
108.0
 31
0.0
  0
LINE
  8
0
  6
LTYPE1
 62
     2
 10
168.01
 20
110.5
 30
0.0
 11
168.01
 21
105.5
 31
0.0
  0
LINE
  8
0
  6
LTYPE1
 62
     2
 10
165.51
 20
108.0
 30
0.0
 11
170.51
 21
108.0
 31
0.0
  0
LINE
  8
0
  6
CONTINUOUS
 62
     2
 10
168.01
 20
135.0
 30
0.0
 11
168.01
 21
142.0
 31
0.0
  0
LINE
  8
0
  6
CONTINUOUS
 62
     2
 10
180.01
 20
137.5
 30
0.0
 11
180.01
 21
142.0
 31
0.0
  0
LINE
  8
0
  6
CONTINUOUS
 62
     2
 10
192.01
 20
135.0
 30
0.0
 11
192.01
 21
142.0
 31
0.0
  0
LINE
  8
0
  6
CONTINUOUS
 62
     2
 10
195.01
 20
132.0
 30
0.0
 11
203.26
 21
132.0
 31
0.0
  0
LINE
  8
0
  6
CONTINUOUS
 62
     2
 10
195.01
 20
108.0
 30
0.0
 11
203.26
 21
108.0
 31
0.0
  0
LINE
  8
0
  6
CONTINUOUS
 62
     2
 10
134.0
 20
120.5
 30
0.0
 11
134.630116473
 21
118.080712247
 31
0.0
  0
LINE
  8
0
  6
CONTINUOUS
 62
     2
 10
134.0
 20
120.5
 30
0.0
 11
135.755340749
 21
118.719893584
 31
0.0
  0
TEXT
  8
0
  6
CONTINUOUS
 62
     2
 10
148.882856123
 20
95.3
 30
0.3
 40
3.0
  1
Ｍ４ターミナルネジ
 50
0.0
 41
0.9
 51
0.0
  7
KANJI6
  0
LINE
  8
0
  6
CONTINUOUS
 62
     2
 10
134.0
 20
120.5
 30
0.0
 11
148.882856123
 21
94.3
 31
0.0
  0
LINE
  8
0
  6
CONTINUOUS
 62
     2
 10
148.882856123
 20
94.3
 30
0.0
 11
175.982856123
 21
94.3
 31
0.0
  0
LINE
  8
0
  6
CONTINUOUS
 62
     2
 10
119.5
 20
113.5
 30
0.0
 11
120.130116473
 21
111.080712247
 31
0.0
  0
LINE
  8
0
  6
CONTINUOUS
 62
     2
 10
119.5
 20
113.5
 30
0.0
 11
121.255340749
 21
111.719893584
 31
0.0
  0
LINE
  8
0
  6
CONTINUOUS
 62
     2
 10
97.05
 20
106.15
 30
0.0
 11
97.680116473
 21
103.730712247
 31
0.0
  0
LINE
  8
0
  6
CONTINUOUS
 62
     2
 10
97.05
 20
106.15
 30
0.0
 11
98.805340749
 21
104.369893584
 31
0.0
  0
TEXT
  8
0
  6
CONTINUOUS
 62
     2
 10
103.781368132
 20
95.3
 30
0.5
 40
3.0
  1
Ｍ３取付ボルト
 50
0.0
 41
0.9
 51
0.0
  7
KANJI7
  0
LINE
  8
0
  6
CONTINUOUS
 62
     2
 10
97.05
 20
106.15
 30
0.0
 11
103.781368132
 21
94.3
 31
0.0
  0
LINE
  8
0
  6
CONTINUOUS
 62
     2
 10
103.781368132
 20
94.3
 30
0.0
 11
125.881368132
 21
94.3
 31
0.0
  0
LINE
  8
0
  6
CONTINUOUS
 62
     2
 10
42.3
 20
108.45
 30
0.0
 11
45.7
 21
108.45
 31
0.0
  0
LINE
  8
0
  6
CONTINUOUS
 62
     2
 10
45.7
 20
108.05
 30
0.0
 11
42.3
 21
108.05
 31
0.0
  0
CIRCLE
  8
0
  6
CONTINUOUS
 62
     2
 10
44.0
 20
108.25
 30
0.0
 40
1.75
  0
LINE
  8
0
  6
CONTINUOUS
 62
     2
 10
45.157607362
 20
111.9
 30
0.0
 11
45.787723835
 21
109.480712247
 31
0.0
  0
LINE
  8
0
  6
CONTINUOUS
 62
     2
 10
45.157607362
 20
111.9
 30
0.0
 11
46.912948111
 21
110.119893584
 31
0.0
  0
TEXT
  8
0
  6
CONTINUOUS
 62
     2
 10
55.15525117
 20
95.3
 30
0.3
 40
3.0
  1
予定指針調整器
 50
0.0
 41
0.9
 51
0.0
  7
KANJI6
  0
LINE
  8
0
  6
CONTINUOUS
 62
     2
 10
45.157607362
 20
111.9
 30
0.0
 11
55.15525117
 21
94.3
 31
0.0
  0
LINE
  8
0
  6
CONTINUOUS
 62
     2
 10
55.15525117
 20
94.3
 30
0.0
 11
76.55525117
 21
94.3
 31
0.0
  0
LINE
  8
0
  6
CONTINUOUS
 62
     2
 10
43.0
 20
106.55
 30
0.0
 11
42.369883527
 21
104.130712247
 31
0.0
  0
LINE
  8
0
  6
CONTINUOUS
 62
     2
 10
43.0
 20
106.55
 30
0.0
 11
41.244659251
 21
104.769893584
 31
0.0
  0
TEXT
  8
0
  6
CONTINUOUS
 62
     2
 10
21.341412691
 20
95.3
 30
0.3
 40
3.0
  1
零位調整器
 50
0.0
 41
0.9
 51
0.0
  7
KANJI6
  0
LINE
  8
0
  6
CONTINUOUS
 62
     2
 10
43.0
 20
106.55
 30
0.0
 11
36.041412691
 21
94.3
 31
0.0
  0
LINE
  8
0
  6
CONTINUOUS
 62
     2
 10
36.041412691
 20
94.3
 30
0.0
 11
20.841412691
 21
94.3
 31
0.0
  0
LINE
  8
0
  6
CONTINUOUS
 62
     2
 10
135.26
 20
124.0
 30
0.0
 11
135.890116473
 21
126.419287753
 31
0.0
  0
LINE
  8
0
  6
CONTINUOUS
 62
     2
 10
135.26
 20
124.0
 30
0.0
 11
137.015340749
 21
125.780106416
 31
0.0
  0
TEXT
  8
0
  6
CONTINUOUS
 62
     2
 10
139.520359577
 20
132.5
 30
0.3
 40
3.0
  1
端子キャップ
 50
0.0
 41
0.9
 51
0.0
  7
KANJI6
  0
LINE
  8
0
  6
CONTINUOUS
 62
     2
 10
135.26
 20
124.0
 30
0.0
 11
139.520359577
 21
131.5
 31
0.0
  0
LINE
  8
0
  6
CONTINUOUS
 62
     2
 10
139.520359577
 20
131.5
 30
0.0
 11
157.820359577
 21
131.5
 31
0.0
  0
LINE
  8
0
  6
CONTINUOUS
 62
     2
 10
50.457607362
 20
128.5
 30
0.0
 11
51.087723835
 21
130.919287753
 31
0.0
  0
LINE
  8
0
  6
CONTINUOUS
 62
     2
 10
50.457607362
 20
128.5
 30
0.0
 11
52.212948111
 21
130.280106416
 31
0.0
  0
TEXT
  8
0
  6
CONTINUOUS
 62
     2
 10
59.830398432
 20
146.0
 30
0.3
 40
3.0
  1
予定指針（赤色）
 50
0.0
 41
0.9
 51
0.0
  7
KANJI6
  0
LINE
  8
0
  6
CONTINUOUS
 62
     2
 10
50.457607362
 20
128.5
 30
0.0
 11
59.830398432
 21
145.0
 31
0.0
  0
LINE
  8
0
  6
CONTINUOUS
 62
     2
 10
59.830398432
 20
145.0
 30
0.0
 11
82.830398432
 21
145.0
 31
0.0
  0
LINE
  8
0
  6
CONTINUOUS
 62
     2
 10
32.51
 20
125.0
 30
0.0
 11
33.140116473
 21
127.419287753
 31
0.0
  0
LINE
  8
0
  6
CONTINUOUS
 62
     2
 10
32.51
 20
125.0
 30
0.0
 11
34.265340749
 21
126.780106416
 31
0.0
  0
TEXT
  8
0
  6
CONTINUOUS
 62
     2
 10
43.870958872
 20
146.0
 30
0.3
 40
3.0
  1
指針
 50
0.0
 41
0.9
 51
0.0
  7
KANJI6
  0
LINE
  8
0
  6
CONTINUOUS
 62
     2
 10
32.51
 20
125.0
 30
0.0
 11
43.870958872
 21
145.0
 31
0.0
  0
LINE
  8
0
  6
CONTINUOUS
 62
     2
 10
43.870958872
 20
145.0
 30
0.0
 11
50.270958872
 21
145.0
 31
0.0
  0
LINE
  8
0
  6
CONTINUOUS
 62
     2
 10
57.0
 20
51.538455967
 30
0.0
 11
57.630116473
 21
49.119168215
 31
0.0
  0
LINE
  8
0
  6
CONTINUOUS
 62
     2
 10
57.0
 20
51.538455967
 30
0.0
 11
58.755340749
 21
49.758349551
 31
0.0
  0
LINE
  8
0
  6
CONTINUOUS
 62
     2
 10
60.783199304
 20
44.878455967
 30
0.0
 11
75.683199304
 21
44.878455967
 31
0.0
  0
TEXT
  8
0
  6
CONTINUOUS
 62
     2
 10
61.125699304
 20
45.4
 30
0.3
 40
3.0
  1
４－
 50
0.0
 41
0.9
 51
0.0
  7
KANJI6
  0
TEXT
  8
0
  6
CONTINUOUS
 62
     2
 10
67.345699304
 20
45.4
 30
0.3
 40
3.0
  1
φ４
 50
0.0
 41
0.6
 51
0.0
  7
KANJI3
  0
LINE
  8
0
  6
CONTINUOUS
 62
     2
 10
57.0
 20
51.538455967
 30
0.0
 11
60.783199304
 21
44.878455967
 31
0.0
  0
TEXT
  8
0
  6
CONTINUOUS
 62
     2
 10
71.82
 20
45.4
 30
0.18
 40
1.8
  1
－０
 50
0.0
 41
0.6
 51
0.0
  7
KANJI2
  0
TEXT
  8
0
  6
CONTINUOUS
 62
     2
 10
71.82
 20
47.2
 30
0.18
 40
1.8
  1
＋０．５
 50
0.0
 41
0.6
 51
0.0
  7
KANJI2
  0
LINE
  8
0
  6
CONTINUOUS
 62
     2
 10
93.5
 20
109.95
 30
0.0
 11
93.75
 21
109.95
 31
0.0
  0
LINE
  8
0
  6
CONTINUOUS
 62
     2
 10
93.75
 20
105.95
 30
0.0
 11
93.5
 21
105.95
 31
0.0
  0
LINE
  8
0
  6
CONTINUOUS
 62
     2
 10
93.75
 20
109.95
 30
0.0
 11
93.75
 21
105.95
 31
0.0
  0
LINE
  8
0
  6
CONTINUOUS
 62
     2
 10
96.1
 20
109.525
 30
0.0
 11
96.3
 21
109.325
 31
0.0
  0
LINE
  8
0
  6
CONTINUOUS
 62
     2
 10
96.075
 20
108.7
 30
0.0
 11
96.275
 21
108.9
 31
0.0
  0
LINE
  8
0
  6
CONTINUOUS
 62
     2
 10
96.275
 20
108.5
 30
0.0
 11
96.075
 21
108.7
 31
0.0
  0
LINE
  8
0
  6
CONTINUOUS
 62
     2
 10
95.1
 20
109.525
 30
0.0
 11
96.1
 21
109.525
 31
0.0
  0
LINE
  8
0
  6
CONTINUOUS
 62
     2
 10
95.1
 20
108.7
 30
0.0
 11
96.075
 21
108.7
 31
0.0
  0
LINE
  8
0
  6
CONTINUOUS
 62
     2
 10
96.1
 20
106.425
 30
0.0
 11
96.3
 21
106.625
 31
0.0
  0
LINE
  8
0
  6
CONTINUOUS
 62
     2
 10
96.1
 20
106.425
 30
0.0
 11
95.1
 21
106.425
 31
0.0
  0
LINE
  8
0
  6
CONTINUOUS
 62
     2
 10
95.1
 20
106.425
 30
0.0
 11
95.1
 21
109.525
 31
0.0
  0
LINE
  8
0
  6
CONTINUOUS
 62
     2
 10
96.3
 20
109.325
 30
0.0
 11
96.3
 21
106.625
 31
0.0
  0
LINE
  8
0
  6
CONTINUOUS
 62
     2
 10
96.3
 20
108.725
 30
0.0
 11
98.75
 21
108.725
 31
0.0
  0
LINE
  8
0
  6
CONTINUOUS
 62
     2
 10
98.73
 20
108.55
 30
0.0
 11
96.3
 21
108.55
 31
0.0
  0
LINE
  8
0
  6
CONTINUOUS
 62
     2
 10
95.1
 20
109.525
 30
0.0
 11
94.8
 21
109.825
 31
0.0
  0
LINE
  8
0
  6
CONTINUOUS
 62
     2
 10
94.8
 20
109.825
 30
0.0
 11
94.8
 21
106.125
 31
0.0
  0
LINE
  8
0
  6
CONTINUOUS
 62
     2
 10
95.1
 20
106.425
 30
0.0
 11
94.8
 21
106.125
 31
0.0
  0
LINE
  8
0
  6
CONTINUOUS
 62
     2
 10
94.8
 20
107.45
 30
0.0
 11
93.75
 21
107.45
 31
0.0
  0
LINE
  8
0
  6
CONTINUOUS
 62
     2
 10
93.75
 20
108.7
 30
0.0
 11
94.8
 21
108.7
 31
0.0
  0
LINE
  8
0
  6
CONTINUOUS
 62
     2
 10
94.8
 20
108.55
 30
0.0
 11
93.75
 21
108.55
 31
0.0
  0
LINE
  8
0
  6
CONTINUOUS
 62
     2
 10
98.75
 20
108.725
 30
0.0
 11
98.75
 21
107.275
 31
0.0
  0
LINE
  8
0
  6
CONTINUOUS
 62
     2
 10
98.75
 20
107.275
 30
0.0
 11
96.3
 21
107.275
 31
0.0
  0
LINE
  8
0
  6
CONTINUOUS
 62
     2
 10
96.3
 20
107.45
 30
0.0
 11
98.75
 21
107.45
 31
0.0
  0
LINE
  8
0
  6
CONTINUOUS
 62
     2
 10
96.085
 20
107.275
 30
0.0
 11
95.1
 21
107.275
 31
0.0
  0
LINE
  8
0
  6
CONTINUOUS
 62
     2
 10
93.75
 20
107.275
 30
0.0
 11
94.8
 21
107.275
 31
0.0
  0
LINE
  8
0
  6
CONTINUOUS
 62
     2
 10
96.085
 20
107.275
 30
0.0
 11
96.285
 21
107.475
 31
0.0
  0
LINE
  8
0
  6
CONTINUOUS
 62
     2
 10
96.285
 20
107.075
 30
0.0
 11
96.085
 21
107.275
 31
0.0
  0
LINE
  8
0
  6
CONTINUOUS
 62
     2
 10
93.5
 20
133.95
 30
0.0
 11
93.75
 21
133.95
 31
0.0
  0
LINE
  8
0
  6
CONTINUOUS
 62
     2
 10
93.75
 20
129.95
 30
0.0
 11
93.5
 21
129.95
 31
0.0
  0
LINE
  8
0
  6
CONTINUOUS
 62
     2
 10
93.75
 20
133.95
 30
0.0
 11
93.75
 21
129.95
 31
0.0
  0
LINE
  8
0
  6
CONTINUOUS
 62
     2
 10
96.1
 20
133.525
 30
0.0
 11
96.3
 21
133.325
 31
0.0
  0
LINE
  8
0
  6
CONTINUOUS
 62
     2
 10
96.075
 20
132.7
 30
0.0
 11
96.275
 21
132.9
 31
0.0
  0
LINE
  8
0
  6
CONTINUOUS
 62
     2
 10
96.275
 20
132.5
 30
0.0
 11
96.075
 21
132.7
 31
0.0
  0
LINE
  8
0
  6
CONTINUOUS
 62
     2
 10
95.1
 20
133.525
 30
0.0
 11
96.1
 21
133.525
 31
0.0
  0
LINE
  8
0
  6
CONTINUOUS
 62
     2
 10
95.1
 20
132.7
 30
0.0
 11
96.075
 21
132.7
 31
0.0
  0
LINE
  8
0
  6
CONTINUOUS
 62
     2
 10
96.1
 20
130.425
 30
0.0
 11
96.3
 21
130.625
 31
0.0
  0
LINE
  8
0
  6
CONTINUOUS
 62
     2
 10
96.1
 20
130.425
 30
0.0
 11
95.1
 21
130.425
 31
0.0
  0
LINE
  8
0
  6
CONTINUOUS
 62
     2
 10
95.1
 20
130.425
 30
0.0
 11
95.1
 21
133.525
 31
0.0
  0
LINE
  8
0
  6
CONTINUOUS
 62
     2
 10
96.3
 20
133.325
 30
0.0
 11
96.3
 21
130.625
 31
0.0
  0
LINE
  8
0
  6
CONTINUOUS
 62
     2
 10
96.3
 20
132.725
 30
0.0
 11
98.75
 21
132.725
 31
0.0
  0
LINE
  8
0
  6
CONTINUOUS
 62
     2
 10
98.73
 20
132.55
 30
0.0
 11
96.3
 21
132.55
 31
0.0
  0
LINE
  8
0
  6
CONTINUOUS
 62
     2
 10
95.1
 20
133.525
 30
0.0
 11
94.8
 21
133.825
 31
0.0
  0
LINE
  8
0
  6
CONTINUOUS
 62
     2
 10
94.8
 20
133.825
 30
0.0
 11
94.8
 21
130.125
 31
0.0
  0
LINE
  8
0
  6
CONTINUOUS
 62
     2
 10
95.1
 20
130.425
 30
0.0
 11
94.8
 21
130.125
 31
0.0
  0
LINE
  8
0
  6
CONTINUOUS
 62
     2
 10
94.8
 20
131.45
 30
0.0
 11
93.75
 21
131.45
 31
0.0
  0
LINE
  8
0
  6
CONTINUOUS
 62
     2
 10
93.75
 20
132.7
 30
0.0
 11
94.8
 21
132.7
 31
0.0
  0
LINE
  8
0
  6
CONTINUOUS
 62
     2
 10
94.8
 20
132.55
 30
0.0
 11
93.75
 21
132.55
 31
0.0
  0
LINE
  8
0
  6
CONTINUOUS
 62
     2
 10
98.75
 20
132.725
 30
0.0
 11
98.75
 21
131.275
 31
0.0
  0
LINE
  8
0
  6
CONTINUOUS
 62
     2
 10
98.75
 20
131.275
 30
0.0
 11
96.3
 21
131.275
 31
0.0
  0
LINE
  8
0
  6
CONTINUOUS
 62
     2
 10
96.3
 20
131.45
 30
0.0
 11
98.75
 21
131.45
 31
0.0
  0
LINE
  8
0
  6
CONTINUOUS
 62
     2
 10
96.085
 20
131.275
 30
0.0
 11
95.1
 21
131.275
 31
0.0
  0
LINE
  8
0
  6
CONTINUOUS
 62
     2
 10
93.75
 20
131.275
 30
0.0
 11
94.8
 21
131.275
 31
0.0
  0
LINE
  8
0
  6
CONTINUOUS
 62
     2
 10
96.085
 20
131.275
 30
0.0
 11
96.285
 21
131.475
 31
0.0
  0
LINE
  8
0
  6
CONTINUOUS
 62
     2
 10
96.285
 20
131.075
 30
0.0
 11
96.085
 21
131.275
 31
0.0
  0
LINE
  8
0
  6
LTYPE2
 62
     2
 10
132.76
 20
113.75
 30
0.0
 11
128.76
 21
113.75
 31
0.0
  0
LINE
  8
0
  6
LTYPE2
 62
     2
 10
128.76
 20
114.35
 30
0.0
 11
129.01
 21
114.35
 31
0.0
  0
ARC
  8
0
  6
LTYPE2
 62
     2
 10
132.76
 20
122.25
 30
0.0
 40
3.0
 50
0.0
 51
90.0
  0
LINE
  8
0
  6
LTYPE2
 62
     2
 10
135.76
 20
122.25
 30
0.0
 11
135.76
 21
116.75
 31
0.0
  0
ARC
  8
0
  6
LTYPE2
 62
     2
 10
132.76
 20
116.75
 30
0.0
 40
3.0
 50
270.0
 51
0.0
  0
LINE
  8
0
  6
LTYPE2
 62
     2
 10
128.76
 20
124.65
 30
0.0
 11
129.01
 21
124.65
 31
0.0
  0
LINE
  8
0
  6
LTYPE2
 62
     2
 10
129.01
 20
113.75
 30
0.0
 11
129.01
 21
124.65
 31
0.0
  0
LINE
  8
0
  6
LTYPE2
 62
     2
 10
128.76
 20
125.25
 30
0.0
 11
132.76
 21
125.25
 31
0.0
  0
LINE
  8
0
  6
CONTINUOUS
 62
     2
 10
129.96
 20
122.8
 30
0.0
 11
129.76
 21
122.8
 31
0.0
  0
LINE
  8
0
  6
CONTINUOUS
 62
     2
 10
129.21
 20
122.8
 30
0.0
 11
128.86
 21
122.8
 31
0.0
  0
LINE
  8
0
  6
CONTINUOUS
 62
     2
 10
128.86
 20
120.8
 30
0.0
 11
129.16
 21
120.8
 31
0.0
  0
LINE
  8
0
  6
CONTINUOUS
 62
     2
 10
129.71
 20
120.8
 30
0.0
 11
129.96
 21
120.8
 31
0.0
  0
LINE
  8
0
  6
CONTINUOUS
 62
     2
 10
130.01
 20
123.85
 30
0.0
 11
128.76
 21
123.85
 31
0.0
  0
LINE
  8
0
  6
CONTINUOUS
 62
     2
 10
130.01
 20
123.85
 30
0.0
 11
130.26
 21
123.6
 31
0.0
  0
LINE
  8
0
  6
CONTINUOUS
 62
     2
 10
130.0
 20
122.785
 30
0.0
 11
130.26
 21
123.085
 31
0.0
  0
LINE
  8
0
  6
CONTINUOUS
 62
     2
 10
130.26
 20
120.5
 30
0.0
 11
129.96
 21
120.77
 31
0.0
  0
LINE
  8
0
  6
CONTINUOUS
 62
     2
 10
130.26
 20
121.075
 30
0.0
 11
129.96
 21
120.805
 31
0.0
  0
LINE
  8
0
  6
CONTINUOUS
 62
     2
 10
129.96
 20
119.775
 30
0.0
 11
130.26
 21
120.075
 31
0.0
  0
LINE
  8
0
  6
CONTINUOUS
 62
     2
 10
128.76
 20
119.8
 30
0.0
 11
130.01
 21
119.8
 31
0.0
  0
LINE
  8
0
  6
CONTINUOUS
 62
     2
 10
130.26
 20
120.055
 30
0.0
 11
130.26
 21
123.6
 31
0.0
  0
LINE
  8
0
  6
CONTINUOUS
 62
     2
 10
130.013
 20
122.8
 30
0.0
 11
130.263
 21
122.6
 31
0.0
  0
LINE
  8
0
  6
CONTINUOUS
 62
     2
 10
130.013
 20
122.8
 30
0.0
 11
128.76
 21
122.8
 31
0.0
  0
LINE
  8
0
  6
CONTINUOUS
 62
     2
 10
128.76
 20
120.8
 30
0.0
 11
129.976666667
 21
120.8
 31
0.0
  0
LINE
  8
0
  6
CONTINUOUS
 62
     2
 10
130.26
 20
123.6
 30
0.0
 11
130.26
 21
123.725
 31
0.0
  0
LINE
  8
0
  6
LTYPE2
 62
     2
 10
130.66
 20
123.725
 30
0.0
 11
130.66
 21
118.35
 31
0.0
  0
LINE
  8
0
  6
LTYPE2
 62
     2
 10
130.26
 20
123.725
 30
0.0
 11
130.66
 21
123.725
 31
0.0
  0
LINE
  8
0
  6
LTYPE2
 62
     2
 10
130.26
 20
120.075
 30
0.0
 11
130.26
 21
118.35
 31
0.0
  0
LINE
  8
0
  6
LTYPE2
 62
     2
 10
129.76
 20
118.35
 30
0.0
 11
132.26
 21
118.35
 31
0.0
  0
LINE
  8
0
  6
LTYPE2
 62
     2
 10
132.26
 20
118.35
 30
0.0
 11
132.26
 21
115.35
 31
0.0
  0
LINE
  8
0
  6
LTYPE2
 62
     2
 10
129.76
 20
118.35
 30
0.0
 11
129.76
 21
115.35
 31
0.0
  0
LINE
  8
0
  6
CONTINUOUS
 62
     2
 10
131.446253903
 20
123.5225
 30
0.0
 11
131.946253903
 21
123.5225
 31
0.0
  0
LINE
  8
0
  6
CONTINUOUS
 62
     2
 10
131.946253903
 20
123.5225
 30
0.0
 11
131.646253903
 21
121.8725
 31
0.0
  0
LINE
  8
0
  6
CONTINUOUS
 62
     2
 10
131.646253903
 20
121.8725
 30
0.0
 11
131.146253903
 21
121.8725
 31
0.0
  0
LINE
  8
0
  6
CONTINUOUS
 62
     2
 10
131.146253903
 20
121.8725
 30
0.0
 11
131.446253903
 21
123.5225
 31
0.0
  0
LINE
  8
0
  6
CONTINUOUS
 62
     2
 10
131.896253903
 20
121.5725
 30
0.0
 11
131.396253903
 21
121.5725
 31
0.0
  0
LINE
  8
0
  6
CONTINUOUS
 62
     2
 10
131.146253903
 20
119.9725
 30
0.0
 11
131.646253903
 21
119.9725
 31
0.0
  0
LINE
  8
0
  6
CONTINUOUS
 62
     2
 10
131.396253903
 20
121.5725
 30
0.0
 11
131.146253903
 21
119.9725
 31
0.0
  0
LINE
  8
0
  6
CONTINUOUS
 62
     2
 10
131.646253903
 20
119.9725
 30
0.0
 11
131.896253903
 21
121.5725
 31
0.0
  0
LINE
  8
0
  6
CONTINUOUS
 62
     2
 10
133.435253903
 20
122.8
 30
0.0
 11
131.814890267
 21
122.8
 31
0.0
  0
LINE
  8
0
  6
CONTINUOUS
 62
     2
 10
131.775550778
 20
120.8
 30
0.0
 11
133.39892057
 21
120.8
 31
0.0
  0
LINE
  8
0
  6
CONTINUOUS
 62
     2
 10
130.66
 20
119.5
 30
0.0
 11
130.91
 21
119.5
 31
0.0
  0
LINE
  8
0
  6
CONTINUOUS
 62
     2
 10
130.91
 20
119.5
 30
0.0
 11
130.91
 21
124.0
 31
0.0
  0
LINE
  8
0
  6
CONTINUOUS
 62
     2
 10
130.91
 20
124.0
 30
0.0
 11
130.66
 21
124.0
 31
0.0
  0
LINE
  8
0
  6
CONTINUOUS
 62
     2
 10
130.66
 20
124.0
 30
0.0
 11
130.66
 21
119.5
 31
0.0
  0
LINE
  8
0
  6
CONTINUOUS
 62
     2
 10
130.91
 20
122.8
 30
0.0
 11
131.314890267
 21
122.8
 31
0.0
  0
LINE
  8
0
  6
CONTINUOUS
 62
     2
 10
131.273981176
 20
122.575
 30
0.0
 11
130.91
 21
122.575
 31
0.0
  0
LINE
  8
0
  6
CONTINUOUS
 62
     2
 10
131.318519528
 20
121.075
 30
0.0
 11
130.91
 21
121.075
 31
0.0
  0
LINE
  8
0
  6
CONTINUOUS
 62
     2
 10
130.91
 20
120.8
 30
0.0
 11
131.275550778
 21
120.8
 31
0.0
  0
LINE
  8
0
  6
CONTINUOUS
 62
     2
 10
130.66
 20
122.575
 30
0.0
 11
130.51
 21
122.575
 31
0.0
  0
LINE
  8
0
  6
CONTINUOUS
 62
     2
 10
130.26
 20
122.8
 30
0.0
 11
130.66
 21
122.8
 31
0.0
  0
LINE
  8
0
  6
CONTINUOUS
 62
     2
 10
130.66
 20
122.575
 30
0.0
 11
130.26
 21
122.575
 31
0.0
  0
LINE
  8
0
  6
CONTINUOUS
 62
     2
 10
130.66
 20
121.075
 30
0.0
 11
130.26
 21
121.075
 31
0.0
  0
LINE
  8
0
  6
CONTINUOUS
 62
     2
 10
130.26
 20
120.8
 30
0.0
 11
130.66
 21
120.8
 31
0.0
  0
LINE
  8
0
  6
CONTINUOUS
 62
     2
 10
133.182253903
 20
123.85
 30
0.0
 11
131.932253903
 21
123.85
 31
0.0
  0
LINE
  8
0
  6
CONTINUOUS
 62
     2
 10
133.182253903
 20
123.85
 30
0.0
 11
133.432253903
 21
123.6
 31
0.0
  0
LINE
  8
0
  6
CONTINUOUS
 62
     2
 10
133.172253903
 20
122.785
 30
0.0
 11
133.432253903
 21
123.085
 31
0.0
  0
LINE
  8
0
  6
CONTINUOUS
 62
     2
 10
133.432253903
 20
120.5
 30
0.0
 11
133.132253903
 21
120.77
 31
0.0
  0
LINE
  8
0
  6
CONTINUOUS
 62
     2
 10
133.432253903
 20
121.075
 30
0.0
 11
133.132253903
 21
120.805
 31
0.0
  0
LINE
  8
0
  6
CONTINUOUS
 62
     2
 10
133.132253903
 20
119.775
 30
0.0
 11
133.432253903
 21
120.075
 31
0.0
  0
LINE
  8
0
  6
CONTINUOUS
 62
     2
 10
131.932253903
 20
119.8
 30
0.0
 11
133.182253903
 21
119.8
 31
0.0
  0
LINE
  8
0
  6
CONTINUOUS
 62
     2
 10
131.932253903
 20
123.85
 30
0.0
 11
131.932253903
 21
119.8
 31
0.0
  0
LINE
  8
0
  6
CONTINUOUS
 62
     2
 10
133.432253903
 20
120.055
 30
0.0
 11
133.432253903
 21
123.6
 31
0.0
  0
LINE
  8
0
  6
CONTINUOUS
 62
     2
 10
133.185253903
 20
122.8
 30
0.0
 11
133.435253903
 21
122.6
 31
0.0
  0
LINE
  8
0
  6
CONTINUOUS
 62
     2
 10
131.932253903
 20
122.575
 30
0.0
 11
131.773981176
 21
122.575
 31
0.0
  0
LINE
  8
0
  6
CONTINUOUS
 62
     2
 10
131.932253903
 20
121.075
 30
0.0
 11
131.818519528
 21
121.075
 31
0.0
  0
LINE
  8
0
  6
CONTINUOUS
 62
     2
 10
133.76
 20
122.8
 30
0.0
 11
133.76
 21
120.8
 31
0.0
  0
LINE
  8
0
  6
CONTINUOUS
 62
     2
 10
133.76
 20
122.575
 30
0.0
 11
133.432253903
 21
122.575
 31
0.0
  0
LINE
  8
0
  6
CONTINUOUS
 62
     2
 10
133.432253903
 20
122.8
 30
0.0
 11
133.76
 21
122.8
 31
0.0
  0
LINE
  8
0
  6
CONTINUOUS
 62
     2
 10
133.76
 20
120.8
 30
0.0
 11
133.432253903
 21
120.8
 31
0.0
  0
LINE
  8
0
  6
CONTINUOUS
 62
     2
 10
133.432253903
 20
121.075
 30
0.0
 11
133.76
 21
121.075
 31
0.0
  0
LINE
  8
0
  6
CONTINUOUS
 62
     2
 10
173.76
 20
123.775
 30
0.0
 11
172.006298557
 21
122.7625
 31
0.0
  0
LINE
  8
0
  6
CONTINUOUS
 62
     2
 10
172.006298557
 20
122.7625
 30
0.0
 11
172.006298557
 21
120.7375
 31
0.0
  0
LINE
  8
0
  6
CONTINUOUS
 62
     2
 10
172.006298557
 20
120.7375
 30
0.0
 11
173.76
 21
119.725
 31
0.0
  0
LINE
  8
0
  6
CONTINUOUS
 62
     2
 10
173.76
 20
119.725
 30
0.0
 11
175.513701443
 21
120.7375
 31
0.0
  0
LINE
  8
0
  6
CONTINUOUS
 62
     2
 10
175.513701443
 20
120.7375
 30
0.0
 11
175.513701443
 21
122.7625
 31
0.0
  0
LINE
  8
0
  6
CONTINUOUS
 62
     2
 10
175.513701443
 20
122.7625
 30
0.0
 11
173.76
 21
123.775
 31
0.0
  0
CIRCLE
  8
0
  6
CONTINUOUS
 62
     2
 10
173.76
 20
121.75
 30
0.0
 40
0.8
  0
CIRCLE
  8
0
  6
CONTINUOUS
 62
     2
 10
173.76
 20
121.75
 30
0.0
 40
1.0
  0
ARC
  8
0
  6
LTYPE2
 62
     2
 10
173.76
 20
121.75
 30
0.0
 40
1.975
 50
328.025496594
 51
217.415803658
  0
LINE
  8
0
  6
LTYPE2
 62
     2
 10
175.328637944
 20
120.55
 30
0.0
 11
174.67147392
 21
119.600763076
 31
0.0
  0
LINE
  8
0
  6
LTYPE2
 62
     2
 10
172.191362056
 20
120.55
 30
0.0
 11
172.848529527
 21
119.600758098
 31
0.0
  0
ARC
  8
0
  6
LTYPE2
 62
     2
 10
171.204145143
 20
118.46233814
 30
0.0
 40
2.0
 50
10.612929601
 51
34.695153531
  0
ARC
  8
0
  6
LTYPE2
 62
     2
 10
176.315858303
 20
118.462343118
 30
0.0
 40
2.0
 50
145.304846469
 51
169.387402194
  0
LINE
  8
0
  6
LTYPE2
 62
     2
 10
174.350068544
 20
118.830678053
 30
0.0
 11
174.260002697
 21
118.35
 31
0.0
  0
LINE
  8
0
  6
LTYPE2
 62
     2
 10
173.169932769
 20
118.830684458
 30
0.0
 11
173.260002697
 21
118.35
 31
0.0
  0
CIRCLE
  8
0
  6
CONTINUOUS
 62
     2
 10
173.76
 20
121.75
 30
0.0
 40
2.25
  0
LINE
  8
0
  6
CONTINUOUS
 62
     2
 10
186.26
 20
123.775
 30
0.0
 11
184.506298557
 21
122.7625
 31
0.0
  0
LINE
  8
0
  6
CONTINUOUS
 62
     2
 10
184.506298557
 20
122.7625
 30
0.0
 11
184.506298557
 21
120.7375
 31
0.0
  0
LINE
  8
0
  6
CONTINUOUS
 62
     2
 10
184.506298557
 20
120.7375
 30
0.0
 11
186.26
 21
119.725
 31
0.0
  0
LINE
  8
0
  6
CONTINUOUS
 62
     2
 10
186.26
 20
119.725
 30
0.0
 11
188.013701443
 21
120.7375
 31
0.0
  0
LINE
  8
0
  6
CONTINUOUS
 62
     2
 10
188.013701443
 20
120.7375
 30
0.0
 11
188.013701443
 21
122.7625
 31
0.0
  0
LINE
  8
0
  6
CONTINUOUS
 62
     2
 10
188.013701443
 20
122.7625
 30
0.0
 11
186.26
 21
123.775
 31
0.0
  0
CIRCLE
  8
0
  6
CONTINUOUS
 62
     2
 10
186.26
 20
121.75
 30
0.0
 40
0.8
  0
CIRCLE
  8
0
  6
CONTINUOUS
 62
     2
 10
186.26
 20
121.75
 30
0.0
 40
1.0
  0
ARC
  8
0
  6
LTYPE2
 62
     2
 10
186.26
 20
121.75
 30
0.0
 40
1.975
 50
328.025496594
 51
217.415803658
  0
LINE
  8
0
  6
LTYPE2
 62
     2
 10
187.828637944
 20
120.55
 30
0.0
 11
187.17147392
 21
119.600763076
 31
0.0
  0
LINE
  8
0
  6
LTYPE2
 62
     2
 10
184.691362056
 20
120.55
 30
0.0
 11
185.348529527
 21
119.600758098
 31
0.0
  0
ARC
  8
0
  6
LTYPE2
 62
     2
 10
183.704145143
 20
118.46233814
 30
0.0
 40
2.0
 50
10.612929601
 51
34.695153531
  0
ARC
  8
0
  6
LTYPE2
 62
     2
 10
188.815858303
 20
118.462343118
 30
0.0
 40
2.0
 50
145.304846469
 51
169.387402194
  0
LINE
  8
0
  6
LTYPE2
 62
     2
 10
186.850068544
 20
118.830678053
 30
0.0
 11
186.760002697
 21
118.35
 31
0.0
  0
LINE
  8
0
  6
LTYPE2
 62
     2
 10
185.669932769
 20
118.830684458
 30
0.0
 11
185.760002697
 21
118.35
 31
0.0
  0
CIRCLE
  8
0
  6
CONTINUOUS
 62
     2
 10
186.26
 20
121.75
 30
0.0
 40
2.25
  0
TEXT
  8
0
  6
CONTINUOUS
 62
     1
 10
97.5
 20
60.1
 30
0.5
 40
4.0
  1
ＡＣＦ－６（電圧計）
 50
0.0
 41
0.9
 51
0.0
  7
KANJI8
  0
TEXT
  8
0
  6
CONTINUOUS
 62
     1
 10
141.3
 20
56.6
 30
0.4375
 40
3.5
  1
パネル用計器外形図
 50
0.0
 41
0.9
 51
0.0
  7
KANJI9
  0
TEXT
  8
0
  6
CONTINUOUS
 62
     2
 10
141.3
 20
61.6
 30
0.375
 40
3.0
  1
予定指針付　端子キャップ付
 50
0.0
 41
0.9
 51
0.0
  7
KANJI10
  0
LINE
  8
0
  6
CONTINUOUS
 62
     2
 10
119.5
 20
113.5
 30
0.0
 11
133.246760235
 21
89.3
 31
0.0
  0
TEXT
  8
0
  6
CONTINUOUS
 62
     2
 10
133.406520517
 20
90.3
 30
0.3
 40
3.0
  1
直列抵抗器
 50
0.0
 41
0.9
 51
0.0
  7
KANJI6
  0
LINE
  8
0
  6
CONTINUOUS
 62
     2
 10
133.246760235
 20
89.3
 30
0.0
 11
149.906520517
 21
89.3
 31
0.0
  0
TEXT
  8
0
  6
CONTINUOUS
 62
     3
 10
100.0
 20
43.0
 30
0.6
 40
6.0
  1
ＭＳ－１１４６４Ｂ
 50
0.0
 41
0.9
 51
0.0
  7
KANJI11
  0
LINE
  8
0
  6
LTYPE1
 62
     2
 10
62.6
 20
120.0
 30
0.0
 11
23.8
 21
120.0
 31
0.0
  0
LINE
  8
0
  6
LTYPE1
 62
     2
 10
44.0
 20
137.1
 30
0.0
 11
44.0
 21
102.1
 31
0.0
  0
LINE
  8
0
  6
LTYPE1
 62
     2
 10
27.6
 20
63.538455967
 30
0.0
 11
58.5
 21
63.538455967
 31
0.0
  0
LINE
  8
0
  6
LTYPE1
 62
     2
 10
44.0
 20
79.038455967
 30
0.0
 11
44.0
 21
47.8
 31
0.0
  0
LINE
  8
0
  6
LTYPE1
 62
     2
 10
140.4
 20
120.0
 30
0.0
 11
83.6
 21
120.0
 31
0.0
  0
LINE
  8
0
  6
LTYPE1
 62
     2
 10
198.26
 20
120.0
 30
0.0
 11
157.4
 21
120.0
 31
0.0
  0
ENDSEC
  0
EOF
