  0
SECTION
  2
HEADER
  9
$ACADVER
  1
AC1009
  9
$DWGCODEPAGE
  3
dos932
  9
$EXTMIN
 10
0.0
 20
0.0
 30
0.0
  9
$EXTMAX
 10
297.0
 20
210.0
 30
0.0
  9
$LIMMIN
 10
0.0
 20
0.0
  9
$LIMMAX
 10
297.0
 20
210.0
  9
$LTSCALE
 40
1.0
  9
$PDMODE
 70
     0
  0
ENDSEC
  0
SECTION
  2
TABLES
  0
TABLE
  2
VPORT
 70
     1
  0
VPORT
  2
*ACTIVE
 70
     0
 10
0.0
 20
0.0
 11
1.0
 21
1.0
 12
148.5
 22
105.0
 13
0.0
 23
0.0
 14
10.0
 24
10.0
 15
10.0
 25
10.0
 16
0.0
 26
0.0
 36
1.0
 17
0.0
 27
0.0
 37
0.0
 40
297.0
 41
1.414285714
 42
50.0
 43
0.0
 44
0.0
 50
0.0
 51
0.0
 71
     0
 72
  1000
 73
     1
 74
     3
 75
     0
 76
     0
 77
     0
 78
     0
  0
ENDTAB
  0
TABLE
  2
LTYPE
 70
     2
  0
LTYPE
  2
CONTINUOUS
 70
    64
  3
Solid line
 72
    65
 73
     0
 40
0.0
  0
LTYPE
  2
LTYPE1
 70
    64
  3
CENTER
 72
    65
 73
     4
 40
5.0
 49
3.5
 49
-0.5
 49
0.5
 49
-0.5
  0
ENDTAB
  0
TABLE
  2
LAYER
 70
   128
  0
LAYER
  2
0
 70
     0
 62
     7
  6
CONTINUOUS
  0
LAYER
  2
2
 70
     0
 62
     7
  6
CONTINUOUS
  0
LAYER
  2
3
 70
     0
 62
     7
  6
CONTINUOUS
  0
LAYER
  2
4
 70
     0
 62
     7
  6
CONTINUOUS
  0
LAYER
  2
5
 70
     0
 62
     7
  6
CONTINUOUS
  0
LAYER
  2
6
 70
     0
 62
     7
  6
CONTINUOUS
  0
LAYER
  2
7
 70
     0
 62
     7
  6
CONTINUOUS
  0
LAYER
  2
8
 70
     0
 62
     7
  6
CONTINUOUS
  0
LAYER
  2
9
 70
     0
 62
     7
  6
CONTINUOUS
  0
LAYER
  2
10
 70
     0
 62
     7
  6
CONTINUOUS
  0
LAYER
  2
11
 70
     0
 62
     7
  6
CONTINUOUS
  0
LAYER
  2
12
 70
     0
 62
     7
  6
CONTINUOUS
  0
LAYER
  2
13
 70
     0
 62
     7
  6
CONTINUOUS
  0
LAYER
  2
14
 70
     0
 62
     7
  6
CONTINUOUS
  0
LAYER
  2
15
 70
     0
 62
     7
  6
CONTINUOUS
  0
LAYER
  2
16
 70
     0
 62
     7
  6
CONTINUOUS
  0
LAYER
  2
17
 70
     0
 62
     7
  6
CONTINUOUS
  0
LAYER
  2
18
 70
     0
 62
     7
  6
CONTINUOUS
  0
LAYER
  2
19
 70
     0
 62
     7
  6
CONTINUOUS
  0
LAYER
  2
20
 70
     0
 62
     7
  6
CONTINUOUS
  0
LAYER
  2
21
 70
     0
 62
     7
  6
CONTINUOUS
  0
LAYER
  2
22
 70
     0
 62
     7
  6
CONTINUOUS
  0
LAYER
  2
23
 70
     0
 62
     7
  6
CONTINUOUS
  0
LAYER
  2
24
 70
     0
 62
     7
  6
CONTINUOUS
  0
LAYER
  2
25
 70
     0
 62
     7
  6
CONTINUOUS
  0
LAYER
  2
26
 70
     0
 62
     7
  6
CONTINUOUS
  0
LAYER
  2
27
 70
     0
 62
     7
  6
CONTINUOUS
  0
LAYER
  2
28
 70
     0
 62
     7
  6
CONTINUOUS
  0
LAYER
  2
29
 70
     0
 62
     7
  6
CONTINUOUS
  0
LAYER
  2
30
 70
     0
 62
     7
  6
CONTINUOUS
  0
LAYER
  2
31
 70
     0
 62
     7
  6
CONTINUOUS
  0
LAYER
  2
32
 70
     0
 62
     7
  6
CONTINUOUS
  0
LAYER
  2
33
 70
     0
 62
     7
  6
CONTINUOUS
  0
LAYER
  2
34
 70
     0
 62
     7
  6
CONTINUOUS
  0
LAYER
  2
35
 70
     0
 62
     7
  6
CONTINUOUS
  0
LAYER
  2
36
 70
     0
 62
     7
  6
CONTINUOUS
  0
LAYER
  2
37
 70
     0
 62
     7
  6
CONTINUOUS
  0
LAYER
  2
38
 70
     0
 62
     7
  6
CONTINUOUS
  0
LAYER
  2
39
 70
     0
 62
     7
  6
CONTINUOUS
  0
LAYER
  2
40
 70
     0
 62
     7
  6
CONTINUOUS
  0
LAYER
  2
41
 70
     0
 62
     7
  6
CONTINUOUS
  0
LAYER
  2
42
 70
     0
 62
     7
  6
CONTINUOUS
  0
LAYER
  2
43
 70
     0
 62
     7
  6
CONTINUOUS
  0
LAYER
  2
44
 70
     0
 62
     7
  6
CONTINUOUS
  0
LAYER
  2
45
 70
     0
 62
     7
  6
CONTINUOUS
  0
LAYER
  2
46
 70
     0
 62
     7
  6
CONTINUOUS
  0
LAYER
  2
47
 70
     0
 62
     7
  6
CONTINUOUS
  0
LAYER
  2
48
 70
     0
 62
     7
  6
CONTINUOUS
  0
LAYER
  2
49
 70
     0
 62
     7
  6
CONTINUOUS
  0
LAYER
  2
50
 70
     0
 62
     7
  6
CONTINUOUS
  0
LAYER
  2
51
 70
     0
 62
     7
  6
CONTINUOUS
  0
LAYER
  2
52
 70
     0
 62
     7
  6
CONTINUOUS
  0
LAYER
  2
53
 70
     0
 62
     7
  6
CONTINUOUS
  0
LAYER
  2
54
 70
     0
 62
     7
  6
CONTINUOUS
  0
LAYER
  2
55
 70
     0
 62
     7
  6
CONTINUOUS
  0
LAYER
  2
56
 70
     0
 62
     7
  6
CONTINUOUS
  0
LAYER
  2
57
 70
     0
 62
     7
  6
CONTINUOUS
  0
LAYER
  2
58
 70
     0
 62
     7
  6
CONTINUOUS
  0
LAYER
  2
59
 70
     0
 62
     7
  6
CONTINUOUS
  0
LAYER
  2
60
 70
     0
 62
     7
  6
CONTINUOUS
  0
LAYER
  2
61
 70
     0
 62
     7
  6
CONTINUOUS
  0
LAYER
  2
62
 70
     0
 62
     7
  6
CONTINUOUS
  0
LAYER
  2
63
 70
     0
 62
     7
  6
CONTINUOUS
  0
LAYER
  2
64
 70
     0
 62
     7
  6
CONTINUOUS
  0
LAYER
  2
65
 70
     0
 62
     7
  6
CONTINUOUS
  0
LAYER
  2
66
 70
     0
 62
     7
  6
CONTINUOUS
  0
LAYER
  2
67
 70
     0
 62
     7
  6
CONTINUOUS
  0
LAYER
  2
68
 70
     0
 62
     7
  6
CONTINUOUS
  0
LAYER
  2
69
 70
     0
 62
     7
  6
CONTINUOUS
  0
LAYER
  2
70
 70
     0
 62
     7
  6
CONTINUOUS
  0
LAYER
  2
71
 70
     0
 62
     7
  6
CONTINUOUS
  0
LAYER
  2
72
 70
     0
 62
     7
  6
CONTINUOUS
  0
LAYER
  2
73
 70
     0
 62
     7
  6
CONTINUOUS
  0
LAYER
  2
74
 70
     0
 62
     7
  6
CONTINUOUS
  0
LAYER
  2
75
 70
     0
 62
     7
  6
CONTINUOUS
  0
LAYER
  2
76
 70
     0
 62
     7
  6
CONTINUOUS
  0
LAYER
  2
77
 70
     0
 62
     7
  6
CONTINUOUS
  0
LAYER
  2
78
 70
     0
 62
     7
  6
CONTINUOUS
  0
LAYER
  2
79
 70
     0
 62
     7
  6
CONTINUOUS
  0
LAYER
  2
80
 70
     0
 62
     7
  6
CONTINUOUS
  0
LAYER
  2
81
 70
     0
 62
     7
  6
CONTINUOUS
  0
LAYER
  2
82
 70
     0
 62
     7
  6
CONTINUOUS
  0
LAYER
  2
83
 70
     0
 62
     7
  6
CONTINUOUS
  0
LAYER
  2
84
 70
     0
 62
     7
  6
CONTINUOUS
  0
LAYER
  2
85
 70
     0
 62
     7
  6
CONTINUOUS
  0
LAYER
  2
86
 70
     0
 62
     7
  6
CONTINUOUS
  0
LAYER
  2
87
 70
     0
 62
     7
  6
CONTINUOUS
  0
LAYER
  2
88
 70
     0
 62
     7
  6
CONTINUOUS
  0
LAYER
  2
89
 70
     0
 62
     7
  6
CONTINUOUS
  0
LAYER
  2
90
 70
     0
 62
     7
  6
CONTINUOUS
  0
LAYER
  2
91
 70
     0
 62
     7
  6
CONTINUOUS
  0
LAYER
  2
92
 70
     0
 62
     7
  6
CONTINUOUS
  0
LAYER
  2
93
 70
     0
 62
     7
  6
CONTINUOUS
  0
LAYER
  2
94
 70
     0
 62
     7
  6
CONTINUOUS
  0
LAYER
  2
95
 70
     0
 62
     7
  6
CONTINUOUS
  0
LAYER
  2
96
 70
     0
 62
     7
  6
CONTINUOUS
  0
LAYER
  2
97
 70
     0
 62
     7
  6
CONTINUOUS
  0
LAYER
  2
98
 70
     0
 62
     7
  6
CONTINUOUS
  0
LAYER
  2
99
 70
     0
 62
     7
  6
CONTINUOUS
  0
LAYER
  2
100
 70
     0
 62
     7
  6
CONTINUOUS
  0
LAYER
  2
101
 70
     0
 62
     7
  6
CONTINUOUS
  0
LAYER
  2
102
 70
     0
 62
     7
  6
CONTINUOUS
  0
LAYER
  2
103
 70
     0
 62
     7
  6
CONTINUOUS
  0
LAYER
  2
104
 70
     0
 62
     7
  6
CONTINUOUS
  0
LAYER
  2
105
 70
     0
 62
     7
  6
CONTINUOUS
  0
LAYER
  2
106
 70
     0
 62
     7
  6
CONTINUOUS
  0
LAYER
  2
107
 70
     0
 62
     7
  6
CONTINUOUS
  0
LAYER
  2
108
 70
     0
 62
     7
  6
CONTINUOUS
  0
LAYER
  2
109
 70
     0
 62
     7
  6
CONTINUOUS
  0
LAYER
  2
110
 70
     0
 62
     7
  6
CONTINUOUS
  0
LAYER
  2
111
 70
     0
 62
     7
  6
CONTINUOUS
  0
LAYER
  2
112
 70
     0
 62
     7
  6
CONTINUOUS
  0
LAYER
  2
113
 70
     0
 62
     7
  6
CONTINUOUS
  0
LAYER
  2
114
 70
     0
 62
     7
  6
CONTINUOUS
  0
LAYER
  2
115
 70
     0
 62
     7
  6
CONTINUOUS
  0
LAYER
  2
116
 70
     0
 62
     7
  6
CONTINUOUS
  0
LAYER
  2
117
 70
     0
 62
     7
  6
CONTINUOUS
  0
LAYER
  2
118
 70
     0
 62
     7
  6
CONTINUOUS
  0
LAYER
  2
119
 70
     0
 62
     7
  6
CONTINUOUS
  0
LAYER
  2
120
 70
     0
 62
     7
  6
CONTINUOUS
  0
LAYER
  2
121
 70
     0
 62
     7
  6
CONTINUOUS
  0
LAYER
  2
122
 70
     0
 62
     7
  6
CONTINUOUS
  0
LAYER
  2
123
 70
     0
 62
     7
  6
CONTINUOUS
  0
LAYER
  2
124
 70
     0
 62
     7
  6
CONTINUOUS
  0
LAYER
  2
125
 70
     0
 62
     7
  6
CONTINUOUS
  0
LAYER
  2
126
 70
     0
 62
     7
  6
CONTINUOUS
  0
LAYER
  2
127
 70
     0
 62
     7
  6
CONTINUOUS
  0
LAYER
  2
128
 70
     0
 62
     7
  6
CONTINUOUS
  0
ENDTAB
  0
TABLE
  2
STYLE
 70
    17
  0
STYLE
  2
STANDARD
 70
     0
 40
0.0
 41
1.0
 50
0.0
 71
     0
 42
0.2
  3
txt.shx
  4
extfont.shx
  0
STYLE
  2
KANJI0
 70
     0
 40
4.0
 41
0.9
 50
0.0
 71
     0
 42
4.0
  3
txt.shx
  4
extfont.shx
  0
STYLE
  2
KANJI1
 70
     0
 40
4.0
 41
0.675
 50
0.0
 71
     0
 42
4.0
  3
txt.shx
  4
extfont.shx
  0
STYLE
  2
KANJI2
 70
     0
 40
3.0
 41
0.6
 50
0.0
 71
     0
 42
3.0
  3
txt.shx
  4
extfont.shx
  0
STYLE
  2
KANJI3
 70
     0
 40
1.8
 41
0.6
 50
0.0
 71
     0
 42
1.8
  3
txt.shx
  4
extfont.shx
  0
STYLE
  2
KANJI4
 70
     0
 40
3.0
 41
0.666666667
 50
0.0
 71
     0
 42
3.0
  3
txt.shx
  4
extfont.shx
  0
STYLE
  2
KANJI5
 70
     0
 40
3.0
 41
0.833333333
 50
0.0
 71
     0
 42
3.0
  3
txt.shx
  4
extfont.shx
  0
STYLE
  2
KANJI6
 70
     0
 40
2.0
 41
0.75
 50
0.0
 71
     0
 42
2.0
  3
txt.shx
  4
extfont.shx
  0
STYLE
  2
KANJI7
 70
     0
 40
3.0
 41
0.666666667
 50
0.0
 71
     0
 42
3.0
  3
txt.shx
  4
extfont.shx
  0
STYLE
  2
KANJI8
 70
     0
 40
3.0
 41
0.666666667
 50
0.0
 71
     0
 42
3.0
  3
txt.shx
  4
extfont.shx
  0
STYLE
  2
KANJI9
 70
     0
 40
3.0
 41
0.666666667
 50
0.0
 71
     0
 42
3.0
  3
txt.shx
  4
extfont.shx
  0
STYLE
  2
KANJI10
 70
     0
 40
1.6
 41
0.9
 50
0.0
 71
     0
 42
1.6
  3
txt.shx
  4
extfont.shx
  0
STYLE
  2
KANJI11
 70
     0
 40
6.0
 41
0.9
 50
0.0
 71
     0
 42
6.0
  3
txt.shx
  4
extfont.shx
  0
STYLE
  2
KANJI12
 70
     0
 40
4.0
 41
0.9
 50
0.0
 71
     0
 42
4.0
  3
txt.shx
  4
extfont.shx
  0
STYLE
  2
KANJI13
 70
     0
 40
4.8
 41
0.9
 50
0.0
 71
     0
 42
4.8
  3
txt.shx
  4
extfont.shx
  0
STYLE
  2
KANJI14
 70
     0
 40
3.0
 41
0.666666667
 50
0.0
 71
     0
 42
3.0
  3
txt.shx
  4
extfont.shx
  0
STYLE
  2
KANJI15
 70
     0
 40
2.4
 41
0.9
 50
0.0
 71
     0
 42
2.4
  3
txt.shx
  4
extfont.shx
  0
ENDTAB
  0
TABLE
  2
VIEW
 70
     0
  0
ENDTAB
  0
ENDSEC
  0
SECTION
  2
BLOCKS
  0
ENDSEC
  0
SECTION
  2
ENTITIES
  0
LINE
  8
0
  6
CONTINUOUS
 62
     1
 10
49.9
 20
120.378460969
 30
0.0
 11
49.9
 21
116.221539031
 31
0.0
  0
ARC
  8
0
  6
CONTINUOUS
 62
     1
 10
50.2
 20
118.3
 30
0.0
 40
2.1
 50
90.0
 51
270.0
  0
LINE
  8
0
  6
CONTINUOUS
 62
     1
 10
16.0
 20
112.75
 30
0.0
 11
50.2
 21
112.75
 31
0.0
  0
ARC
  8
0
  6
CONTINUOUS
 62
     1
 10
16.0
 20
114.7
 30
0.0
 40
1.95
 50
180.0
 51
270.0
  0
LINE
  8
0
  6
CONTINUOUS
 62
     1
 10
50.2
 20
173.05
 30
0.0
 11
16.0
 21
173.05
 31
0.0
  0
LINE
  8
0
  6
CONTINUOUS
 62
     1
 10
14.05
 20
171.1
 30
0.0
 11
14.05
 21
114.7
 31
0.0
  0
ARC
  8
0
  6
CONTINUOUS
 62
     1
 10
16.0
 20
171.1
 30
0.0
 40
1.95
 50
90.0
 51
180.0
  0
CIRCLE
  8
0
  6
CONTINUOUS
 62
     1
 10
20.2
 20
130.3
 30
0.0
 40
2.16
  0
LINE
  8
0
  6
CONTINUOUS
 62
     1
 10
16.42
 20
133.9
 30
0.0
 11
50.2
 21
133.9
 31
0.0
  0
LINE
  8
0
  6
CONTINUOUS
 62
     1
 10
16.42
 20
170.08
 30
0.0
 11
16.42
 21
133.9
 31
0.0
  0
LINE
  8
0
  6
CONTINUOUS
 62
     1
 10
50.2
 20
170.68
 30
0.0
 11
17.02
 21
170.68
 31
0.0
  0
ARC
  8
0
  6
CONTINUOUS
 62
     1
 10
17.02
 20
170.08
 30
0.0
 40
0.6
 50
90.0
 51
180.0
  0
LINE
  8
0
  6
CONTINUOUS
 62
     1
 10
22.728901551
 20
152.758966415
 30
0.0
 11
22.941033585
 21
152.971098449
 31
0.0
  0
LINE
  8
0
  6
CONTINUOUS
 62
     1
 10
22.728901551
 20
152.758966415
 30
0.0
 11
40.792130986
 21
133.9
 31
0.0
  0
LINE
  8
0
  6
CONTINUOUS
 62
     1
 10
42.85226853
 20
133.9
 30
0.0
 11
22.941033585
 21
152.971098449
 31
0.0
  0
POINT
  8
0
  6
CONTINUOUS
 62
     1
 10
50.2
 20
170.53
 30
0.0
  0
CIRCLE
  8
0
  6
CONTINUOUS
 62
     1
 10
180.6
 20
71.0
 30
0.0
 40
26.1
  0
CIRCLE
  8
0
  6
CONTINUOUS
 62
     1
 10
150.6
 20
98.0
 30
0.0
 40
1.5
  0
CIRCLE
  8
0
  6
CONTINUOUS
 62
     1
 10
210.6
 20
98.0
 30
0.0
 40
1.5
  0
CIRCLE
  8
0
  6
CONTINUOUS
 62
     1
 10
210.6
 20
50.0
 30
0.0
 40
1.5
  0
CIRCLE
  8
0
  6
CONTINUOUS
 62
     1
 10
150.6
 20
50.0
 30
0.0
 40
1.5
  0
TEXT
  8
0
  6
CONTINUOUS
 62
     1
 10
169.1
 20
25.0
 30
1.0
 40
4.0
  1
パネルカット
 50
0.0
 41
0.9
 51
0.0
  7
KANJI0
  0
LINE
  8
0
  6
CONTINUOUS
 62
     1
 10
167.8
 20
24.1
 30
0.0
 11
195.8
 21
24.1
 31
0.0
  0
TEXT
  8
0
  6
CONTINUOUS
 62
     1
 10
17.8
 20
86.46
 30
0.5
 40
4.0
  1
ターミナルネジ端子番号表
 50
0.0
 41
0.675
 51
0.0
  7
KANJI1
  0
LINE
  8
0
  6
CONTINUOUS
 62
     1
 10
16.5
 20
77.16
 30
0.0
 11
122.5
 21
77.16
 31
0.0
  0
LINE
  8
0
  6
CONTINUOUS
 62
     1
 10
122.5
 20
27.16
 30
0.0
 11
122.5
 21
82.16
 31
0.0
  0
LINE
  8
0
  6
CONTINUOUS
 62
     1
 10
122.5
 20
82.06
 30
0.0
 11
16.4
 21
82.06
 31
0.0
  0
LINE
  8
0
  6
CONTINUOUS
 62
     1
 10
78.5
 20
27.16
 30
0.0
 11
78.5
 21
82.16
 31
0.0
  0
LINE
  8
0
  6
CONTINUOUS
 62
     1
 10
45.5
 20
82.16
 30
0.0
 11
45.5
 21
27.16
 31
0.0
  0
LINE
  8
0
  6
CONTINUOUS
 62
     1
 10
16.5
 20
27.16
 30
0.0
 11
122.5
 21
27.16
 31
0.0
  0
LINE
  8
0
  6
CONTINUOUS
 62
     1
 10
16.4
 20
82.06
 30
0.0
 11
16.4
 21
27.2
 31
0.0
  0
LINE
  8
0
  6
CONTINUOUS
 62
     2
 10
50.2
 20
171.7
 30
0.0
 11
50.2
 21
133.9
 31
0.0
  0
LINE
  8
0
  6
CONTINUOUS
 62
     2
 10
16.0
 20
114.1
 30
0.0
 11
50.2
 21
114.1
 31
0.0
  0
ARC
  8
0
  6
CONTINUOUS
 62
     2
 10
16.0
 20
114.7
 30
0.0
 40
0.6
 50
180.0
 51
270.0
  0
LINE
  8
0
  6
CONTINUOUS
 62
     2
 10
50.2
 20
171.7
 30
0.0
 11
16.0
 21
171.7
 31
0.0
  0
LINE
  8
0
  6
CONTINUOUS
 62
     2
 10
15.4
 20
171.1
 30
0.0
 11
15.4
 21
114.7
 31
0.0
  0
ARC
  8
0
  6
CONTINUOUS
 62
     2
 10
16.0
 20
171.1
 30
0.0
 40
0.6
 50
90.0
 51
180.0
  0
CIRCLE
  8
0
  6
CONTINUOUS
 62
     2
 10
20.2
 20
130.3
 30
0.0
 40
1.8
  0
LINE
  8
0
  6
CONTINUOUS
 62
     2
 10
19.15
 20
130.54
 30
0.0
 11
19.72
 21
130.54
 31
0.0
  0
ARC
  8
0
  6
CONTINUOUS
 62
     2
 10
19.72
 20
130.78
 30
0.0
 40
0.24
 50
270.0
 51
0.0
  0
LINE
  8
0
  6
CONTINUOUS
 62
     2
 10
19.96
 20
130.78
 30
0.0
 11
19.96
 21
131.35
 31
0.0
  0
LINE
  8
0
  6
CONTINUOUS
 62
     2
 10
19.96
 20
131.35
 30
0.0
 11
20.44
 21
131.35
 31
0.0
  0
LINE
  8
0
  6
CONTINUOUS
 62
     2
 10
20.44
 20
131.35
 30
0.0
 11
20.44
 21
130.78
 31
0.0
  0
ARC
  8
0
  6
CONTINUOUS
 62
     2
 10
20.68
 20
130.78
 30
0.0
 40
0.24
 50
180.0
 51
270.0
  0
LINE
  8
0
  6
CONTINUOUS
 62
     2
 10
20.68
 20
130.54
 30
0.0
 11
21.25
 21
130.54
 31
0.0
  0
LINE
  8
0
  6
CONTINUOUS
 62
     2
 10
21.25
 20
130.54
 30
0.0
 11
21.25
 21
130.06
 31
0.0
  0
LINE
  8
0
  6
CONTINUOUS
 62
     2
 10
21.25
 20
130.06
 30
0.0
 11
20.68
 21
130.06
 31
0.0
  0
ARC
  8
0
  6
CONTINUOUS
 62
     2
 10
20.68
 20
129.82
 30
0.0
 40
0.24
 50
90.0
 51
180.0
  0
LINE
  8
0
  6
CONTINUOUS
 62
     2
 10
20.44
 20
129.82
 30
0.0
 11
20.44
 21
129.25
 31
0.0
  0
LINE
  8
0
  6
CONTINUOUS
 62
     2
 10
20.44
 20
129.25
 30
0.0
 11
19.96
 21
129.25
 31
0.0
  0
LINE
  8
0
  6
CONTINUOUS
 62
     2
 10
19.96
 20
129.25
 30
0.0
 11
19.96
 21
129.82
 31
0.0
  0
ARC
  8
0
  6
CONTINUOUS
 62
     2
 10
19.72
 20
129.82
 30
0.0
 40
0.24
 50
0.0
 51
90.0
  0
LINE
  8
0
  6
CONTINUOUS
 62
     2
 10
19.72
 20
130.06
 30
0.0
 11
19.15
 21
130.06
 31
0.0
  0
LINE
  8
0
  6
CONTINUOUS
 62
     2
 10
19.15
 20
130.06
 30
0.0
 11
19.15
 21
130.54
 31
0.0
  0
LINE
  8
0
  6
LTYPE1
 62
     2
 10
17.8
 20
130.3
 30
0.0
 11
22.6
 21
130.3
 31
0.0
  0
LINE
  8
0
  6
LTYPE1
 62
     2
 10
20.2
 20
132.7
 30
0.0
 11
20.2
 21
127.9
 31
0.0
  0
LINE
  8
0
  6
CONTINUOUS
 62
     2
 10
22.834967568
 20
152.865032432
 30
0.0
 11
41.8
 21
133.9
 31
0.0
  0
LINE
  8
0
  6
CONTINUOUS
 62
     2
 10
150.6
 20
41.0
 30
0.0
 11
150.6
 21
31.7
 31
0.0
  0
LINE
  8
0
  6
CONTINUOUS
 62
     2
 10
150.6
 20
33.7
 30
0.0
 11
153.014814566
 21
33.052952387
 31
0.0
  0
LINE
  8
0
  6
CONTINUOUS
 62
     2
 10
150.6
 20
33.7
 30
0.0
 11
153.014814566
 21
34.347047613
 31
0.0
  0
LINE
  8
0
  6
CONTINUOUS
 62
     2
 10
150.6
 20
33.7
 30
0.0
 11
180.6
 21
33.7
 31
0.0
  0
LINE
  8
0
  6
CONTINUOUS
 62
     2
 10
180.6
 20
33.7
 30
0.0
 11
178.185185434
 21
34.347047613
 31
0.0
  0
LINE
  8
0
  6
CONTINUOUS
 62
     2
 10
180.6
 20
33.7
 30
0.0
 11
178.185185434
 21
33.052952387
 31
0.0
  0
LINE
  8
0
  6
CONTINUOUS
 62
     2
 10
180.6
 20
40.1
 30
0.0
 11
180.6
 21
31.7
 31
0.0
  0
TEXT
  8
0
  6
CONTINUOUS
 62
     2
 10
161.22
 20
34.7
 30
0.3
 40
3.0
  1
５０
 50
0.0
 41
0.6
 51
0.0
  7
KANJI2
  0
TEXT
  8
0
  6
CONTINUOUS
 62
     2
 10
165.12
 20
34.7
 30
0.18
 40
1.8
  1
±０．５
 50
0.0
 41
0.6
 51
0.0
  7
KANJI3
  0
LINE
  8
0
  6
CONTINUOUS
 62
     2
 10
180.6
 20
33.7
 30
0.0
 11
183.014814566
 21
33.052952387
 31
0.0
  0
LINE
  8
0
  6
CONTINUOUS
 62
     2
 10
180.6
 20
33.7
 30
0.0
 11
183.014814566
 21
34.347047613
 31
0.0
  0
LINE
  8
0
  6
CONTINUOUS
 62
     2
 10
180.6
 20
33.7
 30
0.0
 11
210.6
 21
33.7
 31
0.0
  0
LINE
  8
0
  6
CONTINUOUS
 62
     2
 10
210.6
 20
33.7
 30
0.0
 11
208.185185434
 21
34.347047613
 31
0.0
  0
LINE
  8
0
  6
CONTINUOUS
 62
     2
 10
210.6
 20
33.7
 30
0.0
 11
208.185185434
 21
33.052952387
 31
0.0
  0
LINE
  8
0
  6
CONTINUOUS
 62
     2
 10
210.6
 20
41.0
 30
0.0
 11
210.6
 21
31.7
 31
0.0
  0
TEXT
  8
0
  6
CONTINUOUS
 62
     2
 10
191.22
 20
34.7
 30
0.3
 40
3.0
  1
５０
 50
0.0
 41
0.6
 51
0.0
  7
KANJI2
  0
TEXT
  8
0
  6
CONTINUOUS
 62
     2
 10
195.12
 20
34.7
 30
0.18
 40
1.8
  1
±０．５
 50
0.0
 41
0.6
 51
0.0
  7
KANJI3
  0
LINE
  8
0
  6
CONTINUOUS
 62
     2
 10
137.9
 20
71.0
 30
0.0
 11
138.547047613
 21
73.414814566
 31
0.0
  0
LINE
  8
0
  6
CONTINUOUS
 62
     2
 10
137.9
 20
71.0
 30
0.0
 11
137.252952387
 21
73.414814566
 31
0.0
  0
LINE
  8
0
  6
CONTINUOUS
 62
     2
 10
137.9
 20
71.0
 30
0.0
 11
137.9
 21
98.0
 31
0.0
  0
LINE
  8
0
  6
CONTINUOUS
 62
     2
 10
137.9
 20
98.0
 30
0.0
 11
137.252952387
 21
95.585185434
 31
0.0
  0
LINE
  8
0
  6
CONTINUOUS
 62
     2
 10
137.9
 20
98.0
 30
0.0
 11
138.547047613
 21
95.585185434
 31
0.0
  0
TEXT
  8
0
  6
CONTINUOUS
 62
     2
 10
136.9
 20
80.12
 30
0.3
 40
3.0
  1
４５
 50
90.0
 41
0.6
 51
0.0
  7
KANJI2
  0
TEXT
  8
0
  6
CONTINUOUS
 62
     2
 10
136.9
 20
84.02
 30
0.18
 40
1.8
  1
±０．５
 50
90.0
 41
0.6
 51
0.0
  7
KANJI3
  0
LINE
  8
0
  6
CONTINUOUS
 62
     2
 10
137.9
 20
71.0
 30
0.0
 11
137.252952387
 21
68.585185434
 31
0.0
  0
LINE
  8
0
  6
CONTINUOUS
 62
     2
 10
137.9
 20
71.0
 30
0.0
 11
138.547047613
 21
68.585185434
 31
0.0
  0
LINE
  8
0
  6
CONTINUOUS
 62
     2
 10
137.9
 20
71.0
 30
0.0
 11
137.9
 21
50.0
 31
0.0
  0
LINE
  8
0
  6
CONTINUOUS
 62
     2
 10
137.9
 20
50.0
 30
0.0
 11
138.547047613
 21
52.414814566
 31
0.0
  0
LINE
  8
0
  6
CONTINUOUS
 62
     2
 10
137.9
 20
50.0
 30
0.0
 11
137.252952387
 21
52.414814566
 31
0.0
  0
LINE
  8
0
  6
CONTINUOUS
 62
     2
 10
139.6
 20
50.0
 30
0.0
 11
135.9
 21
50.0
 31
0.0
  0
TEXT
  8
0
  6
CONTINUOUS
 62
     2
 10
136.9
 20
56.12
 30
0.3
 40
3.0
  1
３５
 50
90.0
 41
0.6
 51
0.0
  7
KANJI2
  0
TEXT
  8
0
  6
CONTINUOUS
 62
     2
 10
136.9
 20
60.02
 30
0.18
 40
1.8
  1
±０．５
 50
90.0
 41
0.6
 51
0.0
  7
KANJI3
  0
LINE
  8
0
  6
CONTINUOUS
 62
     2
 10
160.73340497
 20
54.072850153
 30
0.0
 11
162.991137344
 21
55.146462993
 31
0.0
  0
LINE
  8
0
  6
CONTINUOUS
 62
     2
 10
160.73340497
 20
54.072850153
 30
0.0
 11
162.151852141
 21
56.131492333
 31
0.0
  0
LINE
  8
0
  6
CONTINUOUS
 62
     2
 10
160.73340497
 20
54.072850153
 30
0.0
 11
200.46659503
 21
87.927149847
 31
0.0
  0
LINE
  8
0
  6
CONTINUOUS
 62
     2
 10
200.46659503
 20
87.927149847
 30
0.0
 11
198.208862656
 21
86.853537007
 31
0.0
  0
LINE
  8
0
  6
CONTINUOUS
 62
     2
 10
200.46659503
 20
87.927149847
 30
0.0
 11
199.048147859
 21
85.868507667
 31
0.0
  0
TEXT
  8
0
  6
CONTINUOUS
 62
     2
 10
166.251450197
 20
59.561172223
 30
0.3
 40
3.0
  1
φ８７
 50
40.43235223
 41
0.6
 51
0.0
  7
KANJI2
  0
TEXT
  8
0
  6
CONTINUOUS
 62
     2
 10
171.518483538
 20
64.652471039
 30
0.18
 40
1.8
  1
±１
 50
40.43235223
 41
0.6
 51
0.0
  7
KANJI3
  0
LINE
  8
0
  6
CONTINUOUS
 62
     2
 10
135.9
 20
71.0
 30
0.0
 11
140.4
 21
71.0
 31
0.0
  0
LINE
  8
0
  6
CONTINUOUS
 62
     2
 10
141.55
 20
98.0
 30
0.0
 11
135.55
 21
98.0
 31
0.0
  0
LINE
  8
0
  6
CONTINUOUS
 62
     2
 10
49.45
 20
117.2
 30
0.0
 11
47.771573356
 21
115.347195639
 31
0.0
  0
LINE
  8
0
  6
CONTINUOUS
 62
     2
 10
49.45
 20
117.2
 30
0.0
 11
48.922842069
 21
114.756211033
 31
0.0
  0
LINE
  8
0
  6
CONTINUOUS
 62
     2
 10
49.45
 20
117.2
 30
0.0
 11
41.75
 21
102.2
 31
0.0
  0
LINE
  8
0
  6
CONTINUOUS
 62
     2
 10
41.75
 20
102.2
 30
0.0
 11
30.55
 21
102.2
 31
0.0
  0
TEXT
  8
0
  6
CONTINUOUS
 62
     2
 10
30.55
 20
103.2
 30
0.3
 40
3.0
  1
零位調整器
 50
0.0
 41
0.666666667
 51
0.0
  7
KANJI4
  0
LINE
  8
0
  6
CONTINUOUS
 62
     2
 10
23.15
 20
152.9
 30
0.0
 11
24.398974903
 21
155.065655026
 31
0.0
  0
LINE
  8
0
  6
CONTINUOUS
 62
     2
 10
23.15
 20
152.9
 30
0.0
 11
23.148816482
 21
155.39999972
 31
0.0
  0
LINE
  8
0
  6
CONTINUOUS
 62
     2
 10
23.15
 20
152.9
 30
0.0
 11
30.05
 21
178.7
 31
0.0
  0
LINE
  8
0
  6
CONTINUOUS
 62
     2
 10
30.05
 20
178.7
 30
0.0
 11
43.55
 21
178.7
 31
0.0
  0
TEXT
  8
0
  6
CONTINUOUS
 62
     2
 10
30.05
 20
179.7
 30
0.3
 40
3.0
  1
指針（黒色）
 50
0.0
 41
0.666666667
 51
0.0
  7
KANJI4
  0
LINE
  8
0
  6
CONTINUOUS
 62
     2
 10
16.7
 20
85.46
 30
0.0
 11
56.7
 21
85.46
 31
0.0
  0
TEXT
  8
0
  6
CONTINUOUS
 62
     2
 10
18.5
 20
53.16
 30
0.4
 40
3.0
  1
単相無効電力計
 50
0.0
 41
0.833333333
 51
0.0
  7
KANJI5
  0
TEXT
  8
0
  6
CONTINUOUS
 62
     2
 10
18.5
 20
48.16
 30
0.4
 40
3.0
  1
三相無効電力計
 50
0.0
 41
0.833333333
 51
0.0
  7
KANJI5
  0
TEXT
  8
0
  6
CONTINUOUS
 62
     2
 10
18.5
 20
43.16
 30
0.4
 40
3.0
  1
単相力率計
 50
0.0
 41
0.833333333
 51
0.0
  7
KANJI5
  0
TEXT
  8
0
  6
CONTINUOUS
 62
     2
 10
18.5
 20
73.16
 30
0.4
 40
3.0
  1
単相電力計
 50
0.0
 41
0.833333333
 51
0.0
  7
KANJI5
  0
TEXT
  8
0
  6
CONTINUOUS
 62
     2
 10
18.5
 20
63.16
 30
0.4
 40
3.0
  1
三相電力計
 50
0.0
 41
0.833333333
 51
0.0
  7
KANJI5
  0
TEXT
  8
0
  6
CONTINUOUS
 62
     2
 10
46.5
 20
73.16
 30
0.4
 40
3.0
  1
ＥＣＦ－１２ＮＢ
 50
0.0
 41
0.833333333
 51
0.0
  7
KANJI5
  0
TEXT
  8
0
  6
CONTINUOUS
 62
     2
 10
46.5
 20
68.16
 30
0.4
 40
3.0
  1
ＥＣＦ－１２ＮＢ
 50
0.0
 41
0.833333333
 51
0.0
  7
KANJI5
  0
TEXT
  8
0
  6
CONTINUOUS
 62
     2
 10
46.5
 20
63.16
 30
0.4
 40
3.0
  1
ＥＣＦ－１２ＮＢ
 50
0.0
 41
0.833333333
 51
0.0
  7
KANJI5
  0
TEXT
  8
0
  6
CONTINUOUS
 62
     2
 10
46.5
 20
58.16
 30
0.4
 40
3.0
  1
ＥＣＦ－１２ＮＢ
 50
0.0
 41
0.833333333
 51
0.0
  7
KANJI5
  0
TEXT
  8
0
  6
CONTINUOUS
 62
     2
 10
46.5
 20
53.16
 30
0.4
 40
3.0
  1
ＲＣＦ－１２ＮＢ
 50
0.0
 41
0.833333333
 51
0.0
  7
KANJI5
  0
TEXT
  8
0
  6
CONTINUOUS
 62
     2
 10
46.5
 20
48.16
 30
0.4
 40
3.0
  1
ＲＣＦ－１２ＮＢ
 50
0.0
 41
0.833333333
 51
0.0
  7
KANJI5
  0
TEXT
  8
0
  6
CONTINUOUS
 62
     2
 10
46.5
 20
43.16
 30
0.4
 40
3.0
  1
ＵＣＦ－１２ＮＢ
 50
0.0
 41
0.833333333
 51
0.0
  7
KANJI5
  0
TEXT
  8
0
  6
CONTINUOUS
 62
     2
 10
46.5
 20
38.16
 30
0.4
 40
3.0
  1
ＵＣＦ－１２ＮＢ
 50
0.0
 41
0.833333333
 51
0.0
  7
KANJI5
  0
TEXT
  8
0
  6
CONTINUOUS
 62
     2
 10
46.5
 20
33.16
 30
0.4
 40
3.0
  1
ＵＵＣＦ－１２ＮＢ
 50
0.0
 41
0.833333333
 51
0.0
  7
KANJI5
  0
TEXT
  8
0
  6
CONTINUOUS
 62
     2
 10
46.5
 20
28.16
 30
0.4
 40
3.0
  1
ＵＵＣＦ－１２ＮＢ
 50
0.0
 41
0.833333333
 51
0.0
  7
KANJI5
  0
TEXT
  8
0
  6
CONTINUOUS
 62
     2
 10
69.9
 20
74.46
 30
0.2
 40
2.0
  1
１φ
 50
0.0
 41
0.75
 51
0.0
  7
KANJI6
  0
TEXT
  8
0
  6
CONTINUOUS
 62
     2
 10
69.9
 20
69.46
 30
0.2
 40
2.0
  1
１φ３Ｗ
 50
0.0
 41
0.75
 51
0.0
  7
KANJI6
  0
TEXT
  8
0
  6
CONTINUOUS
 62
     2
 10
69.9
 20
64.46
 30
0.2
 40
2.0
  1
３φ
 50
0.0
 41
0.75
 51
0.0
  7
KANJI6
  0
TEXT
  8
0
  6
CONTINUOUS
 62
     2
 10
69.9
 20
59.46
 30
0.2
 40
2.0
  1
３φ４Ｗ
 50
0.0
 41
0.75
 51
0.0
  7
KANJI6
  0
TEXT
  8
0
  6
CONTINUOUS
 62
     2
 10
69.9
 20
54.46
 30
0.2
 40
2.0
  1
１φ
 50
0.0
 41
0.75
 51
0.0
  7
KANJI6
  0
TEXT
  8
0
  6
CONTINUOUS
 62
     2
 10
69.9
 20
49.46
 30
0.2
 40
2.0
  1
３φ
 50
0.0
 41
0.75
 51
0.0
  7
KANJI6
  0
TEXT
  8
0
  6
CONTINUOUS
 62
     2
 10
69.9
 20
44.46
 30
0.2
 40
2.0
  1
１φ
 50
0.0
 41
0.75
 51
0.0
  7
KANJI6
  0
TEXT
  8
0
  6
CONTINUOUS
 62
     2
 10
69.9
 20
39.46
 30
0.2
 40
2.0
  1
３φ
 50
0.0
 41
0.75
 51
0.0
  7
KANJI6
  0
TEXT
  8
0
  6
CONTINUOUS
 62
     2
 10
71.2
 20
34.46
 30
0.2
 40
2.0
  1
３φ
 50
0.0
 41
0.75
 51
0.0
  7
KANJI6
  0
TEXT
  8
0
  6
CONTINUOUS
 62
     2
 10
71.2
 20
29.46
 30
0.2
 40
2.0
  1
３φ４Ｗ
 50
0.0
 41
0.75
 51
0.0
  7
KANJI6
  0
LINE
  8
0
  6
CONTINUOUS
 62
     2
 10
16.5
 20
72.16
 30
0.0
 11
122.5
 21
72.16
 31
0.0
  0
LINE
  8
0
  6
CONTINUOUS
 62
     2
 10
16.5
 20
67.16
 30
0.0
 11
122.5
 21
67.16
 31
0.0
  0
LINE
  8
0
  6
CONTINUOUS
 62
     2
 10
16.5
 20
62.16
 30
0.0
 11
122.5
 21
62.16
 31
0.0
  0
LINE
  8
0
  6
CONTINUOUS
 62
     2
 10
16.5
 20
57.16
 30
0.0
 11
122.5
 21
57.16
 31
0.0
  0
LINE
  8
0
  6
CONTINUOUS
 62
     2
 10
16.5
 20
52.16
 30
0.0
 11
122.5
 21
52.16
 31
0.0
  0
LINE
  8
0
  6
CONTINUOUS
 62
     2
 10
16.5
 20
47.16
 30
0.0
 11
122.5
 21
47.16
 31
0.0
  0
LINE
  8
0
  6
CONTINUOUS
 62
     2
 10
16.5
 20
42.16
 30
0.0
 11
122.5
 21
42.16
 31
0.0
  0
LINE
  8
0
  6
CONTINUOUS
 62
     2
 10
16.5
 20
37.16
 30
0.0
 11
122.5
 21
37.16
 31
0.0
  0
LINE
  8
0
  6
CONTINUOUS
 62
     2
 10
16.4
 20
32.16
 30
0.0
 11
122.5
 21
32.16
 31
0.0
  0
TEXT
  8
0
  6
CONTINUOUS
 62
     2
 10
79.5
 20
58.16
 30
0.2
 40
3.0
  1
１，２，３，４，５，６，７，８，９，Ｎ
 50
0.0
 41
0.666666667
 51
0.0
  7
KANJI7
  0
TEXT
  8
0
  6
CONTINUOUS
 62
     2
 10
79.5
 20
68.16
 30
0.2
 40
3.0
  1
１，２　　　　　５，６，７，８，９　　
 50
0.0
 41
0.666666667
 51
0.0
  7
KANJI7
  0
TEXT
  8
0
  6
CONTINUOUS
 62
     2
 10
79.5
 20
63.16
 30
0.2
 40
3.0
  1
１，２　　　　　５，６，７，８，９　　
 50
0.0
 41
0.666666667
 51
0.0
  7
KANJI7
  0
TEXT
  8
0
  6
CONTINUOUS
 62
     2
 10
79.5
 20
53.16
 30
0.2
 40
3.0
  1
１，２　　　　　　　　　７，８　　　　
 50
0.0
 41
0.666666667
 51
0.0
  7
KANJI7
  0
TEXT
  8
0
  6
CONTINUOUS
 62
     2
 10
79.5
 20
73.16
 30
0.2
 40
3.0
  1
１，２　　　　　　　　　７，８　　　
 50
0.0
 41
0.666666667
 51
0.0
  7
KANJI7
  0
TEXT
  8
0
  6
CONTINUOUS
 62
     2
 10
79.5
 20
48.16
 30
0.2
 40
3.0
  1
１，２，　　　　５，６，７，８，９，　
 50
0.0
 41
0.666666667
 51
0.0
  7
KANJI7
  0
TEXT
  8
0
  6
CONTINUOUS
 62
     2
 10
79.5
 20
43.16
 30
0.2
 40
3.0
  1
１，２　　　　　　　　　７，８　　　　
 50
0.0
 41
0.666666667
 51
0.0
  7
KANJI7
  0
TEXT
  8
0
  6
CONTINUOUS
 62
     2
 10
79.5
 20
38.16
 30
0.2
 40
3.0
  1
１，２　　　　　　　　　　　８，９　　
 50
0.0
 41
0.666666667
 51
0.0
  7
KANJI7
  0
TEXT
  8
0
  6
CONTINUOUS
 62
     2
 10
79.5
 20
33.16
 30
0.2
 40
3.0
  1
１，２，　　　　５，６，７，８，９　　
 50
0.0
 41
0.666666667
 51
0.0
  7
KANJI7
  0
TEXT
  8
0
  6
CONTINUOUS
 62
     2
 10
79.5
 20
28.16
 30
0.2
 40
3.0
  1
１，２，３，４，５，６　　　８，９　　
 50
0.0
 41
0.666666667
 51
0.0
  7
KANJI7
  0
TEXT
  8
0
  6
CONTINUOUS
 62
     2
 10
18.5
 20
33.16
 30
0.4
 40
3.0
  1
三相不平衡力率計
 50
0.0
 41
0.833333333
 51
0.0
  7
KANJI5
  0
TEXT
  8
0
  6
CONTINUOUS
 62
     2
 10
18.5
 20
38.16
 30
0.4
 40
3.0
  1
三相平衡力率計
 50
0.0
 41
0.833333333
 51
0.0
  7
KANJI5
  0
TEXT
  8
0
  6
CONTINUOUS
 62
     2
 10
21.4
 20
78.16
 30
10.0
 40
3.0
  1
形名
 50
0.0
 41
0.666666667
 51
0.0
  7
KANJI8
  0
TEXT
  8
0
  6
CONTINUOUS
 62
     2
 10
50.4
 20
78.16
 30
10.0
 40
3.0
  1
形式
 50
0.0
 41
0.666666667
 51
0.0
  7
KANJI8
  0
TEXT
  8
0
  6
CONTINUOUS
 62
     2
 10
81.5
 20
78.16
 30
1.0
 40
3.0
  1
使用ターミナルネジ端子番号
 50
0.0
 41
0.666666667
 51
0.0
  7
KANJI9
  0
LINE
  8
0
  6
CONTINUOUS
 62
     2
 10
142.3
 20
37.8
 30
0.0
 11
128.2
 21
37.8
 31
0.0
  0
TEXT
  8
0
  6
CONTINUOUS
 62
     2
 10
128.5
 20
38.8
 30
0.3
 40
3.0
  1
４－φ５
 50
0.0
 41
0.666666667
 51
0.0
  7
KANJI4
  0
TEXT
  8
0
  6
CONTINUOUS
 62
     2
 10
138.3
 20
39.0
 30
0.2
 40
1.6
  1
－０
 50
0.0
 41
0.9
 51
0.0
  7
KANJI10
  0
TEXT
  8
0
  6
CONTINUOUS
 62
     2
 10
138.3
 20
40.7
 30
0.2
 40
1.6
  1
＋０．５
 50
0.0
 41
0.9
 51
0.0
  7
KANJI10
  0
LINE
  8
0
  6
CONTINUOUS
 62
     2
 10
149.7
 20
48.86
 30
0.0
 11
147.828150281
 21
47.202840192
 31
0.0
  0
LINE
  8
0
  6
CONTINUOUS
 62
     2
 10
149.7
 20
48.86
 30
0.0
 11
148.907510495
 21
46.488932649
 31
0.0
  0
LINE
  8
0
  6
CONTINUOUS
 62
     2
 10
149.7
 20
48.86
 30
0.0
 11
142.384724409
 21
37.8
 31
0.0
  0
LINE
  8
0
  6
LTYPE1
 62
     2
 10
140.6
 20
71.0
 30
0.0
 11
220.6
 21
71.0
 31
0.0
  0
LINE
  8
0
  6
LTYPE1
 62
     2
 10
156.6
 20
98.0
 30
0.0
 11
142.55
 21
98.0
 31
0.0
  0
LINE
  8
0
  6
LTYPE1
 62
     2
 10
150.6
 20
104.0
 30
0.0
 11
150.6
 21
91.0
 31
0.0
  0
LINE
  8
0
  6
LTYPE1
 62
     2
 10
204.6
 20
98.0
 30
0.0
 11
218.525
 21
98.0
 31
0.0
  0
LINE
  8
0
  6
LTYPE1
 62
     2
 10
210.6
 20
41.0
 30
0.0
 11
210.6
 21
57.0
 31
0.0
  0
LINE
  8
0
  6
LTYPE1
 62
     2
 10
204.6
 20
50.0
 30
0.0
 11
220.6
 21
50.0
 31
0.0
  0
LINE
  8
0
  6
LTYPE1
 62
     2
 10
140.6
 20
50.0
 30
0.0
 11
156.6
 21
50.0
 31
0.0
  0
LINE
  8
0
  6
LTYPE1
 62
     2
 10
150.6
 20
56.0
 30
0.0
 11
150.6
 21
41.0
 31
0.0
  0
TEXT
  8
0
  6
CONTINUOUS
 62
     2
 10
18.5
 20
68.16
 30
0.4
 40
3.0
  1
単相３線式電力計
 50
0.0
 41
0.833333333
 51
0.0
  7
KANJI5
  0
TEXT
  8
0
  6
CONTINUOUS
 62
     2
 10
18.5
 20
58.16
 30
0.4
 40
3.0
  1
三相４線式電力計
 50
0.0
 41
0.833333333
 51
0.0
  7
KANJI5
  0
TEXT
  8
0
  6
CONTINUOUS
 62
     2
 10
18.5
 20
28.16
 30
0.4
 40
3.0
  1
三相４線式力率計
 50
0.0
 41
0.833333333
 51
0.0
  7
KANJI5
  0
TEXT
  8
0
  6
CONTINUOUS
 62
     3
 10
235.0
 20
17.0
 30
0.6
 40
6.0
  1
ＭＳ－１１７９７
 50
0.0
 41
0.9
 51
0.0
  7
KANJI11
  0
TEXT
  8
0
  6
CONTINUOUS
 62
     1
 10
230.0
 20
38.0
 30
0.4
 40
4.0
  1
変換器内蔵形電力計，力率計
 50
0.0
 41
0.9
 51
0.0
  7
KANJI12
  0
TEXT
  8
0
  6
CONTINUOUS
 62
     1
 10
234.7
 20
33.7
 30
0.4
 40
4.0
  1
無効電力計　外形図
 50
0.0
 41
0.9
 51
0.0
  7
KANJI12
  0
TEXT
  8
0
  6
CONTINUOUS
 62
     1
 10
234.5
 20
43.8
 30
0.48
 40
4.8
  1
□ＣＦ－１２ＮＢ
 50
0.0
 41
0.9
 51
0.0
  7
KANJI13
  0
LINE
  8
0
  6
CONTINUOUS
 62
     2
 10
235.2
 20
44.2
 30
0.0
 11
238.2
 21
47.7
 31
0.0
  0
LINE
  8
0
  6
LTYPE1
 62
     2
 10
180.6
 20
40.1
 30
0.0
 11
180.6
 21
100.0
 31
0.0
  0
LINE
  8
0
  6
CONTINUOUS
 62
     1
 10
121.5
 20
171.94
 30
0.0
 11
121.5
 21
165.4
 31
0.0
  0
LINE
  8
0
  6
CONTINUOUS
 62
     1
 10
121.5
 20
114.4
 30
0.0
 11
121.5
 21
113.86
 31
0.0
  0
LINE
  8
0
  6
CONTINUOUS
 62
     1
 10
127.8
 20
168.1
 30
0.0
 11
127.8
 21
165.7
 31
0.0
  0
LINE
  8
0
  6
CONTINUOUS
 62
     1
 10
180.6
 20
114.694029851
 30
0.0
 11
121.5
 21
114.4
 31
0.0
  0
LINE
  8
0
  6
CONTINUOUS
 62
     1
 10
114.48
 20
170.68
 30
0.0
 11
114.3
 21
170.68
 31
0.0
  0
POLYLINE
  8
0
  6
CONTINUOUS
 62
     1
 66
     1
  0
VERTEX
  8
0
  6
CONTINUOUS
 62
     1
 10
114.3
 20
170.68
 30
0.0
  0
VERTEX
  8
0
  6
CONTINUOUS
 62
     1
 10
114.3
 20
133.9
 30
0.0
  0
VERTEX
  8
0
  6
CONTINUOUS
 62
     1
 10
114.48
 20
133.9
 30
0.0
  0
SEQEND
  0
LINE
  8
0
  6
CONTINUOUS
 62
     1
 10
121.5
 20
112.75
 30
0.0
 11
121.5
 21
113.86
 31
0.0
  0
LINE
  8
0
  6
CONTINUOUS
 62
     1
 10
121.5
 20
173.05
 30
0.0
 11
121.5
 21
171.94
 31
0.0
  0
LINE
  8
0
  6
CONTINUOUS
 62
     1
 10
121.5
 20
173.05
 30
0.0
 11
114.966691564
 21
171.793594532
 31
0.0
  0
LINE
  8
0
  6
CONTINUOUS
 62
     1
 10
114.48
 20
171.204390663
 30
0.0
 11
114.48
 21
170.68
 31
0.0
  0
ARC
  8
0
  6
CONTINUOUS
 62
     1
 10
115.08
 20
171.204390663
 30
0.0
 40
0.6
 50
100.885527055
 51
180.0
  0
LINE
  8
0
  6
CONTINUOUS
 62
     1
 10
114.966691564
 20
114.006405468
 30
0.0
 11
121.5
 21
112.75
 31
0.0
  0
ARC
  8
0
  6
CONTINUOUS
 62
     1
 10
115.08
 20
114.595609337
 30
0.0
 40
0.6
 50
180.0
 51
259.114472945
  0
ARC
  8
0
  6
CONTINUOUS
 62
     1
 10
122.58
 20
118.3
 30
0.0
 40
8.4
 50
165.465544919
 51
194.477512186
  0
LINE
  8
0
  6
CONTINUOUS
 62
     1
 10
114.48
 20
116.14
 30
0.0
 11
114.48
 21
114.595609337
 31
0.0
  0
LINE
  8
0
  6
CONTINUOUS
 62
     1
 10
182.7
 20
165.1
 30
0.0
 11
180.6
 21
165.1
 31
0.0
  0
ARC
  8
0
  6
CONTINUOUS
 62
     1
 10
182.7
 20
164.5
 30
0.0
 40
0.6
 50
0.0
 51
90.0
  0
LINE
  8
0
  6
CONTINUOUS
 62
     1
 10
183.3
 20
164.5
 30
0.0
 11
183.3
 21
160.51
 31
0.0
  0
LINE
  8
0
  6
CONTINUOUS
 62
     1
 10
180.6
 20
114.7
 30
0.0
 11
182.7
 21
114.7
 31
0.0
  0
ARC
  8
0
  6
CONTINUOUS
 62
     1
 10
182.7
 20
115.3
 30
0.0
 40
0.6
 50
270.0
 51
0.0
  0
LINE
  8
0
  6
CONTINUOUS
 62
     1
 10
183.3
 20
131.56
 30
0.0
 11
183.3
 21
119.29
 31
0.0
  0
LINE
  8
0
  6
CONTINUOUS
 62
     1
 10
183.3
 20
115.3
 30
0.0
 11
183.3
 21
119.290001618
 31
0.0
  0
ARC
  8
0
  6
CONTINUOUS
 62
     1
 10
187.98
 20
129.7
 30
0.0
 40
0.6
 50
270.0
 51
0.0
  0
ARC
  8
0
  6
CONTINUOUS
 62
     1
 10
187.98
 20
150.1
 30
0.0
 40
0.6
 50
0.0
 51
90.0
  0
LINE
  8
0
  6
CONTINUOUS
 62
     1
 10
183.3
 20
150.7
 30
0.0
 11
187.98
 21
150.7
 31
0.0
  0
LINE
  8
0
  6
CONTINUOUS
 62
     1
 10
187.98
 20
129.1
 30
0.0
 11
183.3
 21
129.1
 31
0.0
  0
LINE
  8
0
  6
CONTINUOUS
 62
     1
 10
180.6
 20
165.105970149
 30
0.0
 11
177.06
 21
165.12358209
 31
0.0
  0
LINE
  8
0
  6
CONTINUOUS
 62
     1
 10
183.3
 20
160.51
 30
0.0
 11
183.3
 21
131.56
 31
0.0
  0
LINE
  8
0
  6
CONTINUOUS
 62
     1
 10
121.5
 20
114.4
 30
0.0
 11
121.5
 21
165.4
 31
0.0
  0
LINE
  8
0
  6
CONTINUOUS
 62
     1
 10
114.3
 20
133.9
 30
0.0
 11
119.7
 21
133.9
 31
0.0
  0
LINE
  8
0
  6
CONTINUOUS
 62
     1
 10
114.48
 20
133.9
 30
0.0
 11
114.48
 21
116.2
 31
0.0
  0
LINE
  8
0
  6
CONTINUOUS
 62
     1
 10
127.8
 20
120.2
 30
0.0
 11
127.8
 21
117.8
 31
0.0
  0
LINE
  8
0
  6
CONTINUOUS
 62
     1
 10
183.3
 20
149.6
 30
0.0
 11
187.98
 21
149.6
 31
0.0
  0
ARC
  8
0
  6
CONTINUOUS
 62
     1
 10
187.98
 20
149.0
 30
0.0
 40
0.6
 50
0.0
 51
90.0
  0
LINE
  8
0
  6
CONTINUOUS
 62
     1
 10
183.3
 20
130.4
 30
0.0
 11
187.98
 21
130.4
 31
0.0
  0
LINE
  8
0
  6
CONTINUOUS
 62
     1
 10
188.58
 20
149.0
 30
0.0
 11
188.58
 21
131.0
 31
0.0
  0
ARC
  8
0
  6
CONTINUOUS
 62
     1
 10
187.98
 20
131.0
 30
0.0
 40
0.6
 50
270.0
 51
0.0
  0
LINE
  8
0
  6
CONTINUOUS
 62
     1
 10
188.58
 20
130.9
 30
0.0
 11
188.58
 21
129.700001144
 31
0.0
  0
LINE
  8
0
  6
CONTINUOUS
 62
     1
 10
188.58
 20
150.1
 30
0.0
 11
188.58
 21
148.9
 31
0.0
  0
LINE
  8
0
  6
CONTINUOUS
 62
     1
 10
124.45
 20
165.385323383
 30
0.0
 11
121.8
 21
165.398507463
 31
0.0
  0
LINE
  8
0
  6
CONTINUOUS
 62
     1
 10
124.45
 20
165.7
 30
0.0
 11
121.8
 21
165.7
 31
0.0
  0
LINE
  8
0
  6
CONTINUOUS
 62
     1
 10
121.8
 20
168.1
 30
0.0
 11
124.45
 21
168.1
 31
0.0
  0
LINE
  8
0
  6
CONTINUOUS
 62
     1
 10
124.45
 20
117.8
 30
0.0
 11
121.8
 21
117.8
 31
0.0
  0
LINE
  8
0
  6
CONTINUOUS
 62
     1
 10
121.8
 20
120.2
 30
0.0
 11
124.45
 21
120.2
 31
0.0
  0
LINE
  8
0
  6
CONTINUOUS
 62
     1
 10
126.3
 20
168.1
 30
0.0
 11
127.8
 21
168.1
 31
0.0
  0
LINE
  8
0
  6
CONTINUOUS
 62
     1
 10
127.8
 20
165.7
 30
0.0
 11
126.3
 21
165.7
 31
0.0
  0
LINE
  8
0
  6
CONTINUOUS
 62
     1
 10
162.06
 20
165.198208955
 30
0.0
 11
126.3125
 21
165.376057214
 31
0.0
  0
LINE
  8
0
  6
CONTINUOUS
 62
     1
 10
126.3
 20
120.2
 30
0.0
 11
127.8
 21
120.2
 31
0.0
  0
LINE
  8
0
  6
CONTINUOUS
 62
     1
 10
127.8
 20
117.8
 30
0.0
 11
126.3
 21
117.8
 31
0.0
  0
POLYLINE
  8
0
  6
CONTINUOUS
 62
     2
 66
     1
  0
VERTEX
  8
0
  6
CONTINUOUS
 62
     2
 10
121.5
 20
169.9
 30
0.0
  0
VERTEX
  8
0
  6
CONTINUOUS
 62
     2
 10
121.8
 20
169.9
 30
0.0
  0
VERTEX
  8
0
  6
CONTINUOUS
 62
     2
 10
121.8
 20
165.395714286
 30
0.0
  0
SEQEND
  0
LINE
  8
0
  6
LTYPE1
 62
     2
 10
117.72
 20
166.9
 30
0.0
 11
130.32
 21
166.9
 31
0.0
  0
LINE
  8
0
  6
CONTINUOUS
 62
     2
 10
188.58
 20
148.9
 30
0.0
 11
189.18
 21
148.9
 31
0.0
  0
POLYLINE
  8
0
  6
CONTINUOUS
 62
     2
 66
     1
  0
VERTEX
  8
0
  6
CONTINUOUS
 62
     2
 10
189.18
 20
148.9
 30
0.0
  0
VERTEX
  8
0
  6
CONTINUOUS
 62
     2
 10
189.18
 20
130.9
 30
0.0
  0
VERTEX
  8
0
  6
CONTINUOUS
 62
     2
 10
188.58
 20
130.9
 30
0.0
  0
SEQEND
  0
LINE
  8
0
  6
CONTINUOUS
 62
     2
 10
189.18
 20
141.28
 30
0.0
 11
189.18
 21
138.52
 31
0.0
  0
ARC
  8
0
  6
CONTINUOUS
 62
     2
 10
189.24
 20
138.16
 30
0.0
 40
0.06
 50
180.0
 51
270.0
  0
LINE
  8
0
  6
CONTINUOUS
 62
     2
 10
189.18
 20
141.64
 30
0.0
 11
189.18
 21
138.16
 31
0.0
  0
ARC
  8
0
  6
CONTINUOUS
 62
     2
 10
189.24
 20
141.64
 30
0.0
 40
0.06
 50
90.0
 51
180.0
  0
LINE
  8
0
  6
CONTINUOUS
 62
     2
 10
189.78
 20
141.7
 30
0.0
 11
189.24
 21
141.7
 31
0.0
  0
ARC
  8
0
  6
CONTINUOUS
 62
     2
 10
189.78
 20
141.58
 30
0.0
 40
0.12
 50
0.0
 51
90.0
  0
LINE
  8
0
  6
CONTINUOUS
 62
     2
 10
189.24
 20
138.1
 30
0.0
 11
189.78
 21
138.1
 31
0.0
  0
ARC
  8
0
  6
CONTINUOUS
 62
     2
 10
189.78
 20
138.22
 30
0.0
 40
0.12
 50
270.0
 51
0.0
  0
LINE
  8
0
  6
CONTINUOUS
 62
     2
 10
189.84
 20
141.670999167
 30
0.0
 11
189.84
 21
138.145999167
 31
0.0
  0
LINE
  8
0
  6
CONTINUOUS
 62
     2
 10
190.32
 20
140.05
 30
0.0
 11
190.2
 21
140.05
 31
0.0
  0
LINE
  8
0
  6
CONTINUOUS
 62
     2
 10
190.2
 20
140.05
 30
0.0
 11
190.2
 21
139.75
 31
0.0
  0
LINE
  8
0
  6
CONTINUOUS
 62
     2
 10
190.2
 20
139.75
 30
0.0
 11
190.32
 21
139.75
 31
0.0
  0
ARC
  8
0
  6
CONTINUOUS
 62
     2
 10
186.72
 20
139.9
 30
0.0
 40
3.6
 50
331.294758009
 51
357.611984537
  0
ARC
  8
0
  6
CONTINUOUS
 62
     2
 10
186.72
 20
139.9
 30
0.0
 40
3.6
 50
2.388015463
 51
28.942689997
  0
LINE
  8
0
  6
CONTINUOUS
 62
     2
 10
177.06
 20
165.12358209
 30
0.0
 11
177.06
 21
161.52358209
 31
0.0
  0
LINE
  8
0
  6
CONTINUOUS
 62
     2
 10
177.06
 20
161.52358209
 30
0.0
 11
162.06
 21
161.52358209
 31
0.0
  0
LINE
  8
0
  6
CONTINUOUS
 62
     2
 10
162.06
 20
161.52358209
 30
0.0
 11
162.06
 21
165.258208955
 31
0.0
  0
LINE
  8
0
  6
CONTINUOUS
 62
     2
 10
162.06
 20
165.258208955
 30
0.0
 11
177.06
 21
165.18358209
 31
0.0
  0
LINE
  8
0
  6
CONTINUOUS
 62
     2
 10
180.6
 20
165.1
 30
0.0
 11
180.6
 21
114.694029851
 31
0.0
  0
LINE
  8
0
  6
CONTINUOUS
 62
     2
 10
119.7
 20
113.096153846
 30
0.0
 11
119.7
 21
172.703846154
 31
0.0
  0
POLYLINE
  8
0
  6
CONTINUOUS
 62
     2
 66
     1
  0
VERTEX
  8
0
  6
CONTINUOUS
 62
     2
 10
121.5
 20
122.0
 30
0.0
  0
VERTEX
  8
0
  6
CONTINUOUS
 62
     2
 10
121.8
 20
122.0
 30
0.0
  0
VERTEX
  8
0
  6
CONTINUOUS
 62
     2
 10
121.8
 20
117.495714286
 30
0.0
  0
SEQEND
  0
LINE
  8
0
  6
LTYPE1
 62
     2
 10
117.72
 20
119.0
 30
0.0
 11
130.32
 21
119.0
 31
0.0
  0
LINE
  8
0
  6
CONTINUOUS
 62
     2
 10
121.5
 20
116.0
 30
0.0
 11
121.8
 21
116.0
 31
0.0
  0
LINE
  8
0
  6
CONTINUOUS
 62
     2
 10
121.8
 20
116.0
 30
0.0
 11
121.8
 21
117.495714286
 31
0.0
  0
LINE
  8
0
  6
CONTINUOUS
 62
     2
 10
121.55
 20
163.9
 30
0.0
 11
121.8
 21
163.9
 31
0.0
  0
LINE
  8
0
  6
CONTINUOUS
 62
     2
 10
121.8
 20
163.9
 30
0.0
 11
121.8
 21
165.398507463
 31
0.0
  0
LINE
  8
0
  6
CONTINUOUS
 62
     2
 10
121.5
 20
134.0
 30
0.0
 11
121.8
 21
134.0
 31
0.0
  0
POLYLINE
  8
0
  6
CONTINUOUS
 62
     2
 66
     1
  0
VERTEX
  8
0
  6
CONTINUOUS
 62
     2
 10
121.8
 20
134.0
 30
0.0
  0
VERTEX
  8
0
  6
CONTINUOUS
 62
     2
 10
121.8
 20
129.2
 30
0.0
  0
VERTEX
  8
0
  6
CONTINUOUS
 62
     2
 10
121.5
 20
129.2
 30
0.0
  0
SEQEND
  0
LINE
  8
0
  6
CONTINUOUS
 62
     2
 10
125.15
 20
118.7
 30
0.0
 11
125.967685693
 21
116.337503417
 31
0.0
  0
LINE
  8
0
  6
CONTINUOUS
 62
     2
 10
125.15
 20
118.7
 30
0.0
 11
127.039384875
 21
117.062860789
 31
0.0
  0
LINE
  8
0
  6
CONTINUOUS
 62
     2
 10
114.3
 20
183.15
 30
0.0
 11
111.885185434
 21
183.797047613
 31
0.0
  0
LINE
  8
0
  6
CONTINUOUS
 62
     2
 10
114.3
 20
183.15
 30
0.0
 11
111.885185434
 21
182.502952387
 31
0.0
  0
LINE
  8
0
  6
CONTINUOUS
 62
     2
 10
121.8
 20
170.9
 30
0.0
 11
121.8
 21
185.15
 31
0.0
  0
TEXT
  8
0
  6
CONTINUOUS
 62
     2
 10
114.0
 20
184.15
 30
0.3
 40
3.0
  1
１２．５
 50
0.0
 41
0.6
 51
0.0
  7
KANJI2
  0
LINE
  8
0
  6
CONTINUOUS
 62
     2
 10
121.5
 20
174.05
 30
0.0
 11
121.5
 21
180.05
 31
0.0
  0
LINE
  8
0
  6
CONTINUOUS
 62
     2
 10
121.5
 20
178.05
 30
0.0
 11
119.085185434
 21
178.697047613
 31
0.0
  0
LINE
  8
0
  6
CONTINUOUS
 62
     2
 10
121.5
 20
178.05
 30
0.0
 11
119.085185434
 21
177.402952387
 31
0.0
  0
LINE
  8
0
  6
CONTINUOUS
 62
     2
 10
121.8
 20
177.85
 30
0.0
 11
121.8
 21
180.05
 31
0.0
  0
LINE
  8
0
  6
CONTINUOUS
 62
     2
 10
114.3
 20
171.68
 30
0.0
 11
114.3
 21
183.65
 31
0.0
  0
LINE
  8
0
  6
CONTINUOUS
 62
     2
 10
127.8
 20
169.1
 30
0.0
 11
127.8
 21
180.15
 31
0.0
  0
LINE
  8
0
  6
CONTINUOUS
 62
     2
 10
121.8
 20
178.05
 30
0.0
 11
121.8
 21
180.15
 31
0.0
  0
TEXT
  8
0
  6
CONTINUOUS
 62
     2
 10
132.8
 20
179.15
 30
0.3
 40
3.0
  1
１０
 50
0.0
 41
0.6
 51
0.0
  7
KANJI2
  0
CIRCLE
  8
0
  6
CONTINUOUS
 62
     2
 10
121.8
 20
178.05
 30
0.0
 40
0.15
  0
LINE
  8
0
  6
CONTINUOUS
 62
     2
 10
127.8
 20
178.05
 30
0.0
 11
130.214814566
 21
177.402952387
 31
0.0
  0
LINE
  8
0
  6
CONTINUOUS
 62
     2
 10
127.8
 20
178.05
 30
0.0
 11
130.214814566
 21
178.697047613
 31
0.0
  0
LINE
  8
0
  6
CONTINUOUS
 62
     2
 10
136.7
 20
178.05
 30
0.0
 11
127.8
 21
178.05
 31
0.0
  0
LINE
  8
0
  6
CONTINUOUS
 62
     2
 10
110.5
 20
178.05
 30
0.0
 11
127.8
 21
178.05
 31
0.0
  0
TEXT
  8
0
  6
CONTINUOUS
 62
     2
 10
115.1
 20
179.15
 30
0.3
 40
3.0
  1
０．５
 50
0.0
 41
0.6
 51
0.0
  7
KANJI2
  0
LINE
  8
0
  6
CONTINUOUS
 62
     2
 10
190.316873642
 20
141.05
 30
0.0
 11
190.316873642
 21
185.15
 31
0.0
  0
LINE
  8
0
  6
CONTINUOUS
 62
     2
 10
190.316873642
 20
183.15
 30
0.0
 11
187.902059077
 21
183.797047613
 31
0.0
  0
LINE
  8
0
  6
CONTINUOUS
 62
     2
 10
190.316873642
 20
183.15
 30
0.0
 11
187.902059077
 21
182.502952387
 31
0.0
  0
LINE
  8
0
  6
CONTINUOUS
 62
     2
 10
190.316873642
 20
183.15
 30
0.0
 11
121.8
 21
183.15
 31
0.0
  0
LINE
  8
0
  6
CONTINUOUS
 62
     2
 10
121.8
 20
183.15
 30
0.0
 11
124.214814566
 21
182.502952387
 31
0.0
  0
LINE
  8
0
  6
CONTINUOUS
 62
     2
 10
121.8
 20
183.15
 30
0.0
 11
124.214814566
 21
183.797047613
 31
0.0
  0
LINE
  8
0
  6
CONTINUOUS
 62
     2
 10
109.3
 20
183.15
 30
0.0
 11
121.8
 21
183.15
 31
0.0
  0
LINE
  8
0
  6
CONTINUOUS
 62
     2
 10
183.3
 20
165.5
 30
0.0
 11
183.3
 21
180.05
 31
0.0
  0
LINE
  8
0
  6
CONTINUOUS
 62
     2
 10
183.3
 20
178.05
 30
0.0
 11
180.885185434
 21
178.697047613
 31
0.0
  0
LINE
  8
0
  6
CONTINUOUS
 62
     2
 10
183.3
 20
178.05
 30
0.0
 11
180.885185434
 21
177.402952387
 31
0.0
  0
LINE
  8
0
  6
CONTINUOUS
 62
     2
 10
190.316873642
 20
178.05
 30
0.0
 11
192.731688208
 21
177.402952387
 31
0.0
  0
LINE
  8
0
  6
CONTINUOUS
 62
     2
 10
190.316873642
 20
178.05
 30
0.0
 11
192.731688208
 21
178.697047613
 31
0.0
  0
LINE
  8
0
  6
CONTINUOUS
 62
     2
 10
188.9
 20
136.6
 30
0.0
 11
187.400195306
 21
134.599853535
 31
0.0
  0
LINE
  8
0
  6
CONTINUOUS
 62
     2
 10
188.9
 20
136.6
 30
0.0
 11
188.601204267
 21
134.117920003
 31
0.0
  0
LINE
  8
0
  6
CONTINUOUS
 62
     2
 10
188.9
 20
136.6
 30
0.0
 11
176.3
 21
105.2
 31
0.0
  0
LINE
  8
0
  6
CONTINUOUS
 62
     2
 10
176.3
 20
105.2
 30
0.0
 11
162.3
 21
105.2
 31
0.0
  0
TEXT
  8
0
  6
CONTINUOUS
 62
     2
 10
162.3
 20
106.2
 30
1.0
 40
3.0
  1
端子保護板
 50
0.0
 41
0.666666667
 51
0.0
  7
KANJI9
  0
LINE
  8
0
  6
CONTINUOUS
 62
     2
 10
121.8
 20
165.88
 30
0.0
 11
124.45
 21
165.88
 31
0.0
  0
LINE
  8
0
  6
CONTINUOUS
 62
     2
 10
121.8
 20
167.92
 30
0.0
 11
124.45
 21
167.92
 31
0.0
  0
LINE
  8
0
  6
CONTINUOUS
 62
     2
 10
121.8
 20
117.98
 30
0.0
 11
124.45
 21
117.98
 31
0.0
  0
LINE
  8
0
  6
CONTINUOUS
 62
     2
 10
121.8
 20
120.02
 30
0.0
 11
124.45
 21
120.02
 31
0.0
  0
LINE
  8
0
  6
CONTINUOUS
 62
     2
 10
168.7
 20
163.7
 30
0.0
 11
167.713788844
 21
165.997256528
 31
0.0
  0
LINE
  8
0
  6
CONTINUOUS
 62
     2
 10
168.7
 20
163.7
 30
0.0
 11
166.697287822
 21
165.196376935
 31
0.0
  0
LINE
  8
0
  6
CONTINUOUS
 62
     2
 10
168.7
 20
163.7
 30
0.0
 11
163.5
 21
170.3
 31
0.0
  0
LINE
  8
0
  6
CONTINUOUS
 62
     2
 10
163.5
 20
170.3
 30
0.0
 11
156.5
 21
170.3
 31
0.0
  0
TEXT
  8
0
  6
CONTINUOUS
 62
     2
 10
156.5
 20
171.3
 30
0.5
 40
3.0
  1
貼銘板
 50
0.0
 41
0.666666667
 51
0.0
  7
KANJI14
  0
TEXT
  8
0
  6
CONTINUOUS
 62
     2
 10
153.058436821
 20
184.15
 30
0.3
 40
3.0
  1
１１４
 50
0.0
 41
0.6
 51
0.0
  7
KANJI2
  0
TEXT
  8
0
  6
CONTINUOUS
 62
     2
 10
184.858436821
 20
179.05
 30
0.3
 40
3.0
  1
１２
 50
0.0
 41
0.6
 51
0.0
  7
KANJI2
  0
LINE
  8
0
  6
CONTINUOUS
 62
     2
 10
126.05
 20
169.0
 30
0.0
 11
124.8
 21
169.0
 31
0.0
  0
LINE
  8
0
  6
CONTINUOUS
 62
     2
 10
126.05
 20
169.0
 30
0.0
 11
126.3
 21
168.75
 31
0.0
  0
LINE
  8
0
  6
CONTINUOUS
 62
     2
 10
126.04
 20
167.935
 30
0.0
 11
126.3
 21
168.235
 31
0.0
  0
LINE
  8
0
  6
CONTINUOUS
 62
     2
 10
126.3
 20
165.65
 30
0.0
 11
126.0
 21
165.92
 31
0.0
  0
LINE
  8
0
  6
CONTINUOUS
 62
     2
 10
126.3
 20
166.225
 30
0.0
 11
126.0
 21
165.955
 31
0.0
  0
LINE
  8
0
  6
CONTINUOUS
 62
     2
 10
126.0
 20
164.925
 30
0.0
 11
126.3
 21
165.225
 31
0.0
  0
LINE
  8
0
  6
CONTINUOUS
 62
     2
 10
124.8
 20
164.95
 30
0.0
 11
126.05
 21
164.95
 31
0.0
  0
LINE
  8
0
  6
CONTINUOUS
 62
     2
 10
124.8
 20
169.0
 30
0.0
 11
124.8
 21
164.95
 31
0.0
  0
LINE
  8
0
  6
CONTINUOUS
 62
     2
 10
126.3
 20
165.205
 30
0.0
 11
126.3
 21
168.75
 31
0.0
  0
LINE
  8
0
  6
CONTINUOUS
 62
     2
 10
126.053
 20
167.95
 30
0.0
 11
126.303
 21
167.75
 31
0.0
  0
LINE
  8
0
  6
CONTINUOUS
 62
     2
 10
126.053
 20
167.95
 30
0.0
 11
124.8
 21
167.95
 31
0.0
  0
LINE
  8
0
  6
CONTINUOUS
 62
     2
 10
124.8
 20
165.95
 30
0.0
 11
126.016666667
 21
165.95
 31
0.0
  0
POLYLINE
  8
0
  6
CONTINUOUS
 62
     2
 66
     1
  0
VERTEX
  8
0
  6
CONTINUOUS
 62
     2
 10
124.8
 20
169.0
 30
0.0
  0
VERTEX
  8
0
  6
CONTINUOUS
 62
     2
 10
124.4
 20
169.4
 30
0.0
  0
VERTEX
  8
0
  6
CONTINUOUS
 62
     2
 10
124.4
 20
164.55
 30
0.0
  0
SEQEND
  0
LINE
  8
0
  6
CONTINUOUS
 62
     2
 10
124.8
 20
164.95
 30
0.0
 11
124.4
 21
164.55
 31
0.0
  0
LINE
  8
0
  6
CONTINUOUS
 62
     2
 10
126.3
 20
167.92
 30
0.0
 11
127.8
 21
167.92
 31
0.0
  0
LINE
  8
0
  6
CONTINUOUS
 62
     2
 10
126.3
 20
165.88
 30
0.0
 11
127.8
 21
165.88
 31
0.0
  0
LINE
  8
0
  6
CONTINUOUS
 62
     2
 10
126.05
 20
121.1
 30
0.0
 11
124.8
 21
121.1
 31
0.0
  0
LINE
  8
0
  6
CONTINUOUS
 62
     2
 10
126.05
 20
121.1
 30
0.0
 11
126.3
 21
120.85
 31
0.0
  0
LINE
  8
0
  6
CONTINUOUS
 62
     2
 10
126.04
 20
120.035
 30
0.0
 11
126.3
 21
120.335
 31
0.0
  0
LINE
  8
0
  6
CONTINUOUS
 62
     2
 10
126.3
 20
117.75
 30
0.0
 11
126.0
 21
118.02
 31
0.0
  0
LINE
  8
0
  6
CONTINUOUS
 62
     2
 10
126.3
 20
118.325
 30
0.0
 11
126.0
 21
118.055
 31
0.0
  0
LINE
  8
0
  6
CONTINUOUS
 62
     2
 10
126.0
 20
117.025
 30
0.0
 11
126.3
 21
117.325
 31
0.0
  0
LINE
  8
0
  6
CONTINUOUS
 62
     2
 10
124.8
 20
117.05
 30
0.0
 11
126.05
 21
117.05
 31
0.0
  0
LINE
  8
0
  6
CONTINUOUS
 62
     2
 10
124.8
 20
121.1
 30
0.0
 11
124.8
 21
117.05
 31
0.0
  0
LINE
  8
0
  6
CONTINUOUS
 62
     2
 10
126.3
 20
117.305
 30
0.0
 11
126.3
 21
120.85
 31
0.0
  0
LINE
  8
0
  6
CONTINUOUS
 62
     2
 10
126.053
 20
120.05
 30
0.0
 11
126.303
 21
119.85
 31
0.0
  0
LINE
  8
0
  6
CONTINUOUS
 62
     2
 10
126.053
 20
120.05
 30
0.0
 11
124.8
 21
120.05
 31
0.0
  0
LINE
  8
0
  6
CONTINUOUS
 62
     2
 10
124.8
 20
118.05
 30
0.0
 11
126.016666667
 21
118.05
 31
0.0
  0
POLYLINE
  8
0
  6
CONTINUOUS
 62
     2
 66
     1
  0
VERTEX
  8
0
  6
CONTINUOUS
 62
     2
 10
124.8
 20
121.1
 30
0.0
  0
VERTEX
  8
0
  6
CONTINUOUS
 62
     2
 10
124.4
 20
121.5
 30
0.0
  0
VERTEX
  8
0
  6
CONTINUOUS
 62
     2
 10
124.4
 20
116.65
 30
0.0
  0
SEQEND
  0
LINE
  8
0
  6
CONTINUOUS
 62
     2
 10
124.8
 20
117.05
 30
0.0
 11
124.4
 21
116.65
 31
0.0
  0
LINE
  8
0
  6
CONTINUOUS
 62
     2
 10
126.3
 20
120.02
 30
0.0
 11
127.8
 21
120.02
 31
0.0
  0
LINE
  8
0
  6
CONTINUOUS
 62
     2
 10
126.3
 20
117.98
 30
0.0
 11
127.8
 21
117.98
 31
0.0
  0
TEXT
  8
0
  6
CONTINUOUS
 62
     2
 10
133.25
 20
108.3
 30
0.3
 40
3.0
  1
Ｍ４取付ボルト
 50
0.0
 41
0.666666667
 51
0.0
  7
KANJI4
  0
POLYLINE
  8
0
  6
CONTINUOUS
 62
     2
 66
     1
  0
VERTEX
  8
0
  6
CONTINUOUS
 62
     2
 10
125.15
 20
118.7
 30
0.0
  0
VERTEX
  8
0
  6
CONTINUOUS
 62
     2
 10
132.865853659
 20
107.3
 30
0.0
  0
VERTEX
  8
0
  6
CONTINUOUS
 62
     2
 10
149.05
 20
107.3
 30
0.0
  0
SEQEND
  0
ARC
  8
0
  6
CONTINUOUS
 62
     1
 10
50.2
 20
118.3
 30
0.0
 40
2.1
 50
270.0
 51
90.0
  0
LINE
  8
0
  6
CONTINUOUS
 62
     1
 10
84.4
 20
112.75
 30
0.0
 11
50.2
 21
112.75
 31
0.0
  0
ARC
  8
0
  6
CONTINUOUS
 62
     1
 10
84.4
 20
114.7
 30
0.0
 40
1.95
 50
270.0
 51
0.0
  0
LINE
  8
0
  6
CONTINUOUS
 62
     1
 10
50.2
 20
173.05
 30
0.0
 11
84.4
 21
173.05
 31
0.0
  0
LINE
  8
0
  6
CONTINUOUS
 62
     1
 10
86.35
 20
171.1
 30
0.0
 11
86.35
 21
114.7
 31
0.0
  0
ARC
  8
0
  6
CONTINUOUS
 62
     1
 10
84.4
 20
171.1
 30
0.0
 40
1.95
 50
0.0
 51
90.0
  0
CIRCLE
  8
0
  6
CONTINUOUS
 62
     1
 10
80.2
 20
130.3
 30
0.0
 40
2.16
  0
LINE
  8
0
  6
CONTINUOUS
 62
     1
 10
83.98
 20
133.9
 30
0.0
 11
50.2
 21
133.9
 31
0.0
  0
LINE
  8
0
  6
CONTINUOUS
 62
     1
 10
83.98
 20
170.08
 30
0.0
 11
83.98
 21
133.9
 31
0.0
  0
LINE
  8
0
  6
CONTINUOUS
 62
     1
 10
50.2
 20
170.68
 30
0.0
 11
83.38
 21
170.68
 31
0.0
  0
ARC
  8
0
  6
CONTINUOUS
 62
     1
 10
83.38
 20
170.08
 30
0.0
 40
0.6
 50
0.0
 51
90.0
  0
LINE
  8
0
  6
CONTINUOUS
 62
     2
 10
84.4
 20
114.1
 30
0.0
 11
50.2
 21
114.1
 31
0.0
  0
ARC
  8
0
  6
CONTINUOUS
 62
     2
 10
84.4
 20
114.7
 30
0.0
 40
0.6
 50
270.0
 51
0.0
  0
LINE
  8
0
  6
CONTINUOUS
 62
     2
 10
50.2
 20
171.7
 30
0.0
 11
84.4
 21
171.7
 31
0.0
  0
LINE
  8
0
  6
CONTINUOUS
 62
     2
 10
85.0
 20
171.1
 30
0.0
 11
85.0
 21
114.7
 31
0.0
  0
ARC
  8
0
  6
CONTINUOUS
 62
     2
 10
84.4
 20
171.1
 30
0.0
 40
0.6
 50
0.0
 51
90.0
  0
CIRCLE
  8
0
  6
CONTINUOUS
 62
     2
 10
80.2
 20
130.3
 30
0.0
 40
1.8
  0
LINE
  8
0
  6
CONTINUOUS
 62
     2
 10
81.25
 20
130.54
 30
0.0
 11
80.68
 21
130.54
 31
0.0
  0
ARC
  8
0
  6
CONTINUOUS
 62
     2
 10
80.68
 20
130.78
 30
0.0
 40
0.24
 50
180.0
 51
270.0
  0
LINE
  8
0
  6
CONTINUOUS
 62
     2
 10
80.44
 20
130.78
 30
0.0
 11
80.44
 21
131.35
 31
0.0
  0
LINE
  8
0
  6
CONTINUOUS
 62
     2
 10
80.44
 20
131.35
 30
0.0
 11
79.96
 21
131.35
 31
0.0
  0
LINE
  8
0
  6
CONTINUOUS
 62
     2
 10
79.96
 20
131.35
 30
0.0
 11
79.96
 21
130.78
 31
0.0
  0
ARC
  8
0
  6
CONTINUOUS
 62
     2
 10
79.72
 20
130.78
 30
0.0
 40
0.24
 50
270.0
 51
0.0
  0
LINE
  8
0
  6
CONTINUOUS
 62
     2
 10
79.72
 20
130.54
 30
0.0
 11
79.15
 21
130.54
 31
0.0
  0
LINE
  8
0
  6
CONTINUOUS
 62
     2
 10
79.15
 20
130.54
 30
0.0
 11
79.15
 21
130.06
 31
0.0
  0
LINE
  8
0
  6
CONTINUOUS
 62
     2
 10
79.15
 20
130.06
 30
0.0
 11
79.72
 21
130.06
 31
0.0
  0
ARC
  8
0
  6
CONTINUOUS
 62
     2
 10
79.72
 20
129.82
 30
0.0
 40
0.24
 50
0.0
 51
90.0
  0
LINE
  8
0
  6
CONTINUOUS
 62
     2
 10
79.96
 20
129.82
 30
0.0
 11
79.96
 21
129.25
 31
0.0
  0
LINE
  8
0
  6
CONTINUOUS
 62
     2
 10
79.96
 20
129.25
 30
0.0
 11
80.44
 21
129.25
 31
0.0
  0
LINE
  8
0
  6
CONTINUOUS
 62
     2
 10
80.44
 20
129.25
 30
0.0
 11
80.44
 21
129.82
 31
0.0
  0
ARC
  8
0
  6
CONTINUOUS
 62
     2
 10
80.68
 20
129.82
 30
0.0
 40
0.24
 50
90.0
 51
180.0
  0
LINE
  8
0
  6
CONTINUOUS
 62
     2
 10
80.68
 20
130.06
 30
0.0
 11
81.25
 21
130.06
 31
0.0
  0
LINE
  8
0
  6
CONTINUOUS
 62
     2
 10
81.25
 20
130.06
 30
0.0
 11
81.25
 21
130.54
 31
0.0
  0
LINE
  8
0
  6
LTYPE1
 62
     2
 10
82.6
 20
130.3
 30
0.0
 11
77.8
 21
130.3
 31
0.0
  0
LINE
  8
0
  6
LTYPE1
 62
     2
 10
80.2
 20
132.7
 30
0.0
 11
80.2
 21
127.9
 31
0.0
  0
LINE
  8
0
  6
CONTINUOUS
 62
     1
 10
50.5
 20
120.378460969
 30
0.0
 11
50.5
 21
116.221539031
 31
0.0
  0
LINE
  8
0
  6
LTYPE1
 62
     2
 10
9.8
 20
142.9
 30
0.0
 11
88.8
 21
142.9
 31
0.0
  0
LINE
  8
0
  6
LTYPE1
 62
     2
 10
50.2
 20
177.94
 30
0.0
 11
50.2
 21
108.4
 31
0.0
  0
LINE
  8
0
  6
LTYPE1
 62
     2
 10
110.7
 20
142.9
 30
0.0
 11
191.5
 21
142.9
 31
0.0
  0
LINE
  8
0
  6
LTYPE1
 62
     2
 10
191.5
 20
140.0
 30
0.0
 11
186.9
 21
140.0
 31
0.0
  0
LINE
  8
0
  6
LTYPE1
 62
     2
 10
215.5
 20
104.0
 30
0.0
 11
215.5
 21
91.0
 31
0.0
  0
ARC
  8
0
  6
CONTINUOUS
 62
     1
 10
205.24
 20
171.26
 30
0.0
 40
0.78
 50
90.0
 51
180.0
  0
LINE
  8
0
  6
CONTINUOUS
 62
     1
 10
204.46
 20
114.74
 30
0.0
 11
204.46
 21
171.26
 31
0.0
  0
ARC
  8
0
  6
CONTINUOUS
 62
     1
 10
205.24
 20
114.74
 30
0.0
 40
0.78
 50
180.0
 51
270.0
  0
CIRCLE
  8
0
  6
CONTINUOUS
 62
     1
 10
209.5
 20
119.0
 30
0.0
 40
3.0
  0
CIRCLE
  8
0
  6
CONTINUOUS
 62
     1
 10
209.5
 20
167.0
 30
0.0
 40
3.0
  0
POLYLINE
  8
0
  6
CONTINUOUS
 62
     1
 66
     1
  0
VERTEX
  8
0
  6
CONTINUOUS
 62
     1
 10
220.3
 20
172.04
 30
0.0
  0
VERTEX
  8
0
  6
CONTINUOUS
 62
     1
 10
220.3
 20
172.04
 30
0.0
  0
VERTEX
  8
0
  6
CONTINUOUS
 62
     1
 10
220.3
 20
171.44
 30
0.0
  0
VERTEX
  8
0
  6
CONTINUOUS
 62
     1
 10
216.7
 20
171.44
 30
0.0
  0
VERTEX
  8
0
  6
CONTINUOUS
 62
     1
 10
216.7
 20
172.04
 30
0.0
  0
SEQEND
  0
LINE
  8
0
  6
CONTINUOUS
 62
     1
 10
239.5
 20
113.96
 30
0.0
 11
205.24
 21
113.96
 31
0.0
  0
LINE
  8
0
  6
CONTINUOUS
 62
     1
 10
205.24
 20
172.04
 30
0.0
 11
239.5
 21
172.04
 31
0.0
  0
ARC
  8
0
  6
CONTINUOUS
 62
     1
 10
214.3
 20
131.6
 30
0.0
 40
2.4
 50
180.0
 51
270.0
  0
ARC
  8
0
  6
CONTINUOUS
 62
     1
 10
214.3
 20
131.6
 30
0.0
 40
2.4
 50
90.0
 51
180.0
  0
LINE
  8
0
  6
CONTINUOUS
 62
     1
 10
214.3
 20
129.2
 30
0.0
 11
216.4
 21
129.2
 31
0.0
  0
LINE
  8
0
  6
CONTINUOUS
 62
     1
 10
214.3
 20
134.0
 30
0.0
 11
214.715932537
 21
134.0
 31
0.0
  0
LINE
  8
0
  6
CONTINUOUS
 62
     1
 10
237.61
 20
162.8
 30
0.0
 11
237.61
 21
164.14525823
 31
0.0
  0
ARC
  8
0
  6
CONTINUOUS
 62
     1
 10
236.711624099
 20
164.14525823
 30
0.0
 40
0.9
 50
0.0
 51
90.0
  0
LINE
  8
0
  6
CONTINUOUS
 62
     1
 10
220.000001618
 20
149.6
 30
0.0
 11
219.100001618
 21
149.6
 31
0.0
  0
LINE
  8
0
  6
CONTINUOUS
 62
     1
 10
219.1
 20
130.4
 30
0.0
 11
220.000002803
 21
130.4
 31
0.0
  0
LINE
  8
0
  6
CONTINUOUS
 62
     1
 10
234.28
 20
141.26
 30
0.0
 11
229.12
 21
141.26
 31
0.0
  0
ARC
  8
0
  6
CONTINUOUS
 62
     1
 10
229.12
 20
141.5
 30
0.0
 40
0.24
 50
90.000477039
 51
269.99952394
  0
ARC
  8
0
  6
CONTINUOUS
 62
     1
 10
234.28
 20
141.5
 30
0.0
 40
0.24
 50
0.0
 51
90.0
  0
ARC
  8
0
  6
CONTINUOUS
 62
     1
 10
234.28
 20
141.5
 30
0.0
 40
0.24
 50
270.0
 51
0.0
  0
ARC
  8
0
  6
CONTINUOUS
 62
     1
 10
236.92
 20
141.5
 30
0.0
 40
0.24
 50
90.000477039
 51
269.99952394
  0
ARC
  8
0
  6
CONTINUOUS
 62
     1
 10
237.34
 20
148.1
 30
0.0
 40
0.24
 50
90.000278953
 51
269.999721047
  0
LINE
  8
0
  6
CONTINUOUS
 62
     1
 10
219.1
 20
149.6
 30
0.0
 11
217.0
 21
149.6
 31
0.0
  0
ARC
  8
0
  6
CONTINUOUS
 62
     1
 10
217.0
 20
148.4
 30
0.0
 40
1.2
 50
90.0
 51
180.0
  0
LINE
  8
0
  6
CONTINUOUS
 62
     1
 10
217.00000107
 20
130.4
 30
0.0
 11
219.1
 21
130.4
 31
0.0
  0
LINE
  8
0
  6
CONTINUOUS
 62
     1
 10
215.8
 20
148.4
 30
0.0
 11
215.8
 21
131.6
 31
0.0
  0
ARC
  8
0
  6
CONTINUOUS
 62
     1
 10
217.0
 20
131.6
 30
0.0
 40
1.2
 50
180.0
 51
270.000072284
  0
ARC
  8
0
  6
CONTINUOUS
 62
     1
 10
220.0
 20
149.0
 30
0.0
 40
0.6
 50
0.0
 51
90.0
  0
ARC
  8
0
  6
CONTINUOUS
 62
     1
 10
220.0
 20
131.0
 30
0.0
 40
0.6
 50
269.999890717
 51
0.0
  0
LINE
  8
0
  6
CONTINUOUS
 62
     1
 10
220.6
 20
149.0
 30
0.0
 11
220.6
 21
141.2
 31
0.0
  0
ARC
  8
0
  6
CONTINUOUS
 62
     1
 10
221.2
 20
141.2
 30
0.0
 40
0.6
 50
180.0
 51
270.0
  0
LINE
  8
0
  6
CONTINUOUS
 62
     1
 10
220.6
 20
138.8
 30
0.0
 11
220.6
 21
131.0
 31
0.0
  0
ARC
  8
0
  6
CONTINUOUS
 62
     1
 10
221.2
 20
138.8
 30
0.0
 40
0.6
 50
90.0
 51
180.0
  0
LINE
  8
0
  6
CONTINUOUS
 62
     1
 10
221.2
 20
140.6
 30
0.0
 11
226.6
 21
140.6
 31
0.0
  0
ARC
  8
0
  6
CONTINUOUS
 62
     1
 10
226.6
 20
141.2
 30
0.0
 40
0.6
 50
270.0
 51
0.0
  0
LINE
  8
0
  6
CONTINUOUS
 62
     1
 10
221.2
 20
139.4
 30
0.0
 11
226.6
 21
139.4
 31
0.0
  0
ARC
  8
0
  6
CONTINUOUS
 62
     1
 10
226.6
 20
138.8
 30
0.0
 40
0.6
 50
0.0
 51
90.0
  0
ARC
  8
0
  6
CONTINUOUS
 62
     1
 10
229.0
 20
141.2
 30
0.0
 40
0.6
 50
180.0
 51
270.0
  0
ARC
  8
0
  6
CONTINUOUS
 62
     1
 10
229.0
 20
138.8
 30
0.0
 40
0.6
 50
90.0
 51
180.0
  0
LINE
  8
0
  6
CONTINUOUS
 62
     1
 10
229.0
 20
140.6
 30
0.0
 11
234.4
 21
140.6
 31
0.0
  0
ARC
  8
0
  6
CONTINUOUS
 62
     1
 10
234.4
 20
141.2
 30
0.0
 40
0.6
 50
270.0
 51
0.0
  0
LINE
  8
0
  6
CONTINUOUS
 62
     1
 10
229.0
 20
139.4
 30
0.0
 11
234.4
 21
139.4
 31
0.0
  0
ARC
  8
0
  6
CONTINUOUS
 62
     1
 10
234.4
 20
138.8
 30
0.0
 40
0.6
 50
0.0
 51
90.0
  0
ARC
  8
0
  6
CONTINUOUS
 62
     1
 10
236.8
 20
138.8
 30
0.0
 40
0.6
 50
90.0
 51
180.0
  0
ARC
  8
0
  6
CONTINUOUS
 62
     1
 10
236.8
 20
141.2
 30
0.0
 40
0.6
 50
180.0
 51
270.0
  0
ARC
  8
0
  6
CONTINUOUS
 62
     1
 10
236.71
 20
115.854922639
 30
0.0
 40
0.9
 50
270.0
 51
0.0
  0
LINE
  8
0
  6
CONTINUOUS
 62
     1
 10
237.61
 20
117.2
 30
0.0
 11
237.61
 21
115.860974949
 31
0.0
  0
LINE
  8
0
  6
CONTINUOUS
 62
     1
 10
228.4
 20
141.74
 30
0.0
 11
235.0
 21
141.74
 31
0.0
  0
TEXT
  8
0
  6
CONTINUOUS
 62
     1
 10
222.76
 20
150.2
 30
0.24
 40
2.4
  1
１
 50
0.0
 41
0.9
 51
0.0
  7
KANJI15
  0
TEXT
  8
0
  6
CONTINUOUS
 62
     1
 10
230.56
 20
150.2
 30
0.24
 40
2.4
  1
２
 50
0.0
 41
0.9
 51
0.0
  7
KANJI15
  0
TEXT
  8
0
  6
CONTINUOUS
 62
     1
 10
238.36
 20
150.2
 30
0.24
 40
2.4
  1
３
 50
0.0
 41
0.9
 51
0.0
  7
KANJI15
  0
TEXT
  8
0
  6
CONTINUOUS
 62
     1
 10
222.76
 20
127.4
 30
0.24
 40
2.4
  1
５
 50
0.0
 41
0.9
 51
0.0
  7
KANJI15
  0
TEXT
  8
0
  6
CONTINUOUS
 62
     1
 10
230.56
 20
127.4
 30
0.24
 40
2.4
  1
６
 50
0.0
 41
0.9
 51
0.0
  7
KANJI15
  0
TEXT
  8
0
  6
CONTINUOUS
 62
     1
 10
238.36
 20
127.4
 30
0.24
 40
2.4
  1
７
 50
0.0
 41
0.9
 51
0.0
  7
KANJI15
  0
ARC
  8
0
  6
CONTINUOUS
 62
     1
 10
227.8
 20
150.2
 30
0.0
 40
0.6
 50
0.0
 51
180.0
  0
ARC
  8
0
  6
CONTINUOUS
 62
     1
 10
235.6
 20
150.2
 30
0.0
 40
0.6
 50
0.0
 51
180.0
  0
LINE
  8
0
  6
CONTINUOUS
 62
     1
 10
236.2
 20
141.2
 30
0.0
 11
236.2
 21
150.2
 31
0.0
  0
LINE
  8
0
  6
CONTINUOUS
 62
     1
 10
235.0
 20
150.2
 30
0.0
 11
235.0
 21
141.2
 31
0.0
  0
LINE
  8
0
  6
CONTINUOUS
 62
     1
 10
228.4
 20
150.2
 30
0.0
 11
228.4
 21
141.2
 31
0.0
  0
LINE
  8
0
  6
CONTINUOUS
 62
     1
 10
227.2
 20
150.2
 30
0.0
 11
227.2
 21
141.2
 31
0.0
  0
ARC
  8
0
  6
CONTINUOUS
 62
     1
 10
227.8
 20
129.8
 30
0.0
 40
0.6
 50
180.0
 51
0.0
  0
ARC
  8
0
  6
CONTINUOUS
 62
     1
 10
235.6
 20
129.8
 30
0.0
 40
0.6
 50
180.0
 51
0.0
  0
LINE
  8
0
  6
CONTINUOUS
 62
     1
 10
236.2
 20
129.8
 30
0.0
 11
236.2
 21
138.8
 31
0.0
  0
LINE
  8
0
  6
CONTINUOUS
 62
     1
 10
235.0
 20
138.8
 30
0.0
 11
235.0
 21
129.8
 31
0.0
  0
LINE
  8
0
  6
CONTINUOUS
 62
     1
 10
228.4
 20
129.8
 30
0.0
 11
228.4
 21
138.8
 31
0.0
  0
LINE
  8
0
  6
CONTINUOUS
 62
     1
 10
227.2
 20
138.8
 30
0.0
 11
227.2
 21
129.8
 31
0.0
  0
ARC
  8
0
  6
CONTINUOUS
 62
     1
 10
239.5
 20
162.8
 30
0.0
 40
1.89
 50
180.0
 51
270.0
  0
LINE
  8
0
  6
CONTINUOUS
 62
     1
 10
239.5
 20
148.34
 30
0.0
 11
237.34
 21
148.34
 31
0.0
  0
LINE
  8
0
  6
CONTINUOUS
 62
     1
 10
239.5
 20
147.86
 30
0.0
 11
236.2
 21
147.86
 31
0.0
  0
LINE
  8
0
  6
CONTINUOUS
 62
     1
 10
236.2
 20
141.74
 30
0.0
 11
239.5
 21
141.74
 31
0.0
  0
LINE
  8
0
  6
CONTINUOUS
 62
     1
 10
239.5
 20
141.26
 30
0.0
 11
236.92
 21
141.26
 31
0.0
  0
LINE
  8
0
  6
CONTINUOUS
 62
     1
 10
236.8
 20
140.6
 30
0.0
 11
239.5
 21
140.6
 31
0.0
  0
LINE
  8
0
  6
CONTINUOUS
 62
     1
 10
236.8
 20
139.4
 30
0.0
 11
239.5
 21
139.4
 31
0.0
  0
ARC
  8
0
  6
CONTINUOUS
 62
     1
 10
239.5
 20
117.2
 30
0.0
 40
1.89
 50
90.00001595
 51
180.0
  0
ARC
  8
0
  6
CONTINUOUS
 62
     1
 10
239.5
 20
140.0
 30
0.0
 40
25.2
 50
90.000003307
 51
269.999996805
  0
POLYLINE
  8
0
  6
CONTINUOUS
 62
     1
 66
     1
  0
VERTEX
  8
0
  6
CONTINUOUS
 62
     1
 10
226.69
 20
147.86
 30
0.0
  0
VERTEX
  8
0
  6
CONTINUOUS
 62
     1
 10
226.69
 20
147.2
 30
0.0
  0
VERTEX
  8
0
  6
CONTINUOUS
 62
     1
 10
226.45
 20
146.9
 30
0.0
  0
VERTEX
  8
0
  6
CONTINUOUS
 62
     1
 10
226.45
 20
142.7
 30
0.0
  0
VERTEX
  8
0
  6
CONTINUOUS
 62
     1
 10
226.69
 20
142.4
 30
0.0
  0
VERTEX
  8
0
  6
CONTINUOUS
 62
     1
 10
226.69
 20
141.26
 30
0.0
  0
VERTEX
  8
0
  6
CONTINUOUS
 62
     1
 10
221.11
 20
141.26
 30
0.0
  0
VERTEX
  8
0
  6
CONTINUOUS
 62
     1
 10
221.11
 20
142.4
 30
0.0
  0
VERTEX
  8
0
  6
CONTINUOUS
 62
     1
 10
221.35
 20
142.7
 30
0.0
  0
VERTEX
  8
0
  6
CONTINUOUS
 62
     1
 10
221.35
 20
146.9
 30
0.0
  0
VERTEX
  8
0
  6
CONTINUOUS
 62
     1
 10
221.11
 20
147.2
 30
0.0
  0
VERTEX
  8
0
  6
CONTINUOUS
 62
     1
 10
221.11
 20
147.86
 30
0.0
  0
VERTEX
  8
0
  6
CONTINUOUS
 62
     1
 10
221.35
 20
147.86
 30
0.0
  0
VERTEX
  8
0
  6
CONTINUOUS
 62
     1
 10
221.35
 20
148.34
 30
0.0
  0
SEQEND
  0
LINE
  8
0
  6
CONTINUOUS
 62
     1
 10
221.35
 20
148.34
 30
0.0
 11
226.45
 21
148.34
 31
0.0
  0
POLYLINE
  8
0
  6
CONTINUOUS
 62
     1
 66
     1
  0
VERTEX
  8
0
  6
CONTINUOUS
 62
     1
 10
226.45
 20
148.34
 30
0.0
  0
VERTEX
  8
0
  6
CONTINUOUS
 62
     1
 10
226.45
 20
147.86
 30
0.0
  0
VERTEX
  8
0
  6
CONTINUOUS
 62
     1
 10
226.69
 20
147.86
 30
0.0
  0
SEQEND
  0
LINE
  8
0
  6
CONTINUOUS
 62
     1
 10
234.49
 20
147.86
 30
0.0
 11
234.49
 21
147.2
 31
0.0
  0
POLYLINE
  8
0
  6
CONTINUOUS
 62
     1
 66
     1
  0
VERTEX
  8
0
  6
CONTINUOUS
 62
     1
 10
234.49
 20
147.2
 30
0.0
  0
VERTEX
  8
0
  6
CONTINUOUS
 62
     1
 10
234.25
 20
146.9
 30
0.0
  0
VERTEX
  8
0
  6
CONTINUOUS
 62
     1
 10
234.25
 20
142.7
 30
0.0
  0
VERTEX
  8
0
  6
CONTINUOUS
 62
     1
 10
234.49
 20
142.4
 30
0.0
  0
VERTEX
  8
0
  6
CONTINUOUS
 62
     1
 10
234.49
 20
141.26
 30
0.0
  0
VERTEX
  8
0
  6
CONTINUOUS
 62
     1
 10
228.91
 20
141.26
 30
0.0
  0
VERTEX
  8
0
  6
CONTINUOUS
 62
     1
 10
228.91
 20
142.4
 30
0.0
  0
VERTEX
  8
0
  6
CONTINUOUS
 62
     1
 10
229.15
 20
142.7
 30
0.0
  0
VERTEX
  8
0
  6
CONTINUOUS
 62
     1
 10
229.15
 20
146.9
 30
0.0
  0
VERTEX
  8
0
  6
CONTINUOUS
 62
     1
 10
228.91
 20
147.2
 30
0.0
  0
VERTEX
  8
0
  6
CONTINUOUS
 62
     1
 10
228.91
 20
147.86
 30
0.0
  0
VERTEX
  8
0
  6
CONTINUOUS
 62
     1
 10
229.15
 20
147.86
 30
0.0
  0
VERTEX
  8
0
  6
CONTINUOUS
 62
     1
 10
229.15
 20
148.34
 30
0.0
  0
SEQEND
  0
LINE
  8
0
  6
CONTINUOUS
 62
     1
 10
229.15
 20
148.34
 30
0.0
 11
234.25
 21
148.34
 31
0.0
  0
POLYLINE
  8
0
  6
CONTINUOUS
 62
     1
 66
     1
  0
VERTEX
  8
0
  6
CONTINUOUS
 62
     1
 10
234.25
 20
148.34
 30
0.0
  0
VERTEX
  8
0
  6
CONTINUOUS
 62
     1
 10
234.25
 20
147.86
 30
0.0
  0
VERTEX
  8
0
  6
CONTINUOUS
 62
     1
 10
234.49
 20
147.86
 30
0.0
  0
SEQEND
  0
LINE
  8
0
  6
CONTINUOUS
 62
     1
 10
221.11
 20
132.14
 30
0.0
 11
221.11
 21
132.8
 31
0.0
  0
POLYLINE
  8
0
  6
CONTINUOUS
 62
     1
 66
     1
  0
VERTEX
  8
0
  6
CONTINUOUS
 62
     1
 10
221.11
 20
132.8
 30
0.0
  0
VERTEX
  8
0
  6
CONTINUOUS
 62
     1
 10
221.35
 20
133.1
 30
0.0
  0
VERTEX
  8
0
  6
CONTINUOUS
 62
     1
 10
221.35
 20
137.3
 30
0.0
  0
VERTEX
  8
0
  6
CONTINUOUS
 62
     1
 10
221.11
 20
137.6
 30
0.0
  0
VERTEX
  8
0
  6
CONTINUOUS
 62
     1
 10
221.11
 20
138.74
 30
0.0
  0
VERTEX
  8
0
  6
CONTINUOUS
 62
     1
 10
226.69
 20
138.74
 30
0.0
  0
VERTEX
  8
0
  6
CONTINUOUS
 62
     1
 10
226.69
 20
137.6
 30
0.0
  0
VERTEX
  8
0
  6
CONTINUOUS
 62
     1
 10
226.45
 20
137.3
 30
0.0
  0
VERTEX
  8
0
  6
CONTINUOUS
 62
     1
 10
226.45
 20
133.1
 30
0.0
  0
VERTEX
  8
0
  6
CONTINUOUS
 62
     1
 10
226.69
 20
132.8
 30
0.0
  0
VERTEX
  8
0
  6
CONTINUOUS
 62
     1
 10
226.69
 20
132.14
 30
0.0
  0
VERTEX
  8
0
  6
CONTINUOUS
 62
     1
 10
226.45
 20
132.14
 30
0.0
  0
VERTEX
  8
0
  6
CONTINUOUS
 62
     1
 10
226.45
 20
131.66
 30
0.0
  0
SEQEND
  0
LINE
  8
0
  6
CONTINUOUS
 62
     1
 10
226.45
 20
131.66
 30
0.0
 11
221.35
 21
131.66
 31
0.0
  0
POLYLINE
  8
0
  6
CONTINUOUS
 62
     1
 66
     1
  0
VERTEX
  8
0
  6
CONTINUOUS
 62
     1
 10
221.35
 20
131.66
 30
0.0
  0
VERTEX
  8
0
  6
CONTINUOUS
 62
     1
 10
221.35
 20
132.14
 30
0.0
  0
VERTEX
  8
0
  6
CONTINUOUS
 62
     1
 10
221.11
 20
132.14
 30
0.0
  0
SEQEND
  0
LINE
  8
0
  6
CONTINUOUS
 62
     1
 10
228.91
 20
132.14
 30
0.0
 11
228.91
 21
132.8
 31
0.0
  0
POLYLINE
  8
0
  6
CONTINUOUS
 62
     1
 66
     1
  0
VERTEX
  8
0
  6
CONTINUOUS
 62
     1
 10
228.91
 20
132.8
 30
0.0
  0
VERTEX
  8
0
  6
CONTINUOUS
 62
     1
 10
229.15
 20
133.1
 30
0.0
  0
VERTEX
  8
0
  6
CONTINUOUS
 62
     1
 10
229.15
 20
137.3
 30
0.0
  0
VERTEX
  8
0
  6
CONTINUOUS
 62
     1
 10
228.91
 20
137.6
 30
0.0
  0
VERTEX
  8
0
  6
CONTINUOUS
 62
     1
 10
228.91
 20
138.74
 30
0.0
  0
VERTEX
  8
0
  6
CONTINUOUS
 62
     1
 10
234.49
 20
138.74
 30
0.0
  0
VERTEX
  8
0
  6
CONTINUOUS
 62
     1
 10
234.49
 20
137.6
 30
0.0
  0
VERTEX
  8
0
  6
CONTINUOUS
 62
     1
 10
234.25
 20
137.3
 30
0.0
  0
VERTEX
  8
0
  6
CONTINUOUS
 62
     1
 10
234.25
 20
133.1
 30
0.0
  0
VERTEX
  8
0
  6
CONTINUOUS
 62
     1
 10
234.49
 20
132.8
 30
0.0
  0
VERTEX
  8
0
  6
CONTINUOUS
 62
     1
 10
234.49
 20
132.14
 30
0.0
  0
VERTEX
  8
0
  6
CONTINUOUS
 62
     1
 10
234.25
 20
132.14
 30
0.0
  0
VERTEX
  8
0
  6
CONTINUOUS
 62
     1
 10
234.25
 20
131.66
 30
0.0
  0
SEQEND
  0
LINE
  8
0
  6
CONTINUOUS
 62
     1
 10
234.25
 20
131.66
 30
0.0
 11
229.15
 21
131.66
 31
0.0
  0
POLYLINE
  8
0
  6
CONTINUOUS
 62
     1
 66
     1
  0
VERTEX
  8
0
  6
CONTINUOUS
 62
     1
 10
229.15
 20
131.66
 30
0.0
  0
VERTEX
  8
0
  6
CONTINUOUS
 62
     1
 10
229.15
 20
132.14
 30
0.0
  0
VERTEX
  8
0
  6
CONTINUOUS
 62
     1
 10
228.91
 20
132.14
 30
0.0
  0
SEQEND
  0
LINE
  8
0
  6
CONTINUOUS
 62
     1
 10
236.71
 20
132.14
 30
0.0
 11
236.71
 21
132.8
 31
0.0
  0
POLYLINE
  8
0
  6
CONTINUOUS
 62
     1
 66
     1
  0
VERTEX
  8
0
  6
CONTINUOUS
 62
     1
 10
236.71
 20
132.8
 30
0.0
  0
VERTEX
  8
0
  6
CONTINUOUS
 62
     1
 10
236.95
 20
133.1
 30
0.0
  0
VERTEX
  8
0
  6
CONTINUOUS
 62
     1
 10
236.95
 20
137.3
 30
0.0
  0
VERTEX
  8
0
  6
CONTINUOUS
 62
     1
 10
236.71
 20
137.6
 30
0.0
  0
VERTEX
  8
0
  6
CONTINUOUS
 62
     1
 10
236.71
 20
138.74
 30
0.0
  0
SEQEND
  0
LINE
  8
0
  6
CONTINUOUS
 62
     1
 10
236.95
 20
131.66
 30
0.0
 11
236.95
 21
132.14
 31
0.0
  0
LINE
  8
0
  6
CONTINUOUS
 62
     1
 10
236.95
 20
132.14
 30
0.0
 11
236.71
 21
132.14
 31
0.0
  0
LINE
  8
0
  6
CONTINUOUS
 62
     1
 10
239.5
 20
131.66
 30
0.0
 11
236.95
 21
131.66
 31
0.0
  0
LINE
  8
0
  6
CONTINUOUS
 62
     1
 10
236.71
 20
138.74
 30
0.0
 11
239.5
 21
138.74
 31
0.0
  0
LINE
  8
0
  6
CONTINUOUS
 62
     1
 10
236.71
 20
138.26
 30
0.0
 11
236.2
 21
138.26
 31
0.0
  0
LINE
  8
0
  6
CONTINUOUS
 62
     1
 10
236.71
 20
132.14
 30
0.0
 11
236.2
 21
132.14
 31
0.0
  0
LINE
  8
0
  6
CONTINUOUS
 62
     1
 10
235.0
 20
138.26
 30
0.0
 11
234.49
 21
138.26
 31
0.0
  0
LINE
  8
0
  6
CONTINUOUS
 62
     1
 10
228.91
 20
138.26
 30
0.0
 11
228.4
 21
138.26
 31
0.0
  0
LINE
  8
0
  6
CONTINUOUS
 62
     1
 10
228.91
 20
132.14
 30
0.0
 11
228.4
 21
132.14
 31
0.0
  0
LINE
  8
0
  6
CONTINUOUS
 62
     1
 10
235.0
 20
132.14
 30
0.0
 11
234.49
 21
132.14
 31
0.0
  0
LINE
  8
0
  6
CONTINUOUS
 62
     1
 10
227.2
 20
132.14
 30
0.0
 11
226.69
 21
132.14
 31
0.0
  0
LINE
  8
0
  6
CONTINUOUS
 62
     1
 10
221.11
 20
132.14
 30
0.0
 11
220.6
 21
132.14
 31
0.0
  0
LINE
  8
0
  6
CONTINUOUS
 62
     1
 10
221.11
 20
138.26
 30
0.0
 11
220.6
 21
138.26
 31
0.0
  0
LINE
  8
0
  6
CONTINUOUS
 62
     1
 10
227.2
 20
138.26
 30
0.0
 11
226.69
 21
138.26
 31
0.0
  0
LINE
  8
0
  6
CONTINUOUS
 62
     1
 10
226.69
 20
141.74
 30
0.0
 11
227.2
 21
141.74
 31
0.0
  0
LINE
  8
0
  6
CONTINUOUS
 62
     1
 10
220.6
 20
141.74
 30
0.0
 11
221.11
 21
141.74
 31
0.0
  0
LINE
  8
0
  6
CONTINUOUS
 62
     1
 10
221.11
 20
147.86
 30
0.0
 11
220.6
 21
147.86
 31
0.0
  0
LINE
  8
0
  6
CONTINUOUS
 62
     1
 10
227.2
 20
147.86
 30
0.0
 11
226.69
 21
147.86
 31
0.0
  0
LINE
  8
0
  6
CONTINUOUS
 62
     1
 10
228.91
 20
147.86
 30
0.0
 11
228.4
 21
147.86
 31
0.0
  0
LINE
  8
0
  6
CONTINUOUS
 62
     1
 10
235.0
 20
147.86
 30
0.0
 11
234.49
 21
147.86
 31
0.0
  0
ARC
  8
0
  6
CONTINUOUS
 62
     1
 10
273.76
 20
171.26
 30
0.0
 40
0.78
 50
0.0
 51
90.0
  0
LINE
  8
0
  6
CONTINUOUS
 62
     1
 10
274.54
 20
114.74
 30
0.0
 11
274.54
 21
171.26
 31
0.0
  0
ARC
  8
0
  6
CONTINUOUS
 62
     1
 10
273.76
 20
114.74
 30
0.0
 40
0.78
 50
270.0
 51
0.0
  0
CIRCLE
  8
0
  6
CONTINUOUS
 62
     1
 10
269.5
 20
119.0
 30
0.0
 40
3.0
  0
CIRCLE
  8
0
  6
CONTINUOUS
 62
     1
 10
269.5
 20
167.0
 30
0.0
 40
3.0
  0
POLYLINE
  8
0
  6
CONTINUOUS
 62
     1
 66
     1
  0
VERTEX
  8
0
  6
CONTINUOUS
 62
     1
 10
258.7
 20
172.04
 30
0.0
  0
VERTEX
  8
0
  6
CONTINUOUS
 62
     1
 10
258.7
 20
172.04
 30
0.0
  0
VERTEX
  8
0
  6
CONTINUOUS
 62
     1
 10
258.7
 20
171.44
 30
0.0
  0
VERTEX
  8
0
  6
CONTINUOUS
 62
     1
 10
262.3
 20
171.44
 30
0.0
  0
VERTEX
  8
0
  6
CONTINUOUS
 62
     1
 10
262.3
 20
172.04
 30
0.0
  0
SEQEND
  0
LINE
  8
0
  6
CONTINUOUS
 62
     1
 10
239.5
 20
113.96
 30
0.0
 11
273.76
 21
113.96
 31
0.0
  0
LINE
  8
0
  6
CONTINUOUS
 62
     1
 10
273.76
 20
172.04
 30
0.0
 11
239.5
 21
172.04
 31
0.0
  0
ARC
  8
0
  6
CONTINUOUS
 62
     1
 10
264.7
 20
131.6
 30
0.0
 40
2.4
 50
270.0
 51
0.0
  0
ARC
  8
0
  6
CONTINUOUS
 62
     1
 10
264.7
 20
131.6
 30
0.0
 40
2.4
 50
0.0
 51
90.0
  0
LINE
  8
0
  6
CONTINUOUS
 62
     1
 10
264.7
 20
129.2
 30
0.0
 11
262.6
 21
129.2
 31
0.0
  0
LINE
  8
0
  6
CONTINUOUS
 62
     1
 10
264.7
 20
134.0
 30
0.0
 11
264.284067463
 21
134.0
 31
0.0
  0
LINE
  8
0
  6
CONTINUOUS
 62
     1
 10
241.39
 20
162.8
 30
0.0
 11
241.39
 21
164.14525823
 31
0.0
  0
ARC
  8
0
  6
CONTINUOUS
 62
     1
 10
242.288375901
 20
164.14525823
 30
0.0
 40
0.9
 50
90.0
 51
180.0
  0
LINE
  8
0
  6
CONTINUOUS
 62
     1
 10
258.999998382
 20
149.6
 30
0.0
 11
259.899998382
 21
149.6
 31
0.0
  0
LINE
  8
0
  6
CONTINUOUS
 62
     1
 10
259.9
 20
130.4
 30
0.0
 11
258.999997197
 21
130.4
 31
0.0
  0
LINE
  8
0
  6
CONTINUOUS
 62
     1
 10
244.72
 20
141.26
 30
0.0
 11
249.88
 21
141.26
 31
0.0
  0
ARC
  8
0
  6
CONTINUOUS
 62
     1
 10
249.88
 20
141.5
 30
0.0
 40
0.24
 50
270.00047606
 51
89.999522961
  0
ARC
  8
0
  6
CONTINUOUS
 62
     1
 10
244.72
 20
141.5
 30
0.0
 40
0.24
 50
90.0
 51
180.0
  0
ARC
  8
0
  6
CONTINUOUS
 62
     1
 10
244.72
 20
141.5
 30
0.0
 40
0.24
 50
180.0
 51
270.0
  0
ARC
  8
0
  6
CONTINUOUS
 62
     1
 10
242.08
 20
141.5
 30
0.0
 40
0.24
 50
270.00047606
 51
89.999522961
  0
ARC
  8
0
  6
CONTINUOUS
 62
     1
 10
241.66
 20
148.1
 30
0.0
 40
0.24
 50
270.000278953
 51
89.999721047
  0
LINE
  8
0
  6
CONTINUOUS
 62
     1
 10
259.9
 20
149.6
 30
0.0
 11
262.0
 21
149.6
 31
0.0
  0
ARC
  8
0
  6
CONTINUOUS
 62
     1
 10
262.0
 20
148.4
 30
0.0
 40
1.2
 50
0.0
 51
90.0
  0
LINE
  8
0
  6
CONTINUOUS
 62
     1
 10
261.99999893
 20
130.4
 30
0.0
 11
259.9
 21
130.4
 31
0.0
  0
LINE
  8
0
  6
CONTINUOUS
 62
     1
 10
263.2
 20
148.4
 30
0.0
 11
263.2
 21
131.6
 31
0.0
  0
ARC
  8
0
  6
CONTINUOUS
 62
     1
 10
262.0
 20
131.6
 30
0.0
 40
1.2
 50
269.999927716
 51
0.0
  0
ARC
  8
0
  6
CONTINUOUS
 62
     1
 10
259.0
 20
149.0
 30
0.0
 40
0.6
 50
90.0
 51
180.0
  0
ARC
  8
0
  6
CONTINUOUS
 62
     1
 10
259.0
 20
131.0
 30
0.0
 40
0.6
 50
180.0
 51
270.000109283
  0
LINE
  8
0
  6
CONTINUOUS
 62
     1
 10
258.4
 20
149.0
 30
0.0
 11
258.4
 21
141.2
 31
0.0
  0
ARC
  8
0
  6
CONTINUOUS
 62
     1
 10
257.8
 20
141.2
 30
0.0
 40
0.6
 50
270.0
 51
0.0
  0
LINE
  8
0
  6
CONTINUOUS
 62
     1
 10
258.4
 20
138.8
 30
0.0
 11
258.4
 21
131.0
 31
0.0
  0
ARC
  8
0
  6
CONTINUOUS
 62
     1
 10
257.8
 20
138.8
 30
0.0
 40
0.6
 50
0.0
 51
90.0
  0
LINE
  8
0
  6
CONTINUOUS
 62
     1
 10
257.8
 20
140.6
 30
0.0
 11
252.4
 21
140.6
 31
0.0
  0
ARC
  8
0
  6
CONTINUOUS
 62
     1
 10
252.4
 20
141.2
 30
0.0
 40
0.6
 50
180.0
 51
270.0
  0
LINE
  8
0
  6
CONTINUOUS
 62
     1
 10
257.8
 20
139.4
 30
0.0
 11
252.4
 21
139.4
 31
0.0
  0
ARC
  8
0
  6
CONTINUOUS
 62
     1
 10
252.4
 20
138.8
 30
0.0
 40
0.6
 50
90.0
 51
180.0
  0
ARC
  8
0
  6
CONTINUOUS
 62
     1
 10
250.0
 20
141.2
 30
0.0
 40
0.6
 50
270.0
 51
0.0
  0
ARC
  8
0
  6
CONTINUOUS
 62
     1
 10
250.0
 20
138.8
 30
0.0
 40
0.6
 50
0.0
 51
90.0
  0
LINE
  8
0
  6
CONTINUOUS
 62
     1
 10
250.0
 20
140.6
 30
0.0
 11
244.6
 21
140.6
 31
0.0
  0
ARC
  8
0
  6
CONTINUOUS
 62
     1
 10
244.6
 20
141.2
 30
0.0
 40
0.6
 50
180.0
 51
270.0
  0
LINE
  8
0
  6
CONTINUOUS
 62
     1
 10
250.0
 20
139.4
 30
0.0
 11
244.6
 21
139.4
 31
0.0
  0
ARC
  8
0
  6
CONTINUOUS
 62
     1
 10
244.6
 20
138.8
 30
0.0
 40
0.6
 50
90.0
 51
180.0
  0
ARC
  8
0
  6
CONTINUOUS
 62
     1
 10
242.2
 20
138.8
 30
0.0
 40
0.6
 50
0.0
 51
90.0
  0
ARC
  8
0
  6
CONTINUOUS
 62
     1
 10
242.2
 20
141.2
 30
0.0
 40
0.6
 50
270.0
 51
0.0
  0
ARC
  8
0
  6
CONTINUOUS
 62
     1
 10
242.29
 20
115.854922639
 30
0.0
 40
0.9
 50
180.0
 51
270.0
  0
LINE
  8
0
  6
CONTINUOUS
 62
     1
 10
241.39
 20
117.2
 30
0.0
 11
241.39
 21
115.860974949
 31
0.0
  0
LINE
  8
0
  6
CONTINUOUS
 62
     1
 10
250.6
 20
141.74
 30
0.0
 11
244.0
 21
141.74
 31
0.0
  0
ARC
  8
0
  6
CONTINUOUS
 62
     1
 10
251.2
 20
150.2
 30
0.0
 40
0.6
 50
0.0
 51
180.0
  0
ARC
  8
0
  6
CONTINUOUS
 62
     1
 10
243.4
 20
150.2
 30
0.0
 40
0.6
 50
0.0
 51
180.0
  0
LINE
  8
0
  6
CONTINUOUS
 62
     1
 10
242.8
 20
141.2
 30
0.0
 11
242.8
 21
150.2
 31
0.0
  0
LINE
  8
0
  6
CONTINUOUS
 62
     1
 10
244.0
 20
150.2
 30
0.0
 11
244.0
 21
141.2
 31
0.0
  0
LINE
  8
0
  6
CONTINUOUS
 62
     1
 10
250.6
 20
150.2
 30
0.0
 11
250.6
 21
141.2
 31
0.0
  0
LINE
  8
0
  6
CONTINUOUS
 62
     1
 10
251.8
 20
150.2
 30
0.0
 11
251.8
 21
141.2
 31
0.0
  0
ARC
  8
0
  6
CONTINUOUS
 62
     1
 10
251.2
 20
129.8
 30
0.0
 40
0.6
 50
180.0
 51
0.0
  0
ARC
  8
0
  6
CONTINUOUS
 62
     1
 10
243.4
 20
129.8
 30
0.0
 40
0.6
 50
180.0
 51
0.0
  0
LINE
  8
0
  6
CONTINUOUS
 62
     1
 10
242.8
 20
129.8
 30
0.0
 11
242.8
 21
138.8
 31
0.0
  0
LINE
  8
0
  6
CONTINUOUS
 62
     1
 10
244.0
 20
138.8
 30
0.0
 11
244.0
 21
129.8
 31
0.0
  0
LINE
  8
0
  6
CONTINUOUS
 62
     1
 10
250.6
 20
129.8
 30
0.0
 11
250.6
 21
138.8
 31
0.0
  0
LINE
  8
0
  6
CONTINUOUS
 62
     1
 10
251.8
 20
138.8
 30
0.0
 11
251.8
 21
129.8
 31
0.0
  0
ARC
  8
0
  6
CONTINUOUS
 62
     1
 10
239.5
 20
162.8
 30
0.0
 40
1.89
 50
270.0
 51
0.0
  0
LINE
  8
0
  6
CONTINUOUS
 62
     1
 10
239.5
 20
148.34
 30
0.0
 11
241.66
 21
148.34
 31
0.0
  0
LINE
  8
0
  6
CONTINUOUS
 62
     1
 10
239.5
 20
147.86
 30
0.0
 11
242.8
 21
147.86
 31
0.0
  0
LINE
  8
0
  6
CONTINUOUS
 62
     1
 10
242.8
 20
141.74
 30
0.0
 11
239.5
 21
141.74
 31
0.0
  0
LINE
  8
0
  6
CONTINUOUS
 62
     1
 10
239.5
 20
141.26
 30
0.0
 11
242.08
 21
141.26
 31
0.0
  0
LINE
  8
0
  6
CONTINUOUS
 62
     1
 10
242.2
 20
140.6
 30
0.0
 11
239.5
 21
140.6
 31
0.0
  0
LINE
  8
0
  6
CONTINUOUS
 62
     1
 10
242.2
 20
139.4
 30
0.0
 11
239.5
 21
139.4
 31
0.0
  0
ARC
  8
0
  6
CONTINUOUS
 62
     1
 10
239.5
 20
117.2
 30
0.0
 40
1.89
 50
0.0
 51
89.99998405
  0
ARC
  8
0
  6
CONTINUOUS
 62
     1
 10
239.5
 20
140.0
 30
0.0
 40
25.2
 50
270.000003195
 51
89.999996693
  0
POLYLINE
  8
0
  6
CONTINUOUS
 62
     1
 66
     1
  0
VERTEX
  8
0
  6
CONTINUOUS
 62
     1
 10
252.31
 20
147.86
 30
0.0
  0
VERTEX
  8
0
  6
CONTINUOUS
 62
     1
 10
252.31
 20
147.2
 30
0.0
  0
VERTEX
  8
0
  6
CONTINUOUS
 62
     1
 10
252.55
 20
146.9
 30
0.0
  0
VERTEX
  8
0
  6
CONTINUOUS
 62
     1
 10
252.55
 20
142.7
 30
0.0
  0
VERTEX
  8
0
  6
CONTINUOUS
 62
     1
 10
252.31
 20
142.4
 30
0.0
  0
VERTEX
  8
0
  6
CONTINUOUS
 62
     1
 10
252.31
 20
141.26
 30
0.0
  0
VERTEX
  8
0
  6
CONTINUOUS
 62
     1
 10
257.89
 20
141.26
 30
0.0
  0
VERTEX
  8
0
  6
CONTINUOUS
 62
     1
 10
257.89
 20
142.4
 30
0.0
  0
VERTEX
  8
0
  6
CONTINUOUS
 62
     1
 10
257.65
 20
142.7
 30
0.0
  0
VERTEX
  8
0
  6
CONTINUOUS
 62
     1
 10
257.65
 20
146.9
 30
0.0
  0
VERTEX
  8
0
  6
CONTINUOUS
 62
     1
 10
257.89
 20
147.2
 30
0.0
  0
VERTEX
  8
0
  6
CONTINUOUS
 62
     1
 10
257.89
 20
147.86
 30
0.0
  0
VERTEX
  8
0
  6
CONTINUOUS
 62
     1
 10
257.65
 20
147.86
 30
0.0
  0
VERTEX
  8
0
  6
CONTINUOUS
 62
     1
 10
257.65
 20
148.34
 30
0.0
  0
SEQEND
  0
LINE
  8
0
  6
CONTINUOUS
 62
     1
 10
257.65
 20
148.34
 30
0.0
 11
252.55
 21
148.34
 31
0.0
  0
POLYLINE
  8
0
  6
CONTINUOUS
 62
     1
 66
     1
  0
VERTEX
  8
0
  6
CONTINUOUS
 62
     1
 10
252.55
 20
148.34
 30
0.0
  0
VERTEX
  8
0
  6
CONTINUOUS
 62
     1
 10
252.55
 20
147.86
 30
0.0
  0
VERTEX
  8
0
  6
CONTINUOUS
 62
     1
 10
252.31
 20
147.86
 30
0.0
  0
SEQEND
  0
LINE
  8
0
  6
CONTINUOUS
 62
     1
 10
244.51
 20
147.86
 30
0.0
 11
244.51
 21
147.2
 31
0.0
  0
POLYLINE
  8
0
  6
CONTINUOUS
 62
     1
 66
     1
  0
VERTEX
  8
0
  6
CONTINUOUS
 62
     1
 10
244.51
 20
147.2
 30
0.0
  0
VERTEX
  8
0
  6
CONTINUOUS
 62
     1
 10
244.75
 20
146.9
 30
0.0
  0
VERTEX
  8
0
  6
CONTINUOUS
 62
     1
 10
244.75
 20
142.7
 30
0.0
  0
VERTEX
  8
0
  6
CONTINUOUS
 62
     1
 10
244.51
 20
142.4
 30
0.0
  0
VERTEX
  8
0
  6
CONTINUOUS
 62
     1
 10
244.51
 20
141.26
 30
0.0
  0
VERTEX
  8
0
  6
CONTINUOUS
 62
     1
 10
250.09
 20
141.26
 30
0.0
  0
VERTEX
  8
0
  6
CONTINUOUS
 62
     1
 10
250.09
 20
142.4
 30
0.0
  0
VERTEX
  8
0
  6
CONTINUOUS
 62
     1
 10
249.85
 20
142.7
 30
0.0
  0
VERTEX
  8
0
  6
CONTINUOUS
 62
     1
 10
249.85
 20
146.9
 30
0.0
  0
VERTEX
  8
0
  6
CONTINUOUS
 62
     1
 10
250.09
 20
147.2
 30
0.0
  0
VERTEX
  8
0
  6
CONTINUOUS
 62
     1
 10
250.09
 20
147.86
 30
0.0
  0
VERTEX
  8
0
  6
CONTINUOUS
 62
     1
 10
249.85
 20
147.86
 30
0.0
  0
VERTEX
  8
0
  6
CONTINUOUS
 62
     1
 10
249.85
 20
148.34
 30
0.0
  0
SEQEND
  0
LINE
  8
0
  6
CONTINUOUS
 62
     1
 10
249.85
 20
148.34
 30
0.0
 11
244.75
 21
148.34
 31
0.0
  0
POLYLINE
  8
0
  6
CONTINUOUS
 62
     1
 66
     1
  0
VERTEX
  8
0
  6
CONTINUOUS
 62
     1
 10
244.75
 20
148.34
 30
0.0
  0
VERTEX
  8
0
  6
CONTINUOUS
 62
     1
 10
244.75
 20
147.86
 30
0.0
  0
VERTEX
  8
0
  6
CONTINUOUS
 62
     1
 10
244.51
 20
147.86
 30
0.0
  0
SEQEND
  0
LINE
  8
0
  6
CONTINUOUS
 62
     1
 10
257.89
 20
132.14
 30
0.0
 11
257.89
 21
132.8
 31
0.0
  0
POLYLINE
  8
0
  6
CONTINUOUS
 62
     1
 66
     1
  0
VERTEX
  8
0
  6
CONTINUOUS
 62
     1
 10
257.89
 20
132.8
 30
0.0
  0
VERTEX
  8
0
  6
CONTINUOUS
 62
     1
 10
257.65
 20
133.1
 30
0.0
  0
VERTEX
  8
0
  6
CONTINUOUS
 62
     1
 10
257.65
 20
137.3
 30
0.0
  0
VERTEX
  8
0
  6
CONTINUOUS
 62
     1
 10
257.89
 20
137.6
 30
0.0
  0
VERTEX
  8
0
  6
CONTINUOUS
 62
     1
 10
257.89
 20
138.74
 30
0.0
  0
VERTEX
  8
0
  6
CONTINUOUS
 62
     1
 10
252.31
 20
138.74
 30
0.0
  0
VERTEX
  8
0
  6
CONTINUOUS
 62
     1
 10
252.31
 20
137.6
 30
0.0
  0
VERTEX
  8
0
  6
CONTINUOUS
 62
     1
 10
252.55
 20
137.3
 30
0.0
  0
VERTEX
  8
0
  6
CONTINUOUS
 62
     1
 10
252.55
 20
133.1
 30
0.0
  0
VERTEX
  8
0
  6
CONTINUOUS
 62
     1
 10
252.31
 20
132.8
 30
0.0
  0
VERTEX
  8
0
  6
CONTINUOUS
 62
     1
 10
252.31
 20
132.14
 30
0.0
  0
VERTEX
  8
0
  6
CONTINUOUS
 62
     1
 10
252.55
 20
132.14
 30
0.0
  0
VERTEX
  8
0
  6
CONTINUOUS
 62
     1
 10
252.55
 20
131.66
 30
0.0
  0
SEQEND
  0
LINE
  8
0
  6
CONTINUOUS
 62
     1
 10
252.55
 20
131.66
 30
0.0
 11
257.65
 21
131.66
 31
0.0
  0
POLYLINE
  8
0
  6
CONTINUOUS
 62
     1
 66
     1
  0
VERTEX
  8
0
  6
CONTINUOUS
 62
     1
 10
257.65
 20
131.66
 30
0.0
  0
VERTEX
  8
0
  6
CONTINUOUS
 62
     1
 10
257.65
 20
132.14
 30
0.0
  0
VERTEX
  8
0
  6
CONTINUOUS
 62
     1
 10
257.89
 20
132.14
 30
0.0
  0
SEQEND
  0
LINE
  8
0
  6
CONTINUOUS
 62
     1
 10
250.09
 20
132.14
 30
0.0
 11
250.09
 21
132.8
 31
0.0
  0
POLYLINE
  8
0
  6
CONTINUOUS
 62
     1
 66
     1
  0
VERTEX
  8
0
  6
CONTINUOUS
 62
     1
 10
250.09
 20
132.8
 30
0.0
  0
VERTEX
  8
0
  6
CONTINUOUS
 62
     1
 10
249.85
 20
133.1
 30
0.0
  0
VERTEX
  8
0
  6
CONTINUOUS
 62
     1
 10
249.85
 20
137.3
 30
0.0
  0
VERTEX
  8
0
  6
CONTINUOUS
 62
     1
 10
250.09
 20
137.6
 30
0.0
  0
VERTEX
  8
0
  6
CONTINUOUS
 62
     1
 10
250.09
 20
138.74
 30
0.0
  0
VERTEX
  8
0
  6
CONTINUOUS
 62
     1
 10
244.51
 20
138.74
 30
0.0
  0
VERTEX
  8
0
  6
CONTINUOUS
 62
     1
 10
244.51
 20
137.6
 30
0.0
  0
VERTEX
  8
0
  6
CONTINUOUS
 62
     1
 10
244.75
 20
137.3
 30
0.0
  0
VERTEX
  8
0
  6
CONTINUOUS
 62
     1
 10
244.75
 20
133.1
 30
0.0
  0
VERTEX
  8
0
  6
CONTINUOUS
 62
     1
 10
244.51
 20
132.8
 30
0.0
  0
VERTEX
  8
0
  6
CONTINUOUS
 62
     1
 10
244.51
 20
132.14
 30
0.0
  0
VERTEX
  8
0
  6
CONTINUOUS
 62
     1
 10
244.75
 20
132.14
 30
0.0
  0
VERTEX
  8
0
  6
CONTINUOUS
 62
     1
 10
244.75
 20
131.66
 30
0.0
  0
SEQEND
  0
LINE
  8
0
  6
CONTINUOUS
 62
     1
 10
244.75
 20
131.66
 30
0.0
 11
249.85
 21
131.66
 31
0.0
  0
POLYLINE
  8
0
  6
CONTINUOUS
 62
     1
 66
     1
  0
VERTEX
  8
0
  6
CONTINUOUS
 62
     1
 10
249.85
 20
131.66
 30
0.0
  0
VERTEX
  8
0
  6
CONTINUOUS
 62
     1
 10
249.85
 20
132.14
 30
0.0
  0
VERTEX
  8
0
  6
CONTINUOUS
 62
     1
 10
250.09
 20
132.14
 30
0.0
  0
SEQEND
  0
LINE
  8
0
  6
CONTINUOUS
 62
     1
 10
242.29
 20
132.14
 30
0.0
 11
242.29
 21
132.8
 31
0.0
  0
POLYLINE
  8
0
  6
CONTINUOUS
 62
     1
 66
     1
  0
VERTEX
  8
0
  6
CONTINUOUS
 62
     1
 10
242.29
 20
132.8
 30
0.0
  0
VERTEX
  8
0
  6
CONTINUOUS
 62
     1
 10
242.05
 20
133.1
 30
0.0
  0
VERTEX
  8
0
  6
CONTINUOUS
 62
     1
 10
242.05
 20
137.3
 30
0.0
  0
VERTEX
  8
0
  6
CONTINUOUS
 62
     1
 10
242.29
 20
137.6
 30
0.0
  0
VERTEX
  8
0
  6
CONTINUOUS
 62
     1
 10
242.29
 20
138.74
 30
0.0
  0
SEQEND
  0
LINE
  8
0
  6
CONTINUOUS
 62
     1
 10
242.05
 20
131.66
 30
0.0
 11
242.05
 21
132.14
 31
0.0
  0
LINE
  8
0
  6
CONTINUOUS
 62
     1
 10
242.05
 20
132.14
 30
0.0
 11
242.29
 21
132.14
 31
0.0
  0
LINE
  8
0
  6
CONTINUOUS
 62
     1
 10
239.5
 20
131.66
 30
0.0
 11
242.05
 21
131.66
 31
0.0
  0
LINE
  8
0
  6
CONTINUOUS
 62
     1
 10
242.29
 20
138.74
 30
0.0
 11
239.5
 21
138.74
 31
0.0
  0
LINE
  8
0
  6
CONTINUOUS
 62
     1
 10
242.29
 20
138.26
 30
0.0
 11
242.8
 21
138.26
 31
0.0
  0
LINE
  8
0
  6
CONTINUOUS
 62
     1
 10
242.29
 20
132.14
 30
0.0
 11
242.8
 21
132.14
 31
0.0
  0
LINE
  8
0
  6
CONTINUOUS
 62
     1
 10
244.0
 20
138.26
 30
0.0
 11
244.51
 21
138.26
 31
0.0
  0
LINE
  8
0
  6
CONTINUOUS
 62
     1
 10
250.09
 20
138.26
 30
0.0
 11
250.6
 21
138.26
 31
0.0
  0
LINE
  8
0
  6
CONTINUOUS
 62
     1
 10
250.09
 20
132.14
 30
0.0
 11
250.6
 21
132.14
 31
0.0
  0
LINE
  8
0
  6
CONTINUOUS
 62
     1
 10
244.0
 20
132.14
 30
0.0
 11
244.51
 21
132.14
 31
0.0
  0
LINE
  8
0
  6
CONTINUOUS
 62
     1
 10
251.8
 20
132.14
 30
0.0
 11
252.31
 21
132.14
 31
0.0
  0
LINE
  8
0
  6
CONTINUOUS
 62
     1
 10
257.89
 20
132.14
 30
0.0
 11
258.4
 21
132.14
 31
0.0
  0
LINE
  8
0
  6
CONTINUOUS
 62
     1
 10
257.89
 20
138.26
 30
0.0
 11
258.4
 21
138.26
 31
0.0
  0
LINE
  8
0
  6
CONTINUOUS
 62
     1
 10
251.8
 20
138.26
 30
0.0
 11
252.31
 21
138.26
 31
0.0
  0
LINE
  8
0
  6
CONTINUOUS
 62
     1
 10
252.31
 20
141.74
 30
0.0
 11
251.8
 21
141.74
 31
0.0
  0
LINE
  8
0
  6
CONTINUOUS
 62
     1
 10
258.4
 20
141.74
 30
0.0
 11
257.89
 21
141.74
 31
0.0
  0
LINE
  8
0
  6
CONTINUOUS
 62
     1
 10
257.89
 20
147.86
 30
0.0
 11
258.4
 21
147.86
 31
0.0
  0
LINE
  8
0
  6
CONTINUOUS
 62
     1
 10
251.8
 20
147.86
 30
0.0
 11
252.31
 21
147.86
 31
0.0
  0
LINE
  8
0
  6
CONTINUOUS
 62
     1
 10
250.09
 20
147.86
 30
0.0
 11
250.6
 21
147.86
 31
0.0
  0
LINE
  8
0
  6
CONTINUOUS
 62
     1
 10
244.0
 20
147.86
 30
0.0
 11
244.51
 21
147.86
 31
0.0
  0
TEXT
  8
0
  6
CONTINUOUS
 62
     1
 10
246.16
 20
150.2
 30
0.24
 40
2.4
  1
４
 50
0.0
 41
0.9
 51
0.0
  7
KANJI15
  0
TEXT
  8
0
  6
CONTINUOUS
 62
     1
 10
253.96
 20
150.2
 30
0.24
 40
2.4
  1
Ｎ
 50
0.0
 41
0.9
 51
0.0
  7
KANJI15
  0
TEXT
  8
0
  6
CONTINUOUS
 62
     1
 10
246.16
 20
127.4
 30
0.24
 40
2.4
  1
８
 50
0.0
 41
0.9
 51
0.0
  7
KANJI15
  0
TEXT
  8
0
  6
CONTINUOUS
 62
     1
 10
253.96
 20
127.4
 30
0.24
 40
2.4
  1
９
 50
0.0
 41
0.9
 51
0.0
  7
KANJI15
  0
ARC
  8
0
  6
CONTINUOUS
 62
     1
 10
205.3
 20
171.1
 30
0.0
 40
1.95
 50
90.0
 51
180.0
  0
LINE
  8
0
  6
CONTINUOUS
 62
     1
 10
203.35
 20
171.1
 30
0.0
 11
203.35
 21
114.7
 31
0.0
  0
ARC
  8
0
  6
CONTINUOUS
 62
     1
 10
205.3
 20
114.7
 30
0.0
 40
1.95
 50
180.0
 51
270.0
  0
LINE
  8
0
  6
CONTINUOUS
 62
     1
 10
273.7
 20
173.05
 30
0.0
 11
205.3
 21
173.05
 31
0.0
  0
ARC
  8
0
  6
CONTINUOUS
 62
     1
 10
273.7
 20
171.1
 30
0.0
 40
1.95
 50
0.0
 51
90.0
  0
LINE
  8
0
  6
CONTINUOUS
 62
     1
 10
205.3
 20
112.75
 30
0.0
 11
273.7
 21
112.75
 31
0.0
  0
LINE
  8
0
  6
CONTINUOUS
 62
     1
 10
275.65
 20
114.7
 30
0.0
 11
275.65
 21
171.1
 31
0.0
  0
ARC
  8
0
  6
CONTINUOUS
 62
     1
 10
273.7
 20
114.7
 30
0.0
 40
1.95
 50
270.0
 51
0.0
  0
CIRCLE
  8
0
  6
CONTINUOUS
 62
     2
 10
209.5
 20
167.0
 30
0.0
 40
1.2
  0
CIRCLE
  8
0
  6
CONTINUOUS
 62
     2
 10
209.5
 20
167.0
 30
0.0
 40
1.02
  0
CIRCLE
  8
0
  6
CONTINUOUS
 62
     2
 10
209.5
 20
119.0
 30
0.0
 40
1.02
  0
CIRCLE
  8
0
  6
CONTINUOUS
 62
     2
 10
209.5
 20
119.0
 30
0.0
 40
1.2
  0
LINE
  8
0
  6
LTYPE1
 62
     2
 10
215.98
 20
119.0
 30
0.0
 11
203.38
 21
119.0
 31
0.0
  0
LINE
  8
0
  6
LTYPE1
 62
     2
 10
209.5
 20
114.8
 30
0.0
 11
209.5
 21
123.8
 31
0.0
  0
LINE
  8
0
  6
LTYPE1
 62
     2
 10
205.3
 20
167.0
 30
0.0
 11
214.3
 21
167.0
 31
0.0
  0
ARC
  8
0
  6
CONTINUOUS
 62
     2
 10
239.5
 20
140.0
 30
0.0
 40
25.5
 50
180.0
 51
270.0
  0
ARC
  8
0
  6
CONTINUOUS
 62
     2
 10
239.5
 20
140.0
 30
0.0
 40
25.5
 50
90.0
 51
180.0
  0
LINE
  8
0
  6
LTYPE1
 62
     2
 10
221.5
 20
135.2
 30
0.0
 11
226.3
 21
135.2
 31
0.0
  0
LINE
  8
0
  6
LTYPE1
 62
     2
 10
229.3
 20
135.2
 30
0.0
 11
234.1
 21
135.2
 31
0.0
  0
LINE
  8
0
  6
LTYPE1
 62
     2
 10
231.7
 20
130.115
 30
0.0
 11
231.7
 21
137.915
 31
0.0
  0
LINE
  8
0
  6
LTYPE1
 62
     2
 10
223.9
 20
137.915
 30
0.0
 11
223.9
 21
130.115
 31
0.0
  0
LINE
  8
0
  6
LTYPE1
 62
     2
 10
218.2
 20
143.0
 30
0.0
 11
218.2
 21
137.0
 31
0.0
  0
LINE
  8
0
  6
LTYPE1
 62
     2
 10
209.5
 20
162.8
 30
0.0
 11
209.5
 21
171.2
 31
0.0
  0
LINE
  8
0
  6
LTYPE1
 62
     2
 10
216.4
 20
140.0
 30
0.0
 11
220.06
 21
140.0
 31
0.0
  0
LINE
  8
0
  6
CONTINUOUS
 62
     2
 10
239.5
 20
149.0
 30
0.0
 11
216.4
 21
149.0
 31
0.0
  0
LINE
  8
0
  6
CONTINUOUS
 62
     2
 10
216.4
 20
149.0
 30
0.0
 11
216.4
 21
131.0
 31
0.0
  0
LINE
  8
0
  6
CONTINUOUS
 62
     2
 10
216.4
 20
131.0
 30
0.0
 11
239.5
 21
131.0
 31
0.0
  0
CIRCLE
  8
0
  6
CONTINUOUS
 62
     2
 10
218.2
 20
140.0
 30
0.0
 40
1.8
  0
LINE
  8
0
  6
CONTINUOUS
 62
     2
 10
217.287832252
 20
139.427243507
 30
0.0
 11
217.690883118
 21
139.830294373
 31
0.0
  0
ARC
  8
0
  6
CONTINUOUS
 62
     2
 10
217.52117749
 20
140.0
 30
0.0
 40
0.24
 50
315.0
 51
45.0
  0
LINE
  8
0
  6
CONTINUOUS
 62
     2
 10
217.690883118
 20
140.169705627
 30
0.0
 11
217.287832252
 21
140.572756493
 31
0.0
  0
LINE
  8
0
  6
CONTINUOUS
 62
     2
 10
217.287832252
 20
140.572756493
 30
0.0
 11
217.627243507
 21
140.912167748
 31
0.0
  0
LINE
  8
0
  6
CONTINUOUS
 62
     2
 10
217.627243507
 20
140.912167748
 30
0.0
 11
218.030294373
 21
140.509116882
 31
0.0
  0
ARC
  8
0
  6
CONTINUOUS
 62
     2
 10
218.2
 20
140.67882251
 30
0.0
 40
0.24
 50
225.0
 51
315.0
  0
LINE
  8
0
  6
CONTINUOUS
 62
     2
 10
218.369705627
 20
140.509116882
 30
0.0
 11
218.772756493
 21
140.912167748
 31
0.0
  0
LINE
  8
0
  6
CONTINUOUS
 62
     2
 10
218.772756493
 20
140.912167748
 30
0.0
 11
219.112167748
 21
140.572756493
 31
0.0
  0
LINE
  8
0
  6
CONTINUOUS
 62
     2
 10
219.112167748
 20
140.572756493
 30
0.0
 11
218.709116882
 21
140.169705627
 31
0.0
  0
ARC
  8
0
  6
CONTINUOUS
 62
     2
 10
218.87882251
 20
140.0
 30
0.0
 40
0.24
 50
135.0
 51
225.0
  0
LINE
  8
0
  6
CONTINUOUS
 62
     2
 10
218.709116882
 20
139.830294373
 30
0.0
 11
219.112167748
 21
139.427243507
 31
0.0
  0
LINE
  8
0
  6
CONTINUOUS
 62
     2
 10
219.112167748
 20
139.427243507
 30
0.0
 11
218.772756493
 21
139.087832252
 31
0.0
  0
LINE
  8
0
  6
CONTINUOUS
 62
     2
 10
218.772756493
 20
139.087832252
 30
0.0
 11
218.369705627
 21
139.490883118
 31
0.0
  0
ARC
  8
0
  6
CONTINUOUS
 62
     2
 10
218.2
 20
139.32117749
 30
0.0
 40
0.24
 50
45.0
 51
135.0
  0
POLYLINE
  8
0
  6
CONTINUOUS
 62
     2
 66
     1
  0
VERTEX
  8
0
  6
CONTINUOUS
 62
     2
 10
218.030294373
 20
139.490883118
 30
0.0
  0
VERTEX
  8
0
  6
CONTINUOUS
 62
     2
 10
217.627243507
 20
139.087832252
 30
0.0
  0
VERTEX
  8
0
  6
CONTINUOUS
 62
     2
 10
217.287832252
 20
139.427243507
 30
0.0
  0
SEQEND
  0
LINE
  8
0
  6
CONTINUOUS
 62
     2
 10
238.45
 20
117.44
 30
0.0
 11
239.02
 21
117.44
 31
0.0
  0
ARC
  8
0
  6
CONTINUOUS
 62
     2
 10
239.02
 20
117.68
 30
0.0
 40
0.24
 50
270.0
 51
0.0
  0
LINE
  8
0
  6
CONTINUOUS
 62
     2
 10
239.26
 20
117.68
 30
0.0
 11
239.26
 21
118.25
 31
0.0
  0
LINE
  8
0
  6
CONTINUOUS
 62
     2
 10
239.26
 20
116.15
 30
0.0
 11
239.26
 21
116.72
 31
0.0
  0
ARC
  8
0
  6
CONTINUOUS
 62
     2
 10
239.02
 20
116.72
 30
0.0
 40
0.24
 50
0.0
 51
90.0
  0
POLYLINE
  8
0
  6
CONTINUOUS
 62
     2
 66
     1
  0
VERTEX
  8
0
  6
CONTINUOUS
 62
     2
 10
239.02
 20
116.96
 30
0.0
  0
VERTEX
  8
0
  6
CONTINUOUS
 62
     2
 10
238.45
 20
116.96
 30
0.0
  0
VERTEX
  8
0
  6
CONTINUOUS
 62
     2
 10
238.45
 20
117.44
 30
0.0
  0
SEQEND
  0
LINE
  8
0
  6
LTYPE1
 62
     2
 10
237.1
 20
117.2
 30
0.0
 11
241.9
 21
117.2
 31
0.0
  0
LINE
  8
0
  6
CONTINUOUS
 62
     2
 10
239.5
 20
116.15
 30
0.0
 11
239.26
 21
116.15
 31
0.0
  0
LINE
  8
0
  6
CONTINUOUS
 62
     2
 10
239.26
 20
118.25
 30
0.0
 11
239.56
 21
118.25
 31
0.0
  0
ARC
  8
0
  6
CONTINUOUS
 62
     2
 10
239.5
 20
117.2
 30
0.0
 40
1.8
 50
90.0
 51
270.0
  0
LINE
  8
0
  6
CONTINUOUS
 62
     2
 10
238.45
 20
163.04
 30
0.0
 11
239.02
 21
163.04
 31
0.0
  0
ARC
  8
0
  6
CONTINUOUS
 62
     2
 10
239.02
 20
163.28
 30
0.0
 40
0.24
 50
270.0
 51
0.0
  0
LINE
  8
0
  6
CONTINUOUS
 62
     2
 10
239.26
 20
163.28
 30
0.0
 11
239.26
 21
163.85
 31
0.0
  0
LINE
  8
0
  6
CONTINUOUS
 62
     2
 10
239.26
 20
161.75
 30
0.0
 11
239.26
 21
162.32
 31
0.0
  0
ARC
  8
0
  6
CONTINUOUS
 62
     2
 10
239.02
 20
162.32
 30
0.0
 40
0.24
 50
0.0
 51
90.0
  0
POLYLINE
  8
0
  6
CONTINUOUS
 62
     2
 66
     1
  0
VERTEX
  8
0
  6
CONTINUOUS
 62
     2
 10
239.02
 20
162.56
 30
0.0
  0
VERTEX
  8
0
  6
CONTINUOUS
 62
     2
 10
238.45
 20
162.56
 30
0.0
  0
VERTEX
  8
0
  6
CONTINUOUS
 62
     2
 10
238.45
 20
163.04
 30
0.0
  0
SEQEND
  0
LINE
  8
0
  6
CONTINUOUS
 62
     2
 10
239.5
 20
161.75
 30
0.0
 11
239.26
 21
161.75
 31
0.0
  0
LINE
  8
0
  6
CONTINUOUS
 62
     2
 10
239.26
 20
163.85
 30
0.0
 11
239.56
 21
163.85
 31
0.0
  0
ARC
  8
0
  6
CONTINUOUS
 62
     2
 10
239.5
 20
162.8
 30
0.0
 40
1.8
 50
90.0
 51
270.0
  0
LINE
  8
0
  6
LTYPE1
 62
     2
 10
236.5
 20
162.8
 30
0.0
 11
240.7
 21
162.8
 31
0.0
  0
CIRCLE
  8
0
  6
CONTINUOUS
 62
     2
 10
223.9
 20
144.8
 30
0.0
 40
2.1
  0
LINE
  8
0
  6
CONTINUOUS
 62
     2
 10
223.606
 20
143.645
 30
0.0
 11
224.194
 21
143.645
 31
0.0
  0
LINE
  8
0
  6
CONTINUOUS
 62
     2
 10
224.194
 20
145.955
 30
0.0
 11
223.606
 21
145.955
 31
0.0
  0
LINE
  8
0
  6
CONTINUOUS
 62
     2
 10
224.194
 20
143.645
 30
0.0
 11
224.194
 21
143.876
 31
0.0
  0
LINE
  8
0
  6
CONTINUOUS
 62
     2
 10
224.824
 20
144.506
 30
0.0
 11
225.979318157
 21
144.506
 31
0.0
  0
ARC
  8
0
  6
CONTINUOUS
 62
     2
 10
224.824
 20
143.876
 30
0.0
 40
0.63
 50
90.0
 51
180.0
  0
LINE
  8
0
  6
CONTINUOUS
 62
     2
 10
223.606
 20
143.876
 30
0.0
 11
223.606
 21
143.645
 31
0.0
  0
LINE
  8
0
  6
CONTINUOUS
 62
     2
 10
221.842
 20
144.506
 30
0.0
 11
222.976
 21
144.506
 31
0.0
  0
ARC
  8
0
  6
CONTINUOUS
 62
     2
 10
222.976
 20
143.876
 30
0.0
 40
0.63
 50
0.0
 51
90.0
  0
LINE
  8
0
  6
CONTINUOUS
 62
     2
 10
223.606
 20
145.955
 30
0.0
 11
223.606
 21
145.724
 31
0.0
  0
LINE
  8
0
  6
CONTINUOUS
 62
     2
 10
222.976
 20
145.094
 30
0.0
 11
221.820681843
 21
145.094
 31
0.0
  0
ARC
  8
0
  6
CONTINUOUS
 62
     2
 10
222.976
 20
145.724
 30
0.0
 40
0.63
 50
270.0
 51
0.0
  0
LINE
  8
0
  6
CONTINUOUS
 62
     2
 10
224.194
 20
145.724
 30
0.0
 11
224.194
 21
145.955
 31
0.0
  0
LINE
  8
0
  6
CONTINUOUS
 62
     2
 10
225.979318157
 20
145.094
 30
0.0
 11
224.824
 21
145.094
 31
0.0
  0
ARC
  8
0
  6
CONTINUOUS
 62
     2
 10
224.824
 20
145.724
 30
0.0
 40
0.63
 50
180.0
 51
270.0
  0
LINE
  8
0
  6
LTYPE1
 62
     2
 10
223.9
 20
148.7
 30
0.0
 11
223.9
 21
140.9
 31
0.0
  0
LINE
  8
0
  6
LTYPE1
 62
     2
 10
220.0
 20
144.8
 30
0.0
 11
227.5
 21
144.8
 31
0.0
  0
CIRCLE
  8
0
  6
CONTINUOUS
 62
     2
 10
223.9
 20
135.2
 30
0.0
 40
2.1
  0
LINE
  8
0
  6
CONTINUOUS
 62
     2
 10
223.606
 20
134.045
 30
0.0
 11
224.194
 21
134.045
 31
0.0
  0
LINE
  8
0
  6
CONTINUOUS
 62
     2
 10
224.194
 20
136.355
 30
0.0
 11
223.606
 21
136.355
 31
0.0
  0
LINE
  8
0
  6
CONTINUOUS
 62
     2
 10
224.194
 20
134.045
 30
0.0
 11
224.194
 21
134.276
 31
0.0
  0
LINE
  8
0
  6
CONTINUOUS
 62
     2
 10
224.824
 20
134.906
 30
0.0
 11
225.979318157
 21
134.906
 31
0.0
  0
ARC
  8
0
  6
CONTINUOUS
 62
     2
 10
224.824
 20
134.276
 30
0.0
 40
0.63
 50
90.0
 51
180.0
  0
LINE
  8
0
  6
CONTINUOUS
 62
     2
 10
223.606
 20
134.276
 30
0.0
 11
223.606
 21
134.045
 31
0.0
  0
LINE
  8
0
  6
CONTINUOUS
 62
     2
 10
221.842
 20
134.906
 30
0.0
 11
222.976
 21
134.906
 31
0.0
  0
ARC
  8
0
  6
CONTINUOUS
 62
     2
 10
222.976
 20
134.276
 30
0.0
 40
0.63
 50
0.0
 51
90.0
  0
LINE
  8
0
  6
CONTINUOUS
 62
     2
 10
223.606
 20
136.355
 30
0.0
 11
223.606
 21
136.124
 31
0.0
  0
LINE
  8
0
  6
CONTINUOUS
 62
     2
 10
222.976
 20
135.494
 30
0.0
 11
221.820681843
 21
135.494
 31
0.0
  0
ARC
  8
0
  6
CONTINUOUS
 62
     2
 10
222.976
 20
136.124
 30
0.0
 40
0.63
 50
270.0
 51
0.0
  0
LINE
  8
0
  6
CONTINUOUS
 62
     2
 10
224.194
 20
136.124
 30
0.0
 11
224.194
 21
136.355
 31
0.0
  0
LINE
  8
0
  6
CONTINUOUS
 62
     2
 10
225.979318157
 20
135.494
 30
0.0
 11
224.824
 21
135.494
 31
0.0
  0
ARC
  8
0
  6
CONTINUOUS
 62
     2
 10
224.824
 20
136.124
 30
0.0
 40
0.63
 50
180.0
 51
270.0
  0
LINE
  8
0
  6
LTYPE1
 62
     2
 10
223.9
 20
139.1
 30
0.0
 11
223.9
 21
131.3
 31
0.0
  0
LINE
  8
0
  6
LTYPE1
 62
     2
 10
220.0
 20
135.2
 30
0.0
 11
227.5
 21
135.2
 31
0.0
  0
CIRCLE
  8
0
  6
CONTINUOUS
 62
     2
 10
231.7
 20
144.8
 30
0.0
 40
2.1
  0
LINE
  8
0
  6
CONTINUOUS
 62
     2
 10
231.406
 20
143.645
 30
0.0
 11
231.994
 21
143.645
 31
0.0
  0
LINE
  8
0
  6
CONTINUOUS
 62
     2
 10
231.994
 20
145.955
 30
0.0
 11
231.406
 21
145.955
 31
0.0
  0
LINE
  8
0
  6
CONTINUOUS
 62
     2
 10
231.994
 20
143.645
 30
0.0
 11
231.994
 21
143.876
 31
0.0
  0
LINE
  8
0
  6
CONTINUOUS
 62
     2
 10
232.624
 20
144.506
 30
0.0
 11
233.779318157
 21
144.506
 31
0.0
  0
ARC
  8
0
  6
CONTINUOUS
 62
     2
 10
232.624
 20
143.876
 30
0.0
 40
0.63
 50
90.0
 51
180.0
  0
LINE
  8
0
  6
CONTINUOUS
 62
     2
 10
231.406
 20
143.876
 30
0.0
 11
231.406
 21
143.645
 31
0.0
  0
LINE
  8
0
  6
CONTINUOUS
 62
     2
 10
229.642
 20
144.506
 30
0.0
 11
230.776
 21
144.506
 31
0.0
  0
ARC
  8
0
  6
CONTINUOUS
 62
     2
 10
230.776
 20
143.876
 30
0.0
 40
0.63
 50
0.0
 51
90.0
  0
LINE
  8
0
  6
CONTINUOUS
 62
     2
 10
231.406
 20
145.955
 30
0.0
 11
231.406
 21
145.724
 31
0.0
  0
LINE
  8
0
  6
CONTINUOUS
 62
     2
 10
230.776
 20
145.094
 30
0.0
 11
229.620681843
 21
145.094
 31
0.0
  0
ARC
  8
0
  6
CONTINUOUS
 62
     2
 10
230.776
 20
145.724
 30
0.0
 40
0.63
 50
270.0
 51
0.0
  0
LINE
  8
0
  6
CONTINUOUS
 62
     2
 10
231.994
 20
145.724
 30
0.0
 11
231.994
 21
145.955
 31
0.0
  0
LINE
  8
0
  6
CONTINUOUS
 62
     2
 10
233.779318157
 20
145.094
 30
0.0
 11
232.624
 21
145.094
 31
0.0
  0
ARC
  8
0
  6
CONTINUOUS
 62
     2
 10
232.624
 20
145.724
 30
0.0
 40
0.63
 50
180.0
 51
270.0
  0
LINE
  8
0
  6
LTYPE1
 62
     2
 10
231.7
 20
148.7
 30
0.0
 11
231.7
 21
140.9
 31
0.0
  0
LINE
  8
0
  6
LTYPE1
 62
     2
 10
227.8
 20
144.8
 30
0.0
 11
235.3
 21
144.8
 31
0.0
  0
CIRCLE
  8
0
  6
CONTINUOUS
 62
     2
 10
231.7
 20
135.2
 30
0.0
 40
2.1
  0
LINE
  8
0
  6
CONTINUOUS
 62
     2
 10
231.406
 20
134.045
 30
0.0
 11
231.994
 21
134.045
 31
0.0
  0
LINE
  8
0
  6
CONTINUOUS
 62
     2
 10
231.994
 20
136.355
 30
0.0
 11
231.406
 21
136.355
 31
0.0
  0
LINE
  8
0
  6
CONTINUOUS
 62
     2
 10
231.994
 20
134.045
 30
0.0
 11
231.994
 21
134.276
 31
0.0
  0
LINE
  8
0
  6
CONTINUOUS
 62
     2
 10
232.624
 20
134.906
 30
0.0
 11
233.779318157
 21
134.906
 31
0.0
  0
ARC
  8
0
  6
CONTINUOUS
 62
     2
 10
232.624
 20
134.276
 30
0.0
 40
0.63
 50
90.0
 51
180.0
  0
LINE
  8
0
  6
CONTINUOUS
 62
     2
 10
231.406
 20
134.276
 30
0.0
 11
231.406
 21
134.045
 31
0.0
  0
LINE
  8
0
  6
CONTINUOUS
 62
     2
 10
229.642
 20
134.906
 30
0.0
 11
230.776
 21
134.906
 31
0.0
  0
ARC
  8
0
  6
CONTINUOUS
 62
     2
 10
230.776
 20
134.276
 30
0.0
 40
0.63
 50
0.0
 51
90.0
  0
LINE
  8
0
  6
CONTINUOUS
 62
     2
 10
231.406
 20
136.355
 30
0.0
 11
231.406
 21
136.124
 31
0.0
  0
LINE
  8
0
  6
CONTINUOUS
 62
     2
 10
230.776
 20
135.494
 30
0.0
 11
229.620681843
 21
135.494
 31
0.0
  0
ARC
  8
0
  6
CONTINUOUS
 62
     2
 10
230.776
 20
136.124
 30
0.0
 40
0.63
 50
270.0
 51
0.0
  0
LINE
  8
0
  6
CONTINUOUS
 62
     2
 10
231.994
 20
136.124
 30
0.0
 11
231.994
 21
136.355
 31
0.0
  0
LINE
  8
0
  6
CONTINUOUS
 62
     2
 10
233.779318157
 20
135.494
 30
0.0
 11
232.624
 21
135.494
 31
0.0
  0
ARC
  8
0
  6
CONTINUOUS
 62
     2
 10
232.624
 20
136.124
 30
0.0
 40
0.63
 50
180.0
 51
270.0
  0
LINE
  8
0
  6
LTYPE1
 62
     2
 10
231.7
 20
139.1
 30
0.0
 11
231.7
 21
131.3
 31
0.0
  0
LINE
  8
0
  6
LTYPE1
 62
     2
 10
227.8
 20
135.2
 30
0.0
 11
235.3
 21
135.2
 31
0.0
  0
LINE
  8
0
  6
CONTINUOUS
 62
     2
 10
239.206
 20
134.276
 30
0.0
 11
239.206
 21
134.045
 31
0.0
  0
LINE
  8
0
  6
CONTINUOUS
 62
     2
 10
237.442
 20
134.906
 30
0.0
 11
238.576
 21
134.906
 31
0.0
  0
ARC
  8
0
  6
CONTINUOUS
 62
     2
 10
238.576
 20
134.276
 30
0.0
 40
0.63
 50
0.0
 51
90.0
  0
LINE
  8
0
  6
CONTINUOUS
 62
     2
 10
239.206
 20
136.355
 30
0.0
 11
239.206
 21
136.124
 31
0.0
  0
LINE
  8
0
  6
CONTINUOUS
 62
     2
 10
238.576
 20
135.494
 30
0.0
 11
237.420681843
 21
135.494
 31
0.0
  0
ARC
  8
0
  6
CONTINUOUS
 62
     2
 10
238.576
 20
136.124
 30
0.0
 40
0.63
 50
270.0
 51
0.0
  0
LINE
  8
0
  6
LTYPE1
 62
     2
 10
235.6
 20
135.2
 30
0.0
 11
243.1
 21
135.2
 31
0.0
  0
LINE
  8
0
  6
CONTINUOUS
 62
     2
 10
239.206
 20
134.045
 30
0.0
 11
239.5
 21
134.045
 31
0.0
  0
LINE
  8
0
  6
CONTINUOUS
 62
     2
 10
239.5
 20
136.355
 30
0.0
 11
239.206
 21
136.355
 31
0.0
  0
ARC
  8
0
  6
CONTINUOUS
 62
     2
 10
239.5
 20
135.2
 30
0.0
 40
2.1
 50
90.0
 51
270.0
  0
CIRCLE
  8
0
  6
CONTINUOUS
 62
     2
 10
269.5
 20
167.0
 30
0.0
 40
1.2
  0
ARC
  8
0
  6
CONTINUOUS
 62
     2
 10
269.5
 20
167.0
 30
0.0
 40
1.02
 50
0.0
 51
180.0
  0
CIRCLE
  8
0
  6
CONTINUOUS
 62
     2
 10
269.5
 20
119.0
 30
0.0
 40
1.02
  0
CIRCLE
  8
0
  6
CONTINUOUS
 62
     2
 10
269.5
 20
119.0
 30
0.0
 40
1.2
  0
LINE
  8
0
  6
LTYPE1
 62
     2
 10
263.02
 20
119.0
 30
0.0
 11
275.62
 21
119.0
 31
0.0
  0
LINE
  8
0
  6
LTYPE1
 62
     2
 10
269.5
 20
114.8
 30
0.0
 11
269.5
 21
123.8
 31
0.0
  0
LINE
  8
0
  6
LTYPE1
 62
     2
 10
273.7
 20
167.0
 30
0.0
 11
264.7
 21
167.0
 31
0.0
  0
ARC
  8
0
  6
CONTINUOUS
 62
     2
 10
239.5
 20
140.0
 30
0.0
 40
25.5
 50
270.0
 51
0.0
  0
ARC
  8
0
  6
CONTINUOUS
 62
     2
 10
239.5
 20
140.0
 30
0.0
 40
25.5
 50
0.0
 51
90.0
  0
LINE
  8
0
  6
LTYPE1
 62
     2
 10
257.5
 20
135.2
 30
0.0
 11
252.7
 21
135.2
 31
0.0
  0
LINE
  8
0
  6
LTYPE1
 62
     2
 10
249.7
 20
135.2
 30
0.0
 11
244.9
 21
135.2
 31
0.0
  0
LINE
  8
0
  6
LTYPE1
 62
     2
 10
247.3
 20
130.115
 30
0.0
 11
247.3
 21
137.915
 31
0.0
  0
LINE
  8
0
  6
LTYPE1
 62
     2
 10
255.1
 20
137.915
 30
0.0
 11
255.1
 21
130.115
 31
0.0
  0
LINE
  8
0
  6
LTYPE1
 62
     2
 10
260.8
 20
143.0
 30
0.0
 11
260.8
 21
137.0
 31
0.0
  0
LINE
  8
0
  6
LTYPE1
 62
     2
 10
269.5
 20
162.8
 30
0.0
 11
269.5
 21
171.2
 31
0.0
  0
LINE
  8
0
  6
LTYPE1
 62
     2
 10
262.6
 20
140.0
 30
0.0
 11
258.94
 21
140.0
 31
0.0
  0
LINE
  8
0
  6
CONTINUOUS
 62
     2
 10
239.5
 20
149.0
 30
0.0
 11
262.6
 21
149.0
 31
0.0
  0
LINE
  8
0
  6
CONTINUOUS
 62
     2
 10
262.6
 20
149.0
 30
0.0
 11
262.6
 21
131.0
 31
0.0
  0
LINE
  8
0
  6
CONTINUOUS
 62
     2
 10
262.6
 20
131.0
 30
0.0
 11
239.5
 21
131.0
 31
0.0
  0
CIRCLE
  8
0
  6
CONTINUOUS
 62
     2
 10
260.8
 20
140.0
 30
0.0
 40
1.8
  0
LINE
  8
0
  6
CONTINUOUS
 62
     2
 10
261.712167748
 20
139.427243507
 30
0.0
 11
261.309116882
 21
139.830294373
 31
0.0
  0
ARC
  8
0
  6
CONTINUOUS
 62
     2
 10
261.47882251
 20
140.0
 30
0.0
 40
0.24
 50
135.0
 51
225.0
  0
LINE
  8
0
  6
CONTINUOUS
 62
     2
 10
261.309116882
 20
140.169705627
 30
0.0
 11
261.712167748
 21
140.572756493
 31
0.0
  0
LINE
  8
0
  6
CONTINUOUS
 62
     2
 10
261.712167748
 20
140.572756493
 30
0.0
 11
261.372756493
 21
140.912167748
 31
0.0
  0
LINE
  8
0
  6
CONTINUOUS
 62
     2
 10
261.372756493
 20
140.912167748
 30
0.0
 11
260.969705627
 21
140.509116882
 31
0.0
  0
ARC
  8
0
  6
CONTINUOUS
 62
     2
 10
260.8
 20
140.67882251
 30
0.0
 40
0.24
 50
225.0
 51
315.0
  0
LINE
  8
0
  6
CONTINUOUS
 62
     2
 10
260.630294373
 20
140.509116882
 30
0.0
 11
260.227243507
 21
140.912167748
 31
0.0
  0
LINE
  8
0
  6
CONTINUOUS
 62
     2
 10
260.227243507
 20
140.912167748
 30
0.0
 11
259.887832252
 21
140.572756493
 31
0.0
  0
LINE
  8
0
  6
CONTINUOUS
 62
     2
 10
259.887832252
 20
140.572756493
 30
0.0
 11
260.290883118
 21
140.169705627
 31
0.0
  0
ARC
  8
0
  6
CONTINUOUS
 62
     2
 10
260.12117749
 20
140.0
 30
0.0
 40
0.24
 50
315.0
 51
45.0
  0
LINE
  8
0
  6
CONTINUOUS
 62
     2
 10
260.290883118
 20
139.830294373
 30
0.0
 11
259.887832252
 21
139.427243507
 31
0.0
  0
LINE
  8
0
  6
CONTINUOUS
 62
     2
 10
259.887832252
 20
139.427243507
 30
0.0
 11
260.227243507
 21
139.087832252
 31
0.0
  0
LINE
  8
0
  6
CONTINUOUS
 62
     2
 10
260.227243507
 20
139.087832252
 30
0.0
 11
260.630294373
 21
139.490883118
 31
0.0
  0
ARC
  8
0
  6
CONTINUOUS
 62
     2
 10
260.8
 20
139.32117749
 30
0.0
 40
0.24
 50
45.0
 51
135.0
  0
POLYLINE
  8
0
  6
CONTINUOUS
 62
     2
 66
     1
  0
VERTEX
  8
0
  6
CONTINUOUS
 62
     2
 10
260.969705627
 20
139.490883118
 30
0.0
  0
VERTEX
  8
0
  6
CONTINUOUS
 62
     2
 10
261.372756493
 20
139.087832252
 30
0.0
  0
VERTEX
  8
0
  6
CONTINUOUS
 62
     2
 10
261.712167748
 20
139.427243507
 30
0.0
  0
SEQEND
  0
LINE
  8
0
  6
CONTINUOUS
 62
     2
 10
240.55
 20
117.44
 30
0.0
 11
239.98
 21
117.44
 31
0.0
  0
ARC
  8
0
  6
CONTINUOUS
 62
     2
 10
239.98
 20
117.68
 30
0.0
 40
0.24
 50
180.0
 51
270.0
  0
LINE
  8
0
  6
CONTINUOUS
 62
     2
 10
239.74
 20
117.68
 30
0.0
 11
239.74
 21
118.25
 31
0.0
  0
LINE
  8
0
  6
CONTINUOUS
 62
     2
 10
239.74
 20
116.15
 30
0.0
 11
239.74
 21
116.72
 31
0.0
  0
ARC
  8
0
  6
CONTINUOUS
 62
     2
 10
239.98
 20
116.72
 30
0.0
 40
0.24
 50
90.0
 51
180.0
  0
POLYLINE
  8
0
  6
CONTINUOUS
 62
     2
 66
     1
  0
VERTEX
  8
0
  6
CONTINUOUS
 62
     2
 10
239.98
 20
116.96
 30
0.0
  0
VERTEX
  8
0
  6
CONTINUOUS
 62
     2
 10
240.55
 20
116.96
 30
0.0
  0
VERTEX
  8
0
  6
CONTINUOUS
 62
     2
 10
240.55
 20
117.44
 30
0.0
  0
SEQEND
  0
LINE
  8
0
  6
LTYPE1
 62
     2
 10
241.9
 20
117.2
 30
0.0
 11
237.1
 21
117.2
 31
0.0
  0
LINE
  8
0
  6
CONTINUOUS
 62
     2
 10
239.5
 20
116.15
 30
0.0
 11
239.74
 21
116.15
 31
0.0
  0
LINE
  8
0
  6
CONTINUOUS
 62
     2
 10
239.74
 20
118.25
 30
0.0
 11
239.44
 21
118.25
 31
0.0
  0
ARC
  8
0
  6
CONTINUOUS
 62
     2
 10
239.5
 20
117.2
 30
0.0
 40
1.8
 50
270.0
 51
90.0
  0
LINE
  8
0
  6
CONTINUOUS
 62
     2
 10
240.55
 20
163.04
 30
0.0
 11
239.98
 21
163.04
 31
0.0
  0
ARC
  8
0
  6
CONTINUOUS
 62
     2
 10
239.98
 20
163.28
 30
0.0
 40
0.24
 50
180.0
 51
270.0
  0
LINE
  8
0
  6
CONTINUOUS
 62
     2
 10
239.74
 20
163.28
 30
0.0
 11
239.74
 21
163.85
 31
0.0
  0
LINE
  8
0
  6
CONTINUOUS
 62
     2
 10
239.74
 20
161.75
 30
0.0
 11
239.74
 21
162.32
 31
0.0
  0
ARC
  8
0
  6
CONTINUOUS
 62
     2
 10
239.98
 20
162.32
 30
0.0
 40
0.24
 50
90.0
 51
180.0
  0
POLYLINE
  8
0
  6
CONTINUOUS
 62
     2
 66
     1
  0
VERTEX
  8
0
  6
CONTINUOUS
 62
     2
 10
239.98
 20
162.56
 30
0.0
  0
VERTEX
  8
0
  6
CONTINUOUS
 62
     2
 10
240.55
 20
162.56
 30
0.0
  0
VERTEX
  8
0
  6
CONTINUOUS
 62
     2
 10
240.55
 20
163.04
 30
0.0
  0
SEQEND
  0
LINE
  8
0
  6
CONTINUOUS
 62
     2
 10
239.5
 20
161.75
 30
0.0
 11
239.74
 21
161.75
 31
0.0
  0
LINE
  8
0
  6
CONTINUOUS
 62
     2
 10
239.74
 20
163.85
 30
0.0
 11
239.44
 21
163.85
 31
0.0
  0
ARC
  8
0
  6
CONTINUOUS
 62
     2
 10
239.5
 20
162.8
 30
0.0
 40
1.8
 50
270.0
 51
90.0
  0
LINE
  8
0
  6
LTYPE1
 62
     2
 10
242.5
 20
162.8
 30
0.0
 11
238.3
 21
162.8
 31
0.0
  0
CIRCLE
  8
0
  6
CONTINUOUS
 62
     2
 10
255.1
 20
144.8
 30
0.0
 40
2.1
  0
LINE
  8
0
  6
CONTINUOUS
 62
     2
 10
255.394
 20
143.645
 30
0.0
 11
254.806
 21
143.645
 31
0.0
  0
LINE
  8
0
  6
CONTINUOUS
 62
     2
 10
254.806
 20
145.955
 30
0.0
 11
255.394
 21
145.955
 31
0.0
  0
LINE
  8
0
  6
CONTINUOUS
 62
     2
 10
254.806
 20
143.645
 30
0.0
 11
254.806
 21
143.876
 31
0.0
  0
LINE
  8
0
  6
CONTINUOUS
 62
     2
 10
254.176
 20
144.506
 30
0.0
 11
253.020681843
 21
144.506
 31
0.0
  0
ARC
  8
0
  6
CONTINUOUS
 62
     2
 10
254.176
 20
143.876
 30
0.0
 40
0.63
 50
0.0
 51
90.0
  0
LINE
  8
0
  6
CONTINUOUS
 62
     2
 10
255.394
 20
143.876
 30
0.0
 11
255.394
 21
143.645
 31
0.0
  0
LINE
  8
0
  6
CONTINUOUS
 62
     2
 10
257.158
 20
144.506
 30
0.0
 11
256.024
 21
144.506
 31
0.0
  0
ARC
  8
0
  6
CONTINUOUS
 62
     2
 10
256.024
 20
143.876
 30
0.0
 40
0.63
 50
90.0
 51
180.0
  0
LINE
  8
0
  6
CONTINUOUS
 62
     2
 10
255.394
 20
145.955
 30
0.0
 11
255.394
 21
145.724
 31
0.0
  0
LINE
  8
0
  6
CONTINUOUS
 62
     2
 10
256.024
 20
145.094
 30
0.0
 11
257.179318157
 21
145.094
 31
0.0
  0
ARC
  8
0
  6
CONTINUOUS
 62
     2
 10
256.024
 20
145.724
 30
0.0
 40
0.63
 50
180.0
 51
270.0
  0
LINE
  8
0
  6
CONTINUOUS
 62
     2
 10
254.806
 20
145.724
 30
0.0
 11
254.806
 21
145.955
 31
0.0
  0
LINE
  8
0
  6
CONTINUOUS
 62
     2
 10
253.020681843
 20
145.094
 30
0.0
 11
254.176
 21
145.094
 31
0.0
  0
ARC
  8
0
  6
CONTINUOUS
 62
     2
 10
254.176
 20
145.724
 30
0.0
 40
0.63
 50
270.0
 51
0.0
  0
LINE
  8
0
  6
LTYPE1
 62
     2
 10
255.1
 20
148.7
 30
0.0
 11
255.1
 21
140.9
 31
0.0
  0
LINE
  8
0
  6
LTYPE1
 62
     2
 10
259.0
 20
144.8
 30
0.0
 11
251.5
 21
144.8
 31
0.0
  0
CIRCLE
  8
0
  6
CONTINUOUS
 62
     2
 10
255.1
 20
135.2
 30
0.0
 40
2.1
  0
LINE
  8
0
  6
CONTINUOUS
 62
     2
 10
255.394
 20
134.045
 30
0.0
 11
254.806
 21
134.045
 31
0.0
  0
LINE
  8
0
  6
CONTINUOUS
 62
     2
 10
254.806
 20
136.355
 30
0.0
 11
255.394
 21
136.355
 31
0.0
  0
LINE
  8
0
  6
CONTINUOUS
 62
     2
 10
254.806
 20
134.045
 30
0.0
 11
254.806
 21
134.276
 31
0.0
  0
LINE
  8
0
  6
CONTINUOUS
 62
     2
 10
254.176
 20
134.906
 30
0.0
 11
253.020681843
 21
134.906
 31
0.0
  0
ARC
  8
0
  6
CONTINUOUS
 62
     2
 10
254.176
 20
134.276
 30
0.0
 40
0.63
 50
0.0
 51
90.0
  0
LINE
  8
0
  6
CONTINUOUS
 62
     2
 10
255.394
 20
134.276
 30
0.0
 11
255.394
 21
134.045
 31
0.0
  0
LINE
  8
0
  6
CONTINUOUS
 62
     2
 10
257.158
 20
134.906
 30
0.0
 11
256.024
 21
134.906
 31
0.0
  0
ARC
  8
0
  6
CONTINUOUS
 62
     2
 10
256.024
 20
134.276
 30
0.0
 40
0.63
 50
90.0
 51
180.0
  0
LINE
  8
0
  6
CONTINUOUS
 62
     2
 10
255.394
 20
136.355
 30
0.0
 11
255.394
 21
136.124
 31
0.0
  0
LINE
  8
0
  6
CONTINUOUS
 62
     2
 10
256.024
 20
135.494
 30
0.0
 11
257.179318157
 21
135.494
 31
0.0
  0
ARC
  8
0
  6
CONTINUOUS
 62
     2
 10
256.024
 20
136.124
 30
0.0
 40
0.63
 50
180.0
 51
270.0
  0
LINE
  8
0
  6
CONTINUOUS
 62
     2
 10
254.806
 20
136.124
 30
0.0
 11
254.806
 21
136.355
 31
0.0
  0
LINE
  8
0
  6
CONTINUOUS
 62
     2
 10
253.020681843
 20
135.494
 30
0.0
 11
254.176
 21
135.494
 31
0.0
  0
ARC
  8
0
  6
CONTINUOUS
 62
     2
 10
254.176
 20
136.124
 30
0.0
 40
0.63
 50
270.0
 51
0.0
  0
LINE
  8
0
  6
LTYPE1
 62
     2
 10
255.1
 20
139.1
 30
0.0
 11
255.1
 21
131.3
 31
0.0
  0
LINE
  8
0
  6
LTYPE1
 62
     2
 10
259.0
 20
135.2
 30
0.0
 11
251.5
 21
135.2
 31
0.0
  0
CIRCLE
  8
0
  6
CONTINUOUS
 62
     2
 10
247.3
 20
144.8
 30
0.0
 40
2.1
  0
LINE
  8
0
  6
CONTINUOUS
 62
     2
 10
247.594
 20
143.645
 30
0.0
 11
247.006
 21
143.645
 31
0.0
  0
LINE
  8
0
  6
CONTINUOUS
 62
     2
 10
247.006
 20
145.955
 30
0.0
 11
247.594
 21
145.955
 31
0.0
  0
LINE
  8
0
  6
CONTINUOUS
 62
     2
 10
247.006
 20
143.645
 30
0.0
 11
247.006
 21
143.876
 31
0.0
  0
LINE
  8
0
  6
CONTINUOUS
 62
     2
 10
246.376
 20
144.506
 30
0.0
 11
245.220681843
 21
144.506
 31
0.0
  0
ARC
  8
0
  6
CONTINUOUS
 62
     2
 10
246.376
 20
143.876
 30
0.0
 40
0.63
 50
0.0
 51
90.0
  0
LINE
  8
0
  6
CONTINUOUS
 62
     2
 10
247.594
 20
143.876
 30
0.0
 11
247.594
 21
143.645
 31
0.0
  0
LINE
  8
0
  6
CONTINUOUS
 62
     2
 10
249.358
 20
144.506
 30
0.0
 11
248.224
 21
144.506
 31
0.0
  0
ARC
  8
0
  6
CONTINUOUS
 62
     2
 10
248.224
 20
143.876
 30
0.0
 40
0.63
 50
90.0
 51
180.0
  0
LINE
  8
0
  6
CONTINUOUS
 62
     2
 10
247.594
 20
145.955
 30
0.0
 11
247.594
 21
145.724
 31
0.0
  0
LINE
  8
0
  6
CONTINUOUS
 62
     2
 10
248.224
 20
145.094
 30
0.0
 11
249.379318157
 21
145.094
 31
0.0
  0
ARC
  8
0
  6
CONTINUOUS
 62
     2
 10
248.224
 20
145.724
 30
0.0
 40
0.63
 50
180.0
 51
270.0
  0
LINE
  8
0
  6
CONTINUOUS
 62
     2
 10
247.006
 20
145.724
 30
0.0
 11
247.006
 21
145.955
 31
0.0
  0
LINE
  8
0
  6
CONTINUOUS
 62
     2
 10
245.220681843
 20
145.094
 30
0.0
 11
246.376
 21
145.094
 31
0.0
  0
ARC
  8
0
  6
CONTINUOUS
 62
     2
 10
246.376
 20
145.724
 30
0.0
 40
0.63
 50
270.0
 51
0.0
  0
LINE
  8
0
  6
LTYPE1
 62
     2
 10
247.3
 20
148.7
 30
0.0
 11
247.3
 21
140.9
 31
0.0
  0
LINE
  8
0
  6
LTYPE1
 62
     2
 10
251.2
 20
144.8
 30
0.0
 11
243.7
 21
144.8
 31
0.0
  0
CIRCLE
  8
0
  6
CONTINUOUS
 62
     2
 10
247.3
 20
135.2
 30
0.0
 40
2.1
  0
LINE
  8
0
  6
CONTINUOUS
 62
     2
 10
247.594
 20
134.045
 30
0.0
 11
247.006
 21
134.045
 31
0.0
  0
LINE
  8
0
  6
CONTINUOUS
 62
     2
 10
247.006
 20
136.355
 30
0.0
 11
247.594
 21
136.355
 31
0.0
  0
LINE
  8
0
  6
CONTINUOUS
 62
     2
 10
247.006
 20
134.045
 30
0.0
 11
247.006
 21
134.276
 31
0.0
  0
LINE
  8
0
  6
CONTINUOUS
 62
     2
 10
246.376
 20
134.906
 30
0.0
 11
245.220681843
 21
134.906
 31
0.0
  0
ARC
  8
0
  6
CONTINUOUS
 62
     2
 10
246.376
 20
134.276
 30
0.0
 40
0.63
 50
0.0
 51
90.0
  0
LINE
  8
0
  6
CONTINUOUS
 62
     2
 10
247.594
 20
134.276
 30
0.0
 11
247.594
 21
134.045
 31
0.0
  0
LINE
  8
0
  6
CONTINUOUS
 62
     2
 10
249.358
 20
134.906
 30
0.0
 11
248.224
 21
134.906
 31
0.0
  0
ARC
  8
0
  6
CONTINUOUS
 62
     2
 10
248.224
 20
134.276
 30
0.0
 40
0.63
 50
90.0
 51
180.0
  0
LINE
  8
0
  6
CONTINUOUS
 62
     2
 10
247.594
 20
136.355
 30
0.0
 11
247.594
 21
136.124
 31
0.0
  0
LINE
  8
0
  6
CONTINUOUS
 62
     2
 10
248.224
 20
135.494
 30
0.0
 11
249.379318157
 21
135.494
 31
0.0
  0
ARC
  8
0
  6
CONTINUOUS
 62
     2
 10
248.224
 20
136.124
 30
0.0
 40
0.63
 50
180.0
 51
270.0
  0
LINE
  8
0
  6
CONTINUOUS
 62
     2
 10
247.006
 20
136.124
 30
0.0
 11
247.006
 21
136.355
 31
0.0
  0
LINE
  8
0
  6
CONTINUOUS
 62
     2
 10
245.220681843
 20
135.494
 30
0.0
 11
246.376
 21
135.494
 31
0.0
  0
ARC
  8
0
  6
CONTINUOUS
 62
     2
 10
246.376
 20
136.124
 30
0.0
 40
0.63
 50
270.0
 51
0.0
  0
LINE
  8
0
  6
LTYPE1
 62
     2
 10
247.3
 20
139.1
 30
0.0
 11
247.3
 21
131.3
 31
0.0
  0
LINE
  8
0
  6
LTYPE1
 62
     2
 10
251.2
 20
135.2
 30
0.0
 11
243.7
 21
135.2
 31
0.0
  0
LINE
  8
0
  6
CONTINUOUS
 62
     2
 10
239.794
 20
134.276
 30
0.0
 11
239.794
 21
134.045
 31
0.0
  0
LINE
  8
0
  6
CONTINUOUS
 62
     2
 10
241.558
 20
134.906
 30
0.0
 11
240.424
 21
134.906
 31
0.0
  0
ARC
  8
0
  6
CONTINUOUS
 62
     2
 10
240.424
 20
134.276
 30
0.0
 40
0.63
 50
90.0
 51
180.0
  0
LINE
  8
0
  6
CONTINUOUS
 62
     2
 10
239.794
 20
136.355
 30
0.0
 11
239.794
 21
136.124
 31
0.0
  0
LINE
  8
0
  6
CONTINUOUS
 62
     2
 10
240.424
 20
135.494
 30
0.0
 11
241.579318157
 21
135.494
 31
0.0
  0
ARC
  8
0
  6
CONTINUOUS
 62
     2
 10
240.424
 20
136.124
 30
0.0
 40
0.63
 50
180.0
 51
270.0
  0
LINE
  8
0
  6
LTYPE1
 62
     2
 10
243.4
 20
135.2
 30
0.0
 11
235.9
 21
135.2
 31
0.0
  0
LINE
  8
0
  6
CONTINUOUS
 62
     2
 10
239.794
 20
134.045
 30
0.0
 11
239.5
 21
134.045
 31
0.0
  0
LINE
  8
0
  6
CONTINUOUS
 62
     2
 10
239.5
 20
136.355
 30
0.0
 11
239.794
 21
136.355
 31
0.0
  0
ARC
  8
0
  6
CONTINUOUS
 62
     2
 10
239.5
 20
135.2
 30
0.0
 40
2.1
 50
270.0
 51
90.0
  0
CIRCLE
  8
0
  6
CONTINUOUS
 62
     2
 10
239.5
 20
144.8
 30
0.0
 40
2.1
  0
LINE
  8
0
  6
CONTINUOUS
 62
     2
 10
239.794
 20
143.645
 30
0.0
 11
239.206
 21
143.645
 31
0.0
  0
LINE
  8
0
  6
CONTINUOUS
 62
     2
 10
239.206
 20
145.955
 30
0.0
 11
239.794
 21
145.955
 31
0.0
  0
LINE
  8
0
  6
CONTINUOUS
 62
     2
 10
239.206
 20
143.645
 30
0.0
 11
239.206
 21
143.876
 31
0.0
  0
LINE
  8
0
  6
CONTINUOUS
 62
     2
 10
238.576
 20
144.506
 30
0.0
 11
237.420681843
 21
144.506
 31
0.0
  0
ARC
  8
0
  6
CONTINUOUS
 62
     2
 10
238.576
 20
143.876
 30
0.0
 40
0.63
 50
0.0
 51
90.0
  0
LINE
  8
0
  6
CONTINUOUS
 62
     2
 10
239.794
 20
143.876
 30
0.0
 11
239.794
 21
143.645
 31
0.0
  0
LINE
  8
0
  6
CONTINUOUS
 62
     2
 10
241.558
 20
144.506
 30
0.0
 11
240.424
 21
144.506
 31
0.0
  0
ARC
  8
0
  6
CONTINUOUS
 62
     2
 10
240.424
 20
143.876
 30
0.0
 40
0.63
 50
90.0
 51
180.0
  0
LINE
  8
0
  6
CONTINUOUS
 62
     2
 10
239.794
 20
145.955
 30
0.0
 11
239.794
 21
145.724
 31
0.0
  0
LINE
  8
0
  6
CONTINUOUS
 62
     2
 10
240.424
 20
145.094
 30
0.0
 11
241.579318157
 21
145.094
 31
0.0
  0
ARC
  8
0
  6
CONTINUOUS
 62
     2
 10
240.424
 20
145.724
 30
0.0
 40
0.63
 50
180.0
 51
270.0
  0
LINE
  8
0
  6
CONTINUOUS
 62
     2
 10
239.206
 20
145.724
 30
0.0
 11
239.206
 21
145.955
 31
0.0
  0
LINE
  8
0
  6
CONTINUOUS
 62
     2
 10
237.420681843
 20
145.094
 30
0.0
 11
238.576
 21
145.094
 31
0.0
  0
ARC
  8
0
  6
CONTINUOUS
 62
     2
 10
238.576
 20
145.724
 30
0.0
 40
0.63
 50
270.0
 51
0.0
  0
LINE
  8
0
  6
CONTINUOUS
 62
     2
 10
203.35
 20
172.1
 30
0.0
 11
203.35
 21
185.15
 31
0.0
  0
LINE
  8
0
  6
CONTINUOUS
 62
     2
 10
203.35
 20
183.15
 30
0.0
 11
205.764814566
 21
182.502952387
 31
0.0
  0
LINE
  8
0
  6
CONTINUOUS
 62
     2
 10
203.35
 20
183.15
 30
0.0
 11
205.764814566
 21
183.797047613
 31
0.0
  0
POLYLINE
  8
0
  6
CONTINUOUS
 62
     2
 66
     1
  0
VERTEX
  8
0
  6
CONTINUOUS
 62
     2
 10
203.35
 20
183.15
 30
0.0
  0
VERTEX
  8
0
  6
CONTINUOUS
 62
     2
 10
275.65
 20
183.15
 30
0.0
  0
VERTEX
  8
0
  6
CONTINUOUS
 62
     2
 10
273.235185434
 20
183.797047613
 30
0.0
  0
SEQEND
  0
LINE
  8
0
  6
CONTINUOUS
 62
     2
 10
275.65
 20
183.15
 30
0.0
 11
273.235185434
 21
182.502952387
 31
0.0
  0
LINE
  8
0
  6
CONTINUOUS
 62
     2
 10
275.65
 20
172.1
 30
0.0
 11
275.65
 21
185.15
 31
0.0
  0
TEXT
  8
0
  6
CONTINUOUS
 62
     2
 10
234.07
 20
184.15
 30
0.3
 40
3.0
  1
１２０
 50
0.0
 41
0.6
 51
0.0
  7
KANJI2
  0
TEXT
  8
0
  6
CONTINUOUS
 62
     2
 10
240.07
 20
184.15
 30
0.18
 40
1.8
  1
±１．５
 50
0.0
 41
0.6
 51
0.0
  7
KANJI3
  0
LINE
  8
0
  6
CONTINUOUS
 62
     2
 10
209.5
 20
172.2
 30
0.0
 11
209.5
 21
180.05
 31
0.0
  0
LINE
  8
0
  6
CONTINUOUS
 62
     2
 10
209.5
 20
178.05
 30
0.0
 11
211.914814566
 21
177.402952387
 31
0.0
  0
LINE
  8
0
  6
CONTINUOUS
 62
     2
 10
209.5
 20
178.05
 30
0.0
 11
211.914814566
 21
178.697047613
 31
0.0
  0
LINE
  8
0
  6
CONTINUOUS
 62
     2
 10
209.5
 20
178.05
 30
0.0
 11
239.5
 21
178.05
 31
0.0
  0
LINE
  8
0
  6
CONTINUOUS
 62
     2
 10
239.5
 20
178.05
 30
0.0
 11
237.085185434
 21
178.697047613
 31
0.0
  0
LINE
  8
0
  6
CONTINUOUS
 62
     2
 10
239.5
 20
178.05
 30
0.0
 11
237.085185434
 21
177.402952387
 31
0.0
  0
TEXT
  8
0
  6
CONTINUOUS
 62
     2
 10
220.12
 20
179.05
 30
0.3
 40
3.0
  1
５０
 50
0.0
 41
0.6
 51
0.0
  7
KANJI2
  0
TEXT
  8
0
  6
CONTINUOUS
 62
     2
 10
224.02
 20
179.05
 30
0.18
 40
1.8
  1
±０．５
 50
0.0
 41
0.6
 51
0.0
  7
KANJI3
  0
LINE
  8
0
  6
CONTINUOUS
 62
     2
 10
239.5
 20
178.05
 30
0.0
 11
241.914814566
 21
177.402952387
 31
0.0
  0
LINE
  8
0
  6
CONTINUOUS
 62
     2
 10
239.5
 20
178.05
 30
0.0
 11
241.914814566
 21
178.697047613
 31
0.0
  0
POLYLINE
  8
0
  6
CONTINUOUS
 62
     2
 66
     1
  0
VERTEX
  8
0
  6
CONTINUOUS
 62
     2
 10
239.5
 20
178.05
 30
0.0
  0
VERTEX
  8
0
  6
CONTINUOUS
 62
     2
 10
269.5
 20
178.05
 30
0.0
  0
VERTEX
  8
0
  6
CONTINUOUS
 62
     2
 10
267.085185434
 20
178.697047613
 30
0.0
  0
SEQEND
  0
LINE
  8
0
  6
CONTINUOUS
 62
     2
 10
269.5
 20
178.05
 30
0.0
 11
267.085185434
 21
177.402952387
 31
0.0
  0
LINE
  8
0
  6
CONTINUOUS
 62
     2
 10
269.5
 20
172.15
 30
0.0
 11
269.5
 21
180.05
 31
0.0
  0
TEXT
  8
0
  6
CONTINUOUS
 62
     2
 10
250.12
 20
179.05
 30
0.3
 40
3.0
  1
５０
 50
0.0
 41
0.6
 51
0.0
  7
KANJI2
  0
TEXT
  8
0
  6
CONTINUOUS
 62
     2
 10
254.02
 20
179.05
 30
0.18
 40
1.8
  1
±０．５
 50
0.0
 41
0.6
 51
0.0
  7
KANJI3
  0
LINE
  8
0
  6
CONTINUOUS
 62
     2
 10
274.7
 20
167.0
 30
0.0
 11
282.65
 21
167.0
 31
0.0
  0
LINE
  8
0
  6
CONTINUOUS
 62
     2
 10
280.65
 20
167.0
 30
0.0
 11
280.002952387
 21
164.585185434
 31
0.0
  0
LINE
  8
0
  6
CONTINUOUS
 62
     2
 10
280.65
 20
167.0
 30
0.0
 11
281.297047613
 21
164.585185434
 31
0.0
  0
LINE
  8
0
  6
CONTINUOUS
 62
     2
 10
280.65
 20
167.0
 30
0.0
 11
280.65
 21
140.0
 31
0.0
  0
LINE
  8
0
  6
CONTINUOUS
 62
     2
 10
280.65
 20
140.0
 30
0.0
 11
281.297047613
 21
142.414814566
 31
0.0
  0
LINE
  8
0
  6
CONTINUOUS
 62
     2
 10
280.65
 20
140.0
 30
0.0
 11
280.002952387
 21
142.414814566
 31
0.0
  0
LINE
  8
0
  6
CONTINUOUS
 62
     2
 10
279.95
 20
140.0
 30
0.0
 11
282.65
 21
140.0
 31
0.0
  0
TEXT
  8
0
  6
CONTINUOUS
 62
     2
 10
279.65
 20
149.12
 30
0.3
 40
3.0
  1
４５
 50
90.0
 41
0.6
 51
0.0
  7
KANJI2
  0
TEXT
  8
0
  6
CONTINUOUS
 62
     2
 10
279.65
 20
153.02
 30
0.18
 40
1.8
  1
±０．５
 50
90.0
 41
0.6
 51
0.0
  7
KANJI3
  0
LINE
  8
0
  6
CONTINUOUS
 62
     2
 10
280.65
 20
140.0
 30
0.0
 11
280.002952387
 21
137.585185434
 31
0.0
  0
LINE
  8
0
  6
CONTINUOUS
 62
     2
 10
280.65
 20
140.0
 30
0.0
 11
281.297047613
 21
137.585185434
 31
0.0
  0
POLYLINE
  8
0
  6
CONTINUOUS
 62
     2
 66
     1
  0
VERTEX
  8
0
  6
CONTINUOUS
 62
     2
 10
280.65
 20
140.0
 30
0.0
  0
VERTEX
  8
0
  6
CONTINUOUS
 62
     2
 10
280.65
 20
119.0
 30
0.0
  0
VERTEX
  8
0
  6
CONTINUOUS
 62
     2
 10
281.297047613
 20
121.414814566
 30
0.0
  0
SEQEND
  0
LINE
  8
0
  6
CONTINUOUS
 62
     2
 10
280.65
 20
119.0
 30
0.0
 11
280.002952387
 21
121.414814566
 31
0.0
  0
LINE
  8
0
  6
CONTINUOUS
 62
     2
 10
276.62
 20
119.0
 30
0.0
 11
282.65
 21
119.0
 31
0.0
  0
TEXT
  8
0
  6
CONTINUOUS
 62
     2
 10
279.65
 20
125.12
 30
0.3
 40
3.0
  1
３５
 50
90.0
 41
0.6
 51
0.0
  7
KANJI2
  0
TEXT
  8
0
  6
CONTINUOUS
 62
     2
 10
279.65
 20
129.02
 30
0.18
 40
1.8
  1
±０．５
 50
90.0
 41
0.6
 51
0.0
  7
KANJI3
  0
LINE
  8
0
  6
CONTINUOUS
 62
     2
 10
208.85
 20
140.0
 30
0.0
 11
208.202952387
 21
137.585185434
 31
0.0
  0
LINE
  8
0
  6
CONTINUOUS
 62
     2
 10
208.85
 20
140.0
 30
0.0
 11
209.497047613
 21
137.585185434
 31
0.0
  0
LINE
  8
0
  6
CONTINUOUS
 62
     2
 10
208.85
 20
135.0
 30
0.0
 11
208.85
 21
147.9
 31
0.0
  0
LINE
  8
0
  6
CONTINUOUS
 62
     2
 10
208.85
 20
142.9
 30
0.0
 11
209.497047613
 21
145.314814566
 31
0.0
  0
LINE
  8
0
  6
CONTINUOUS
 62
     2
 10
208.85
 20
142.9
 30
0.0
 11
208.202952387
 21
145.314814566
 31
0.0
  0
TEXT
  8
0
  6
CONTINUOUS
 62
     2
 10
207.85
 20
140.55
 30
0.3
 40
3.0
  1
５
 50
90.0
 41
0.6
 51
0.0
  7
KANJI2
  0
LINE
  8
0
  6
CONTINUOUS
 62
     2
 10
223.15
 20
133.4
 30
0.0
 11
221.819820288
 21
131.283252038
 31
0.0
  0
LINE
  8
0
  6
CONTINUOUS
 62
     2
 10
223.15
 20
133.4
 30
0.0
 11
223.056404558
 21
130.901752636
 31
0.0
  0
LINE
  8
0
  6
CONTINUOUS
 62
     2
 10
223.15
 20
133.4
 30
0.0
 11
214.45
 21
105.2
 31
0.0
  0
LINE
  8
0
  6
CONTINUOUS
 62
     2
 10
214.45
 20
105.2
 30
0.0
 11
194.05
 21
105.2
 31
0.0
  0
TEXT
  8
0
  6
CONTINUOUS
 62
     2
 10
194.05
 20
106.2
 30
0.3
 40
3.0
  1
Ｍ４ターミナルネジ
 50
0.0
 41
0.666666667
 51
0.0
  7
KANJI4
  0
LINE
  8
0
  6
CONTINUOUS
 62
     2
 10
229.444149877
 20
116.566479601
 30
0.0
 11
230.991036809
 21
118.530440094
 31
0.0
  0
LINE
  8
0
  6
CONTINUOUS
 62
     2
 10
229.444149877
 20
116.566479601
 30
0.0
 11
229.801813011
 21
119.040762746
 31
0.0
  0
POLYLINE
  8
0
  6
CONTINUOUS
 62
     2
 66
     1
  0
VERTEX
  8
0
  6
CONTINUOUS
 62
     2
 10
229.444149877
 20
116.566479601
 30
0.0
  0
VERTEX
  8
0
  6
CONTINUOUS
 62
     2
 10
249.555850123
 20
163.433520399
 30
0.0
  0
VERTEX
  8
0
  6
CONTINUOUS
 62
     2
 10
248.008963191
 20
161.469559906
 30
0.0
  0
SEQEND
  0
LINE
  8
0
  6
CONTINUOUS
 62
     2
 10
249.555850123
 20
163.433520399
 30
0.0
 11
249.198186989
 21
160.959237254
 31
0.0
  0
TEXT
  8
0
  6
CONTINUOUS
 62
     2
 10
229.681038416
 20
119.654347064
 30
0.3
 40
3.0
  1
φ８５
 50
66.774741683
 41
0.6
 51
0.0
  7
KANJI2
  0
LINE
  8
0
  6
CONTINUOUS
 62
     2
 10
204.300001907
 20
112.75
 30
0.0
 11
198.35
 21
112.75
 31
0.0
  0
LINE
  8
0
  6
CONTINUOUS
 62
     2
 10
200.35
 20
112.75
 30
0.0
 11
200.997047613
 21
115.164814566
 31
0.0
  0
LINE
  8
0
  6
CONTINUOUS
 62
     2
 10
200.35
 20
112.75
 30
0.0
 11
199.702952387
 21
115.164814566
 31
0.0
  0
LINE
  8
0
  6
CONTINUOUS
 62
     2
 10
200.35
 20
112.75
 30
0.0
 11
200.35
 21
173.05
 31
0.0
  0
LINE
  8
0
  6
CONTINUOUS
 62
     2
 10
200.35
 20
173.05
 30
0.0
 11
199.702952387
 21
170.635185434
 31
0.0
  0
LINE
  8
0
  6
CONTINUOUS
 62
     2
 10
200.35
 20
173.05
 30
0.0
 11
200.997047613
 21
170.635185434
 31
0.0
  0
LINE
  8
0
  6
CONTINUOUS
 62
     2
 10
204.300001907
 20
173.05
 30
0.0
 11
198.35
 21
173.05
 31
0.0
  0
POLYLINE
  8
0
  6
CONTINUOUS
 62
     2
 66
     1
 70
     1
  0
VERTEX
  8
0
  6
CONTINUOUS
 62
     2
 10
209.5
 20
169.025
 30
0.0
  0
VERTEX
  8
0
  6
CONTINUOUS
 62
     2
 10
207.746298557
 20
168.0125
 30
0.0
  0
VERTEX
  8
0
  6
CONTINUOUS
 62
     2
 10
207.746298557
 20
165.9875
 30
0.0
  0
VERTEX
  8
0
  6
CONTINUOUS
 62
     2
 10
209.5
 20
164.975
 30
0.0
  0
VERTEX
  8
0
  6
CONTINUOUS
 62
     2
 10
211.253701443
 20
165.9875
 30
0.0
  0
VERTEX
  8
0
  6
CONTINUOUS
 62
     2
 10
211.253701443
 20
168.0125
 30
0.0
  0
SEQEND
  0
LINE
  8
0
  6
CONTINUOUS
 62
     2
 10
269.5
 20
169.025
 30
0.0
 11
267.746298557
 21
168.0125
 31
0.0
  0
POLYLINE
  8
0
  6
CONTINUOUS
 62
     2
 66
     1
  0
VERTEX
  8
0
  6
CONTINUOUS
 62
     2
 10
267.746298557
 20
168.0125
 30
0.0
  0
VERTEX
  8
0
  6
CONTINUOUS
 62
     2
 10
267.746298557
 20
165.9875
 30
0.0
  0
VERTEX
  8
0
  6
CONTINUOUS
 62
     2
 10
269.5
 20
164.975
 30
0.0
  0
VERTEX
  8
0
  6
CONTINUOUS
 62
     2
 10
271.253701443
 20
165.9875
 30
0.0
  0
VERTEX
  8
0
  6
CONTINUOUS
 62
     2
 10
271.253701443
 20
168.0125
 30
0.0
  0
VERTEX
  8
0
  6
CONTINUOUS
 62
     2
 10
269.5
 20
169.025
 30
0.0
  0
SEQEND
  0
LINE
  8
0
  6
CONTINUOUS
 62
     2
 10
209.5
 20
121.025
 30
0.0
 11
207.746298557
 21
120.0125
 31
0.0
  0
POLYLINE
  8
0
  6
CONTINUOUS
 62
     2
 66
     1
  0
VERTEX
  8
0
  6
CONTINUOUS
 62
     2
 10
207.746298557
 20
120.0125
 30
0.0
  0
VERTEX
  8
0
  6
CONTINUOUS
 62
     2
 10
207.746298557
 20
117.9875
 30
0.0
  0
VERTEX
  8
0
  6
CONTINUOUS
 62
     2
 10
209.5
 20
116.975
 30
0.0
  0
VERTEX
  8
0
  6
CONTINUOUS
 62
     2
 10
211.253701443
 20
117.9875
 30
0.0
  0
VERTEX
  8
0
  6
CONTINUOUS
 62
     2
 10
211.253701443
 20
120.0125
 30
0.0
  0
VERTEX
  8
0
  6
CONTINUOUS
 62
     2
 10
209.5
 20
121.025
 30
0.0
  0
SEQEND
  0
LINE
  8
0
  6
CONTINUOUS
 62
     2
 10
269.5
 20
121.025
 30
0.0
 11
267.746298557
 21
120.0125
 31
0.0
  0
POLYLINE
  8
0
  6
CONTINUOUS
 62
     2
 66
     1
  0
VERTEX
  8
0
  6
CONTINUOUS
 62
     2
 10
267.746298557
 20
120.0125
 30
0.0
  0
VERTEX
  8
0
  6
CONTINUOUS
 62
     2
 10
267.746298557
 20
117.9875
 30
0.0
  0
VERTEX
  8
0
  6
CONTINUOUS
 62
     2
 10
269.5
 20
116.975
 30
0.0
  0
VERTEX
  8
0
  6
CONTINUOUS
 62
     2
 10
271.253701443
 20
117.9875
 30
0.0
  0
VERTEX
  8
0
  6
CONTINUOUS
 62
     2
 10
271.253701443
 20
120.0125
 30
0.0
  0
VERTEX
  8
0
  6
CONTINUOUS
 62
     2
 10
269.5
 20
121.025
 30
0.0
  0
SEQEND
  0
CIRCLE
  8
0
  6
CONTINUOUS
 62
     2
 10
209.5
 20
119.0
 30
0.0
 40
2.3
  0
CIRCLE
  8
0
  6
CONTINUOUS
 62
     2
 10
209.5
 20
167.0
 30
0.0
 40
2.3
  0
CIRCLE
  8
0
  6
CONTINUOUS
 62
     2
 10
269.5
 20
167.0
 30
0.0
 40
2.3
  0
CIRCLE
  8
0
  6
CONTINUOUS
 62
     2
 10
269.5
 20
119.0
 30
0.0
 40
2.3
  0
LINE
  8
0
  6
LTYPE1
 62
     2
 10
239.5
 20
109.0
 30
0.0
 11
239.5
 21
178.4
 31
0.0
  0
LINE
  8
0
  6
LTYPE1
 62
     2
 10
202.4
 20
142.9
 30
0.0
 11
277.55
 21
142.9
 31
0.0
  0
LINE
  8
0
  6
LTYPE1
 62
     2
 10
278.95
 20
140.0
 30
0.0
 11
205.7
 21
140.0
 31
0.0
  0
TEXT
  8
0
  6
CONTINUOUS
 62
     2
 10
199.45
 20
140.53
 30
0.3
 40
3.0
  1
１００
 50
90.0
 41
0.6
 51
0.0
  7
KANJI2
  0
TEXT
  8
0
  6
CONTINUOUS
 62
     2
 10
199.45
 20
147.03
 30
0.18
 40
1.8
  1
±１
 50
90.0
 41
0.6
 51
0.0
  7
KANJI3
  0
LINE
  8
0
  6
CONTINUOUS
 62
     2
 10
178.9
 20
178.05
 30
0.0
 11
195.916873642
 21
178.05
 31
0.0
  0
ENDSEC
  0
EOF
