  0
SECTION
  2
HEADER
  9
$ACADVER
  1
AC1009
  9
$DWGCODEPAGE
  3
dos932
  9
$EXTMIN
 10
0.0
 20
0.0
 30
0.0
  9
$EXTMAX
 10
297.0
 20
210.0
 30
0.0
  9
$LIMMIN
 10
0.0
 20
0.0
  9
$LIMMAX
 10
297.0
 20
210.0
  9
$LTSCALE
 40
1.0
  9
$PDMODE
 70
     0
  0
ENDSEC
  0
SECTION
  2
TABLES
  0
TABLE
  2
VPORT
 70
     1
  0
VPORT
  2
*ACTIVE
 70
     0
 10
0.0
 20
0.0
 11
1.0
 21
1.0
 12
148.5
 22
105.0
 13
0.0
 23
0.0
 14
10.0
 24
10.0
 15
10.0
 25
10.0
 16
0.0
 26
0.0
 36
1.0
 17
0.0
 27
0.0
 37
0.0
 40
297.0
 41
1.414285714
 42
50.0
 43
0.0
 44
0.0
 50
0.0
 51
0.0
 71
     0
 72
  1000
 73
     1
 74
     3
 75
     0
 76
     0
 77
     0
 78
     0
  0
ENDTAB
  0
TABLE
  2
LTYPE
 70
     5
  0
LTYPE
  2
CONTINUOUS
 70
    64
  3
Solid line
 72
    65
 73
     0
 40
0.0
  0
LTYPE
  2
LTYPE1
 70
    64
  3
CENTER
 72
    65
 73
     4
 40
15.0
 49
10.5
 49
-1.5
 49
1.5
 49
-1.5
  0
LTYPE
  2
LTYPE2
 70
    64
  3
CENTER
 72
    65
 73
     4
 40
5.0
 49
3.5
 49
-0.5
 49
0.5
 49
-0.5
  0
LTYPE
  2
LTYPE3
 70
    64
  3
PHANTOM
 72
    65
 73
     6
 40
15.0
 49
11.25
 49
-0.75
 49
0.75
 49
-0.75
 49
0.75
 49
-0.75
  0
LTYPE
  2
LTYPE4
 70
    64
  3
HIDDEN
 72
    65
 73
     2
 40
1.0
 49
0.6
 49
-0.4
  0
ENDTAB
  0
TABLE
  2
LAYER
 70
   128
  0
LAYER
  2
0
 70
     0
 62
     7
  6
CONTINUOUS
  0
LAYER
  2
2
 70
     0
 62
     7
  6
CONTINUOUS
  0
LAYER
  2
3
 70
     0
 62
     7
  6
CONTINUOUS
  0
LAYER
  2
4
 70
     0
 62
     7
  6
CONTINUOUS
  0
LAYER
  2
5
 70
     0
 62
     7
  6
CONTINUOUS
  0
LAYER
  2
6
 70
     0
 62
     7
  6
CONTINUOUS
  0
LAYER
  2
7
 70
     0
 62
     7
  6
CONTINUOUS
  0
LAYER
  2
8
 70
     0
 62
     7
  6
CONTINUOUS
  0
LAYER
  2
9
 70
     0
 62
     7
  6
CONTINUOUS
  0
LAYER
  2
10
 70
     0
 62
     7
  6
CONTINUOUS
  0
LAYER
  2
11
 70
     0
 62
     7
  6
CONTINUOUS
  0
LAYER
  2
12
 70
     0
 62
     7
  6
CONTINUOUS
  0
LAYER
  2
13
 70
     0
 62
     7
  6
CONTINUOUS
  0
LAYER
  2
14
 70
     0
 62
     7
  6
CONTINUOUS
  0
LAYER
  2
15
 70
     0
 62
     7
  6
CONTINUOUS
  0
LAYER
  2
16
 70
     0
 62
     7
  6
CONTINUOUS
  0
LAYER
  2
17
 70
     0
 62
     7
  6
CONTINUOUS
  0
LAYER
  2
18
 70
     0
 62
     7
  6
CONTINUOUS
  0
LAYER
  2
19
 70
     0
 62
     7
  6
CONTINUOUS
  0
LAYER
  2
20
 70
     0
 62
     7
  6
CONTINUOUS
  0
LAYER
  2
21
 70
     0
 62
     7
  6
CONTINUOUS
  0
LAYER
  2
22
 70
     0
 62
     7
  6
CONTINUOUS
  0
LAYER
  2
23
 70
     0
 62
     7
  6
CONTINUOUS
  0
LAYER
  2
24
 70
     0
 62
     7
  6
CONTINUOUS
  0
LAYER
  2
25
 70
     0
 62
     7
  6
CONTINUOUS
  0
LAYER
  2
26
 70
     0
 62
     7
  6
CONTINUOUS
  0
LAYER
  2
27
 70
     0
 62
     7
  6
CONTINUOUS
  0
LAYER
  2
28
 70
     0
 62
     7
  6
CONTINUOUS
  0
LAYER
  2
29
 70
     0
 62
     7
  6
CONTINUOUS
  0
LAYER
  2
30
 70
     0
 62
     7
  6
CONTINUOUS
  0
LAYER
  2
31
 70
     0
 62
     7
  6
CONTINUOUS
  0
LAYER
  2
32
 70
     0
 62
     7
  6
CONTINUOUS
  0
LAYER
  2
33
 70
     0
 62
     7
  6
CONTINUOUS
  0
LAYER
  2
34
 70
     0
 62
     7
  6
CONTINUOUS
  0
LAYER
  2
35
 70
     0
 62
     7
  6
CONTINUOUS
  0
LAYER
  2
36
 70
     0
 62
     7
  6
CONTINUOUS
  0
LAYER
  2
37
 70
     0
 62
     7
  6
CONTINUOUS
  0
LAYER
  2
38
 70
     0
 62
     7
  6
CONTINUOUS
  0
LAYER
  2
39
 70
     0
 62
     7
  6
CONTINUOUS
  0
LAYER
  2
40
 70
     0
 62
     7
  6
CONTINUOUS
  0
LAYER
  2
41
 70
     0
 62
     7
  6
CONTINUOUS
  0
LAYER
  2
42
 70
     0
 62
     7
  6
CONTINUOUS
  0
LAYER
  2
43
 70
     0
 62
     7
  6
CONTINUOUS
  0
LAYER
  2
44
 70
     0
 62
     7
  6
CONTINUOUS
  0
LAYER
  2
45
 70
     0
 62
     7
  6
CONTINUOUS
  0
LAYER
  2
46
 70
     0
 62
     7
  6
CONTINUOUS
  0
LAYER
  2
47
 70
     0
 62
     7
  6
CONTINUOUS
  0
LAYER
  2
48
 70
     0
 62
     7
  6
CONTINUOUS
  0
LAYER
  2
49
 70
     0
 62
     7
  6
CONTINUOUS
  0
LAYER
  2
50
 70
     0
 62
     7
  6
CONTINUOUS
  0
LAYER
  2
51
 70
     0
 62
     7
  6
CONTINUOUS
  0
LAYER
  2
52
 70
     0
 62
     7
  6
CONTINUOUS
  0
LAYER
  2
53
 70
     0
 62
     7
  6
CONTINUOUS
  0
LAYER
  2
54
 70
     0
 62
     7
  6
CONTINUOUS
  0
LAYER
  2
55
 70
     0
 62
     7
  6
CONTINUOUS
  0
LAYER
  2
56
 70
     0
 62
     7
  6
CONTINUOUS
  0
LAYER
  2
57
 70
     0
 62
     7
  6
CONTINUOUS
  0
LAYER
  2
58
 70
     0
 62
     7
  6
CONTINUOUS
  0
LAYER
  2
59
 70
     0
 62
     7
  6
CONTINUOUS
  0
LAYER
  2
60
 70
     0
 62
     7
  6
CONTINUOUS
  0
LAYER
  2
61
 70
     0
 62
     7
  6
CONTINUOUS
  0
LAYER
  2
62
 70
     0
 62
     7
  6
CONTINUOUS
  0
LAYER
  2
63
 70
     0
 62
     7
  6
CONTINUOUS
  0
LAYER
  2
64
 70
     0
 62
     7
  6
CONTINUOUS
  0
LAYER
  2
65
 70
     0
 62
     7
  6
CONTINUOUS
  0
LAYER
  2
66
 70
     0
 62
     7
  6
CONTINUOUS
  0
LAYER
  2
67
 70
     0
 62
     7
  6
CONTINUOUS
  0
LAYER
  2
68
 70
     0
 62
     7
  6
CONTINUOUS
  0
LAYER
  2
69
 70
     0
 62
     7
  6
CONTINUOUS
  0
LAYER
  2
70
 70
     0
 62
     7
  6
CONTINUOUS
  0
LAYER
  2
71
 70
     0
 62
     7
  6
CONTINUOUS
  0
LAYER
  2
72
 70
     0
 62
     7
  6
CONTINUOUS
  0
LAYER
  2
73
 70
     0
 62
     7
  6
CONTINUOUS
  0
LAYER
  2
74
 70
     0
 62
     7
  6
CONTINUOUS
  0
LAYER
  2
75
 70
     0
 62
     7
  6
CONTINUOUS
  0
LAYER
  2
76
 70
     0
 62
     7
  6
CONTINUOUS
  0
LAYER
  2
77
 70
     0
 62
     7
  6
CONTINUOUS
  0
LAYER
  2
78
 70
     0
 62
     7
  6
CONTINUOUS
  0
LAYER
  2
79
 70
     0
 62
     7
  6
CONTINUOUS
  0
LAYER
  2
80
 70
     0
 62
     7
  6
CONTINUOUS
  0
LAYER
  2
81
 70
     0
 62
     7
  6
CONTINUOUS
  0
LAYER
  2
82
 70
     0
 62
     7
  6
CONTINUOUS
  0
LAYER
  2
83
 70
     0
 62
     7
  6
CONTINUOUS
  0
LAYER
  2
84
 70
     0
 62
     7
  6
CONTINUOUS
  0
LAYER
  2
85
 70
     0
 62
     7
  6
CONTINUOUS
  0
LAYER
  2
86
 70
     0
 62
     7
  6
CONTINUOUS
  0
LAYER
  2
87
 70
     0
 62
     7
  6
CONTINUOUS
  0
LAYER
  2
88
 70
     0
 62
     7
  6
CONTINUOUS
  0
LAYER
  2
89
 70
     0
 62
     7
  6
CONTINUOUS
  0
LAYER
  2
90
 70
     0
 62
     7
  6
CONTINUOUS
  0
LAYER
  2
91
 70
     0
 62
     7
  6
CONTINUOUS
  0
LAYER
  2
92
 70
     0
 62
     7
  6
CONTINUOUS
  0
LAYER
  2
93
 70
     0
 62
     7
  6
CONTINUOUS
  0
LAYER
  2
94
 70
     0
 62
     7
  6
CONTINUOUS
  0
LAYER
  2
95
 70
     0
 62
     7
  6
CONTINUOUS
  0
LAYER
  2
96
 70
     0
 62
     7
  6
CONTINUOUS
  0
LAYER
  2
97
 70
     0
 62
     7
  6
CONTINUOUS
  0
LAYER
  2
98
 70
     0
 62
     7
  6
CONTINUOUS
  0
LAYER
  2
99
 70
     0
 62
     7
  6
CONTINUOUS
  0
LAYER
  2
100
 70
     0
 62
     7
  6
CONTINUOUS
  0
LAYER
  2
101
 70
     0
 62
     7
  6
CONTINUOUS
  0
LAYER
  2
102
 70
     0
 62
     7
  6
CONTINUOUS
  0
LAYER
  2
103
 70
     0
 62
     7
  6
CONTINUOUS
  0
LAYER
  2
104
 70
     0
 62
     7
  6
CONTINUOUS
  0
LAYER
  2
105
 70
     0
 62
     7
  6
CONTINUOUS
  0
LAYER
  2
106
 70
     0
 62
     7
  6
CONTINUOUS
  0
LAYER
  2
107
 70
     0
 62
     7
  6
CONTINUOUS
  0
LAYER
  2
108
 70
     0
 62
     7
  6
CONTINUOUS
  0
LAYER
  2
109
 70
     0
 62
     7
  6
CONTINUOUS
  0
LAYER
  2
110
 70
     0
 62
     7
  6
CONTINUOUS
  0
LAYER
  2
111
 70
     0
 62
     7
  6
CONTINUOUS
  0
LAYER
  2
112
 70
     0
 62
     7
  6
CONTINUOUS
  0
LAYER
  2
113
 70
     0
 62
     7
  6
CONTINUOUS
  0
LAYER
  2
114
 70
     0
 62
     7
  6
CONTINUOUS
  0
LAYER
  2
115
 70
     0
 62
     7
  6
CONTINUOUS
  0
LAYER
  2
116
 70
     0
 62
     7
  6
CONTINUOUS
  0
LAYER
  2
117
 70
     0
 62
     7
  6
CONTINUOUS
  0
LAYER
  2
118
 70
     0
 62
     7
  6
CONTINUOUS
  0
LAYER
  2
119
 70
     0
 62
     7
  6
CONTINUOUS
  0
LAYER
  2
120
 70
     0
 62
     7
  6
CONTINUOUS
  0
LAYER
  2
121
 70
     0
 62
     7
  6
CONTINUOUS
  0
LAYER
  2
122
 70
     0
 62
     7
  6
CONTINUOUS
  0
LAYER
  2
123
 70
     0
 62
     7
  6
CONTINUOUS
  0
LAYER
  2
124
 70
     0
 62
     7
  6
CONTINUOUS
  0
LAYER
  2
125
 70
     0
 62
     7
  6
CONTINUOUS
  0
LAYER
  2
126
 70
     0
 62
     7
  6
CONTINUOUS
  0
LAYER
  2
127
 70
     0
 62
     7
  6
CONTINUOUS
  0
LAYER
  2
128
 70
     0
 62
     7
  6
CONTINUOUS
  0
ENDTAB
  0
TABLE
  2
STYLE
 70
    10
  0
STYLE
  2
STANDARD
 70
     0
 40
0.0
 41
1.0
 50
0.0
 71
     0
 42
0.2
  3
txt.shx
  4
extfont.shx
  0
STYLE
  2
KANJI0
 70
     0
 40
3.0
 41
0.9
 50
0.0
 71
     0
 42
3.0
  3
txt.shx
  4
extfont.shx
  0
STYLE
  2
KANJI1
 70
     0
 40
3.0
 41
0.6
 50
0.0
 71
     0
 42
3.0
  3
txt.shx
  4
extfont.shx
  0
STYLE
  2
KANJI2
 70
     0
 40
1.8
 41
0.6
 50
0.0
 71
     0
 42
1.8
  3
txt.shx
  4
extfont.shx
  0
STYLE
  2
KANJI3
 70
     0
 40
1.8
 41
0.666666667
 50
0.0
 71
     0
 42
1.8
  3
txt.shx
  4
extfont.shx
  0
STYLE
  2
KANJI4
 70
     0
 40
3.0
 41
0.666666667
 50
0.0
 71
     0
 42
3.0
  3
txt.shx
  4
extfont.shx
  0
STYLE
  2
KANJI5
 70
     0
 40
3.0
 41
0.9
 50
0.0
 71
     0
 42
3.0
  3
txt.shx
  4
extfont.shx
  0
STYLE
  2
KANJI6
 70
     0
 40
4.0
 41
0.9
 50
0.0
 71
     0
 42
4.0
  3
txt.shx
  4
extfont.shx
  0
STYLE
  2
KANJI7
 70
     0
 40
6.0
 41
0.9
 50
0.0
 71
     0
 42
6.0
  3
txt.shx
  4
extfont.shx
  0
STYLE
  2
KANJI8
 70
     0
 40
3.0
 41
0.3
 50
0.0
 71
     0
 42
3.0
  3
txt.shx
  4
extfont.shx
  0
ENDTAB
  0
TABLE
  2
VIEW
 70
     0
  0
ENDTAB
  0
ENDSEC
  0
SECTION
  2
BLOCKS
  0
ENDSEC
  0
SECTION
  2
ENTITIES
  0
ARC
  8
0
  6
CONTINUOUS
 62
     1
 10
23.5
 20
110.75
 30
0.0
 40
1.5
 50
180.0
 51
270.0
  0
LINE
  8
0
  6
CONTINUOUS
 62
     1
 10
23.5
 20
109.25
 30
0.0
 11
70.5
 21
109.25
 31
0.0
  0
ARC
  8
0
  6
CONTINUOUS
 62
     1
 10
70.5
 20
110.75
 30
0.0
 40
1.5
 50
270.0
 51
0.0
  0
LINE
  8
0
  6
CONTINUOUS
 62
     1
 10
72.0
 20
110.75
 30
0.0
 11
72.0
 21
149.25
 31
0.0
  0
ARC
  8
0
  6
CONTINUOUS
 62
     1
 10
70.5
 20
149.25
 30
0.0
 40
1.5
 50
0.0
 51
90.0
  0
LINE
  8
0
  6
CONTINUOUS
 62
     1
 10
22.0
 20
149.25
 30
0.0
 11
22.0
 21
110.75
 31
0.0
  0
LINE
  8
0
  6
CONTINUOUS
 62
     1
 10
70.5
 20
150.75
 30
0.0
 11
23.5
 21
150.75
 31
0.0
  0
ARC
  8
0
  6
CONTINUOUS
 62
     1
 10
23.5
 20
149.25
 30
0.0
 40
1.5
 50
90.0
 51
180.0
  0
CIRCLE
  8
0
  6
CONTINUOUS
 62
     1
 10
47.0
 20
56.5
 30
0.0
 40
16.75
  0
CIRCLE
  8
0
  6
CONTINUOUS
 62
     1
 10
31.0
 20
72.5
 30
0.0
 40
1.0
  0
CIRCLE
  8
0
  6
CONTINUOUS
 62
     1
 10
31.0
 20
40.5
 30
0.0
 40
1.0
  0
CIRCLE
  8
0
  6
CONTINUOUS
 62
     1
 10
63.0
 20
40.5
 30
0.0
 40
1.0
  0
CIRCLE
  8
0
  6
CONTINUOUS
 62
     1
 10
63.0
 20
72.5
 30
0.0
 40
1.0
  0
ARC
  8
0
  6
CONTINUOUS
 62
     2
 10
70.5
 20
110.75
 30
0.0
 40
0.5
 50
270.0
 51
0.0
  0
LINE
  8
0
  6
CONTINUOUS
 62
     2
 10
71.0
 20
110.75
 30
0.0
 11
71.0
 21
149.25
 31
0.0
  0
ARC
  8
0
  6
CONTINUOUS
 62
     2
 10
70.5
 20
149.25
 30
0.0
 40
0.5
 50
0.0
 51
90.0
  0
LINE
  8
0
  6
CONTINUOUS
 62
     2
 10
70.5
 20
149.75
 30
0.0
 11
23.5
 21
149.75
 31
0.0
  0
ARC
  8
0
  6
CONTINUOUS
 62
     2
 10
23.5
 20
149.25
 30
0.0
 40
0.5
 50
90.0
 51
180.0
  0
LINE
  8
0
  6
CONTINUOUS
 62
     2
 10
23.5
 20
110.25
 30
0.0
 11
70.5
 21
110.25
 31
0.0
  0
LINE
  8
0
  6
CONTINUOUS
 62
     2
 10
23.0
 20
149.25
 30
0.0
 11
23.0
 21
110.75
 31
0.0
  0
ARC
  8
0
  6
CONTINUOUS
 62
     2
 10
23.5
 20
110.75
 30
0.0
 40
0.5
 50
180.0
 51
270.0
  0
LINE
  8
0
  6
CONTINUOUS
 62
     2
 10
23.7625
 20
124.25
 30
0.0
 11
70.2625
 21
124.25
 31
0.0
  0
LINE
  8
0
  6
CONTINUOUS
 62
     2
 10
70.2625
 20
124.25
 30
0.0
 11
70.2625
 21
148.5
 31
0.0
  0
ARC
  8
0
  6
CONTINUOUS
 62
     2
 10
69.7625
 20
148.5
 30
0.0
 40
0.5
 50
0.0
 51
90.0
  0
LINE
  8
0
  6
CONTINUOUS
 62
     2
 10
23.7625
 20
148.5
 30
0.0
 11
23.7625
 21
124.25
 31
0.0
  0
LINE
  8
0
  6
CONTINUOUS
 62
     2
 10
69.7625
 20
149.0
 30
0.0
 11
24.2625
 21
149.0
 31
0.0
  0
ARC
  8
0
  6
CONTINUOUS
 62
     2
 10
24.2625
 20
148.5
 30
0.0
 40
0.5
 50
90.0
 51
180.0
  0
CIRCLE
  8
0
  6
CONTINUOUS
 62
     2
 10
25.9625
 20
121.5
 30
0.0
 40
1.5
  0
LINE
  8
0
  6
CONTINUOUS
 62
     2
 10
25.0875
 20
121.7
 30
0.0
 11
25.5625
 21
121.7
 31
0.0
  0
ARC
  8
0
  6
CONTINUOUS
 62
     2
 10
25.5625
 20
121.9
 30
0.0
 40
0.2
 50
270.0
 51
0.0
  0
LINE
  8
0
  6
CONTINUOUS
 62
     2
 10
25.7625
 20
121.9
 30
0.0
 11
25.7625
 21
122.375
 31
0.0
  0
LINE
  8
0
  6
CONTINUOUS
 62
     2
 10
25.7625
 20
122.375
 30
0.0
 11
26.1625
 21
122.375
 31
0.0
  0
LINE
  8
0
  6
CONTINUOUS
 62
     2
 10
26.1625
 20
122.375
 30
0.0
 11
26.1625
 21
121.9
 31
0.0
  0
ARC
  8
0
  6
CONTINUOUS
 62
     2
 10
26.3625
 20
121.9
 30
0.0
 40
0.2
 50
180.0
 51
270.0
  0
LINE
  8
0
  6
CONTINUOUS
 62
     2
 10
26.3625
 20
121.7
 30
0.0
 11
26.8375
 21
121.7
 31
0.0
  0
LINE
  8
0
  6
CONTINUOUS
 62
     2
 10
26.8375
 20
121.7
 30
0.0
 11
26.8375
 21
121.3
 31
0.0
  0
LINE
  8
0
  6
CONTINUOUS
 62
     2
 10
26.8375
 20
121.3
 30
0.0
 11
26.3625
 21
121.3
 31
0.0
  0
ARC
  8
0
  6
CONTINUOUS
 62
     2
 10
26.3625
 20
121.1
 30
0.0
 40
0.2
 50
90.0
 51
180.0
  0
LINE
  8
0
  6
CONTINUOUS
 62
     2
 10
26.1625
 20
121.1
 30
0.0
 11
26.1625
 21
120.625
 31
0.0
  0
LINE
  8
0
  6
CONTINUOUS
 62
     2
 10
26.1625
 20
120.625
 30
0.0
 11
25.7625
 21
120.625
 31
0.0
  0
LINE
  8
0
  6
CONTINUOUS
 62
     2
 10
25.7625
 20
120.625
 30
0.0
 11
25.7625
 21
121.1
 31
0.0
  0
ARC
  8
0
  6
CONTINUOUS
 62
     2
 10
25.5625
 20
121.1
 30
0.0
 40
0.2
 50
0.0
 51
90.0
  0
LINE
  8
0
  6
CONTINUOUS
 62
     2
 10
25.5625
 20
121.3
 30
0.0
 11
25.0875
 21
121.3
 31
0.0
  0
LINE
  8
0
  6
CONTINUOUS
 62
     2
 10
25.0875
 20
121.3
 30
0.0
 11
25.0875
 21
121.7
 31
0.0
  0
CIRCLE
  8
0
  6
CONTINUOUS
 62
     2
 10
67.9625
 20
121.5
 30
0.0
 40
1.5
  0
LINE
  8
0
  6
CONTINUOUS
 62
     2
 10
67.0875
 20
121.7
 30
0.0
 11
67.5625
 21
121.7
 31
0.0
  0
ARC
  8
0
  6
CONTINUOUS
 62
     2
 10
67.5625
 20
121.9
 30
0.0
 40
0.2
 50
270.0
 51
0.0
  0
LINE
  8
0
  6
CONTINUOUS
 62
     2
 10
67.7625
 20
121.9
 30
0.0
 11
67.7625
 21
122.375
 31
0.0
  0
LINE
  8
0
  6
CONTINUOUS
 62
     2
 10
67.7625
 20
122.375
 30
0.0
 11
68.1625
 21
122.375
 31
0.0
  0
LINE
  8
0
  6
CONTINUOUS
 62
     2
 10
68.1625
 20
122.375
 30
0.0
 11
68.1625
 21
121.9
 31
0.0
  0
ARC
  8
0
  6
CONTINUOUS
 62
     2
 10
68.3625
 20
121.9
 30
0.0
 40
0.2
 50
180.0
 51
270.0
  0
LINE
  8
0
  6
CONTINUOUS
 62
     2
 10
68.3625
 20
121.7
 30
0.0
 11
68.8375
 21
121.7
 31
0.0
  0
LINE
  8
0
  6
CONTINUOUS
 62
     2
 10
68.8375
 20
121.7
 30
0.0
 11
68.8375
 21
121.3
 31
0.0
  0
LINE
  8
0
  6
CONTINUOUS
 62
     2
 10
68.8375
 20
121.3
 30
0.0
 11
68.3625
 21
121.3
 31
0.0
  0
ARC
  8
0
  6
CONTINUOUS
 62
     2
 10
68.3625
 20
121.1
 30
0.0
 40
0.2
 50
90.0
 51
180.0
  0
LINE
  8
0
  6
CONTINUOUS
 62
     2
 10
68.1625
 20
121.1
 30
0.0
 11
68.1625
 21
120.625
 31
0.0
  0
LINE
  8
0
  6
CONTINUOUS
 62
     2
 10
68.1625
 20
120.625
 30
0.0
 11
67.7625
 21
120.625
 31
0.0
  0
LINE
  8
0
  6
CONTINUOUS
 62
     2
 10
67.7625
 20
120.625
 30
0.0
 11
67.7625
 21
121.1
 31
0.0
  0
ARC
  8
0
  6
CONTINUOUS
 62
     2
 10
67.5625
 20
121.1
 30
0.0
 40
0.2
 50
0.0
 51
90.0
  0
LINE
  8
0
  6
CONTINUOUS
 62
     2
 10
67.5625
 20
121.3
 30
0.0
 11
67.0875
 21
121.3
 31
0.0
  0
LINE
  8
0
  6
CONTINUOUS
 62
     2
 10
67.0875
 20
121.3
 30
0.0
 11
67.0875
 21
121.7
 31
0.0
  0
LINE
  8
0
  6
CONTINUOUS
 62
     2
 10
28.084893603
 20
138.665106397
 30
0.0
 11
41.484893603
 21
124.265106397
 31
0.0
  0
LINE
  8
0
  6
CONTINUOUS
 62
     2
 10
28.134893603
 20
138.715106397
 30
0.0
 11
43.534893603
 21
124.265106397
 31
0.0
  0
POINT
  8
0
  6
LTYPE1
 62
     2
 10
47.0
 20
27.5
 30
0.0
  0
POINT
  8
0
  6
LTYPE1
 62
     2
 10
47.0
 20
27.5
 30
0.0
  0
LINE
  8
0
  6
LTYPE1
 62
     2
 10
47.0
 20
27.5
 30
0.0
 11
47.0
 21
27.0
 31
0.0
  0
LINE
  8
0
  6
CONTINUOUS
 62
     2
 10
55.894486611
 20
70.693329698
 30
0.0
 11
54.06390178
 21
68.990696686
 31
0.0
  0
LINE
  8
0
  6
CONTINUOUS
 62
     2
 10
55.894486611
 20
70.693329698
 30
0.0
 11
55.16047015
 21
68.30351384
 31
0.0
  0
LINE
  8
0
  6
CONTINUOUS
 62
     2
 10
55.894486611
 20
70.693329698
 30
0.0
 11
38.105513389
 21
42.306670302
 31
0.0
  0
LINE
  8
0
  6
CONTINUOUS
 62
     2
 10
38.105513389
 20
42.306670302
 30
0.0
 11
39.93609822
 21
44.009303314
 31
0.0
  0
LINE
  8
0
  6
CONTINUOUS
 62
     2
 10
38.105513389
 20
42.306670302
 30
0.0
 11
38.83952985
 21
44.69648616
 31
0.0
  0
LINE
  8
0
  6
CONTINUOUS
 62
     2
 10
35.85
 20
20.05
 30
0.0
 11
58.05
 21
20.05
 31
0.0
  0
TEXT
  8
0
  6
CONTINUOUS
 62
     2
 10
37.65
 20
22.15
 30
0.5
 40
3.0
  1
パネルカット
 50
0.0
 41
0.9
 51
0.0
  7
KANJI0
  0
LINE
  8
0
  6
LTYPE2
 62
     2
 10
25.9625
 20
123.5
 30
0.0
 11
25.9625
 21
119.5
 31
0.0
  0
LINE
  8
0
  6
LTYPE2
 62
     2
 10
23.9625
 20
121.5
 30
0.0
 11
27.9625
 21
121.5
 31
0.0
  0
LINE
  8
0
  6
LTYPE2
 62
     2
 10
44.5
 20
114.75
 30
0.0
 11
49.5
 21
114.75
 31
0.0
  0
LINE
  8
0
  6
LTYPE2
 62
     2
 10
65.9625
 20
121.5
 30
0.0
 11
69.9625
 21
121.5
 31
0.0
  0
LINE
  8
0
  6
LTYPE2
 62
     2
 10
67.9625
 20
123.5
 30
0.0
 11
67.9625
 21
119.5
 31
0.0
  0
LINE
  8
0
  6
LTYPE3
 62
     2
 10
31.0
 20
75.0
 30
0.0
 11
31.0
 21
70.0
 31
0.0
  0
LINE
  8
0
  6
LTYPE3
 62
     2
 10
28.5
 20
72.5
 30
0.0
 11
33.5
 21
72.5
 31
0.0
  0
LINE
  8
0
  6
LTYPE3
 62
     2
 10
63.0
 20
75.0
 30
0.0
 11
63.0
 21
70.0
 31
0.0
  0
LINE
  8
0
  6
LTYPE3
 62
     2
 10
60.5
 20
72.5
 30
0.0
 11
65.5
 21
72.5
 31
0.0
  0
LINE
  8
0
  6
LTYPE3
 62
     2
 10
63.0
 20
43.0
 30
0.0
 11
63.0
 21
38.0
 31
0.0
  0
LINE
  8
0
  6
LTYPE3
 62
     2
 10
60.5
 20
40.5
 30
0.0
 11
65.5
 21
40.5
 31
0.0
  0
LINE
  8
0
  6
LTYPE3
 62
     2
 10
31.0
 20
43.0
 30
0.0
 11
31.0
 21
38.0
 31
0.0
  0
LINE
  8
0
  6
LTYPE3
 62
     2
 10
28.5
 20
40.5
 30
0.0
 11
33.5
 21
40.5
 31
0.0
  0
LINE
  8
0
  6
CONTINUOUS
 62
     2
 10
31.0
 20
78.5
 30
0.0
 11
33.414814566
 21
77.852952387
 31
0.0
  0
LINE
  8
0
  6
CONTINUOUS
 62
     2
 10
31.0
 20
78.5
 30
0.0
 11
33.414814566
 21
79.147047613
 31
0.0
  0
LINE
  8
0
  6
CONTINUOUS
 62
     2
 10
31.0
 20
78.5
 30
0.0
 11
47.0
 21
78.5
 31
0.0
  0
LINE
  8
0
  6
CONTINUOUS
 62
     2
 10
47.0
 20
78.5
 30
0.0
 11
44.585185434
 21
79.147047613
 31
0.0
  0
LINE
  8
0
  6
CONTINUOUS
 62
     2
 10
47.0
 20
78.5
 30
0.0
 11
44.585185434
 21
77.852952387
 31
0.0
  0
TEXT
  8
0
  6
CONTINUOUS
 62
     2
 10
34.62
 20
79.5
 30
0.3
 40
3.0
  1
３２
 50
0.0
 41
0.6
 51
0.0
  7
KANJI1
  0
TEXT
  8
0
  6
CONTINUOUS
 62
     2
 10
38.52
 20
79.5
 30
0.18
 40
1.8
  1
±０．５
 50
0.0
 41
0.6
 51
0.0
  7
KANJI2
  0
LINE
  8
0
  6
CONTINUOUS
 62
     2
 10
47.0
 20
78.5
 30
0.0
 11
49.414814566
 21
77.852952387
 31
0.0
  0
LINE
  8
0
  6
CONTINUOUS
 62
     2
 10
47.0
 20
78.5
 30
0.0
 11
49.414814566
 21
79.147047613
 31
0.0
  0
LINE
  8
0
  6
CONTINUOUS
 62
     2
 10
47.0
 20
78.5
 30
0.0
 11
63.0
 21
78.5
 31
0.0
  0
LINE
  8
0
  6
CONTINUOUS
 62
     2
 10
63.0
 20
78.5
 30
0.0
 11
60.585185434
 21
79.147047613
 31
0.0
  0
LINE
  8
0
  6
CONTINUOUS
 62
     2
 10
63.0
 20
78.5
 30
0.0
 11
60.585185434
 21
77.852952387
 31
0.0
  0
TEXT
  8
0
  6
CONTINUOUS
 62
     2
 10
50.62
 20
79.5
 30
0.3
 40
3.0
  1
３２
 50
0.0
 41
0.6
 51
0.0
  7
KANJI1
  0
TEXT
  8
0
  6
CONTINUOUS
 62
     2
 10
54.52
 20
79.5
 30
0.18
 40
1.8
  1
±０．５
 50
0.0
 41
0.6
 51
0.0
  7
KANJI2
  0
LINE
  8
0
  6
CONTINUOUS
 62
     2
 10
31.0
 20
75.5
 30
0.0
 11
31.0
 21
80.5
 31
0.0
  0
LINE
  8
0
  6
CONTINUOUS
 62
     2
 10
63.0
 20
75.5
 30
0.0
 11
63.0
 21
80.5
 31
0.0
  0
LINE
  8
0
  6
CONTINUOUS
 62
     2
 10
47.0
 20
75.5
 30
0.0
 11
47.0
 21
80.5
 31
0.0
  0
LINE
  8
0
  6
CONTINUOUS
 62
     2
 10
69.0
 20
72.5
 30
0.0
 11
68.352952387
 21
70.085185434
 31
0.0
  0
LINE
  8
0
  6
CONTINUOUS
 62
     2
 10
69.0
 20
72.5
 30
0.0
 11
69.647047613
 21
70.085185434
 31
0.0
  0
LINE
  8
0
  6
CONTINUOUS
 62
     2
 10
69.0
 20
72.5
 30
0.0
 11
69.0
 21
56.5
 31
0.0
  0
LINE
  8
0
  6
CONTINUOUS
 62
     2
 10
69.0
 20
56.5
 30
0.0
 11
69.647047613
 21
58.914814566
 31
0.0
  0
LINE
  8
0
  6
CONTINUOUS
 62
     2
 10
69.0
 20
56.5
 30
0.0
 11
68.352952387
 21
58.914814566
 31
0.0
  0
TEXT
  8
0
  6
CONTINUOUS
 62
     2
 10
68.0
 20
63.9
 30
0.3
 40
1.8
  1
±０．５
 50
90.0
 41
0.666666667
 51
0.0
  7
KANJI3
  0
LINE
  8
0
  6
CONTINUOUS
 62
     2
 10
69.0
 20
56.5
 30
0.0
 11
68.352952387
 21
54.085185434
 31
0.0
  0
LINE
  8
0
  6
CONTINUOUS
 62
     2
 10
69.0
 20
56.5
 30
0.0
 11
69.647047613
 21
54.085185434
 31
0.0
  0
LINE
  8
0
  6
CONTINUOUS
 62
     2
 10
69.0
 20
56.5
 30
0.0
 11
69.0
 21
40.5
 31
0.0
  0
LINE
  8
0
  6
CONTINUOUS
 62
     2
 10
69.0
 20
40.5
 30
0.0
 11
69.647047613
 21
42.914814566
 31
0.0
  0
LINE
  8
0
  6
CONTINUOUS
 62
     2
 10
69.0
 20
40.5
 30
0.0
 11
68.352952387
 21
42.914814566
 31
0.0
  0
TEXT
  8
0
  6
CONTINUOUS
 62
     2
 10
68.0
 20
47.9
 30
0.3
 40
1.8
  1
±０．５
 50
90.0
 41
0.666666667
 51
0.0
  7
KANJI3
  0
TEXT
  8
0
  6
CONTINUOUS
 62
     2
 10
68.0
 20
43.4
 30
0.5
 40
3.0
  1
３２
 50
90.0
 41
0.666666667
 51
0.0
  7
KANJI4
  0
TEXT
  8
0
  6
CONTINUOUS
 62
     2
 10
68.0
 20
59.4
 30
0.5
 40
3.0
  1
３２
 50
90.0
 41
0.666666667
 51
0.0
  7
KANJI4
  0
LINE
  8
0
  6
CONTINUOUS
 62
     2
 10
66.0
 20
72.5
 30
0.0
 11
71.0
 21
72.5
 31
0.0
  0
LINE
  8
0
  6
CONTINUOUS
 62
     2
 10
66.0
 20
40.5
 30
0.0
 11
71.0
 21
40.5
 31
0.0
  0
LINE
  8
0
  6
CONTINUOUS
 62
     2
 10
66.0
 20
56.5
 30
0.0
 11
71.0
 21
56.5
 31
0.0
  0
CIRCLE
  8
0
  6
CONTINUOUS
 62
     2
 10
47.0
 20
114.75
 30
0.0
 40
1.8
  0
LINE
  8
0
  6
CONTINUOUS
 62
     2
 10
45.2
 20
114.55
 30
0.0
 11
48.7
 21
114.55
 31
0.0
  0
LINE
  8
0
  6
CONTINUOUS
 62
     2
 10
48.7
 20
114.95
 30
0.0
 11
45.25
 21
114.95
 31
0.0
  0
LINE
  8
0
  6
CONTINUOUS
 62
     2
 10
45.414395892
 20
113.25
 30
0.0
 11
44.784279419
 21
110.830712247
 31
0.0
  0
LINE
  8
0
  6
CONTINUOUS
 62
     2
 10
45.414395892
 20
113.25
 30
0.0
 11
43.659055143
 21
111.469893584
 31
0.0
  0
TEXT
  8
0
  6
CONTINUOUS
 62
     2
 10
25.301964399
 20
105.25
 30
0.3
 40
3.0
  1
零位調整器
 50
0.0
 41
0.9
 51
0.0
  7
KANJI5
  0
LINE
  8
0
  6
CONTINUOUS
 62
     2
 10
45.414395892
 20
113.25
 30
0.0
 11
40.301964399
 21
104.25
 31
0.0
  0
LINE
  8
0
  6
CONTINUOUS
 62
     2
 10
40.301964399
 20
104.25
 30
0.0
 11
24.301964399
 21
104.25
 31
0.0
  0
LINE
  8
0
  6
CONTINUOUS
 62
     2
 10
28.35
 20
139.25
 30
0.0
 11
28.980116473
 21
141.669287753
 31
0.0
  0
LINE
  8
0
  6
CONTINUOUS
 62
     2
 10
28.35
 20
139.25
 30
0.0
 11
30.105340749
 21
141.030106416
 31
0.0
  0
LINE
  8
0
  6
CONTINUOUS
 62
     2
 10
40.563030788
 20
160.75
 30
0.0
 11
46.263030788
 21
160.75
 31
0.0
  0
TEXT
  8
0
  6
CONTINUOUS
 62
     2
 10
40.563030788
 20
161.75
 30
0.3
 40
3.0
  1
指針
 50
0.0
 41
0.9
 51
0.0
  7
KANJI5
  0
LINE
  8
0
  6
CONTINUOUS
 62
     2
 10
28.35
 20
139.25
 30
0.0
 11
40.563030788
 21
160.75
 31
0.0
  0
LINE
  8
0
  6
CONTINUOUS
 62
     2
 10
64.0
 20
39.5
 30
0.0
 11
64.630116473
 21
37.080712247
 31
0.0
  0
LINE
  8
0
  6
CONTINUOUS
 62
     2
 10
64.0
 20
39.5
 30
0.0
 11
65.755340749
 21
37.719893584
 31
0.0
  0
TEXT
  8
0
  6
CONTINUOUS
 62
     2
 10
69.396455464
 20
31.0
 30
0.3
 40
3.0
  1
４－φ４
 50
0.0
 41
0.6
 51
0.0
  7
KANJI1
  0
TEXT
  8
0
  6
CONTINUOUS
 62
     2
 10
78.166455464
 20
30.65
 30
0.18
 40
1.8
  1
－０
 50
0.0
 41
0.6
 51
0.0
  7
KANJI2
  0
TEXT
  8
0
  6
CONTINUOUS
 62
     2
 10
78.166455464
 20
32.45
 30
0.18
 40
1.8
  1
＋０．５
 50
0.0
 41
0.6
 51
0.0
  7
KANJI2
  0
LINE
  8
0
  6
CONTINUOUS
 62
     2
 10
69.396455464
 20
30.0
 30
0.0
 11
83.496455464
 21
30.0
 31
0.0
  0
LINE
  8
0
  6
CONTINUOUS
 62
     2
 10
64.0
 20
39.5
 30
0.0
 11
69.396455464
 21
30.0
 31
0.0
  0
TEXT
  8
0
  6
CONTINUOUS
 62
     1
 10
118.726742884
 20
71.505565971
 30
0.4
 40
4.0
  1
ＡＣＦ－１０（電圧計）
 50
0.0
 41
0.9
 51
0.0
  7
KANJI6
  0
TEXT
  8
0
  6
CONTINUOUS
 62
     1
 10
130.560486733
 20
57.631093116
 30
0.4
 40
4.0
  1
パネル用計器外形図
 50
0.0
 41
0.9
 51
0.0
  7
KANJI6
  0
TEXT
  8
0
  6
CONTINUOUS
 62
     2
 10
130.5
 20
62.5
 30
0.3
 40
3.0
  1
端子キャップ付（オプション）
 50
0.0
 41
0.9
 51
0.0
  7
KANJI5
  0
TEXT
  8
0
  6
CONTINUOUS
 62
     3
 10
130.5
 20
31.0
 30
0.6
 40
6.0
  1
ＭＳ－６８７８Ｂ
 50
0.0
 41
0.9
 51
0.0
  7
KANJI7
  0
LINE
  8
0
  6
LTYPE2
 62
     2
 10
74.6
 20
130.0
 30
0.0
 11
17.8
 21
130.0
 31
0.0
  0
LINE
  8
0
  6
LTYPE2
 62
     2
 10
47.0
 20
154.3
 30
0.0
 11
47.0
 21
106.2
 31
0.0
  0
LINE
  8
0
  6
LTYPE2
 62
     2
 10
47.0
 20
75.0
 30
0.0
 11
47.0
 21
34.7
 31
0.0
  0
LINE
  8
0
  6
LTYPE2
 62
     2
 10
26.8
 20
56.5
 30
0.0
 11
65.5
 21
56.5
 31
0.0
  0
ARC
  8
0
  6
CONTINUOUS
 62
     1
 10
206.7
 20
110.75
 30
0.0
 40
1.5
 50
270.0
 51
0.0
  0
LINE
  8
0
  6
CONTINUOUS
 62
     1
 10
208.2
 20
149.25
 30
0.0
 11
208.2
 21
110.75
 31
0.0
  0
ARC
  8
0
  6
CONTINUOUS
 62
     1
 10
206.7
 20
149.25
 30
0.0
 40
1.5
 50
0.0
 51
90.0
  0
LINE
  8
0
  6
CONTINUOUS
 62
     1
 10
159.7
 20
150.75
 30
0.0
 11
206.7
 21
150.75
 31
0.0
  0
ARC
  8
0
  6
CONTINUOUS
 62
     1
 10
159.7
 20
149.25
 30
0.0
 40
1.5
 50
90.0
 51
180.0
  0
LINE
  8
0
  6
CONTINUOUS
 62
     1
 10
206.7
 20
109.25
 30
0.0
 11
159.7
 21
109.25
 31
0.0
  0
LINE
  8
0
  6
CONTINUOUS
 62
     1
 10
158.2
 20
110.75
 30
0.0
 11
158.2
 21
149.25
 31
0.0
  0
ARC
  8
0
  6
CONTINUOUS
 62
     1
 10
159.7
 20
110.75
 30
0.0
 40
1.5
 50
180.0
 51
270.0
  0
CIRCLE
  8
0
  6
CONTINUOUS
 62
     1
 10
183.2
 20
128.0
 30
0.0
 40
16.25
  0
LINE
  8
0
  6
CONTINUOUS
 62
     1
 10
95.5
 20
150.75
 30
0.0
 11
95.5
 21
109.25
 31
0.0
  0
LINE
  8
0
  6
CONTINUOUS
 62
     1
 10
110.25
 20
111.75
 30
0.0
 11
100.75
 21
111.75
 31
0.0
  0
ARC
  8
0
  6
CONTINUOUS
 62
     1
 10
110.25
 20
112.25
 30
0.0
 40
0.5
 50
270.0
 51
0.0
  0
LINE
  8
0
  6
CONTINUOUS
 62
     1
 10
110.25
 20
144.25
 30
0.0
 11
100.7375
 21
144.25
 31
0.0
  0
LINE
  8
0
  6
CONTINUOUS
 62
     1
 10
110.75
 20
143.75
 30
0.0
 11
110.75
 21
112.25
 31
0.0
  0
ARC
  8
0
  6
CONTINUOUS
 62
     1
 10
110.25
 20
143.75
 30
0.0
 40
0.5
 50
0.0
 51
90.0
  0
ARC
  8
0
  6
CONTINUOUS
 62
     1
 10
90.25
 20
149.326436456
 30
0.0
 40
0.5
 50
99.462322208
 51
180.0
  0
LINE
  8
0
  6
CONTINUOUS
 62
     1
 10
90.167800506
 20
149.819633418
 30
0.0
 11
95.5
 21
150.75
 31
0.0
  0
ARC
  8
0
  6
CONTINUOUS
 62
     1
 10
90.25
 20
110.671782451
 30
0.0
 40
0.5
 50
180.0
 51
260.299608056
  0
LINE
  8
0
  6
CONTINUOUS
 62
     1
 10
89.75
 20
110.671782451
 30
0.0
 11
89.75
 21
149.326436456
 31
0.0
  0
LINE
  8
0
  6
CONTINUOUS
 62
     1
 10
90.165751939
 20
110.178931293
 30
0.0
 11
95.5
 21
109.25
 31
0.0
  0
LINE
  8
0
  6
CONTINUOUS
 62
     1
 10
110.75
 20
134.5
 30
0.0
 11
110.75
 21
118.0
 31
0.0
  0
LINE
  8
0
  6
CONTINUOUS
 62
     1
 10
110.75
 20
118.0
 30
0.0
 11
122.75
 21
118.0
 31
0.0
  0
ARC
  8
0
  6
CONTINUOUS
 62
     1
 10
122.75
 20
120.5
 30
0.0
 40
2.5
 50
270.0
 51
0.0
  0
ARC
  8
0
  6
CONTINUOUS
 62
     1
 10
122.75
 20
132.0
 30
0.0
 40
2.5
 50
359.999996922
 51
90.0
  0
LINE
  8
0
  6
CONTINUOUS
 62
     1
 10
125.25
 20
120.5
 30
0.0
 11
125.25
 21
132.0
 31
0.0
  0
LINE
  8
0
  6
CONTINUOUS
 62
     1
 10
122.75
 20
134.5
 30
0.0
 11
110.75
 21
134.5
 31
0.0
  0
ARC
  8
0
  6
CONTINUOUS
 62
     1
 10
175.605683123
 20
123.0
 30
0.0
 40
5.0
 50
197.848014954
 51
270.0
  0
ARC
  8
0
  6
CONTINUOUS
 62
     1
 10
190.794316877
 20
123.0
 30
0.0
 40
5.0
 50
270.0
 51
342.151985046
  0
LINE
  8
0
  6
CONTINUOUS
 62
     1
 10
190.794316877
 20
118.0
 30
0.0
 11
175.605683123
 21
118.0
 31
0.0
  0
ARC
  8
0
  6
CONTINUOUS
 62
     1
 10
183.2
 20
125.5
 30
0.0
 40
13.0
 50
144.831423961
 51
198.07733135
  0
ARC
  8
0
  6
CONTINUOUS
 62
     1
 10
175.455683123
 20
131.0
 30
0.0
 40
3.5
 50
90.0
 51
145.407711312
  0
ARC
  8
0
  6
CONTINUOUS
 62
     1
 10
190.944316877
 20
131.0
 30
0.0
 40
3.5
 50
34.592288688
 51
90.0
  0
ARC
  8
0
  6
CONTINUOUS
 62
     1
 10
183.2
 20
125.5
 30
0.0
 40
13.0
 50
341.92237879
 51
35.169586111
  0
LINE
  8
0
  6
CONTINUOUS
 62
     1
 10
190.944316877
 20
134.5
 30
0.0
 11
175.455683123
 21
134.5
 31
0.0
  0
LINE
  8
0
  6
CONTINUOUS
 62
     1
 10
177.2
 20
118.0
 30
0.0
 11
177.2
 21
119.0
 31
0.0
  0
LINE
  8
0
  6
CONTINUOUS
 62
     1
 10
177.2
 20
119.0
 30
0.0
 11
179.2
 21
119.0
 31
0.0
  0
LINE
  8
0
  6
CONTINUOUS
 62
     1
 10
179.2
 20
119.0
 30
0.0
 11
179.2
 21
118.0
 31
0.0
  0
LINE
  8
0
  6
CONTINUOUS
 62
     1
 10
182.2
 20
118.0
 30
0.0
 11
182.2
 21
119.0
 31
0.0
  0
LINE
  8
0
  6
CONTINUOUS
 62
     1
 10
182.2
 20
119.0
 30
0.0
 11
182.15
 21
119.0
 31
0.0
  0
LINE
  8
0
  6
CONTINUOUS
 62
     1
 10
182.15
 20
119.0
 30
0.0
 11
184.15
 21
119.0
 31
0.0
  0
LINE
  8
0
  6
CONTINUOUS
 62
     1
 10
184.15
 20
119.0
 30
0.0
 11
184.15
 21
118.0
 31
0.0
  0
LINE
  8
0
  6
CONTINUOUS
 62
     1
 10
187.2125
 20
118.0
 30
0.0
 11
187.2125
 21
119.0
 31
0.0
  0
LINE
  8
0
  6
CONTINUOUS
 62
     1
 10
187.2125
 20
119.0
 30
0.0
 11
189.2125
 21
119.0
 31
0.0
  0
LINE
  8
0
  6
CONTINUOUS
 62
     1
 10
189.2125
 20
119.0
 30
0.0
 11
189.2125
 21
118.0
 31
0.0
  0
LINE
  8
0
  6
CONTINUOUS
 62
     1
 10
189.2125
 20
134.5
 30
0.0
 11
189.2125
 21
133.5
 31
0.0
  0
LINE
  8
0
  6
CONTINUOUS
 62
     1
 10
189.2125
 20
133.5
 30
0.0
 11
187.2125
 21
133.5
 31
0.0
  0
LINE
  8
0
  6
CONTINUOUS
 62
     1
 10
187.2125
 20
133.5
 30
0.0
 11
187.2125
 21
134.5
 31
0.0
  0
LINE
  8
0
  6
CONTINUOUS
 62
     1
 10
184.2
 20
134.5
 30
0.0
 11
184.2
 21
133.5
 31
0.0
  0
LINE
  8
0
  6
CONTINUOUS
 62
     1
 10
184.2
 20
133.5
 30
0.0
 11
182.2
 21
133.5
 31
0.0
  0
LINE
  8
0
  6
CONTINUOUS
 62
     1
 10
182.2
 20
133.5
 30
0.0
 11
182.2
 21
134.5
 31
0.0
  0
LINE
  8
0
  6
CONTINUOUS
 62
     1
 10
179.2
 20
134.5
 30
0.0
 11
179.2
 21
133.5
 31
0.0
  0
LINE
  8
0
  6
CONTINUOUS
 62
     1
 10
179.2
 20
133.5
 30
0.0
 11
177.2
 21
133.5
 31
0.0
  0
LINE
  8
0
  6
CONTINUOUS
 62
     1
 10
177.2
 20
133.5
 30
0.0
 11
177.2
 21
134.5
 31
0.0
  0
ARC
  8
0
  6
CONTINUOUS
 62
     2
 10
206.7
 20
110.75
 30
0.0
 40
0.5
 50
270.0
 51
0.0
  0
ARC
  8
0
  6
CONTINUOUS
 62
     2
 10
206.7
 20
149.25
 30
0.0
 40
0.5
 50
0.0
 51
90.0
  0
LINE
  8
0
  6
CONTINUOUS
 62
     2
 10
207.2
 20
110.75
 30
0.0
 11
207.2
 21
149.25
 31
0.0
  0
ARC
  8
0
  6
CONTINUOUS
 62
     2
 10
159.7
 20
149.25
 30
0.0
 40
0.5
 50
90.0
 51
180.0
  0
LINE
  8
0
  6
CONTINUOUS
 62
     2
 10
206.7
 20
149.75
 30
0.0
 11
159.7
 21
149.75
 31
0.0
  0
ARC
  8
0
  6
CONTINUOUS
 62
     2
 10
159.7
 20
110.75
 30
0.0
 40
0.5
 50
180.0
 51
270.0
  0
LINE
  8
0
  6
CONTINUOUS
 62
     2
 10
159.7
 20
110.25
 30
0.0
 11
206.7
 21
110.25
 31
0.0
  0
LINE
  8
0
  6
CONTINUOUS
 62
     2
 10
159.2
 20
149.25
 30
0.0
 11
159.2
 21
110.75
 31
0.0
  0
CIRCLE
  8
0
  6
CONTINUOUS
 62
     2
 10
167.2
 20
144.0
 30
0.0
 40
2.0
  0
CIRCLE
  8
0
  6
CONTINUOUS
 62
     2
 10
167.2
 20
144.0
 30
0.0
 40
0.75
  0
LINE
  8
0
  6
CONTINUOUS
 62
     2
 10
167.2
 20
145.6
 30
0.0
 11
165.814359354
 21
144.8
 31
0.0
  0
LINE
  8
0
  6
CONTINUOUS
 62
     2
 10
165.814359354
 20
144.8
 30
0.0
 11
165.814359354
 21
143.2
 31
0.0
  0
LINE
  8
0
  6
CONTINUOUS
 62
     2
 10
165.814359354
 20
143.2
 30
0.0
 11
167.2
 21
142.4
 31
0.0
  0
LINE
  8
0
  6
CONTINUOUS
 62
     2
 10
167.2
 20
142.4
 30
0.0
 11
168.585640646
 21
143.2
 31
0.0
  0
LINE
  8
0
  6
CONTINUOUS
 62
     2
 10
168.585640646
 20
143.2
 30
0.0
 11
168.585640646
 21
144.8
 31
0.0
  0
LINE
  8
0
  6
CONTINUOUS
 62
     2
 10
168.585640646
 20
144.8
 30
0.0
 11
167.2
 21
145.6
 31
0.0
  0
LINE
  8
0
  6
CONTINUOUS
 62
     2
 10
89.75
 20
149.0
 30
0.0
 11
89.5
 21
149.0
 31
0.0
  0
LINE
  8
0
  6
CONTINUOUS
 62
     2
 10
89.5
 20
149.0
 30
0.0
 11
89.5
 21
124.25
 31
0.0
  0
LINE
  8
0
  6
CONTINUOUS
 62
     2
 10
89.5
 20
124.25
 30
0.0
 11
89.75
 21
124.25
 31
0.0
  0
POINT
  8
0
  6
CONTINUOUS
 62
     2
 10
178.2
 20
124.6
 30
0.0
  0
ARC
  8
0
  6
LTYPE4
 62
     2
 10
176.45
 20
128.5
 30
0.0
 40
3.0
 50
90.0
 51
180.0
  0
LINE
  8
0
  6
LTYPE4
 62
     2
 10
173.45
 20
123.0
 30
0.0
 11
173.45
 21
128.5
 31
0.0
  0
LINE
  8
0
  6
LTYPE4
 62
     2
 10
189.95
 20
120.0
 30
0.0
 11
176.45
 21
120.0
 31
0.0
  0
ARC
  8
0
  6
LTYPE4
 62
     2
 10
176.45
 20
123.0
 30
0.0
 40
3.0
 50
180.0
 51
270.0
  0
LINE
  8
0
  6
LTYPE4
 62
     2
 10
176.475
 20
131.5
 30
0.0
 11
189.95
 21
131.5
 31
0.0
  0
ARC
  8
0
  6
LTYPE4
 62
     2
 10
189.95
 20
128.5
 30
0.0
 40
3.0
 50
0.0
 51
90.0
  0
ARC
  8
0
  6
LTYPE4
 62
     2
 10
189.95
 20
123.0
 30
0.0
 40
3.0
 50
270.0
 51
0.0
  0
LINE
  8
0
  6
LTYPE4
 62
     2
 10
192.95
 20
128.5
 30
0.0
 11
192.95
 21
123.0
 31
0.0
  0
LINE
  8
0
  6
LTYPE4
 62
     2
 10
178.2
 20
124.6
 30
0.0
 11
175.7
 21
124.6
 31
0.0
  0
LINE
  8
0
  6
LTYPE4
 62
     2
 10
175.7
 20
124.6
 30
0.0
 11
175.7
 21
121.6
 31
0.0
  0
LINE
  8
0
  6
LTYPE4
 62
     2
 10
178.2
 20
124.6
 30
0.0
 11
178.2
 21
121.6
 31
0.0
  0
POINT
  8
0
  6
LTYPE4
 62
     2
 10
190.7
 20
124.6
 30
0.0
  0
LINE
  8
0
  6
LTYPE4
 62
     2
 10
190.7
 20
124.6
 30
0.0
 11
188.2
 21
124.6
 31
0.0
  0
LINE
  8
0
  6
LTYPE4
 62
     2
 10
190.7
 20
124.6
 30
0.0
 11
190.7
 21
121.6
 31
0.0
  0
LINE
  8
0
  6
LTYPE4
 62
     2
 10
188.2
 20
124.6
 30
0.0
 11
188.2
 21
121.6
 31
0.0
  0
LINE
  8
0
  6
CONTINUOUS
 62
     2
 10
105.75
 20
144.25
 30
0.0
 11
105.102952387
 21
141.835185434
 31
0.0
  0
LINE
  8
0
  6
CONTINUOUS
 62
     2
 10
105.75
 20
144.25
 30
0.0
 11
106.397047613
 21
141.835185434
 31
0.0
  0
LINE
  8
0
  6
CONTINUOUS
 62
     2
 10
105.75
 20
144.25
 30
0.0
 11
105.75
 21
111.75
 31
0.0
  0
LINE
  8
0
  6
CONTINUOUS
 62
     2
 10
105.75
 20
111.75
 30
0.0
 11
106.397047613
 21
114.164814566
 31
0.0
  0
LINE
  8
0
  6
CONTINUOUS
 62
     2
 10
105.75
 20
111.75
 30
0.0
 11
105.102952387
 21
114.164814566
 31
0.0
  0
LINE
  8
0
  6
CONTINUOUS
 62
     2
 10
213.2
 20
112.0
 30
0.0
 11
213.847047613
 21
114.414814566
 31
0.0
  0
LINE
  8
0
  6
CONTINUOUS
 62
     2
 10
213.2
 20
112.0
 30
0.0
 11
212.552952387
 21
114.414814566
 31
0.0
  0
LINE
  8
0
  6
CONTINUOUS
 62
     2
 10
213.2
 20
112.0
 30
0.0
 11
213.2
 21
128.0
 31
0.0
  0
LINE
  8
0
  6
CONTINUOUS
 62
     2
 10
213.2
 20
128.0
 30
0.0
 11
212.552952387
 21
125.585185434
 31
0.0
  0
LINE
  8
0
  6
CONTINUOUS
 62
     2
 10
213.2
 20
128.0
 30
0.0
 11
213.847047613
 21
125.585185434
 31
0.0
  0
TEXT
  8
0
  6
CONTINUOUS
 62
     2
 10
212.2
 20
115.62
 30
0.3
 40
3.0
  1
３２
 50
90.0
 41
0.6
 51
0.0
  7
KANJI1
  0
TEXT
  8
0
  6
CONTINUOUS
 62
     2
 10
212.2
 20
119.52
 30
0.18
 40
1.8
  1
±０．５
 50
90.0
 41
0.6
 51
0.0
  7
KANJI2
  0
LINE
  8
0
  6
CONTINUOUS
 62
     2
 10
213.2
 20
128.0
 30
0.0
 11
213.847047613
 21
130.414814566
 31
0.0
  0
LINE
  8
0
  6
CONTINUOUS
 62
     2
 10
213.2
 20
128.0
 30
0.0
 11
212.552952387
 21
130.414814566
 31
0.0
  0
LINE
  8
0
  6
CONTINUOUS
 62
     2
 10
213.2
 20
128.0
 30
0.0
 11
213.2
 21
144.0
 31
0.0
  0
LINE
  8
0
  6
CONTINUOUS
 62
     2
 10
213.2
 20
144.0
 30
0.0
 11
212.552952387
 21
141.585185434
 31
0.0
  0
LINE
  8
0
  6
CONTINUOUS
 62
     2
 10
213.2
 20
144.0
 30
0.0
 11
213.847047613
 21
141.585185434
 31
0.0
  0
TEXT
  8
0
  6
CONTINUOUS
 62
     2
 10
212.2
 20
131.62
 30
0.3
 40
3.0
  1
３２
 50
90.0
 41
0.6
 51
0.0
  7
KANJI1
  0
TEXT
  8
0
  6
CONTINUOUS
 62
     2
 10
212.2
 20
135.52
 30
0.18
 40
1.8
  1
±０．５
 50
90.0
 41
0.6
 51
0.0
  7
KANJI2
  0
CIRCLE
  8
0
  6
CONTINUOUS
 62
     2
 10
167.2
 20
112.0
 30
0.0
 40
2.0
  0
CIRCLE
  8
0
  6
CONTINUOUS
 62
     2
 10
167.2
 20
112.0
 30
0.0
 40
0.75
  0
LINE
  8
0
  6
CONTINUOUS
 62
     2
 10
167.2
 20
113.6
 30
0.0
 11
165.814359354
 21
112.8
 31
0.0
  0
LINE
  8
0
  6
CONTINUOUS
 62
     2
 10
165.814359354
 20
112.8
 30
0.0
 11
165.814359354
 21
111.2
 31
0.0
  0
LINE
  8
0
  6
CONTINUOUS
 62
     2
 10
165.814359354
 20
111.2
 30
0.0
 11
167.2
 21
110.4
 31
0.0
  0
LINE
  8
0
  6
CONTINUOUS
 62
     2
 10
167.2
 20
110.4
 30
0.0
 11
168.585640646
 21
111.2
 31
0.0
  0
LINE
  8
0
  6
CONTINUOUS
 62
     2
 10
168.585640646
 20
111.2
 30
0.0
 11
168.585640646
 21
112.8
 31
0.0
  0
LINE
  8
0
  6
CONTINUOUS
 62
     2
 10
168.585640646
 20
112.8
 30
0.0
 11
167.2
 21
113.6
 31
0.0
  0
CIRCLE
  8
0
  6
CONTINUOUS
 62
     2
 10
199.2
 20
112.0
 30
0.0
 40
2.0
  0
CIRCLE
  8
0
  6
CONTINUOUS
 62
     2
 10
199.2
 20
112.0
 30
0.0
 40
0.75
  0
LINE
  8
0
  6
CONTINUOUS
 62
     2
 10
199.2
 20
113.6
 30
0.0
 11
197.814359354
 21
112.8
 31
0.0
  0
LINE
  8
0
  6
CONTINUOUS
 62
     2
 10
197.814359354
 20
112.8
 30
0.0
 11
197.814359354
 21
111.2
 31
0.0
  0
LINE
  8
0
  6
CONTINUOUS
 62
     2
 10
197.814359354
 20
111.2
 30
0.0
 11
199.2
 21
110.4
 31
0.0
  0
LINE
  8
0
  6
CONTINUOUS
 62
     2
 10
199.2
 20
110.4
 30
0.0
 11
200.585640646
 21
111.2
 31
0.0
  0
LINE
  8
0
  6
CONTINUOUS
 62
     2
 10
200.585640646
 20
111.2
 30
0.0
 11
200.585640646
 21
112.8
 31
0.0
  0
LINE
  8
0
  6
CONTINUOUS
 62
     2
 10
200.585640646
 20
112.8
 30
0.0
 11
199.2
 21
113.6
 31
0.0
  0
CIRCLE
  8
0
  6
CONTINUOUS
 62
     2
 10
199.2
 20
144.0
 30
0.0
 40
2.0
  0
CIRCLE
  8
0
  6
CONTINUOUS
 62
     2
 10
199.2
 20
144.0
 30
0.0
 40
0.75
  0
LINE
  8
0
  6
CONTINUOUS
 62
     2
 10
199.2
 20
145.6
 30
0.0
 11
197.814359354
 21
144.8
 31
0.0
  0
LINE
  8
0
  6
CONTINUOUS
 62
     2
 10
197.814359354
 20
144.8
 30
0.0
 11
197.814359354
 21
143.2
 31
0.0
  0
LINE
  8
0
  6
CONTINUOUS
 62
     2
 10
197.814359354
 20
143.2
 30
0.0
 11
199.2
 21
142.4
 31
0.0
  0
LINE
  8
0
  6
CONTINUOUS
 62
     2
 10
199.2
 20
142.4
 30
0.0
 11
200.585640646
 21
143.2
 31
0.0
  0
LINE
  8
0
  6
CONTINUOUS
 62
     2
 10
200.585640646
 20
143.2
 30
0.0
 11
200.585640646
 21
144.8
 31
0.0
  0
LINE
  8
0
  6
CONTINUOUS
 62
     2
 10
200.585640646
 20
144.8
 30
0.0
 11
199.2
 21
145.6
 31
0.0
  0
LINE
  8
0
  6
CONTINUOUS
 62
     2
 10
153.2
 20
130.0
 30
0.0
 11
153.847047613
 21
132.414814566
 31
0.0
  0
LINE
  8
0
  6
CONTINUOUS
 62
     2
 10
153.2
 20
130.0
 30
0.0
 11
152.552952387
 21
132.414814566
 31
0.0
  0
LINE
  8
0
  6
CONTINUOUS
 62
     2
 10
153.2
 20
137.0
 30
0.0
 11
153.2
 21
123.0
 31
0.0
  0
LINE
  8
0
  6
CONTINUOUS
 62
     2
 10
153.2
 20
128.0
 30
0.0
 11
152.552952387
 21
125.585185434
 31
0.0
  0
LINE
  8
0
  6
CONTINUOUS
 62
     2
 10
153.2
 20
128.0
 30
0.0
 11
153.847047613
 21
125.585185434
 31
0.0
  0
TEXT
  8
0
  6
CONTINUOUS
 62
     2
 10
152.2
 20
135.0
 30
0.5
 40
3.0
  1
４
 50
90.0
 41
0.666666667
 51
0.0
  7
KANJI4
  0
LINE
  8
0
  6
CONTINUOUS
 62
     2
 10
183.2
 20
155.75
 30
0.0
 11
180.785185434
 21
156.397047613
 31
0.0
  0
LINE
  8
0
  6
CONTINUOUS
 62
     2
 10
183.2
 20
155.75
 30
0.0
 11
180.785185434
 21
155.102952387
 31
0.0
  0
LINE
  8
0
  6
CONTINUOUS
 62
     2
 10
183.2
 20
155.75
 30
0.0
 11
167.2
 21
155.75
 31
0.0
  0
LINE
  8
0
  6
CONTINUOUS
 62
     2
 10
167.2
 20
155.75
 30
0.0
 11
169.614814566
 21
155.102952387
 31
0.0
  0
LINE
  8
0
  6
CONTINUOUS
 62
     2
 10
167.2
 20
155.75
 30
0.0
 11
169.614814566
 21
156.397047613
 31
0.0
  0
TEXT
  8
0
  6
CONTINUOUS
 62
     2
 10
174.6
 20
156.75
 30
0.3
 40
1.8
  1
±０．５
 50
0.0
 41
0.666666667
 51
0.0
  7
KANJI3
  0
LINE
  8
0
  6
CONTINUOUS
 62
     2
 10
183.2
 20
155.75
 30
0.0
 11
185.614814566
 21
155.102952387
 31
0.0
  0
LINE
  8
0
  6
CONTINUOUS
 62
     2
 10
183.2
 20
155.75
 30
0.0
 11
185.614814566
 21
156.397047613
 31
0.0
  0
LINE
  8
0
  6
CONTINUOUS
 62
     2
 10
183.2
 20
155.75
 30
0.0
 11
199.2
 21
155.75
 31
0.0
  0
LINE
  8
0
  6
CONTINUOUS
 62
     2
 10
199.2
 20
155.75
 30
0.0
 11
196.785185434
 21
156.397047613
 31
0.0
  0
LINE
  8
0
  6
CONTINUOUS
 62
     2
 10
199.2
 20
155.75
 30
0.0
 11
196.785185434
 21
155.102952387
 31
0.0
  0
TEXT
  8
0
  6
CONTINUOUS
 62
     2
 10
190.6
 20
156.75
 30
0.3
 40
1.8
  1
±０．５
 50
0.0
 41
0.666666667
 51
0.0
  7
KANJI3
  0
TEXT
  8
0
  6
CONTINUOUS
 62
     2
 10
186.1
 20
156.75
 30
0.5
 40
3.0
  1
３２
 50
0.0
 41
0.666666667
 51
0.0
  7
KANJI4
  0
TEXT
  8
0
  6
CONTINUOUS
 62
     2
 10
170.1
 20
156.75
 30
0.5
 40
3.0
  1
３２
 50
0.0
 41
0.666666667
 51
0.0
  7
KANJI4
  0
LINE
  8
0
  6
CONTINUOUS
 62
     2
 10
158.2
 20
150.25
 30
0.0
 11
158.2
 21
162.75
 31
0.0
  0
LINE
  8
0
  6
CONTINUOUS
 62
     2
 10
158.2
 20
160.75
 30
0.0
 11
160.614814566
 21
160.102952387
 31
0.0
  0
LINE
  8
0
  6
CONTINUOUS
 62
     2
 10
158.2
 20
160.75
 30
0.0
 11
160.614814566
 21
161.397047613
 31
0.0
  0
LINE
  8
0
  6
CONTINUOUS
 62
     2
 10
158.2
 20
160.75
 30
0.0
 11
208.2
 21
160.75
 31
0.0
  0
LINE
  8
0
  6
CONTINUOUS
 62
     2
 10
208.2
 20
160.75
 30
0.0
 11
205.785185434
 21
161.397047613
 31
0.0
  0
LINE
  8
0
  6
CONTINUOUS
 62
     2
 10
208.2
 20
160.75
 30
0.0
 11
205.785185434
 21
160.102952387
 31
0.0
  0
LINE
  8
0
  6
CONTINUOUS
 62
     2
 10
208.2
 20
150.25
 30
0.0
 11
208.2
 21
162.75
 31
0.0
  0
TEXT
  8
0
  6
CONTINUOUS
 62
     2
 10
178.4
 20
161.75
 30
0.5
 40
3.0
  1
１００
 50
0.0
 41
0.666666667
 51
0.0
  7
KANJI4
  0
TEXT
  8
0
  6
CONTINUOUS
 62
     2
 10
185.3
 20
161.75
 30
0.3
 40
1.8
  1
±１
 50
0.0
 41
0.666666667
 51
0.0
  7
KANJI3
  0
LINE
  8
0
  6
CONTINUOUS
 62
     2
 10
95.75
 20
154.275
 30
0.0
 11
95.75
 21
157.75
 31
0.0
  0
LINE
  8
0
  6
CONTINUOUS
 62
     2
 10
95.5
 20
155.75
 30
0.0
 11
93.085185434
 21
156.397047613
 31
0.0
  0
LINE
  8
0
  6
CONTINUOUS
 62
     2
 10
95.5
 20
155.75
 30
0.0
 11
93.085185434
 21
155.102952387
 31
0.0
  0
LINE
  8
0
  6
CONTINUOUS
 62
     2
 10
95.5
 20
155.75
 30
0.0
 11
91.45
 21
155.75
 31
0.0
  0
TEXT
  8
0
  6
CONTINUOUS
 62
     2
 10
90.475
 20
156.75
 30
0.3
 40
3.0
  1
０．５　
 50
0.0
 41
0.3
 51
0.0
  7
KANJI8
  0
TEXT
  8
0
  6
CONTINUOUS
 62
     2
 10
97.35
 20
156.75
 30
0.3
 40
3.0
  1
１０
 50
0.0
 41
0.3
 51
0.0
  7
KANJI8
  0
LINE
  8
0
  6
CONTINUOUS
 62
     2
 10
95.75
 20
155.75
 30
0.0
 11
97.574524064
 21
155.26112025
 31
0.0
  0
LINE
  8
0
  6
CONTINUOUS
 62
     2
 10
95.75
 20
155.75
 30
0.0
 11
97.594524064
 21
156.244238733
 31
0.0
  0
LINE
  8
0
  6
CONTINUOUS
 62
     2
 10
100.75
 20
155.75
 30
0.0
 11
98.964524064
 21
156.228416835
 31
0.0
  0
LINE
  8
0
  6
CONTINUOUS
 62
     2
 10
100.75
 20
155.75
 30
0.0
 11
98.964524064
 21
155.271583165
 31
0.0
  0
LINE
  8
0
  6
CONTINUOUS
 62
     2
 10
95.75
 20
160.75
 30
0.0
 11
110.75
 21
160.75
 31
0.0
  0
LINE
  8
0
  6
CONTINUOUS
 62
     2
 10
110.75
 20
160.75
 30
0.0
 11
108.335185434
 21
161.397047613
 31
0.0
  0
LINE
  8
0
  6
CONTINUOUS
 62
     2
 10
110.75
 20
160.75
 30
0.0
 11
108.335185434
 21
160.102952387
 31
0.0
  0
TEXT
  8
0
  6
CONTINUOUS
 62
     2
 10
101.3
 20
161.75
 30
0.3
 40
3.0
  1
３０
 50
0.0
 41
0.6
 51
0.0
  7
KANJI1
  0
LINE
  8
0
  6
CONTINUOUS
 62
     2
 10
95.75
 20
160.75
 30
0.0
 11
98.164814566
 21
160.102952387
 31
0.0
  0
LINE
  8
0
  6
CONTINUOUS
 62
     2
 10
95.75
 20
160.75
 30
0.0
 11
98.164814566
 21
161.397047613
 31
0.0
  0
LINE
  8
0
  6
CONTINUOUS
 62
     2
 10
110.75
 20
160.75
 30
0.0
 11
108.335185434
 21
160.102952387
 31
0.0
  0
LINE
  8
0
  6
CONTINUOUS
 62
     2
 10
110.75
 20
160.75
 30
0.0
 11
108.335185434
 21
161.397047613
 31
0.0
  0
LINE
  8
0
  6
CONTINUOUS
 62
     2
 10
110.75
 20
160.75
 30
0.0
 11
113.164814566
 21
160.102952387
 31
0.0
  0
LINE
  8
0
  6
CONTINUOUS
 62
     2
 10
110.75
 20
160.75
 30
0.0
 11
113.164814566
 21
161.397047613
 31
0.0
  0
LINE
  8
0
  6
CONTINUOUS
 62
     2
 10
110.75
 20
144.75
 30
0.0
 11
110.75
 21
162.75
 31
0.0
  0
LINE
  8
0
  6
CONTINUOUS
 62
     2
 10
100.75
 20
145.825
 30
0.0
 11
100.75
 21
157.75
 31
0.0
  0
LINE
  8
0
  6
CONTINUOUS
 62
     2
 10
95.5
 20
157.75
 30
0.0
 11
95.5
 21
151.75
 31
0.0
  0
LINE
  8
0
  6
CONTINUOUS
 62
     2
 10
89.5
 20
160.75
 30
0.0
 11
91.914814566
 21
160.102952387
 31
0.0
  0
LINE
  8
0
  6
CONTINUOUS
 62
     2
 10
89.5
 20
160.75
 30
0.0
 11
91.914814566
 21
161.397047613
 31
0.0
  0
LINE
  8
0
  6
CONTINUOUS
 62
     2
 10
89.5
 20
160.75
 30
0.0
 11
95.75
 21
160.75
 31
0.0
  0
LINE
  8
0
  6
CONTINUOUS
 62
     2
 10
95.75
 20
160.75
 30
0.0
 11
93.335185434
 21
160.102952387
 31
0.0
  0
LINE
  8
0
  6
CONTINUOUS
 62
     2
 10
95.75
 20
160.75
 30
0.0
 11
93.335185434
 21
161.397047613
 31
0.0
  0
TEXT
  8
0
  6
CONTINUOUS
 62
     2
 10
90.225
 20
161.8
 30
0.3
 40
3.0
  1
１２．５
 50
0.0
 41
0.3
 51
0.0
  7
KANJI8
  0
LINE
  8
0
  6
CONTINUOUS
 62
     2
 10
95.75
 20
147.05
 30
0.0
 11
95.75
 21
162.75
 31
0.0
  0
LINE
  8
0
  6
CONTINUOUS
 62
     2
 10
89.5
 20
150.326436456
 30
0.0
 11
89.5
 21
162.75
 31
0.0
  0
LINE
  8
0
  6
LTYPE2
 62
     2
 10
94.7
 20
144.0
 30
0.0
 11
102.1
 21
144.0
 31
0.0
  0
LINE
  8
0
  6
LTYPE2
 62
     2
 10
94.7
 20
112.0
 30
0.0
 11
102.1
 21
112.0
 31
0.0
  0
LINE
  8
0
  6
LTYPE2
 62
     2
 10
164.2
 20
144.0
 30
0.0
 11
170.2
 21
144.0
 31
0.0
  0
LINE
  8
0
  6
LTYPE2
 62
     2
 10
167.2
 20
147.0
 30
0.0
 11
167.2
 21
141.0
 31
0.0
  0
LINE
  8
0
  6
LTYPE2
 62
     2
 10
196.2
 20
144.0
 30
0.0
 11
202.2
 21
144.0
 31
0.0
  0
LINE
  8
0
  6
LTYPE2
 62
     2
 10
199.2
 20
147.0
 30
0.0
 11
199.2
 21
141.0
 31
0.0
  0
LINE
  8
0
  6
LTYPE2
 62
     2
 10
196.2
 20
112.0
 30
0.0
 11
202.2
 21
112.0
 31
0.0
  0
LINE
  8
0
  6
LTYPE2
 62
     2
 10
199.2
 20
115.0
 30
0.0
 11
199.2
 21
109.0
 31
0.0
  0
LINE
  8
0
  6
LTYPE2
 62
     2
 10
164.2
 20
112.0
 30
0.0
 11
170.2
 21
112.0
 31
0.0
  0
LINE
  8
0
  6
LTYPE2
 62
     2
 10
167.2
 20
115.0
 30
0.0
 11
167.2
 21
109.0
 31
0.0
  0
LINE
  8
0
  6
LTYPE2
 62
     2
 10
176.95
 20
131.0
 30
0.0
 11
176.95
 21
125.0
 31
0.0
  0
LINE
  8
0
  6
LTYPE2
 62
     2
 10
189.45
 20
131.0
 30
0.0
 11
189.45
 21
125.0
 31
0.0
  0
LINE
  8
0
  6
CONTINUOUS
 62
     2
 10
218.7
 20
150.75
 30
0.0
 11
218.052952387
 21
148.335185434
 31
0.0
  0
LINE
  8
0
  6
CONTINUOUS
 62
     2
 10
218.7
 20
150.75
 30
0.0
 11
219.347047613
 21
148.335185434
 31
0.0
  0
LINE
  8
0
  6
CONTINUOUS
 62
     2
 10
218.7
 20
150.75
 30
0.0
 11
218.7
 21
109.25
 31
0.0
  0
LINE
  8
0
  6
CONTINUOUS
 62
     2
 10
218.7
 20
109.25
 30
0.0
 11
219.347047613
 21
111.664814566
 31
0.0
  0
LINE
  8
0
  6
CONTINUOUS
 62
     2
 10
218.7
 20
109.25
 30
0.0
 11
218.052952387
 21
111.664814566
 31
0.0
  0
TEXT
  8
0
  6
CONTINUOUS
 62
     2
 10
217.7
 20
124.9
 30
0.5
 40
3.0
  1
８３
 50
90.0
 41
0.666666667
 51
0.0
  7
KANJI4
  0
TEXT
  8
0
  6
CONTINUOUS
 62
     2
 10
217.7
 20
129.805
 30
0.18
 40
1.8
  1
±１
 50
90.0
 41
0.6
 51
0.0
  7
KANJI2
  0
LINE
  8
0
  6
CONTINUOUS
 62
     2
 10
207.7
 20
109.25
 30
0.0
 11
220.7
 21
109.25
 31
0.0
  0
LINE
  8
0
  6
CONTINUOUS
 62
     2
 10
207.7
 20
150.75
 30
0.0
 11
220.7
 21
150.75
 31
0.0
  0
LINE
  8
0
  6
CONTINUOUS
 62
     2
 10
167.2
 20
147.5
 30
0.0
 11
167.2
 21
157.75
 31
0.0
  0
LINE
  8
0
  6
CONTINUOUS
 62
     2
 10
199.2
 20
147.5
 30
0.0
 11
199.2
 21
157.75
 31
0.0
  0
LINE
  8
0
  6
LTYPE2
 62
     2
 10
183.2
 20
152.75
 30
0.0
 11
183.2
 21
102.5
 31
0.0
  0
LINE
  8
0
  6
CONTINUOUS
 62
     2
 10
183.2
 20
153.25
 30
0.0
 11
183.2
 21
157.75
 31
0.0
  0
LINE
  8
0
  6
CONTINUOUS
 62
     2
 10
202.7
 20
144.0
 30
0.0
 11
215.2
 21
144.0
 31
0.0
  0
LINE
  8
0
  6
CONTINUOUS
 62
     2
 10
202.7
 20
112.0
 30
0.0
 11
215.2
 21
112.0
 31
0.0
  0
LINE
  8
0
  6
LTYPE2
 62
     2
 10
151.2
 20
128.0
 30
0.0
 11
210.2
 21
128.0
 31
0.0
  0
LINE
  8
0
  6
CONTINUOUS
 62
     2
 10
99.10610823
 20
110.25
 30
0.0
 11
99.736224703
 21
107.830712247
 31
0.0
  0
LINE
  8
0
  6
CONTINUOUS
 62
     2
 10
99.10610823
 20
110.25
 30
0.0
 11
100.861448979
 21
108.469893584
 31
0.0
  0
TEXT
  8
0
  6
CONTINUOUS
 62
     2
 10
102.514395892
 20
105.25
 30
0.3
 40
3.0
  1
Ｍ３取付ボルト
 50
0.0
 41
0.9
 51
0.0
  7
KANJI5
  0
LINE
  8
0
  6
CONTINUOUS
 62
     2
 10
99.10610823
 20
110.25
 30
0.0
 11
102.514395892
 21
104.25
 31
0.0
  0
LINE
  8
0
  6
CONTINUOUS
 62
     2
 10
102.514395892
 20
104.25
 30
0.0
 11
123.114395892
 21
104.25
 31
0.0
  0
LINE
  8
0
  6
CONTINUOUS
 62
     2
 10
95.5
 20
145.95
 30
0.0
 11
95.75
 21
145.95
 31
0.0
  0
LINE
  8
0
  6
CONTINUOUS
 62
     2
 10
95.75
 20
141.95
 30
0.0
 11
95.5
 21
141.95
 31
0.0
  0
LINE
  8
0
  6
CONTINUOUS
 62
     2
 10
95.75
 20
145.95
 30
0.0
 11
95.75
 21
141.95
 31
0.0
  0
LINE
  8
0
  6
CONTINUOUS
 62
     2
 10
98.1
 20
145.525
 30
0.0
 11
98.3
 21
145.325
 31
0.0
  0
LINE
  8
0
  6
CONTINUOUS
 62
     2
 10
98.075
 20
144.7
 30
0.0
 11
98.275
 21
144.9
 31
0.0
  0
LINE
  8
0
  6
CONTINUOUS
 62
     2
 10
98.275
 20
144.5
 30
0.0
 11
98.075
 21
144.7
 31
0.0
  0
LINE
  8
0
  6
CONTINUOUS
 62
     2
 10
97.1
 20
145.525
 30
0.0
 11
98.1
 21
145.525
 31
0.0
  0
LINE
  8
0
  6
CONTINUOUS
 62
     2
 10
97.1
 20
144.7
 30
0.0
 11
98.075
 21
144.7
 31
0.0
  0
LINE
  8
0
  6
CONTINUOUS
 62
     2
 10
98.1
 20
142.425
 30
0.0
 11
98.3
 21
142.625
 31
0.0
  0
LINE
  8
0
  6
CONTINUOUS
 62
     2
 10
98.1
 20
142.425
 30
0.0
 11
97.1
 21
142.425
 31
0.0
  0
LINE
  8
0
  6
CONTINUOUS
 62
     2
 10
97.1
 20
142.425
 30
0.0
 11
97.1
 21
145.525
 31
0.0
  0
LINE
  8
0
  6
CONTINUOUS
 62
     2
 10
98.3
 20
145.325
 30
0.0
 11
98.3
 21
142.625
 31
0.0
  0
LINE
  8
0
  6
CONTINUOUS
 62
     2
 10
98.3
 20
144.725
 30
0.0
 11
100.75
 21
144.725
 31
0.0
  0
LINE
  8
0
  6
CONTINUOUS
 62
     2
 10
100.73
 20
144.55
 30
0.0
 11
98.3
 21
144.55
 31
0.0
  0
LINE
  8
0
  6
CONTINUOUS
 62
     2
 10
97.1
 20
145.525
 30
0.0
 11
96.8
 21
145.825
 31
0.0
  0
LINE
  8
0
  6
CONTINUOUS
 62
     2
 10
96.8
 20
145.825
 30
0.0
 11
96.8
 21
142.125
 31
0.0
  0
LINE
  8
0
  6
CONTINUOUS
 62
     2
 10
97.1
 20
142.425
 30
0.0
 11
96.8
 21
142.125
 31
0.0
  0
LINE
  8
0
  6
CONTINUOUS
 62
     2
 10
96.8
 20
143.45
 30
0.0
 11
95.75
 21
143.45
 31
0.0
  0
LINE
  8
0
  6
CONTINUOUS
 62
     2
 10
95.75
 20
144.7
 30
0.0
 11
96.8
 21
144.7
 31
0.0
  0
LINE
  8
0
  6
CONTINUOUS
 62
     2
 10
96.8
 20
144.55
 30
0.0
 11
95.75
 21
144.55
 31
0.0
  0
LINE
  8
0
  6
CONTINUOUS
 62
     2
 10
100.75
 20
144.725
 30
0.0
 11
100.75
 21
143.275
 31
0.0
  0
LINE
  8
0
  6
CONTINUOUS
 62
     2
 10
100.75
 20
143.275
 30
0.0
 11
98.3
 21
143.275
 31
0.0
  0
LINE
  8
0
  6
CONTINUOUS
 62
     2
 10
98.3
 20
143.45
 30
0.0
 11
100.75
 21
143.45
 31
0.0
  0
LINE
  8
0
  6
CONTINUOUS
 62
     2
 10
98.085
 20
143.275
 30
0.0
 11
97.1
 21
143.275
 31
0.0
  0
LINE
  8
0
  6
CONTINUOUS
 62
     2
 10
95.75
 20
143.275
 30
0.0
 11
96.8
 21
143.275
 31
0.0
  0
LINE
  8
0
  6
CONTINUOUS
 62
     2
 10
98.085
 20
143.275
 30
0.0
 11
98.285
 21
143.475
 31
0.0
  0
LINE
  8
0
  6
CONTINUOUS
 62
     2
 10
98.285
 20
143.075
 30
0.0
 11
98.085
 21
143.275
 31
0.0
  0
LINE
  8
0
  6
CONTINUOUS
 62
     2
 10
95.5
 20
113.95
 30
0.0
 11
95.75
 21
113.95
 31
0.0
  0
LINE
  8
0
  6
CONTINUOUS
 62
     2
 10
95.75
 20
109.95
 30
0.0
 11
95.5
 21
109.95
 31
0.0
  0
LINE
  8
0
  6
CONTINUOUS
 62
     2
 10
95.75
 20
113.95
 30
0.0
 11
95.75
 21
109.95
 31
0.0
  0
LINE
  8
0
  6
CONTINUOUS
 62
     2
 10
98.1
 20
113.525
 30
0.0
 11
98.3
 21
113.325
 31
0.0
  0
LINE
  8
0
  6
CONTINUOUS
 62
     2
 10
98.075
 20
112.7
 30
0.0
 11
98.275
 21
112.9
 31
0.0
  0
LINE
  8
0
  6
CONTINUOUS
 62
     2
 10
98.275
 20
112.5
 30
0.0
 11
98.075
 21
112.7
 31
0.0
  0
LINE
  8
0
  6
CONTINUOUS
 62
     2
 10
97.1
 20
113.525
 30
0.0
 11
98.1
 21
113.525
 31
0.0
  0
LINE
  8
0
  6
CONTINUOUS
 62
     2
 10
97.1
 20
112.7
 30
0.0
 11
98.075
 21
112.7
 31
0.0
  0
LINE
  8
0
  6
CONTINUOUS
 62
     2
 10
98.1
 20
110.425
 30
0.0
 11
98.3
 21
110.625
 31
0.0
  0
LINE
  8
0
  6
CONTINUOUS
 62
     2
 10
98.1
 20
110.425
 30
0.0
 11
97.1
 21
110.425
 31
0.0
  0
LINE
  8
0
  6
CONTINUOUS
 62
     2
 10
97.1
 20
110.425
 30
0.0
 11
97.1
 21
113.525
 31
0.0
  0
LINE
  8
0
  6
CONTINUOUS
 62
     2
 10
98.3
 20
113.325
 30
0.0
 11
98.3
 21
110.625
 31
0.0
  0
LINE
  8
0
  6
CONTINUOUS
 62
     2
 10
98.3
 20
112.725
 30
0.0
 11
100.75
 21
112.725
 31
0.0
  0
LINE
  8
0
  6
CONTINUOUS
 62
     2
 10
100.73
 20
112.55
 30
0.0
 11
98.3
 21
112.55
 31
0.0
  0
LINE
  8
0
  6
CONTINUOUS
 62
     2
 10
97.1
 20
113.525
 30
0.0
 11
96.8
 21
113.825
 31
0.0
  0
LINE
  8
0
  6
CONTINUOUS
 62
     2
 10
96.8
 20
113.825
 30
0.0
 11
96.8
 21
110.125
 31
0.0
  0
LINE
  8
0
  6
CONTINUOUS
 62
     2
 10
97.1
 20
110.425
 30
0.0
 11
96.8
 21
110.125
 31
0.0
  0
LINE
  8
0
  6
CONTINUOUS
 62
     2
 10
96.8
 20
111.45
 30
0.0
 11
95.75
 21
111.45
 31
0.0
  0
LINE
  8
0
  6
CONTINUOUS
 62
     2
 10
95.75
 20
112.7
 30
0.0
 11
96.8
 21
112.7
 31
0.0
  0
LINE
  8
0
  6
CONTINUOUS
 62
     2
 10
96.8
 20
112.55
 30
0.0
 11
95.75
 21
112.55
 31
0.0
  0
LINE
  8
0
  6
CONTINUOUS
 62
     2
 10
100.75
 20
112.725
 30
0.0
 11
100.75
 21
111.275
 31
0.0
  0
LINE
  8
0
  6
CONTINUOUS
 62
     2
 10
100.75
 20
111.275
 30
0.0
 11
98.3
 21
111.275
 31
0.0
  0
LINE
  8
0
  6
CONTINUOUS
 62
     2
 10
98.3
 20
111.45
 30
0.0
 11
100.75
 21
111.45
 31
0.0
  0
LINE
  8
0
  6
CONTINUOUS
 62
     2
 10
98.085
 20
111.275
 30
0.0
 11
97.1
 21
111.275
 31
0.0
  0
LINE
  8
0
  6
CONTINUOUS
 62
     2
 10
95.75
 20
111.275
 30
0.0
 11
96.8
 21
111.275
 31
0.0
  0
LINE
  8
0
  6
CONTINUOUS
 62
     2
 10
98.085
 20
111.275
 30
0.0
 11
98.285
 21
111.475
 31
0.0
  0
LINE
  8
0
  6
CONTINUOUS
 62
     2
 10
98.285
 20
111.075
 30
0.0
 11
98.085
 21
111.275
 31
0.0
  0
LINE
  8
0
  6
CONTINUOUS
 62
     2
 10
176.95
 20
130.025
 30
0.0
 11
175.196298557
 21
129.0125
 31
0.0
  0
LINE
  8
0
  6
CONTINUOUS
 62
     2
 10
175.196298557
 20
129.0125
 30
0.0
 11
175.196298557
 21
126.9875
 31
0.0
  0
LINE
  8
0
  6
CONTINUOUS
 62
     2
 10
175.196298557
 20
126.9875
 30
0.0
 11
176.95
 21
125.975
 31
0.0
  0
LINE
  8
0
  6
CONTINUOUS
 62
     2
 10
176.95
 20
125.975
 30
0.0
 11
178.703701443
 21
126.9875
 31
0.0
  0
LINE
  8
0
  6
CONTINUOUS
 62
     2
 10
178.703701443
 20
126.9875
 30
0.0
 11
178.703701443
 21
129.0125
 31
0.0
  0
LINE
  8
0
  6
CONTINUOUS
 62
     2
 10
178.703701443
 20
129.0125
 30
0.0
 11
176.95
 21
130.025
 31
0.0
  0
CIRCLE
  8
0
  6
CONTINUOUS
 62
     2
 10
176.95
 20
128.0
 30
0.0
 40
0.8
  0
CIRCLE
  8
0
  6
CONTINUOUS
 62
     2
 10
176.95
 20
128.0
 30
0.0
 40
1.0
  0
ARC
  8
0
  6
LTYPE4
 62
     2
 10
176.95
 20
128.0
 30
0.0
 40
1.975
 50
328.025496594
 51
217.415803658
  0
LINE
  8
0
  6
LTYPE4
 62
     2
 10
178.518637944
 20
126.8
 30
0.0
 11
177.86147392
 21
125.850763076
 31
0.0
  0
LINE
  8
0
  6
LTYPE4
 62
     2
 10
175.381362056
 20
126.8
 30
0.0
 11
176.038529527
 21
125.850758098
 31
0.0
  0
ARC
  8
0
  6
LTYPE4
 62
     2
 10
174.394145143
 20
124.71233814
 30
0.0
 40
2.0
 50
10.612929601
 51
34.695153531
  0
ARC
  8
0
  6
LTYPE4
 62
     2
 10
179.505858303
 20
124.712343118
 30
0.0
 40
2.0
 50
145.304846469
 51
169.387402194
  0
LINE
  8
0
  6
LTYPE4
 62
     2
 10
177.540068544
 20
125.080678053
 30
0.0
 11
177.450002697
 21
124.6
 31
0.0
  0
LINE
  8
0
  6
LTYPE4
 62
     2
 10
176.359932769
 20
125.080684458
 30
0.0
 11
176.450002697
 21
124.6
 31
0.0
  0
CIRCLE
  8
0
  6
CONTINUOUS
 62
     2
 10
176.95
 20
128.0
 30
0.0
 40
2.25
  0
LINE
  8
0
  6
CONTINUOUS
 62
     2
 10
189.45
 20
130.025
 30
0.0
 11
187.696298557
 21
129.0125
 31
0.0
  0
LINE
  8
0
  6
CONTINUOUS
 62
     2
 10
187.696298557
 20
129.0125
 30
0.0
 11
187.696298557
 21
126.9875
 31
0.0
  0
LINE
  8
0
  6
CONTINUOUS
 62
     2
 10
187.696298557
 20
126.9875
 30
0.0
 11
189.45
 21
125.975
 31
0.0
  0
LINE
  8
0
  6
CONTINUOUS
 62
     2
 10
189.45
 20
125.975
 30
0.0
 11
191.203701443
 21
126.9875
 31
0.0
  0
LINE
  8
0
  6
CONTINUOUS
 62
     2
 10
191.203701443
 20
126.9875
 30
0.0
 11
191.203701443
 21
129.0125
 31
0.0
  0
LINE
  8
0
  6
CONTINUOUS
 62
     2
 10
191.203701443
 20
129.0125
 30
0.0
 11
189.45
 21
130.025
 31
0.0
  0
CIRCLE
  8
0
  6
CONTINUOUS
 62
     2
 10
189.45
 20
128.0
 30
0.0
 40
0.8
  0
CIRCLE
  8
0
  6
CONTINUOUS
 62
     2
 10
189.45
 20
128.0
 30
0.0
 40
1.0
  0
ARC
  8
0
  6
LTYPE4
 62
     2
 10
189.45
 20
128.0
 30
0.0
 40
1.975
 50
328.025496594
 51
217.415803658
  0
LINE
  8
0
  6
LTYPE4
 62
     2
 10
191.018637944
 20
126.8
 30
0.0
 11
190.36147392
 21
125.850763076
 31
0.0
  0
LINE
  8
0
  6
LTYPE4
 62
     2
 10
187.881362056
 20
126.8
 30
0.0
 11
188.538529527
 21
125.850758098
 31
0.0
  0
ARC
  8
0
  6
LTYPE4
 62
     2
 10
186.894145143
 20
124.71233814
 30
0.0
 40
2.0
 50
10.612929601
 51
34.695153531
  0
ARC
  8
0
  6
LTYPE4
 62
     2
 10
192.005858303
 20
124.712343118
 30
0.0
 40
2.0
 50
145.304846469
 51
169.387402194
  0
LINE
  8
0
  6
LTYPE4
 62
     2
 10
190.040068544
 20
125.080678053
 30
0.0
 11
189.950002697
 21
124.6
 31
0.0
  0
LINE
  8
0
  6
LTYPE4
 62
     2
 10
188.859932769
 20
125.080684458
 30
0.0
 11
188.950002697
 21
124.6
 31
0.0
  0
CIRCLE
  8
0
  6
CONTINUOUS
 62
     2
 10
189.45
 20
128.0
 30
0.0
 40
2.25
  0
LINE
  8
0
  6
CONTINUOUS
 62
     2
 10
100.75
 20
155.75
 30
0.0
 11
95.5
 21
155.75
 31
0.0
  0
LINE
  8
0
  6
CONTINUOUS
 62
     2
 10
110.75
 20
160.75
 30
0.0
 11
125.75
 21
160.75
 31
0.0
  0
LINE
  8
0
  6
CONTINUOUS
 62
     2
 10
125.25
 20
117.3
 30
0.0
 11
125.25
 21
110.3
 31
0.0
  0
LINE
  8
0
  6
CONTINUOUS
 62
     2
 10
125.25
 20
112.3
 30
0.0
 11
127.664814566
 21
111.652952387
 31
0.0
  0
LINE
  8
0
  6
CONTINUOUS
 62
     2
 10
125.25
 20
112.3
 30
0.0
 11
127.664814566
 21
112.947047613
 31
0.0
  0
LINE
  8
0
  6
CONTINUOUS
 62
     2
 10
125.25
 20
112.3
 30
0.0
 11
132.25
 21
112.3
 31
0.0
  0
LINE
  8
0
  6
CONTINUOUS
 62
     2
 10
132.25
 20
112.3
 30
0.0
 11
129.835185434
 21
112.947047613
 31
0.0
  0
LINE
  8
0
  6
CONTINUOUS
 62
     2
 10
132.25
 20
112.3
 30
0.0
 11
129.835185434
 21
111.652952387
 31
0.0
  0
LINE
  8
0
  6
CONTINUOUS
 62
     2
 10
132.25
 20
122.025
 30
0.0
 11
132.25
 21
110.3
 31
0.0
  0
TEXT
  8
0
  6
CONTINUOUS
 62
     2
 10
126.8
 20
113.3
 30
0.3
 40
3.0
  1
１４
 50
0.0
 41
0.6
 51
0.0
  7
KANJI1
  0
LINE
  8
0
  6
CONTINUOUS
 62
     2
 10
125.25
 20
160.75
 30
0.0
 11
122.835185434
 21
161.397047613
 31
0.0
  0
LINE
  8
0
  6
CONTINUOUS
 62
     2
 10
125.25
 20
160.75
 30
0.0
 11
122.835185434
 21
160.102952387
 31
0.0
  0
LINE
  8
0
  6
CONTINUOUS
 62
     2
 10
130.25
 20
160.75
 30
0.0
 11
132.664814566
 21
160.102952387
 31
0.0
  0
LINE
  8
0
  6
CONTINUOUS
 62
     2
 10
130.25
 20
160.75
 30
0.0
 11
132.664814566
 21
161.397047613
 31
0.0
  0
TEXT
  8
0
  6
CONTINUOUS
 62
     2
 10
125.8
 20
161.75
 30
0.3
 40
3.0
  1
１０
 50
0.0
 41
0.6
 51
0.0
  7
KANJI1
  0
TEXT
  8
0
  6
CONTINUOUS
 62
     2
 10
129.68
 20
163.225
 30
0.18
 40
1.8
  1
±１
 50
0.0
 41
0.6
 51
0.0
  7
KANJI2
  0
LINE
  8
0
  6
CONTINUOUS
 62
     2
 10
125.25
 20
135.3
 30
0.0
 11
125.25
 21
162.75
 31
0.0
  0
LINE
  8
0
  6
LTYPE2
 62
     2
 10
132.6
 20
128.025
 30
0.0
 11
123.2
 21
128.025
 31
0.0
  0
LINE
  8
0
  6
CONTINUOUS
 62
     2
 10
129.704310345
 20
125.75
 30
0.0
 11
130.334426818
 21
123.330712247
 31
0.0
  0
LINE
  8
0
  6
CONTINUOUS
 62
     2
 10
129.704310345
 20
125.75
 30
0.0
 11
131.459651094
 21
123.969893584
 31
0.0
  0
LINE
  8
0
  6
CONTINUOUS
 62
     2
 10
127.001964399
 20
132.25
 30
0.0
 11
127.632080872
 21
134.669287753
 31
0.0
  0
LINE
  8
0
  6
CONTINUOUS
 62
     2
 10
127.001964399
 20
132.25
 30
0.0
 11
128.757305149
 21
134.030106416
 31
0.0
  0
LINE
  8
0
  6
CONTINUOUS
 62
     2
 10
127.001964399
 20
132.25
 30
0.0
 11
134.528599652
 21
145.5
 31
0.0
  0
LINE
  8
0
  6
LTYPE4
 62
     2
 10
129.25
 20
120.025
 30
0.0
 11
125.25
 21
120.025
 31
0.0
  0
LINE
  8
0
  6
LTYPE4
 62
     2
 10
125.25
 20
120.625
 30
0.0
 11
125.5
 21
120.625
 31
0.0
  0
ARC
  8
0
  6
LTYPE4
 62
     2
 10
129.25
 20
128.525
 30
0.0
 40
3.0
 50
0.0
 51
90.0
  0
LINE
  8
0
  6
LTYPE4
 62
     2
 10
132.25
 20
128.525
 30
0.0
 11
132.25
 21
123.025
 31
0.0
  0
ARC
  8
0
  6
LTYPE4
 62
     2
 10
129.25
 20
123.025
 30
0.0
 40
3.0
 50
270.0
 51
0.0
  0
LINE
  8
0
  6
LTYPE4
 62
     2
 10
125.25
 20
130.925
 30
0.0
 11
125.5
 21
130.925
 31
0.0
  0
LINE
  8
0
  6
LTYPE4
 62
     2
 10
125.5
 20
120.025
 30
0.0
 11
125.5
 21
130.925
 31
0.0
  0
LINE
  8
0
  6
LTYPE4
 62
     2
 10
125.25
 20
131.525
 30
0.0
 11
129.25
 21
131.525
 31
0.0
  0
LINE
  8
0
  6
CONTINUOUS
 62
     2
 10
126.45
 20
129.075
 30
0.0
 11
126.25
 21
129.075
 31
0.0
  0
LINE
  8
0
  6
CONTINUOUS
 62
     2
 10
125.7
 20
129.075
 30
0.0
 11
125.35
 21
129.075
 31
0.0
  0
LINE
  8
0
  6
CONTINUOUS
 62
     2
 10
125.35
 20
127.075
 30
0.0
 11
125.65
 21
127.075
 31
0.0
  0
LINE
  8
0
  6
CONTINUOUS
 62
     2
 10
126.2
 20
127.075
 30
0.0
 11
126.45
 21
127.075
 31
0.0
  0
LINE
  8
0
  6
CONTINUOUS
 62
     2
 10
126.5
 20
130.125
 30
0.0
 11
125.25
 21
130.125
 31
0.0
  0
LINE
  8
0
  6
CONTINUOUS
 62
     2
 10
126.5
 20
130.125
 30
0.0
 11
126.75
 21
129.875
 31
0.0
  0
LINE
  8
0
  6
CONTINUOUS
 62
     2
 10
126.49
 20
129.06
 30
0.0
 11
126.75
 21
129.36
 31
0.0
  0
LINE
  8
0
  6
CONTINUOUS
 62
     2
 10
126.75
 20
126.775
 30
0.0
 11
126.45
 21
127.045
 31
0.0
  0
LINE
  8
0
  6
CONTINUOUS
 62
     2
 10
126.75
 20
127.35
 30
0.0
 11
126.45
 21
127.08
 31
0.0
  0
LINE
  8
0
  6
CONTINUOUS
 62
     2
 10
126.45
 20
126.05
 30
0.0
 11
126.75
 21
126.35
 31
0.0
  0
LINE
  8
0
  6
CONTINUOUS
 62
     2
 10
125.25
 20
126.075
 30
0.0
 11
126.5
 21
126.075
 31
0.0
  0
LINE
  8
0
  6
CONTINUOUS
 62
     2
 10
126.75
 20
126.33
 30
0.0
 11
126.75
 21
129.875
 31
0.0
  0
LINE
  8
0
  6
CONTINUOUS
 62
     2
 10
126.503
 20
129.075
 30
0.0
 11
126.753
 21
128.875
 31
0.0
  0
LINE
  8
0
  6
CONTINUOUS
 62
     2
 10
126.503
 20
129.075
 30
0.0
 11
125.25
 21
129.075
 31
0.0
  0
LINE
  8
0
  6
CONTINUOUS
 62
     2
 10
125.25
 20
127.075
 30
0.0
 11
126.466666667
 21
127.075
 31
0.0
  0
LINE
  8
0
  6
CONTINUOUS
 62
     2
 10
126.75
 20
129.875
 30
0.0
 11
126.75
 21
130.0
 31
0.0
  0
LINE
  8
0
  6
LTYPE4
 62
     2
 10
127.15
 20
130.0
 30
0.0
 11
127.15
 21
124.625
 31
0.0
  0
LINE
  8
0
  6
LTYPE4
 62
     2
 10
126.75
 20
130.0
 30
0.0
 11
127.15
 21
130.0
 31
0.0
  0
LINE
  8
0
  6
LTYPE4
 62
     2
 10
126.75
 20
126.35
 30
0.0
 11
126.75
 21
124.625
 31
0.0
  0
LINE
  8
0
  6
LTYPE4
 62
     2
 10
126.25
 20
124.625
 30
0.0
 11
128.75
 21
124.625
 31
0.0
  0
LINE
  8
0
  6
LTYPE4
 62
     2
 10
128.75
 20
124.625
 30
0.0
 11
128.75
 21
121.625
 31
0.0
  0
LINE
  8
0
  6
LTYPE4
 62
     2
 10
126.25
 20
124.625
 30
0.0
 11
126.25
 21
121.625
 31
0.0
  0
LINE
  8
0
  6
CONTINUOUS
 62
     2
 10
127.936253903
 20
129.7975
 30
0.0
 11
128.436253903
 21
129.7975
 31
0.0
  0
LINE
  8
0
  6
CONTINUOUS
 62
     2
 10
128.436253903
 20
129.7975
 30
0.0
 11
128.136253903
 21
128.1475
 31
0.0
  0
LINE
  8
0
  6
CONTINUOUS
 62
     2
 10
128.136253903
 20
128.1475
 30
0.0
 11
127.636253903
 21
128.1475
 31
0.0
  0
LINE
  8
0
  6
CONTINUOUS
 62
     2
 10
127.636253903
 20
128.1475
 30
0.0
 11
127.936253903
 21
129.7975
 31
0.0
  0
LINE
  8
0
  6
CONTINUOUS
 62
     2
 10
128.386253903
 20
127.8475
 30
0.0
 11
127.886253903
 21
127.8475
 31
0.0
  0
LINE
  8
0
  6
CONTINUOUS
 62
     2
 10
127.636253903
 20
126.2475
 30
0.0
 11
128.136253903
 21
126.2475
 31
0.0
  0
LINE
  8
0
  6
CONTINUOUS
 62
     2
 10
127.886253903
 20
127.8475
 30
0.0
 11
127.636253903
 21
126.2475
 31
0.0
  0
LINE
  8
0
  6
CONTINUOUS
 62
     2
 10
128.136253903
 20
126.2475
 30
0.0
 11
128.386253903
 21
127.8475
 31
0.0
  0
LINE
  8
0
  6
CONTINUOUS
 62
     2
 10
129.925253903
 20
129.075
 30
0.0
 11
128.304890267
 21
129.075
 31
0.0
  0
LINE
  8
0
  6
CONTINUOUS
 62
     2
 10
128.265550778
 20
127.075
 30
0.0
 11
129.88892057
 21
127.075
 31
0.0
  0
LINE
  8
0
  6
CONTINUOUS
 62
     2
 10
127.15
 20
125.775
 30
0.0
 11
127.4
 21
125.775
 31
0.0
  0
LINE
  8
0
  6
CONTINUOUS
 62
     2
 10
127.4
 20
125.775
 30
0.0
 11
127.4
 21
130.275
 31
0.0
  0
LINE
  8
0
  6
CONTINUOUS
 62
     2
 10
127.4
 20
130.275
 30
0.0
 11
127.15
 21
130.275
 31
0.0
  0
LINE
  8
0
  6
CONTINUOUS
 62
     2
 10
127.15
 20
130.275
 30
0.0
 11
127.15
 21
125.775
 31
0.0
  0
LINE
  8
0
  6
CONTINUOUS
 62
     2
 10
127.4
 20
129.075
 30
0.0
 11
127.804890267
 21
129.075
 31
0.0
  0
LINE
  8
0
  6
CONTINUOUS
 62
     2
 10
127.763981176
 20
128.85
 30
0.0
 11
127.4
 21
128.85
 31
0.0
  0
LINE
  8
0
  6
CONTINUOUS
 62
     2
 10
127.808519528
 20
127.35
 30
0.0
 11
127.4
 21
127.35
 31
0.0
  0
LINE
  8
0
  6
CONTINUOUS
 62
     2
 10
127.4
 20
127.075
 30
0.0
 11
127.765550778
 21
127.075
 31
0.0
  0
LINE
  8
0
  6
CONTINUOUS
 62
     2
 10
127.15
 20
128.85
 30
0.0
 11
127.0
 21
128.85
 31
0.0
  0
LINE
  8
0
  6
CONTINUOUS
 62
     2
 10
126.75
 20
129.075
 30
0.0
 11
127.15
 21
129.075
 31
0.0
  0
LINE
  8
0
  6
CONTINUOUS
 62
     2
 10
127.15
 20
128.85
 30
0.0
 11
126.75
 21
128.85
 31
0.0
  0
LINE
  8
0
  6
CONTINUOUS
 62
     2
 10
127.15
 20
127.35
 30
0.0
 11
126.75
 21
127.35
 31
0.0
  0
LINE
  8
0
  6
CONTINUOUS
 62
     2
 10
126.75
 20
127.075
 30
0.0
 11
127.15
 21
127.075
 31
0.0
  0
LINE
  8
0
  6
CONTINUOUS
 62
     2
 10
129.672253903
 20
130.125
 30
0.0
 11
128.422253903
 21
130.125
 31
0.0
  0
LINE
  8
0
  6
CONTINUOUS
 62
     2
 10
129.672253903
 20
130.125
 30
0.0
 11
129.922253903
 21
129.875
 31
0.0
  0
LINE
  8
0
  6
CONTINUOUS
 62
     2
 10
129.662253903
 20
129.06
 30
0.0
 11
129.922253903
 21
129.36
 31
0.0
  0
LINE
  8
0
  6
CONTINUOUS
 62
     2
 10
129.922253903
 20
126.775
 30
0.0
 11
129.622253903
 21
127.045
 31
0.0
  0
LINE
  8
0
  6
CONTINUOUS
 62
     2
 10
129.922253903
 20
127.35
 30
0.0
 11
129.622253903
 21
127.08
 31
0.0
  0
LINE
  8
0
  6
CONTINUOUS
 62
     2
 10
129.622253903
 20
126.05
 30
0.0
 11
129.922253903
 21
126.35
 31
0.0
  0
LINE
  8
0
  6
CONTINUOUS
 62
     2
 10
128.422253903
 20
126.075
 30
0.0
 11
129.672253903
 21
126.075
 31
0.0
  0
LINE
  8
0
  6
CONTINUOUS
 62
     2
 10
128.422253903
 20
130.125
 30
0.0
 11
128.422253903
 21
126.075
 31
0.0
  0
LINE
  8
0
  6
CONTINUOUS
 62
     2
 10
129.922253903
 20
126.33
 30
0.0
 11
129.922253903
 21
129.875
 31
0.0
  0
LINE
  8
0
  6
CONTINUOUS
 62
     2
 10
129.675253903
 20
129.075
 30
0.0
 11
129.925253903
 21
128.875
 31
0.0
  0
LINE
  8
0
  6
CONTINUOUS
 62
     2
 10
128.422253903
 20
128.85
 30
0.0
 11
128.263981176
 21
128.85
 31
0.0
  0
LINE
  8
0
  6
CONTINUOUS
 62
     2
 10
128.422253903
 20
127.35
 30
0.0
 11
128.308519528
 21
127.35
 31
0.0
  0
LINE
  8
0
  6
CONTINUOUS
 62
     2
 10
130.25
 20
129.075
 30
0.0
 11
130.25
 21
127.075
 31
0.0
  0
LINE
  8
0
  6
CONTINUOUS
 62
     2
 10
130.25
 20
128.85
 30
0.0
 11
129.922253903
 21
128.85
 31
0.0
  0
LINE
  8
0
  6
CONTINUOUS
 62
     2
 10
129.922253903
 20
129.075
 30
0.0
 11
130.25
 21
129.075
 31
0.0
  0
LINE
  8
0
  6
CONTINUOUS
 62
     2
 10
130.25
 20
127.075
 30
0.0
 11
129.922253903
 21
127.075
 31
0.0
  0
LINE
  8
0
  6
CONTINUOUS
 62
     2
 10
129.922253903
 20
127.35
 30
0.0
 11
130.25
 21
127.35
 31
0.0
  0
LINE
  8
0
  6
CONTINUOUS
 62
     2
 10
125.25
 20
160.75
 30
0.0
 11
135.25
 21
160.75
 31
0.0
  0
TEXT
  8
0
  6
CONTINUOUS
 62
     2
 10
134.528599652
 20
146.5
 30
0.3
 40
3.0
  1
端子キャップ
 50
0.0
 41
0.9
 51
0.0
  7
KANJI5
  0
LINE
  8
0
  6
CONTINUOUS
 62
     2
 10
134.528599652
 20
145.5
 30
0.0
 11
152.328599652
 21
145.5
 31
0.0
  0
TEXT
  8
0
  6
CONTINUOUS
 62
     2
 10
141.917341132
 20
105.25
 30
0.3
 40
3.0
  1
Ｍ４ターミナルネジ
 50
0.0
 41
0.9
 51
0.0
  7
KANJI5
  0
LINE
  8
0
  6
CONTINUOUS
 62
     2
 10
129.704310345
 20
125.75
 30
0.0
 11
141.917341132
 21
104.25
 31
0.0
  0
LINE
  8
0
  6
CONTINUOUS
 62
     2
 10
141.917341132
 20
104.25
 30
0.0
 11
169.017341132
 21
104.25
 31
0.0
  0
LINE
  8
0
  6
CONTINUOUS
 62
     2
 10
116.617341132
 20
120.25
 30
0.0
 11
117.247457605
 21
117.830712247
 31
0.0
  0
LINE
  8
0
  6
CONTINUOUS
 62
     2
 10
116.617341132
 20
120.25
 30
0.0
 11
118.372681882
 21
118.469893584
 31
0.0
  0
LINE
  8
0
  6
CONTINUOUS
 62
     2
 10
130.25
 20
130.1
 30
0.0
 11
130.25
 21
161.8
 31
0.0
  0
TEXT
  8
0
  6
CONTINUOUS
 62
     2
 10
116.4
 20
161.75
 30
0.3
 40
3.0
  1
３０
 50
0.0
 41
0.6
 51
0.0
  7
KANJI1
  0
LINE
  8
0
  6
CONTINUOUS
 62
     2
 10
210.7
 20
128.0
 30
0.0
 11
214.242341132
 21
128.0
 31
0.0
  0
TEXT
  8
0
  6
CONTINUOUS
 62
     2
 10
134.767599652
 20
150.136
 30
0.3
 40
3.0
  1
（オプション）
 50
0.0
 41
0.9
 51
0.0
  7
KANJI5
  0
LINE
  8
0
  6
CONTINUOUS
 62
     2
 10
116.617341132
 20
120.25
 30
0.0
 11
128.262323976
 21
99.75
 31
0.0
  0
TEXT
  8
0
  6
CONTINUOUS
 62
     2
 10
129.20610823
 20
100.75
 30
0.3
 40
3.0
  1
直列抵抗器
 50
0.0
 41
0.9
 51
0.0
  7
KANJI5
  0
LINE
  8
0
  6
CONTINUOUS
 62
     2
 10
128.262323976
 20
99.75
 30
0.0
 11
145.70610823
 21
99.75
 31
0.0
  0
LINE
  8
0
  6
LTYPE2
 62
     2
 10
210.2
 20
130.0
 30
0.0
 11
148.3
 21
130.0
 31
0.0
  0
LINE
  8
0
  6
LTYPE2
 62
     2
 10
136.6
 20
130.0
 30
0.0
 11
83.96
 21
130.0
 31
0.0
  0
TEXT
  8
0
  6
CONTINUOUS
 62
     2
 10
104.75
 20
119.42
 30
0.5
 40
3.0
  1
φ６５
 50
90.0
 41
0.666666667
 51
0.0
  7
KANJI4
  0
TEXT
  8
0
  6
CONTINUOUS
 62
     2
 10
39.612637033
 20
45.541014126
 30
0.3
 40
3.0
  1
φ６７
 50
57.925999125
 41
0.6
 51
0.0
  7
KANJI1
  0
TEXT
  8
0
  6
CONTINUOUS
 62
     2
 10
42.798721789
 20
50.625191928
 30
0.18
 40
1.8
  1
±１
 50
57.925999125
 41
0.6
 51
0.0
  7
KANJI2
  0
ENDSEC
  0
EOF
