  0
SECTION
  2
HEADER
  9
$ACADVER
  1
AC1009
  9
$DWGCODEPAGE
  3
dos932
  9
$EXTMIN
 10
0.0
 20
0.0
 30
0.0
  9
$EXTMAX
 10
297.0
 20
210.0
 30
0.0
  9
$LIMMIN
 10
0.0
 20
0.0
  9
$LIMMAX
 10
297.0
 20
210.0
  9
$LTSCALE
 40
1.0
  9
$PDMODE
 70
     0
  0
ENDSEC
  0
SECTION
  2
TABLES
  0
TABLE
  2
VPORT
 70
     1
  0
VPORT
  2
*ACTIVE
 70
     0
 10
0.0
 20
0.0
 11
1.0
 21
1.0
 12
148.5
 22
105.0
 13
0.0
 23
0.0
 14
10.0
 24
10.0
 15
10.0
 25
10.0
 16
0.0
 26
0.0
 36
1.0
 17
0.0
 27
0.0
 37
0.0
 40
297.0
 41
1.414285714
 42
50.0
 43
0.0
 44
0.0
 50
0.0
 51
0.0
 71
     0
 72
  1000
 73
     1
 74
     3
 75
     0
 76
     0
 77
     0
 78
     0
  0
ENDTAB
  0
TABLE
  2
LTYPE
 70
     3
  0
LTYPE
  2
CONTINUOUS
 70
    64
  3
Solid line
 72
    65
 73
     0
 40
0.0
  0
LTYPE
  2
LTYPE1
 70
    64
  3
HIDDEN
 72
    65
 73
     2
 40
1.0
 49
0.6
 49
-0.4
  0
LTYPE
  2
LTYPE2
 70
    64
  3
CENTER
 72
    65
 73
     4
 40
5.0
 49
3.5
 49
-0.5
 49
0.5
 49
-0.5
  0
ENDTAB
  0
TABLE
  2
LAYER
 70
   128
  0
LAYER
  2
0
 70
     0
 62
     7
  6
CONTINUOUS
  0
LAYER
  2
2
 70
     0
 62
     7
  6
CONTINUOUS
  0
LAYER
  2
3
 70
     0
 62
     7
  6
CONTINUOUS
  0
LAYER
  2
4
 70
     0
 62
     7
  6
CONTINUOUS
  0
LAYER
  2
5
 70
     0
 62
     7
  6
CONTINUOUS
  0
LAYER
  2
6
 70
     0
 62
     7
  6
CONTINUOUS
  0
LAYER
  2
7
 70
     0
 62
     7
  6
CONTINUOUS
  0
LAYER
  2
8
 70
     0
 62
     7
  6
CONTINUOUS
  0
LAYER
  2
9
 70
     0
 62
     7
  6
CONTINUOUS
  0
LAYER
  2
10
 70
     0
 62
     7
  6
CONTINUOUS
  0
LAYER
  2
11
 70
     0
 62
     7
  6
CONTINUOUS
  0
LAYER
  2
12
 70
     0
 62
     7
  6
CONTINUOUS
  0
LAYER
  2
13
 70
     0
 62
     7
  6
CONTINUOUS
  0
LAYER
  2
14
 70
     0
 62
     7
  6
CONTINUOUS
  0
LAYER
  2
15
 70
     0
 62
     7
  6
CONTINUOUS
  0
LAYER
  2
16
 70
     0
 62
     7
  6
CONTINUOUS
  0
LAYER
  2
17
 70
     0
 62
     7
  6
CONTINUOUS
  0
LAYER
  2
18
 70
     0
 62
     7
  6
CONTINUOUS
  0
LAYER
  2
19
 70
     0
 62
     7
  6
CONTINUOUS
  0
LAYER
  2
20
 70
     0
 62
     7
  6
CONTINUOUS
  0
LAYER
  2
21
 70
     0
 62
     7
  6
CONTINUOUS
  0
LAYER
  2
22
 70
     0
 62
     7
  6
CONTINUOUS
  0
LAYER
  2
23
 70
     0
 62
     7
  6
CONTINUOUS
  0
LAYER
  2
24
 70
     0
 62
     7
  6
CONTINUOUS
  0
LAYER
  2
25
 70
     0
 62
     7
  6
CONTINUOUS
  0
LAYER
  2
26
 70
     0
 62
     7
  6
CONTINUOUS
  0
LAYER
  2
27
 70
     0
 62
     7
  6
CONTINUOUS
  0
LAYER
  2
28
 70
     0
 62
     7
  6
CONTINUOUS
  0
LAYER
  2
29
 70
     0
 62
     7
  6
CONTINUOUS
  0
LAYER
  2
30
 70
     0
 62
     7
  6
CONTINUOUS
  0
LAYER
  2
31
 70
     0
 62
     7
  6
CONTINUOUS
  0
LAYER
  2
32
 70
     0
 62
     7
  6
CONTINUOUS
  0
LAYER
  2
33
 70
     0
 62
     7
  6
CONTINUOUS
  0
LAYER
  2
34
 70
     0
 62
     7
  6
CONTINUOUS
  0
LAYER
  2
35
 70
     0
 62
     7
  6
CONTINUOUS
  0
LAYER
  2
36
 70
     0
 62
     7
  6
CONTINUOUS
  0
LAYER
  2
37
 70
     0
 62
     7
  6
CONTINUOUS
  0
LAYER
  2
38
 70
     0
 62
     7
  6
CONTINUOUS
  0
LAYER
  2
39
 70
     0
 62
     7
  6
CONTINUOUS
  0
LAYER
  2
40
 70
     0
 62
     7
  6
CONTINUOUS
  0
LAYER
  2
41
 70
     0
 62
     7
  6
CONTINUOUS
  0
LAYER
  2
42
 70
     0
 62
     7
  6
CONTINUOUS
  0
LAYER
  2
43
 70
     0
 62
     7
  6
CONTINUOUS
  0
LAYER
  2
44
 70
     0
 62
     7
  6
CONTINUOUS
  0
LAYER
  2
45
 70
     0
 62
     7
  6
CONTINUOUS
  0
LAYER
  2
46
 70
     0
 62
     7
  6
CONTINUOUS
  0
LAYER
  2
47
 70
     0
 62
     7
  6
CONTINUOUS
  0
LAYER
  2
48
 70
     0
 62
     7
  6
CONTINUOUS
  0
LAYER
  2
49
 70
     0
 62
     7
  6
CONTINUOUS
  0
LAYER
  2
50
 70
     0
 62
     7
  6
CONTINUOUS
  0
LAYER
  2
51
 70
     0
 62
     7
  6
CONTINUOUS
  0
LAYER
  2
52
 70
     0
 62
     7
  6
CONTINUOUS
  0
LAYER
  2
53
 70
     0
 62
     7
  6
CONTINUOUS
  0
LAYER
  2
54
 70
     0
 62
     7
  6
CONTINUOUS
  0
LAYER
  2
55
 70
     0
 62
     7
  6
CONTINUOUS
  0
LAYER
  2
56
 70
     0
 62
     7
  6
CONTINUOUS
  0
LAYER
  2
57
 70
     0
 62
     7
  6
CONTINUOUS
  0
LAYER
  2
58
 70
     0
 62
     7
  6
CONTINUOUS
  0
LAYER
  2
59
 70
     0
 62
     7
  6
CONTINUOUS
  0
LAYER
  2
60
 70
     0
 62
     7
  6
CONTINUOUS
  0
LAYER
  2
61
 70
     0
 62
     7
  6
CONTINUOUS
  0
LAYER
  2
62
 70
     0
 62
     7
  6
CONTINUOUS
  0
LAYER
  2
63
 70
     0
 62
     7
  6
CONTINUOUS
  0
LAYER
  2
64
 70
     0
 62
     7
  6
CONTINUOUS
  0
LAYER
  2
65
 70
     0
 62
     7
  6
CONTINUOUS
  0
LAYER
  2
66
 70
     0
 62
     7
  6
CONTINUOUS
  0
LAYER
  2
67
 70
     0
 62
     7
  6
CONTINUOUS
  0
LAYER
  2
68
 70
     0
 62
     7
  6
CONTINUOUS
  0
LAYER
  2
69
 70
     0
 62
     7
  6
CONTINUOUS
  0
LAYER
  2
70
 70
     0
 62
     7
  6
CONTINUOUS
  0
LAYER
  2
71
 70
     0
 62
     7
  6
CONTINUOUS
  0
LAYER
  2
72
 70
     0
 62
     7
  6
CONTINUOUS
  0
LAYER
  2
73
 70
     0
 62
     7
  6
CONTINUOUS
  0
LAYER
  2
74
 70
     0
 62
     7
  6
CONTINUOUS
  0
LAYER
  2
75
 70
     0
 62
     7
  6
CONTINUOUS
  0
LAYER
  2
76
 70
     0
 62
     7
  6
CONTINUOUS
  0
LAYER
  2
77
 70
     0
 62
     7
  6
CONTINUOUS
  0
LAYER
  2
78
 70
     0
 62
     7
  6
CONTINUOUS
  0
LAYER
  2
79
 70
     0
 62
     7
  6
CONTINUOUS
  0
LAYER
  2
80
 70
     0
 62
     7
  6
CONTINUOUS
  0
LAYER
  2
81
 70
     0
 62
     7
  6
CONTINUOUS
  0
LAYER
  2
82
 70
     0
 62
     7
  6
CONTINUOUS
  0
LAYER
  2
83
 70
     0
 62
     7
  6
CONTINUOUS
  0
LAYER
  2
84
 70
     0
 62
     7
  6
CONTINUOUS
  0
LAYER
  2
85
 70
     0
 62
     7
  6
CONTINUOUS
  0
LAYER
  2
86
 70
     0
 62
     7
  6
CONTINUOUS
  0
LAYER
  2
87
 70
     0
 62
     7
  6
CONTINUOUS
  0
LAYER
  2
88
 70
     0
 62
     7
  6
CONTINUOUS
  0
LAYER
  2
89
 70
     0
 62
     7
  6
CONTINUOUS
  0
LAYER
  2
90
 70
     0
 62
     7
  6
CONTINUOUS
  0
LAYER
  2
91
 70
     0
 62
     7
  6
CONTINUOUS
  0
LAYER
  2
92
 70
     0
 62
     7
  6
CONTINUOUS
  0
LAYER
  2
93
 70
     0
 62
     7
  6
CONTINUOUS
  0
LAYER
  2
94
 70
     0
 62
     7
  6
CONTINUOUS
  0
LAYER
  2
95
 70
     0
 62
     7
  6
CONTINUOUS
  0
LAYER
  2
96
 70
     0
 62
     7
  6
CONTINUOUS
  0
LAYER
  2
97
 70
     0
 62
     7
  6
CONTINUOUS
  0
LAYER
  2
98
 70
     0
 62
     7
  6
CONTINUOUS
  0
LAYER
  2
99
 70
     0
 62
     7
  6
CONTINUOUS
  0
LAYER
  2
100
 70
     0
 62
     7
  6
CONTINUOUS
  0
LAYER
  2
101
 70
     0
 62
     7
  6
CONTINUOUS
  0
LAYER
  2
102
 70
     0
 62
     7
  6
CONTINUOUS
  0
LAYER
  2
103
 70
     0
 62
     7
  6
CONTINUOUS
  0
LAYER
  2
104
 70
     0
 62
     7
  6
CONTINUOUS
  0
LAYER
  2
105
 70
     0
 62
     7
  6
CONTINUOUS
  0
LAYER
  2
106
 70
     0
 62
     7
  6
CONTINUOUS
  0
LAYER
  2
107
 70
     0
 62
     7
  6
CONTINUOUS
  0
LAYER
  2
108
 70
     0
 62
     7
  6
CONTINUOUS
  0
LAYER
  2
109
 70
     0
 62
     7
  6
CONTINUOUS
  0
LAYER
  2
110
 70
     0
 62
     7
  6
CONTINUOUS
  0
LAYER
  2
111
 70
     0
 62
     7
  6
CONTINUOUS
  0
LAYER
  2
112
 70
     0
 62
     7
  6
CONTINUOUS
  0
LAYER
  2
113
 70
     0
 62
     7
  6
CONTINUOUS
  0
LAYER
  2
114
 70
     0
 62
     7
  6
CONTINUOUS
  0
LAYER
  2
115
 70
     0
 62
     7
  6
CONTINUOUS
  0
LAYER
  2
116
 70
     0
 62
     7
  6
CONTINUOUS
  0
LAYER
  2
117
 70
     0
 62
     7
  6
CONTINUOUS
  0
LAYER
  2
118
 70
     0
 62
     7
  6
CONTINUOUS
  0
LAYER
  2
119
 70
     0
 62
     7
  6
CONTINUOUS
  0
LAYER
  2
120
 70
     0
 62
     7
  6
CONTINUOUS
  0
LAYER
  2
121
 70
     0
 62
     7
  6
CONTINUOUS
  0
LAYER
  2
122
 70
     0
 62
     7
  6
CONTINUOUS
  0
LAYER
  2
123
 70
     0
 62
     7
  6
CONTINUOUS
  0
LAYER
  2
124
 70
     0
 62
     7
  6
CONTINUOUS
  0
LAYER
  2
125
 70
     0
 62
     7
  6
CONTINUOUS
  0
LAYER
  2
126
 70
     0
 62
     7
  6
CONTINUOUS
  0
LAYER
  2
127
 70
     0
 62
     7
  6
CONTINUOUS
  0
LAYER
  2
128
 70
     0
 62
     7
  6
CONTINUOUS
  0
ENDTAB
  0
TABLE
  2
STYLE
 70
    13
  0
STYLE
  2
STANDARD
 70
     0
 40
0.0
 41
1.0
 50
0.0
 71
     0
 42
0.2
  3
txt.shx
  4
extfont.shx
  0
STYLE
  2
KANJI0
 70
     0
 40
4.0
 41
0.9
 50
0.0
 71
     0
 42
4.0
  3
txt.shx
  4
extfont.shx
  0
STYLE
  2
KANJI1
 70
     0
 40
3.0
 41
0.6
 50
0.0
 71
     0
 42
3.0
  3
txt.shx
  4
extfont.shx
  0
STYLE
  2
KANJI2
 70
     0
 40
3.0
 41
0.666666667
 50
0.0
 71
     0
 42
3.0
  3
txt.shx
  4
extfont.shx
  0
STYLE
  2
KANJI3
 70
     0
 40
1.8
 41
0.6
 50
0.0
 71
     0
 42
1.8
  3
txt.shx
  4
extfont.shx
  0
STYLE
  2
KANJI4
 70
     0
 40
3.0
 41
0.3
 50
0.0
 71
     0
 42
3.0
  3
txt.shx
  4
extfont.shx
  0
STYLE
  2
KANJI5
 70
     0
 40
3.0
 41
0.9
 50
0.0
 71
     0
 42
3.0
  3
txt.shx
  4
extfont.shx
  0
STYLE
  2
KANJI6
 70
     0
 40
3.0
 41
0.9
 50
0.0
 71
     0
 42
3.0
  3
txt.shx
  4
extfont.shx
  0
STYLE
  2
KANJI7
 70
     0
 40
3.0
 41
0.6
 50
0.0
 71
     0
 42
3.0
  3
txt.shx
  4
extfont.shx
  0
STYLE
  2
KANJI8
 70
     0
 40
1.8
 41
0.6
 50
0.0
 71
     0
 42
1.8
  3
txt.shx
  4
extfont.shx
  0
STYLE
  2
KANJI9
 70
     0
 40
2.0
 41
0.9
 50
0.0
 71
     0
 42
2.0
  3
txt.shx
  4
extfont.shx
  0
STYLE
  2
KANJI10
 70
     0
 40
4.0
 41
0.9
 50
0.0
 71
     0
 42
4.0
  3
txt.shx
  4
extfont.shx
  0
STYLE
  2
KANJI11
 70
     0
 40
6.0
 41
0.9
 50
0.0
 71
     0
 42
6.0
  3
txt.shx
  4
extfont.shx
  0
ENDTAB
  0
TABLE
  2
VIEW
 70
     0
  0
ENDTAB
  0
ENDSEC
  0
SECTION
  2
BLOCKS
  0
ENDSEC
  0
SECTION
  2
ENTITIES
  0
ARC
  8
0
  6
CONTINUOUS
 62
     1
 10
195.1
 20
101.65
 30
0.0
 40
1.65
 50
270.0
 51
0.0
  0
ARC
  8
0
  6
CONTINUOUS
 62
     1
 10
195.1
 20
138.35
 30
0.0
 40
1.65
 50
0.0
 51
90.0
  0
ARC
  8
0
  6
CONTINUOUS
 62
     1
 10
154.9
 20
138.35
 30
0.0
 40
1.65
 50
90.0
 51
180.0
  0
ARC
  8
0
  6
CONTINUOUS
 62
     1
 10
154.9
 20
101.65
 30
0.0
 40
1.65
 50
180.0
 51
270.0
  0
LINE
  8
0
  6
CONTINUOUS
 62
     1
 10
154.9
 20
100.0
 30
0.0
 11
195.1
 21
100.0
 31
0.0
  0
LINE
  8
0
  6
CONTINUOUS
 62
     1
 10
196.75
 20
101.65
 30
0.0
 11
196.75
 21
138.35
 31
0.0
  0
LINE
  8
0
  6
CONTINUOUS
 62
     1
 10
195.1
 20
140.0
 30
0.0
 11
154.9
 21
140.0
 31
0.0
  0
LINE
  8
0
  6
CONTINUOUS
 62
     1
 10
153.25
 20
138.35
 30
0.0
 11
153.25
 21
101.650002336
 31
0.0
  0
CIRCLE
  8
0
  6
CONTINUOUS
 62
     1
 10
175.0
 20
119.0
 30
0.0
 40
16.25
  0
ARC
  8
0
  6
CONTINUOUS
 62
     1
 10
20.5
 20
138.75
 30
0.0
 40
1.25
 50
90.0
 51
180.0
  0
ARC
  8
0
  6
CONTINUOUS
 62
     1
 10
20.5
 20
101.25
 30
0.0
 40
1.25
 50
180.0
 51
270.0
  0
ARC
  8
0
  6
CONTINUOUS
 62
     1
 10
61.5
 20
101.25
 30
0.0
 40
1.25
 50
270.0
 51
0.0
  0
ARC
  8
0
  6
CONTINUOUS
 62
     1
 10
61.5
 20
138.75
 30
0.0
 40
1.25
 50
0.0
 51
90.0
  0
LINE
  8
0
  6
CONTINUOUS
 62
     1
 10
61.500001652
 20
140.0
 30
0.0
 11
20.5
 21
140.0
 31
0.0
  0
LINE
  8
0
  6
CONTINUOUS
 62
     1
 10
19.25
 20
138.75
 30
0.0
 11
19.25
 21
101.25
 31
0.0
  0
LINE
  8
0
  6
CONTINUOUS
 62
     1
 10
20.5
 20
100.0
 30
0.0
 11
61.5
 21
100.0
 31
0.0
  0
LINE
  8
0
  6
CONTINUOUS
 62
     1
 10
62.75
 20
101.25
 30
0.0
 11
62.75
 21
138.75
 31
0.0
  0
TEXT
  8
0
  6
CONTINUOUS
 62
     1
 10
30.4575
 20
33.778455967
 30
0.6
 40
4.0
  1
パネルカット
 50
0.0
 41
0.9
 51
0.0
  7
KANJI0
  0
LINE
  8
0
  6
CONTINUOUS
 62
     1
 10
93.0
 20
140.0
 30
0.0
 11
93.0
 21
100.0
 31
0.0
  0
ARC
  8
0
  6
CONTINUOUS
 62
     1
 10
107.75
 20
103.5
 30
0.0
 40
0.5
 50
270.0
 51
0.0
  0
ARC
  8
0
  6
CONTINUOUS
 62
     1
 10
107.75
 20
134.75
 30
0.0
 40
0.5
 50
0.0
 51
90.0
  0
LINE
  8
0
  6
CONTINUOUS
 62
     1
 10
107.75
 20
135.25
 30
0.0
 11
98.25
 21
135.25
 31
0.0
  0
LINE
  8
0
  6
CONTINUOUS
 62
     1
 10
107.75
 20
103.0
 30
0.0
 11
98.25
 21
103.0
 31
0.0
  0
LINE
  8
0
  6
CONTINUOUS
 62
     1
 10
108.25
 20
103.5
 30
0.0
 11
108.25
 21
134.75
 31
0.0
  0
LINE
  8
0
  6
CONTINUOUS
 62
     1
 10
28.6575
 20
33.178455967
 30
0.0
 11
55.2575
 21
33.178455967
 31
0.0
  0
ARC
  8
0
  6
CONTINUOUS
 62
     1
 10
87.760001349
 20
138.499565158
 30
0.0
 40
0.5
 50
90.0
 51
180.0
  0
LINE
  8
0
  6
CONTINUOUS
 62
     1
 10
87.760001349
 20
138.999565158
 30
0.0
 11
93.0
 21
140.0
 31
0.0
  0
ARC
  8
0
  6
CONTINUOUS
 62
     1
 10
87.760001538
 20
101.5
 30
0.0
 40
0.5
 50
180.0
 51
270.0
  0
LINE
  8
0
  6
CONTINUOUS
 62
     1
 10
87.760001538
 20
101.0
 30
0.0
 11
93.0
 21
100.0
 31
0.0
  0
LINE
  8
0
  6
CONTINUOUS
 62
     1
 10
87.260001349
 20
138.499565158
 30
0.0
 11
87.260001538
 21
101.5
 31
0.0
  0
CIRCLE
  8
0
  6
CONTINUOUS
 62
     1
 10
41.0
 20
63.0
 30
0.0
 40
16.75
  0
CIRCLE
  8
0
  6
CONTINUOUS
 62
     1
 10
25.0025
 20
79.0
 30
0.0
 40
1.0
  0
CIRCLE
  8
0
  6
CONTINUOUS
 62
     1
 10
57.0
 20
47.0
 30
0.0
 40
1.0
  0
CIRCLE
  8
0
  6
CONTINUOUS
 62
     1
 10
25.0025
 20
47.0
 30
0.0
 40
1.0
  0
CIRCLE
  8
0
  6
CONTINUOUS
 62
     1
 10
57.0
 20
79.0
 30
0.0
 40
1.0
  0
LINE
  8
0
  6
CONTINUOUS
 62
     1
 10
108.25
 20
125.5
 30
0.0
 11
108.25
 21
109.0
 31
0.0
  0
LINE
  8
0
  6
CONTINUOUS
 62
     1
 10
108.25
 20
109.0
 30
0.0
 11
120.25
 21
109.0
 31
0.0
  0
ARC
  8
0
  6
CONTINUOUS
 62
     1
 10
120.25
 20
111.5
 30
0.0
 40
2.5
 50
270.0
 51
0.0
  0
ARC
  8
0
  6
CONTINUOUS
 62
     1
 10
120.25
 20
123.0
 30
0.0
 40
2.5
 50
359.999996922
 51
90.0
  0
LINE
  8
0
  6
CONTINUOUS
 62
     1
 10
122.75
 20
111.5
 30
0.0
 11
122.75
 21
123.0
 31
0.0
  0
LINE
  8
0
  6
CONTINUOUS
 62
     1
 10
120.25
 20
125.5
 30
0.0
 11
108.25
 21
125.5
 31
0.0
  0
CIRCLE
  8
0
  6
CONTINUOUS
 62
     1
 10
168.75
 20
119.0
 30
0.0
 40
1.1
  0
CIRCLE
  8
0
  6
CONTINUOUS
 62
     1
 10
181.25
 20
119.0
 30
0.0
 40
1.1
  0
ARC
  8
0
  6
CONTINUOUS
 62
     1
 10
167.405683123
 20
114.0
 30
0.0
 40
5.0
 50
197.848014954
 51
270.0
  0
ARC
  8
0
  6
CONTINUOUS
 62
     1
 10
182.594316877
 20
114.0
 30
0.0
 40
5.0
 50
270.0
 51
342.151985046
  0
LINE
  8
0
  6
CONTINUOUS
 62
     1
 10
182.594316877
 20
109.0
 30
0.0
 11
167.405683123
 21
109.0
 31
0.0
  0
ARC
  8
0
  6
CONTINUOUS
 62
     1
 10
175.0
 20
116.5
 30
0.0
 40
13.0
 50
144.831423961
 51
198.07733135
  0
ARC
  8
0
  6
CONTINUOUS
 62
     1
 10
167.255683123
 20
122.0
 30
0.0
 40
3.5
 50
90.0
 51
145.407711312
  0
ARC
  8
0
  6
CONTINUOUS
 62
     1
 10
182.744316877
 20
122.0
 30
0.0
 40
3.5
 50
34.592288688
 51
90.0
  0
ARC
  8
0
  6
CONTINUOUS
 62
     1
 10
175.0
 20
116.5
 30
0.0
 40
13.0
 50
341.92237879
 51
35.169586111
  0
LINE
  8
0
  6
CONTINUOUS
 62
     1
 10
182.744316877
 20
125.5
 30
0.0
 11
167.255683123
 21
125.5
 31
0.0
  0
LINE
  8
0
  6
CONTINUOUS
 62
     1
 10
169.0
 20
109.0
 30
0.0
 11
169.0
 21
110.0
 31
0.0
  0
LINE
  8
0
  6
CONTINUOUS
 62
     1
 10
169.0
 20
110.0
 30
0.0
 11
171.0
 21
110.0
 31
0.0
  0
LINE
  8
0
  6
CONTINUOUS
 62
     1
 10
171.0
 20
110.0
 30
0.0
 11
171.0
 21
109.0
 31
0.0
  0
LINE
  8
0
  6
CONTINUOUS
 62
     1
 10
174.0
 20
109.0
 30
0.0
 11
174.0
 21
110.0
 31
0.0
  0
LINE
  8
0
  6
CONTINUOUS
 62
     1
 10
174.0
 20
110.0
 30
0.0
 11
173.95
 21
110.0
 31
0.0
  0
LINE
  8
0
  6
CONTINUOUS
 62
     1
 10
173.95
 20
110.0
 30
0.0
 11
175.95
 21
110.0
 31
0.0
  0
LINE
  8
0
  6
CONTINUOUS
 62
     1
 10
175.95
 20
110.0
 30
0.0
 11
175.95
 21
109.0
 31
0.0
  0
LINE
  8
0
  6
CONTINUOUS
 62
     1
 10
179.0125
 20
109.0
 30
0.0
 11
179.0125
 21
110.0
 31
0.0
  0
LINE
  8
0
  6
CONTINUOUS
 62
     1
 10
179.0125
 20
110.0
 30
0.0
 11
181.0125
 21
110.0
 31
0.0
  0
LINE
  8
0
  6
CONTINUOUS
 62
     1
 10
181.0125
 20
110.0
 30
0.0
 11
181.0125
 21
109.0
 31
0.0
  0
LINE
  8
0
  6
CONTINUOUS
 62
     1
 10
181.0125
 20
125.5
 30
0.0
 11
181.0125
 21
124.5
 31
0.0
  0
LINE
  8
0
  6
CONTINUOUS
 62
     1
 10
181.0125
 20
124.5
 30
0.0
 11
179.0125
 21
124.5
 31
0.0
  0
LINE
  8
0
  6
CONTINUOUS
 62
     1
 10
179.0125
 20
124.5
 30
0.0
 11
179.0125
 21
125.5
 31
0.0
  0
LINE
  8
0
  6
CONTINUOUS
 62
     1
 10
176.0
 20
125.5
 30
0.0
 11
176.0
 21
124.5
 31
0.0
  0
LINE
  8
0
  6
CONTINUOUS
 62
     1
 10
176.0
 20
124.5
 30
0.0
 11
174.0
 21
124.5
 31
0.0
  0
LINE
  8
0
  6
CONTINUOUS
 62
     1
 10
174.0
 20
124.5
 30
0.0
 11
174.0
 21
125.5
 31
0.0
  0
LINE
  8
0
  6
CONTINUOUS
 62
     1
 10
171.0
 20
125.5
 30
0.0
 11
171.0
 21
124.5
 31
0.0
  0
LINE
  8
0
  6
CONTINUOUS
 62
     1
 10
171.0
 20
124.5
 30
0.0
 11
169.0
 21
124.5
 31
0.0
  0
LINE
  8
0
  6
CONTINUOUS
 62
     1
 10
169.0
 20
124.5
 30
0.0
 11
169.0
 21
125.5
 31
0.0
  0
ARC
  8
0
  6
CONTINUOUS
 62
     2
 10
154.75
 20
101.5
 30
0.0
 40
0.5
 50
180.0
 51
270.0
  0
ARC
  8
0
  6
CONTINUOUS
 62
     2
 10
154.75
 20
138.5
 30
0.0
 40
0.5
 50
90.0
 51
180.0
  0
ARC
  8
0
  6
CONTINUOUS
 62
     2
 10
195.25
 20
138.5
 30
0.0
 40
0.5
 50
0.0
 51
90.0
  0
ARC
  8
0
  6
CONTINUOUS
 62
     2
 10
195.25
 20
101.5
 30
0.0
 40
0.5
 50
270.0
 51
0.0
  0
LINE
  8
0
  6
CONTINUOUS
 62
     2
 10
195.75
 20
101.5
 30
0.0
 11
195.75
 21
138.5
 31
0.0
  0
LINE
  8
0
  6
CONTINUOUS
 62
     2
 10
195.25
 20
139.0
 30
0.0
 11
154.75
 21
139.0
 31
0.0
  0
LINE
  8
0
  6
CONTINUOUS
 62
     2
 10
154.25
 20
138.5
 30
0.0
 11
154.25
 21
101.5
 31
0.0
  0
LINE
  8
0
  6
CONTINUOUS
 62
     2
 10
154.75
 20
101.0
 30
0.0
 11
195.25
 21
101.0
 31
0.0
  0
CIRCLE
  8
0
  6
CONTINUOUS
 62
     2
 10
159.0
 20
103.0
 30
0.0
 40
2.0
  0
CIRCLE
  8
0
  6
CONTINUOUS
 62
     2
 10
159.0
 20
103.0
 30
0.0
 40
0.75
  0
LINE
  8
0
  6
CONTINUOUS
 62
     2
 10
159.0
 20
104.6
 30
0.0
 11
157.614359354
 21
103.8
 31
0.0
  0
LINE
  8
0
  6
CONTINUOUS
 62
     2
 10
157.614359354
 20
103.8
 30
0.0
 11
157.614359354
 21
102.2
 31
0.0
  0
LINE
  8
0
  6
CONTINUOUS
 62
     2
 10
157.614359354
 20
102.2
 30
0.0
 11
159.0
 21
101.4
 31
0.0
  0
LINE
  8
0
  6
CONTINUOUS
 62
     2
 10
159.0
 20
101.4
 30
0.0
 11
160.385640646
 21
102.2
 31
0.0
  0
LINE
  8
0
  6
CONTINUOUS
 62
     2
 10
160.385640646
 20
102.2
 30
0.0
 11
160.385640646
 21
103.8
 31
0.0
  0
LINE
  8
0
  6
CONTINUOUS
 62
     2
 10
160.385640646
 20
103.8
 30
0.0
 11
159.0
 21
104.6
 31
0.0
  0
CIRCLE
  8
0
  6
CONTINUOUS
 62
     2
 10
191.0
 20
103.0
 30
0.0
 40
2.0
  0
CIRCLE
  8
0
  6
CONTINUOUS
 62
     2
 10
191.0
 20
103.0
 30
0.0
 40
0.75
  0
LINE
  8
0
  6
CONTINUOUS
 62
     2
 10
191.0
 20
104.6
 30
0.0
 11
189.614359354
 21
103.8
 31
0.0
  0
LINE
  8
0
  6
CONTINUOUS
 62
     2
 10
189.614359354
 20
103.8
 30
0.0
 11
189.614359354
 21
102.2
 31
0.0
  0
LINE
  8
0
  6
CONTINUOUS
 62
     2
 10
189.614359354
 20
102.2
 30
0.0
 11
191.0
 21
101.4
 31
0.0
  0
LINE
  8
0
  6
CONTINUOUS
 62
     2
 10
191.0
 20
101.4
 30
0.0
 11
192.385640646
 21
102.2
 31
0.0
  0
LINE
  8
0
  6
CONTINUOUS
 62
     2
 10
192.385640646
 20
102.2
 30
0.0
 11
192.385640646
 21
103.8
 31
0.0
  0
LINE
  8
0
  6
CONTINUOUS
 62
     2
 10
192.385640646
 20
103.8
 30
0.0
 11
191.0
 21
104.6
 31
0.0
  0
CIRCLE
  8
0
  6
CONTINUOUS
 62
     2
 10
191.0
 20
135.0
 30
0.0
 40
2.0
  0
CIRCLE
  8
0
  6
CONTINUOUS
 62
     2
 10
191.0
 20
135.0
 30
0.0
 40
0.75
  0
LINE
  8
0
  6
CONTINUOUS
 62
     2
 10
191.0
 20
136.6
 30
0.0
 11
189.614359354
 21
135.8
 31
0.0
  0
LINE
  8
0
  6
CONTINUOUS
 62
     2
 10
189.614359354
 20
135.8
 30
0.0
 11
189.614359354
 21
134.2
 31
0.0
  0
LINE
  8
0
  6
CONTINUOUS
 62
     2
 10
189.614359354
 20
134.2
 30
0.0
 11
191.0
 21
133.4
 31
0.0
  0
LINE
  8
0
  6
CONTINUOUS
 62
     2
 10
191.0
 20
133.4
 30
0.0
 11
192.385640646
 21
134.2
 31
0.0
  0
LINE
  8
0
  6
CONTINUOUS
 62
     2
 10
192.385640646
 20
134.2
 30
0.0
 11
192.385640646
 21
135.8
 31
0.0
  0
LINE
  8
0
  6
CONTINUOUS
 62
     2
 10
192.385640646
 20
135.8
 30
0.0
 11
191.0
 21
136.6
 31
0.0
  0
CIRCLE
  8
0
  6
CONTINUOUS
 62
     2
 10
159.0
 20
135.0
 30
0.0
 40
2.0
  0
CIRCLE
  8
0
  6
CONTINUOUS
 62
     2
 10
159.0
 20
135.0
 30
0.0
 40
0.75
  0
LINE
  8
0
  6
CONTINUOUS
 62
     2
 10
159.0
 20
136.6
 30
0.0
 11
157.614359354
 21
135.8
 31
0.0
  0
LINE
  8
0
  6
CONTINUOUS
 62
     2
 10
157.614359354
 20
135.8
 30
0.0
 11
157.614359354
 21
134.2
 31
0.0
  0
LINE
  8
0
  6
CONTINUOUS
 62
     2
 10
157.614359354
 20
134.2
 30
0.0
 11
159.0
 21
133.4
 31
0.0
  0
LINE
  8
0
  6
CONTINUOUS
 62
     2
 10
159.0
 20
133.4
 30
0.0
 11
160.385640646
 21
134.2
 31
0.0
  0
LINE
  8
0
  6
CONTINUOUS
 62
     2
 10
160.385640646
 20
134.2
 30
0.0
 11
160.385640646
 21
135.8
 31
0.0
  0
LINE
  8
0
  6
CONTINUOUS
 62
     2
 10
160.385640646
 20
135.8
 30
0.0
 11
159.0
 21
136.6
 31
0.0
  0
LINE
  8
0
  6
CONTINUOUS
 62
     2
 10
148.8
 20
120.0
 30
0.0
 11
149.447047613
 21
122.414814566
 31
0.0
  0
LINE
  8
0
  6
CONTINUOUS
 62
     2
 10
148.8
 20
120.0
 30
0.0
 11
148.152952387
 21
122.414814566
 31
0.0
  0
LINE
  8
0
  6
CONTINUOUS
 62
     2
 10
148.8
 20
126.8
 30
0.0
 11
148.8
 21
114.0
 31
0.0
  0
LINE
  8
0
  6
CONTINUOUS
 62
     2
 10
148.8
 20
119.0
 30
0.0
 11
148.152952387
 21
116.585185434
 31
0.0
  0
LINE
  8
0
  6
CONTINUOUS
 62
     2
 10
148.8
 20
119.0
 30
0.0
 11
149.447047613
 21
116.585185434
 31
0.0
  0
TEXT
  8
0
  6
CONTINUOUS
 62
     2
 10
147.8
 20
125.0
 30
0.3
 40
3.0
  1
２
 50
90.0
 41
0.6
 51
0.0
  7
KANJI1
  0
ARC
  8
0
  6
CONTINUOUS
 62
     2
 10
20.75
 20
138.5
 30
0.0
 40
0.5
 50
90.0
 51
180.0
  0
ARC
  8
0
  6
CONTINUOUS
 62
     2
 10
20.75
 20
101.5
 30
0.0
 40
0.5
 50
180.0
 51
270.0
  0
ARC
  8
0
  6
CONTINUOUS
 62
     2
 10
61.25
 20
101.5
 30
0.0
 40
0.5
 50
270.0
 51
0.0
  0
ARC
  8
0
  6
CONTINUOUS
 62
     2
 10
61.25
 20
138.5
 30
0.0
 40
0.5
 50
0.0
 51
90.0
  0
LINE
  8
0
  6
CONTINUOUS
 62
     2
 10
61.75
 20
101.5
 30
0.0
 11
61.75
 21
138.5
 31
0.0
  0
LINE
  8
0
  6
CONTINUOUS
 62
     2
 10
61.25
 20
139.0
 30
0.0
 11
20.75
 21
139.0
 31
0.0
  0
LINE
  8
0
  6
CONTINUOUS
 62
     2
 10
20.25
 20
138.5
 30
0.0
 11
20.25
 21
101.5
 31
0.0
  0
LINE
  8
0
  6
CONTINUOUS
 62
     2
 10
20.75
 20
101.0
 30
0.0
 11
61.25
 21
101.0
 31
0.0
  0
ARC
  8
0
  6
CONTINUOUS
 62
     2
 10
21.5
 20
137.75
 30
0.0
 40
0.5
 50
90.0
 51
180.0
  0
ARC
  8
0
  6
CONTINUOUS
 62
     2
 10
60.5
 20
137.75
 30
0.0
 40
0.5
 50
0.0
 51
90.0
  0
LINE
  8
0
  6
CONTINUOUS
 62
     2
 10
60.5
 20
138.25
 30
0.0
 11
21.5
 21
138.25
 31
0.0
  0
LINE
  8
0
  6
CONTINUOUS
 62
     2
 10
21.0
 20
137.75
 30
0.0
 11
21.0
 21
115.5
 31
0.0
  0
LINE
  8
0
  6
CONTINUOUS
 62
     2
 10
21.0
 20
115.5
 30
0.0
 11
61.0
 21
115.5
 31
0.0
  0
LINE
  8
0
  6
CONTINUOUS
 62
     2
 10
61.0
 20
115.5
 30
0.0
 11
61.0
 21
137.75
 31
0.0
  0
CIRCLE
  8
0
  6
CONTINUOUS
 62
     2
 10
23.0
 20
112.75
 30
0.0
 40
1.5
  0
LINE
  8
0
  6
CONTINUOUS
 62
     2
 10
22.125
 20
112.95
 30
0.0
 11
22.6
 21
112.95
 31
0.0
  0
ARC
  8
0
  6
CONTINUOUS
 62
     2
 10
22.6
 20
113.15
 30
0.0
 40
0.2
 50
270.0
 51
0.0
  0
LINE
  8
0
  6
CONTINUOUS
 62
     2
 10
22.8
 20
113.15
 30
0.0
 11
22.8
 21
113.625
 31
0.0
  0
LINE
  8
0
  6
CONTINUOUS
 62
     2
 10
22.8
 20
113.625
 30
0.0
 11
23.2
 21
113.625
 31
0.0
  0
LINE
  8
0
  6
CONTINUOUS
 62
     2
 10
23.2
 20
113.625
 30
0.0
 11
23.2
 21
113.15
 31
0.0
  0
ARC
  8
0
  6
CONTINUOUS
 62
     2
 10
23.4
 20
113.15
 30
0.0
 40
0.2
 50
180.0
 51
270.0
  0
LINE
  8
0
  6
CONTINUOUS
 62
     2
 10
23.4
 20
112.95
 30
0.0
 11
23.875
 21
112.95
 31
0.0
  0
LINE
  8
0
  6
CONTINUOUS
 62
     2
 10
23.875
 20
112.95
 30
0.0
 11
23.875
 21
112.55
 31
0.0
  0
LINE
  8
0
  6
CONTINUOUS
 62
     2
 10
23.875
 20
112.55
 30
0.0
 11
23.4
 21
112.55
 31
0.0
  0
ARC
  8
0
  6
CONTINUOUS
 62
     2
 10
23.4
 20
112.35
 30
0.0
 40
0.2
 50
90.0
 51
180.0
  0
LINE
  8
0
  6
CONTINUOUS
 62
     2
 10
23.2
 20
112.35
 30
0.0
 11
23.2
 21
111.875
 31
0.0
  0
LINE
  8
0
  6
CONTINUOUS
 62
     2
 10
23.2
 20
111.875
 30
0.0
 11
22.8
 21
111.875
 31
0.0
  0
LINE
  8
0
  6
CONTINUOUS
 62
     2
 10
22.8
 20
111.875
 30
0.0
 11
22.8
 21
112.35
 31
0.0
  0
ARC
  8
0
  6
CONTINUOUS
 62
     2
 10
22.6
 20
112.35
 30
0.0
 40
0.2
 50
0.0
 51
90.0
  0
LINE
  8
0
  6
CONTINUOUS
 62
     2
 10
22.6
 20
112.55
 30
0.0
 11
22.125
 21
112.55
 31
0.0
  0
LINE
  8
0
  6
CONTINUOUS
 62
     2
 10
22.125
 20
112.55
 30
0.0
 11
22.125
 21
112.95
 31
0.0
  0
CIRCLE
  8
0
  6
CONTINUOUS
 62
     2
 10
59.0
 20
112.75
 30
0.0
 40
1.5
  0
LINE
  8
0
  6
CONTINUOUS
 62
     2
 10
58.125
 20
112.95
 30
0.0
 11
58.6
 21
112.95
 31
0.0
  0
ARC
  8
0
  6
CONTINUOUS
 62
     2
 10
58.6
 20
113.15
 30
0.0
 40
0.2
 50
270.0
 51
0.0
  0
LINE
  8
0
  6
CONTINUOUS
 62
     2
 10
58.8
 20
113.15
 30
0.0
 11
58.8
 21
113.625
 31
0.0
  0
LINE
  8
0
  6
CONTINUOUS
 62
     2
 10
58.8
 20
113.625
 30
0.0
 11
59.2
 21
113.625
 31
0.0
  0
LINE
  8
0
  6
CONTINUOUS
 62
     2
 10
59.2
 20
113.625
 30
0.0
 11
59.2
 21
113.15
 31
0.0
  0
ARC
  8
0
  6
CONTINUOUS
 62
     2
 10
59.4
 20
113.15
 30
0.0
 40
0.2
 50
180.0
 51
270.0
  0
LINE
  8
0
  6
CONTINUOUS
 62
     2
 10
59.4
 20
112.95
 30
0.0
 11
59.875
 21
112.95
 31
0.0
  0
LINE
  8
0
  6
CONTINUOUS
 62
     2
 10
59.875
 20
112.95
 30
0.0
 11
59.875
 21
112.55
 31
0.0
  0
LINE
  8
0
  6
CONTINUOUS
 62
     2
 10
59.875
 20
112.55
 30
0.0
 11
59.4
 21
112.55
 31
0.0
  0
ARC
  8
0
  6
CONTINUOUS
 62
     2
 10
59.4
 20
112.35
 30
0.0
 40
0.2
 50
90.0
 51
180.0
  0
LINE
  8
0
  6
CONTINUOUS
 62
     2
 10
59.2
 20
112.35
 30
0.0
 11
59.2
 21
111.875
 31
0.0
  0
LINE
  8
0
  6
CONTINUOUS
 62
     2
 10
59.2
 20
111.875
 30
0.0
 11
58.8
 21
111.875
 31
0.0
  0
LINE
  8
0
  6
CONTINUOUS
 62
     2
 10
58.8
 20
111.875
 30
0.0
 11
58.8
 21
112.35
 31
0.0
  0
ARC
  8
0
  6
CONTINUOUS
 62
     2
 10
58.6
 20
112.35
 30
0.0
 40
0.2
 50
0.0
 51
90.0
  0
LINE
  8
0
  6
CONTINUOUS
 62
     2
 10
58.6
 20
112.55
 30
0.0
 11
58.125
 21
112.55
 31
0.0
  0
LINE
  8
0
  6
CONTINUOUS
 62
     2
 10
58.125
 20
112.55
 30
0.0
 11
58.125
 21
112.95
 31
0.0
  0
LINE
  8
0
  6
CONTINUOUS
 62
     2
 10
24.736544033
 20
126.763455967
 30
0.0
 11
35.286544033
 21
115.513455967
 31
0.0
  0
LINE
  8
0
  6
CONTINUOUS
 62
     2
 10
24.786544033
 20
126.813455967
 30
0.0
 11
36.836544033
 21
115.488455967
 31
0.0
  0
LINE
  8
0
  6
CONTINUOUS
 62
     2
 10
87.010001538
 20
138.25
 30
0.0
 11
87.260001538
 21
138.25
 31
0.0
  0
LINE
  8
0
  6
CONTINUOUS
 62
     2
 10
87.010001538
 20
138.25
 30
0.0
 11
87.010001538
 21
115.5
 31
0.0
  0
LINE
  8
0
  6
CONTINUOUS
 62
     2
 10
87.010001538
 20
115.5
 30
0.0
 11
87.260001538
 21
115.5
 31
0.0
  0
ARC
  8
0
  6
LTYPE1
 62
     2
 10
168.25
 20
119.5
 30
0.0
 40
3.0
 50
90.0
 51
180.0
  0
LINE
  8
0
  6
LTYPE1
 62
     2
 10
165.25
 20
114.0
 30
0.0
 11
165.25
 21
119.5
 31
0.0
  0
LINE
  8
0
  6
LTYPE1
 62
     2
 10
181.75
 20
111.0
 30
0.0
 11
168.25
 21
111.0
 31
0.0
  0
ARC
  8
0
  6
LTYPE1
 62
     2
 10
168.25
 20
114.0
 30
0.0
 40
3.0
 50
180.0
 51
270.0
  0
LINE
  8
0
  6
LTYPE1
 62
     2
 10
168.275
 20
122.5
 30
0.0
 11
181.75
 21
122.5
 31
0.0
  0
ARC
  8
0
  6
LTYPE1
 62
     2
 10
181.75
 20
119.5
 30
0.0
 40
3.0
 50
0.0
 51
90.0
  0
ARC
  8
0
  6
LTYPE1
 62
     2
 10
181.75
 20
114.0
 30
0.0
 40
3.0
 50
270.0
 51
0.0
  0
LINE
  8
0
  6
LTYPE1
 62
     2
 10
184.75
 20
119.5
 30
0.0
 11
184.75
 21
114.0
 31
0.0
  0
POINT
  8
0
  6
LTYPE1
 62
     2
 10
170.0
 20
115.6
 30
0.0
  0
LINE
  8
0
  6
LTYPE1
 62
     2
 10
170.0
 20
115.6
 30
0.0
 11
167.5
 21
115.6
 31
0.0
  0
LINE
  8
0
  6
LTYPE1
 62
     2
 10
170.0
 20
115.6
 30
0.0
 11
170.0
 21
112.6
 31
0.0
  0
LINE
  8
0
  6
LTYPE1
 62
     2
 10
167.5
 20
115.6
 30
0.0
 11
167.5
 21
112.6
 31
0.0
  0
POINT
  8
0
  6
LTYPE1
 62
     2
 10
182.5
 20
115.6
 30
0.0
  0
LINE
  8
0
  6
LTYPE1
 62
     2
 10
182.5
 20
115.6
 30
0.0
 11
180.0
 21
115.6
 31
0.0
  0
LINE
  8
0
  6
LTYPE1
 62
     2
 10
182.5
 20
115.6
 30
0.0
 11
182.5
 21
112.6
 31
0.0
  0
LINE
  8
0
  6
LTYPE1
 62
     2
 10
180.0
 20
115.6
 30
0.0
 11
180.0
 21
112.6
 31
0.0
  0
LINE
  8
0
  6
CONTINUOUS
 62
     2
 10
103.25
 20
135.25
 30
0.0
 11
102.602952387
 21
132.835185434
 31
0.0
  0
LINE
  8
0
  6
CONTINUOUS
 62
     2
 10
103.25
 20
135.25
 30
0.0
 11
103.897047613
 21
132.835185434
 31
0.0
  0
LINE
  8
0
  6
CONTINUOUS
 62
     2
 10
103.25
 20
135.25
 30
0.0
 11
103.25
 21
103.0
 31
0.0
  0
LINE
  8
0
  6
CONTINUOUS
 62
     2
 10
103.25
 20
103.0
 30
0.0
 11
103.897047613
 21
105.414814566
 31
0.0
  0
LINE
  8
0
  6
CONTINUOUS
 62
     2
 10
103.25
 20
103.0
 30
0.0
 11
102.602952387
 21
105.414814566
 31
0.0
  0
TEXT
  8
0
  6
CONTINUOUS
 62
     2
 10
102.25
 20
115.825
 30
0.3
 40
3.0
  1
φ６５
 50
90.0
 41
0.666666667
 51
0.0
  7
KANJI2
  0
LINE
  8
0
  6
CONTINUOUS
 62
     2
 10
201.75
 20
103.0
 30
0.0
 11
202.397047613
 21
105.414814566
 31
0.0
  0
LINE
  8
0
  6
CONTINUOUS
 62
     2
 10
201.75
 20
103.0
 30
0.0
 11
201.102952387
 21
105.414814566
 31
0.0
  0
LINE
  8
0
  6
CONTINUOUS
 62
     2
 10
201.75
 20
103.0
 30
0.0
 11
201.75
 21
119.0
 31
0.0
  0
LINE
  8
0
  6
CONTINUOUS
 62
     2
 10
201.75
 20
119.0
 30
0.0
 11
201.102952387
 21
116.585185434
 31
0.0
  0
LINE
  8
0
  6
CONTINUOUS
 62
     2
 10
201.75
 20
119.0
 30
0.0
 11
202.397047613
 21
116.585185434
 31
0.0
  0
TEXT
  8
0
  6
CONTINUOUS
 62
     2
 10
200.75
 20
110.52
 30
0.18
 40
1.8
  1
±０．５
 50
90.0
 41
0.6
 51
0.0
  7
KANJI3
  0
LINE
  8
0
  6
CONTINUOUS
 62
     2
 10
201.75
 20
119.0
 30
0.0
 11
202.397047613
 21
121.414814566
 31
0.0
  0
LINE
  8
0
  6
CONTINUOUS
 62
     2
 10
201.75
 20
119.0
 30
0.0
 11
201.102952387
 21
121.414814566
 31
0.0
  0
LINE
  8
0
  6
CONTINUOUS
 62
     2
 10
201.75
 20
119.0
 30
0.0
 11
201.75
 21
135.0
 31
0.0
  0
LINE
  8
0
  6
CONTINUOUS
 62
     2
 10
201.75
 20
135.0
 30
0.0
 11
201.102952387
 21
132.585185434
 31
0.0
  0
LINE
  8
0
  6
CONTINUOUS
 62
     2
 10
201.75
 20
135.0
 30
0.0
 11
202.397047613
 21
132.585185434
 31
0.0
  0
TEXT
  8
0
  6
CONTINUOUS
 62
     2
 10
200.75
 20
126.52
 30
0.18
 40
1.8
  1
±０．５
 50
90.0
 41
0.6
 51
0.0
  7
KANJI3
  0
TEXT
  8
0
  6
CONTINUOUS
 62
     2
 10
200.75
 20
122.62
 30
0.3
 40
3.0
  1
３２
 50
90.0
 41
0.6
 51
0.0
  7
KANJI1
  0
TEXT
  8
0
  6
CONTINUOUS
 62
     2
 10
200.75
 20
106.62
 30
0.3
 40
3.0
  1
３２
 50
90.0
 41
0.6
 51
0.0
  7
KANJI1
  0
LINE
  8
0
  6
CONTINUOUS
 62
     2
 10
159.0
 20
145.0
 30
0.0
 11
161.414814566
 21
144.352952387
 31
0.0
  0
LINE
  8
0
  6
CONTINUOUS
 62
     2
 10
159.0
 20
145.0
 30
0.0
 11
161.414814566
 21
145.647047613
 31
0.0
  0
LINE
  8
0
  6
CONTINUOUS
 62
     2
 10
159.0
 20
145.0
 30
0.0
 11
175.0
 21
145.0
 31
0.0
  0
LINE
  8
0
  6
CONTINUOUS
 62
     2
 10
175.0
 20
145.0
 30
0.0
 11
172.585185434
 21
145.647047613
 31
0.0
  0
LINE
  8
0
  6
CONTINUOUS
 62
     2
 10
175.0
 20
145.0
 30
0.0
 11
172.585185434
 21
144.352952387
 31
0.0
  0
TEXT
  8
0
  6
CONTINUOUS
 62
     2
 10
166.52
 20
146.0
 30
0.18
 40
1.8
  1
±０．５
 50
0.0
 41
0.6
 51
0.0
  7
KANJI3
  0
LINE
  8
0
  6
CONTINUOUS
 62
     2
 10
175.0
 20
145.0
 30
0.0
 11
177.414814566
 21
144.352952387
 31
0.0
  0
LINE
  8
0
  6
CONTINUOUS
 62
     2
 10
175.0
 20
145.0
 30
0.0
 11
177.414814566
 21
145.647047613
 31
0.0
  0
LINE
  8
0
  6
CONTINUOUS
 62
     2
 10
175.0
 20
145.0
 30
0.0
 11
191.0
 21
145.0
 31
0.0
  0
LINE
  8
0
  6
CONTINUOUS
 62
     2
 10
191.0
 20
145.0
 30
0.0
 11
188.585185434
 21
145.647047613
 31
0.0
  0
LINE
  8
0
  6
CONTINUOUS
 62
     2
 10
191.0
 20
145.0
 30
0.0
 11
188.585185434
 21
144.352952387
 31
0.0
  0
TEXT
  8
0
  6
CONTINUOUS
 62
     2
 10
182.52
 20
146.0
 30
0.18
 40
1.8
  1
±０．５
 50
0.0
 41
0.6
 51
0.0
  7
KANJI3
  0
TEXT
  8
0
  6
CONTINUOUS
 62
     2
 10
178.62
 20
146.0
 30
0.3
 40
3.0
  1
３２
 50
0.0
 41
0.6
 51
0.0
  7
KANJI1
  0
TEXT
  8
0
  6
CONTINUOUS
 62
     2
 10
162.62
 20
146.0
 30
0.3
 40
3.0
  1
３２
 50
0.0
 41
0.6
 51
0.0
  7
KANJI1
  0
LINE
  8
0
  6
CONTINUOUS
 62
     2
 10
153.25
 20
150.0
 30
0.0
 11
155.664814566
 21
149.352952387
 31
0.0
  0
LINE
  8
0
  6
CONTINUOUS
 62
     2
 10
153.25
 20
150.0
 30
0.0
 11
155.664814566
 21
150.647047613
 31
0.0
  0
LINE
  8
0
  6
CONTINUOUS
 62
     2
 10
153.25
 20
150.0
 30
0.0
 11
196.75
 21
150.0
 31
0.0
  0
LINE
  8
0
  6
CONTINUOUS
 62
     2
 10
196.75
 20
150.0
 30
0.0
 11
194.335185434
 21
150.647047613
 31
0.0
  0
LINE
  8
0
  6
CONTINUOUS
 62
     2
 10
196.75
 20
150.0
 30
0.0
 11
194.335185434
 21
149.352952387
 31
0.0
  0
TEXT
  8
0
  6
CONTINUOUS
 62
     2
 10
177.88
 20
151.0
 30
0.18
 40
1.8
  1
±１
 50
0.0
 41
0.6
 51
0.0
  7
KANJI3
  0
TEXT
  8
0
  6
CONTINUOUS
 62
     2
 10
172.78
 20
151.0
 30
0.3
 40
3.0
  1
８７
 50
0.0
 41
0.6
 51
0.0
  7
KANJI1
  0
LINE
  8
0
  6
CONTINUOUS
 62
     2
 10
153.25
 20
139.35
 30
0.0
 11
153.25
 21
152.0
 31
0.0
  0
LINE
  8
0
  6
CONTINUOUS
 62
     2
 10
196.75
 20
139.35
 30
0.0
 11
196.75
 21
152.0
 31
0.0
  0
LINE
  8
0
  6
CONTINUOUS
 62
     2
 10
93.260001538
 20
145.0
 30
0.0
 11
98.26
 21
145.0
 31
0.0
  0
TEXT
  8
0
  6
CONTINUOUS
 62
     2
 10
93.810000769
 20
146.0
 30
0.3
 40
3.0
  1
１０
 50
0.0
 41
0.6
 51
0.0
  7
KANJI1
  0
LINE
  8
0
  6
CONTINUOUS
 62
     2
 10
98.26
 20
145.0
 30
0.0
 11
96.45
 21
145.484988038
 31
0.0
  0
LINE
  8
0
  6
CONTINUOUS
 62
     2
 10
98.26
 20
145.0
 30
0.0
 11
96.45
 21
144.515011962
 31
0.0
  0
LINE
  8
0
  6
CONTINUOUS
 62
     2
 10
93.260001538
 20
145.0
 30
0.0
 11
95.05
 21
144.520371358
 31
0.0
  0
LINE
  8
0
  6
CONTINUOUS
 62
     2
 10
93.260001538
 20
145.0
 30
0.0
 11
95.05
 21
145.479628642
 31
0.0
  0
LINE
  8
0
  6
CONTINUOUS
 62
     2
 10
93.0
 20
145.0
 30
0.0
 11
90.585185434
 21
145.647047613
 31
0.0
  0
LINE
  8
0
  6
CONTINUOUS
 62
     2
 10
93.0
 20
145.0
 30
0.0
 11
90.585185434
 21
144.352952387
 31
0.0
  0
LINE
  8
0
  6
CONTINUOUS
 62
     2
 10
93.0
 20
145.0
 30
0.0
 11
88.55
 21
145.0
 31
0.0
  0
TEXT
  8
0
  6
CONTINUOUS
 62
     2
 10
88.825
 20
146.0
 30
0.3
 40
3.0
  1
０．５
 50
0.0
 41
0.3
 51
0.0
  7
KANJI4
  0
LINE
  8
0
  6
CONTINUOUS
 62
     2
 10
108.25
 20
150.0
 30
0.0
 11
105.835185434
 21
150.647047613
 31
0.0
  0
LINE
  8
0
  6
CONTINUOUS
 62
     2
 10
108.25
 20
150.0
 30
0.0
 11
105.835185434
 21
149.352952387
 31
0.0
  0
LINE
  8
0
  6
CONTINUOUS
 62
     2
 10
108.25
 20
150.0
 30
0.0
 11
93.26
 21
150.0
 31
0.0
  0
LINE
  8
0
  6
CONTINUOUS
 62
     2
 10
93.26
 20
150.0
 30
0.0
 11
95.674814566
 21
149.352952387
 31
0.0
  0
LINE
  8
0
  6
CONTINUOUS
 62
     2
 10
93.26
 20
150.0
 30
0.0
 11
95.674814566
 21
150.647047613
 31
0.0
  0
TEXT
  8
0
  6
CONTINUOUS
 62
     2
 10
98.805
 20
151.0
 30
0.3
 40
3.0
  1
３０
 50
0.0
 41
0.6
 51
0.0
  7
KANJI1
  0
LINE
  8
0
  6
CONTINUOUS
 62
     2
 10
108.25
 20
150.0
 30
0.0
 11
110.664814566
 21
149.352952387
 31
0.0
  0
LINE
  8
0
  6
CONTINUOUS
 62
     2
 10
108.25
 20
150.0
 30
0.0
 11
110.664814566
 21
150.647047613
 31
0.0
  0
LINE
  8
0
  6
CONTINUOUS
 62
     2
 10
108.25
 20
135.75
 30
0.0
 11
108.25
 21
152.0
 31
0.0
  0
LINE
  8
0
  6
CONTINUOUS
 62
     2
 10
98.26
 20
136.835
 30
0.0
 11
98.26
 21
147.0
 31
0.0
  0
LINE
  8
0
  6
CONTINUOUS
 62
     2
 10
93.26
 20
150.0
 30
0.0
 11
90.845185434
 21
150.647047613
 31
0.0
  0
LINE
  8
0
  6
CONTINUOUS
 62
     2
 10
93.26
 20
150.0
 30
0.0
 11
90.845185434
 21
149.352952387
 31
0.0
  0
LINE
  8
0
  6
CONTINUOUS
 62
     2
 10
93.26
 20
150.0
 30
0.0
 11
87.010001538
 21
150.0
 31
0.0
  0
LINE
  8
0
  6
CONTINUOUS
 62
     2
 10
87.010001538
 20
150.0
 30
0.0
 11
89.424816104
 21
149.352952387
 31
0.0
  0
LINE
  8
0
  6
CONTINUOUS
 62
     2
 10
87.010001538
 20
150.0
 30
0.0
 11
89.424816104
 21
150.647047613
 31
0.0
  0
TEXT
  8
0
  6
CONTINUOUS
 62
     2
 10
87.985000769
 20
151.0
 30
0.3
 40
3.0
  1
１２．５
 50
0.0
 41
0.3
 51
0.0
  7
KANJI4
  0
LINE
  8
0
  6
CONTINUOUS
 62
     2
 10
93.26
 20
138.06
 30
0.0
 11
93.26
 21
152.0
 31
0.0
  0
LINE
  8
0
  6
CONTINUOUS
 62
     2
 10
93.0
 20
141.0
 30
0.0
 11
93.0
 21
147.0
 31
0.0
  0
LINE
  8
0
  6
CONTINUOUS
 62
     2
 10
87.010001538
 20
139.25
 30
0.0
 11
87.010001538
 21
152.0
 31
0.0
  0
LINE
  8
0
  6
CONTINUOUS
 62
     2
 10
27.655421212
 20
52.876526437
 30
0.0
 11
29.970349728
 21
53.820510531
 31
0.0
  0
LINE
  8
0
  6
CONTINUOUS
 62
     2
 10
27.655421212
 20
52.876526437
 30
0.0
 11
29.188216068
 21
54.8515049
 31
0.0
  0
LINE
  8
0
  6
CONTINUOUS
 62
     2
 10
27.655421212
 20
52.876526437
 30
0.0
 11
54.344578788
 21
73.123473563
 31
0.0
  0
LINE
  8
0
  6
CONTINUOUS
 62
     2
 10
54.344578788
 20
73.123473563
 30
0.0
 11
52.029650272
 21
72.179489469
 31
0.0
  0
LINE
  8
0
  6
CONTINUOUS
 62
     2
 10
54.344578788
 20
73.123473563
 30
0.0
 11
52.811783932
 21
71.1484951
 31
0.0
  0
TEXT
  8
0
  6
CONTINUOUS
 62
     2
 10
28.795613519
 20
54.996691271
 30
0.3
 40
3.0
  1
φ６７
 50
37.184706453
 41
0.6
 51
0.0
  7
KANJI1
  0
TEXT
  8
0
  6
CONTINUOUS
 62
     2
 10
33.575761144
 20
58.623010159
 30
0.18
 40
1.8
  1
±１
 50
37.184706453
 41
0.6
 51
0.0
  7
KANJI3
  0
LINE
  8
0
  6
LTYPE2
 62
     2
 10
188.0
 20
135.0
 30
0.0
 11
194.0
 21
135.0
 31
0.0
  0
LINE
  8
0
  6
LTYPE2
 62
     2
 10
191.0
 20
138.0
 30
0.0
 11
191.0
 21
132.0
 31
0.0
  0
LINE
  8
0
  6
LTYPE2
 62
     2
 10
188.0
 20
103.0
 30
0.0
 11
194.0
 21
103.0
 31
0.0
  0
LINE
  8
0
  6
LTYPE2
 62
     2
 10
191.0
 20
106.0
 30
0.0
 11
191.0
 21
100.0
 31
0.0
  0
LINE
  8
0
  6
LTYPE2
 62
     2
 10
159.0
 20
106.0
 30
0.0
 11
159.0
 21
100.0
 31
0.0
  0
LINE
  8
0
  6
LTYPE2
 62
     2
 10
21.0
 20
112.75
 30
0.0
 11
25.0
 21
112.75
 31
0.0
  0
LINE
  8
0
  6
LTYPE2
 62
     2
 10
37.8
 20
105.5
 30
0.0
 11
44.2
 21
105.5
 31
0.0
  0
LINE
  8
0
  6
LTYPE2
 62
     2
 10
57.0
 20
112.75
 30
0.0
 11
61.0
 21
112.75
 31
0.0
  0
LINE
  8
0
  6
LTYPE2
 62
     2
 10
59.0
 20
114.75
 30
0.0
 11
59.0
 21
110.75
 31
0.0
  0
LINE
  8
0
  6
LTYPE2
 62
     2
 10
23.0
 20
114.75
 30
0.0
 11
23.0
 21
110.75
 31
0.0
  0
LINE
  8
0
  6
LTYPE2
 62
     2
 10
92.21
 20
135.01
 30
0.0
 11
99.61
 21
135.01
 31
0.0
  0
LINE
  8
0
  6
LTYPE2
 62
     2
 10
92.2
 20
103.0
 30
0.0
 11
99.6
 21
103.0
 31
0.0
  0
LINE
  8
0
  6
LTYPE2
 62
     2
 10
156.0
 20
135.0
 30
0.0
 11
162.0
 21
135.0
 31
0.0
  0
LINE
  8
0
  6
LTYPE2
 62
     2
 10
159.0
 20
138.0
 30
0.0
 11
159.0
 21
132.0
 31
0.0
  0
LINE
  8
0
  6
LTYPE2
 62
     2
 10
168.75
 20
122.0
 30
0.0
 11
168.75
 21
116.0
 31
0.0
  0
LINE
  8
0
  6
LTYPE2
 62
     2
 10
181.25
 20
122.0
 30
0.0
 11
181.25
 21
116.0
 31
0.0
  0
LINE
  8
0
  6
LTYPE2
 62
     2
 10
156.0
 20
103.0
 30
0.0
 11
162.0
 21
103.0
 31
0.0
  0
LINE
  8
0
  6
LTYPE2
 62
     2
 10
22.5025
 20
79.0
 30
0.0
 11
27.5025
 21
79.0
 31
0.0
  0
LINE
  8
0
  6
LTYPE2
 62
     2
 10
25.0025
 20
76.5
 30
0.0
 11
25.0025
 21
81.5
 31
0.0
  0
LINE
  8
0
  6
LTYPE2
 62
     2
 10
54.5
 20
79.0
 30
0.0
 11
59.5
 21
79.0
 31
0.0
  0
LINE
  8
0
  6
LTYPE2
 62
     2
 10
57.0
 20
76.5
 30
0.0
 11
57.0
 21
81.5
 31
0.0
  0
LINE
  8
0
  6
LTYPE2
 62
     2
 10
54.5
 20
47.0
 30
0.0
 11
59.5
 21
47.0
 31
0.0
  0
LINE
  8
0
  6
LTYPE2
 62
     2
 10
57.0
 20
44.5
 30
0.0
 11
57.0
 21
49.5
 31
0.0
  0
LINE
  8
0
  6
LTYPE2
 62
     2
 10
22.5025
 20
47.0
 30
0.0
 11
27.5025
 21
47.0
 31
0.0
  0
LINE
  8
0
  6
LTYPE2
 62
     2
 10
25.0025
 20
44.5
 30
0.0
 11
25.0025
 21
49.5
 31
0.0
  0
TEXT
  8
0
  6
CONTINUOUS
 62
     2
 10
44.6225
 20
86.0
 30
0.3
 40
3.0
  1
３２
 50
0.0
 41
0.6
 51
0.0
  7
KANJI1
  0
TEXT
  8
0
  6
CONTINUOUS
 62
     2
 10
48.5225
 20
86.0
 30
0.18
 40
1.8
  1
±０．５
 50
0.0
 41
0.6
 51
0.0
  7
KANJI3
  0
LINE
  8
0
  6
CONTINUOUS
 62
     2
 10
41.0025
 20
85.0
 30
0.0
 11
25.0
 21
85.0
 31
0.0
  0
LINE
  8
0
  6
CONTINUOUS
 62
     2
 10
25.0
 20
85.0
 30
0.0
 11
27.414814566
 21
84.352952387
 31
0.0
  0
LINE
  8
0
  6
CONTINUOUS
 62
     2
 10
25.0
 20
85.0
 30
0.0
 11
27.414814566
 21
85.647047613
 31
0.0
  0
TEXT
  8
0
  6
CONTINUOUS
 62
     2
 10
28.62125
 20
86.0
 30
0.3
 40
3.0
  1
３２
 50
0.0
 41
0.6
 51
0.0
  7
KANJI1
  0
TEXT
  8
0
  6
CONTINUOUS
 62
     2
 10
32.52125
 20
86.0
 30
0.18
 40
1.8
  1
±０．５
 50
0.0
 41
0.6
 51
0.0
  7
KANJI3
  0
LINE
  8
0
  6
CONTINUOUS
 62
     2
 10
40.995
 20
85.0
 30
0.0
 11
43.409814566
 21
84.352952387
 31
0.0
  0
LINE
  8
0
  6
CONTINUOUS
 62
     2
 10
40.995
 20
85.0
 30
0.0
 11
43.409814566
 21
85.647047613
 31
0.0
  0
LINE
  8
0
  6
CONTINUOUS
 62
     2
 10
40.995
 20
85.0
 30
0.0
 11
38.580185434
 21
85.647047613
 31
0.0
  0
LINE
  8
0
  6
CONTINUOUS
 62
     2
 10
40.995
 20
85.0
 30
0.0
 11
38.580185434
 21
84.352952387
 31
0.0
  0
LINE
  8
0
  6
CONTINUOUS
 62
     2
 10
56.9875
 20
85.0
 30
0.0
 11
54.572685434
 21
85.647047613
 31
0.0
  0
LINE
  8
0
  6
CONTINUOUS
 62
     2
 10
56.9875
 20
85.0
 30
0.0
 11
54.572685434
 21
84.352952387
 31
0.0
  0
LINE
  8
0
  6
CONTINUOUS
 62
     2
 10
57.0
 20
85.0
 30
0.0
 11
41.0025
 21
85.0
 31
0.0
  0
LINE
  8
0
  6
CONTINUOUS
 62
     2
 10
25.0025
 20
82.0
 30
0.0
 11
25.0025
 21
87.0
 31
0.0
  0
LINE
  8
0
  6
CONTINUOUS
 62
     2
 10
57.0
 20
82.0
 30
0.0
 11
57.0
 21
87.0
 31
0.0
  0
LINE
  8
0
  6
CONTINUOUS
 62
     2
 10
63.0
 20
79.0
 30
0.0
 11
62.352952387
 21
76.585185434
 31
0.0
  0
LINE
  8
0
  6
CONTINUOUS
 62
     2
 10
63.0
 20
79.0
 30
0.0
 11
63.647047613
 21
76.585185434
 31
0.0
  0
LINE
  8
0
  6
CONTINUOUS
 62
     2
 10
63.0
 20
79.0
 30
0.0
 11
63.0
 21
63.0
 31
0.0
  0
LINE
  8
0
  6
CONTINUOUS
 62
     2
 10
63.0
 20
63.0
 30
0.0
 11
63.647047613
 21
65.414814566
 31
0.0
  0
LINE
  8
0
  6
CONTINUOUS
 62
     2
 10
63.0
 20
63.0
 30
0.0
 11
62.352952387
 21
65.414814566
 31
0.0
  0
TEXT
  8
0
  6
CONTINUOUS
 62
     2
 10
62.0
 20
66.62
 30
0.3
 40
3.0
  1
３２
 50
90.0
 41
0.6
 51
0.0
  7
KANJI1
  0
TEXT
  8
0
  6
CONTINUOUS
 62
     2
 10
62.0
 20
70.52
 30
0.18
 40
1.8
  1
±０．５
 50
90.0
 41
0.6
 51
0.0
  7
KANJI3
  0
LINE
  8
0
  6
CONTINUOUS
 62
     2
 10
63.0
 20
63.0
 30
0.0
 11
62.352952387
 21
60.585185434
 31
0.0
  0
LINE
  8
0
  6
CONTINUOUS
 62
     2
 10
63.0
 20
63.0
 30
0.0
 11
63.647047613
 21
60.585185434
 31
0.0
  0
LINE
  8
0
  6
CONTINUOUS
 62
     2
 10
63.0
 20
63.0
 30
0.0
 11
63.0
 21
47.0
 31
0.0
  0
TEXT
  8
0
  6
CONTINUOUS
 62
     2
 10
62.0
 20
50.62
 30
0.3
 40
3.0
  1
３２
 50
90.0
 41
0.6
 51
0.0
  7
KANJI1
  0
TEXT
  8
0
  6
CONTINUOUS
 62
     2
 10
62.0
 20
54.52
 30
0.18
 40
1.8
  1
±０．５
 50
90.0
 41
0.6
 51
0.0
  7
KANJI3
  0
LINE
  8
0
  6
CONTINUOUS
 62
     2
 10
63.0
 20
47.0
 30
0.0
 11
63.647047613
 21
49.414814566
 31
0.0
  0
LINE
  8
0
  6
CONTINUOUS
 62
     2
 10
63.0
 20
47.0
 30
0.0
 11
62.352952387
 21
49.414814566
 31
0.0
  0
LINE
  8
0
  6
CONTINUOUS
 62
     2
 10
60.0
 20
47.0
 30
0.0
 11
65.0
 21
47.0
 31
0.0
  0
LINE
  8
0
  6
CONTINUOUS
 62
     2
 10
60.0
 20
79.0
 30
0.0
 11
65.0
 21
79.0
 31
0.0
  0
LINE
  8
0
  6
CONTINUOUS
 62
     2
 10
60.0
 20
63.0
 30
0.0
 11
65.0
 21
63.0
 31
0.0
  0
LINE
  8
0
  6
CONTINUOUS
 62
     2
 10
93.0
 20
145.0
 30
0.0
 11
93.26
 21
145.0
 31
0.0
  0
LINE
  8
0
  6
CONTINUOUS
 62
     2
 10
159.0
 20
138.5
 30
0.0
 11
159.0
 21
147.0
 31
0.0
  0
LINE
  8
0
  6
CONTINUOUS
 62
     2
 10
191.0
 20
138.5
 30
0.0
 11
191.0
 21
147.0
 31
0.0
  0
LINE
  8
0
  6
CONTINUOUS
 62
     2
 10
175.0
 20
138.5
 30
0.0
 11
175.0
 21
147.0
 31
0.0
  0
LINE
  8
0
  6
CONTINUOUS
 62
     2
 10
194.5
 20
135.0
 30
0.0
 11
203.75
 21
135.0
 31
0.0
  0
LINE
  8
0
  6
CONTINUOUS
 62
     2
 10
194.5
 20
103.0
 30
0.0
 11
203.75
 21
103.0
 31
0.0
  0
LINE
  8
0
  6
CONTINUOUS
 62
     2
 10
199.35
 20
119.0
 30
0.0
 11
203.75
 21
119.0
 31
0.0
  0
LINE
  8
0
  6
CONTINUOUS
 62
     2
 10
207.25
 20
140.0
 30
0.0
 11
206.602952387
 21
137.585185434
 31
0.0
  0
LINE
  8
0
  6
CONTINUOUS
 62
     2
 10
207.25
 20
140.0
 30
0.0
 11
207.897047613
 21
137.585185434
 31
0.0
  0
LINE
  8
0
  6
CONTINUOUS
 62
     2
 10
207.25
 20
140.0
 30
0.0
 11
207.25
 21
100.0
 31
0.0
  0
LINE
  8
0
  6
CONTINUOUS
 62
     2
 10
207.25
 20
100.0
 30
0.0
 11
207.897047613
 21
102.414814566
 31
0.0
  0
LINE
  8
0
  6
CONTINUOUS
 62
     2
 10
207.25
 20
100.0
 30
0.0
 11
206.602952387
 21
102.414814566
 31
0.0
  0
TEXT
  8
0
  6
CONTINUOUS
 62
     2
 10
206.25
 20
120.78
 30
0.18
 40
1.8
  1
±１
 50
90.0
 41
0.6
 51
0.0
  7
KANJI3
  0
TEXT
  8
0
  6
CONTINUOUS
 62
     2
 10
206.25
 20
116.88
 30
0.3
 40
3.0
  1
８０
 50
90.0
 41
0.6
 51
0.0
  7
KANJI1
  0
LINE
  8
0
  6
CONTINUOUS
 62
     2
 10
196.1
 20
140.0
 30
0.0
 11
209.25
 21
140.0
 31
0.0
  0
LINE
  8
0
  6
CONTINUOUS
 62
     2
 10
196.1
 20
100.0
 30
0.0
 11
209.25
 21
100.0
 31
0.0
  0
LINE
  8
0
  6
LTYPE2
 62
     2
 10
41.0
 20
148.0
 30
0.0
 11
41.0
 21
90.15
 31
0.0
  0
LINE
  8
0
  6
LTYPE2
 62
     2
 10
198.75
 20
120.0
 30
0.0
 11
13.65
 21
120.0
 31
0.0
  0
LINE
  8
0
  6
LTYPE2
 62
     2
 10
175.0
 20
138.0
 30
0.0
 11
175.0
 21
91.5
 31
0.0
  0
LINE
  8
0
  6
LTYPE2
 62
     2
 10
147.0
 20
119.0
 30
0.0
 11
198.85
 21
119.0
 31
0.0
  0
LINE
  8
0
  6
LTYPE2
 62
     2
 10
16.05
 20
63.0
 30
0.0
 11
59.5
 21
63.0
 31
0.0
  0
LINE
  8
0
  6
LTYPE2
 62
     2
 10
41.0
 20
81.5
 30
0.0
 11
41.0
 21
42.05
 31
0.0
  0
LINE
  8
0
  6
CONTINUOUS
 62
     2
 10
41.0
 20
82.0
 30
0.0
 11
41.0
 21
87.0
 31
0.0
  0
LINE
  8
0
  6
CONTINUOUS
 62
     2
 10
96.324284184
 20
101.0
 30
0.0
 11
96.954400657
 21
98.580712247
 31
0.0
  0
LINE
  8
0
  6
CONTINUOUS
 62
     2
 10
96.324284184
 20
101.0
 30
0.0
 11
98.079624933
 21
99.219893584
 31
0.0
  0
TEXT
  8
0
  6
CONTINUOUS
 62
     2
 10
99.732571845
 20
96.0
 30
0.5
 40
3.0
  1
Ｍ３取付ボルト
 50
0.0
 41
0.9
 51
0.0
  7
KANJI5
  0
LINE
  8
0
  6
CONTINUOUS
 62
     2
 10
96.324284184
 20
101.0
 30
0.0
 11
99.732571845
 21
95.0
 31
0.0
  0
LINE
  8
0
  6
CONTINUOUS
 62
     2
 10
99.732571845
 20
95.0
 30
0.0
 11
121.332571845
 21
95.0
 31
0.0
  0
LINE
  8
0
  6
CONTINUOUS
 62
     2
 10
39.3
 20
105.7
 30
0.0
 11
42.7
 21
105.7
 31
0.0
  0
LINE
  8
0
  6
CONTINUOUS
 62
     2
 10
42.7
 20
105.3
 30
0.0
 11
39.3
 21
105.3
 31
0.0
  0
CIRCLE
  8
0
  6
CONTINUOUS
 62
     2
 10
41.0
 20
105.5
 30
0.0
 40
1.75
  0
LINE
  8
0
  6
CONTINUOUS
 62
     2
 10
40.0
 20
103.888455967
 30
0.0
 11
39.369883527
 21
101.469168215
 31
0.0
  0
LINE
  8
0
  6
CONTINUOUS
 62
     2
 10
40.0
 20
103.888455967
 30
0.0
 11
38.244659251
 21
102.108349551
 31
0.0
  0
LINE
  8
0
  6
CONTINUOUS
 62
     2
 10
40.0
 20
103.888455967
 30
0.0
 11
34.950930866
 21
95.0
 31
0.0
  0
LINE
  8
0
  6
CONTINUOUS
 62
     2
 10
25.510001538
 20
127.0
 30
0.0
 11
26.140118011
 21
129.419287753
 31
0.0
  0
LINE
  8
0
  6
CONTINUOUS
 62
     2
 10
25.510001538
 20
127.0
 30
0.0
 11
27.265342287
 21
128.780106416
 31
0.0
  0
LINE
  8
0
  6
CONTINUOUS
 62
     2
 10
38.575104241
 20
150.0
 30
0.0
 11
44.275104241
 21
150.0
 31
0.0
  0
TEXT
  8
0
  6
CONTINUOUS
 62
     2
 10
38.575104241
 20
151.0
 30
0.3
 40
3.0
  1
指針
 50
0.0
 41
0.9
 51
0.0
  7
KANJI6
  0
LINE
  8
0
  6
CONTINUOUS
 62
     2
 10
25.510001538
 20
127.0
 30
0.0
 11
38.575104241
 21
150.0
 31
0.0
  0
LINE
  8
0
  6
CONTINUOUS
 62
     2
 10
58.0
 20
46.0
 30
0.0
 11
58.630116473
 21
43.580712247
 31
0.0
  0
LINE
  8
0
  6
CONTINUOUS
 62
     2
 10
58.0
 20
46.0
 30
0.0
 11
59.755340749
 21
44.219893584
 31
0.0
  0
TEXT
  8
0
  6
CONTINUOUS
 62
     2
 10
62.886883549
 20
38.521544033
 30
0.3
 40
3.0
  1
４－φ４
 50
0.0
 41
0.9
 51
0.0
  7
KANJI6
  0
TEXT
  8
0
  6
CONTINUOUS
 62
     2
 10
74.624009297
 20
38.861544033
 30
0.18
 40
1.8
  1
－０
 50
0.0
 41
0.6
 51
0.0
  7
KANJI3
  0
TEXT
  8
0
  6
CONTINUOUS
 62
     2
 10
74.624009297
 20
40.661544033
 30
0.18
 40
1.8
  1
＋０．５
 50
0.0
 41
0.6
 51
0.0
  7
KANJI3
  0
LINE
  8
0
  6
CONTINUOUS
 62
     2
 10
62.544383549
 20
38.0
 30
0.0
 11
79.644383549
 21
38.0
 31
0.0
  0
LINE
  8
0
  6
CONTINUOUS
 62
     2
 10
58.0
 20
46.0
 30
0.0
 11
62.544383549
 21
38.0
 31
0.0
  0
LINE
  8
0
  6
CONTINUOUS
 62
     2
 10
93.0
 20
136.96
 30
0.0
 11
93.25
 21
136.96
 31
0.0
  0
LINE
  8
0
  6
CONTINUOUS
 62
     2
 10
93.25
 20
132.96
 30
0.0
 11
93.0
 21
132.96
 31
0.0
  0
LINE
  8
0
  6
CONTINUOUS
 62
     2
 10
93.25
 20
136.96
 30
0.0
 11
93.25
 21
132.96
 31
0.0
  0
LINE
  8
0
  6
CONTINUOUS
 62
     2
 10
95.6
 20
136.535
 30
0.0
 11
95.8
 21
136.335
 31
0.0
  0
LINE
  8
0
  6
CONTINUOUS
 62
     2
 10
95.575
 20
135.71
 30
0.0
 11
95.775
 21
135.91
 31
0.0
  0
LINE
  8
0
  6
CONTINUOUS
 62
     2
 10
95.775
 20
135.51
 30
0.0
 11
95.575
 21
135.71
 31
0.0
  0
LINE
  8
0
  6
CONTINUOUS
 62
     2
 10
94.6
 20
136.535
 30
0.0
 11
95.6
 21
136.535
 31
0.0
  0
LINE
  8
0
  6
CONTINUOUS
 62
     2
 10
94.6
 20
135.71
 30
0.0
 11
95.575
 21
135.71
 31
0.0
  0
LINE
  8
0
  6
CONTINUOUS
 62
     2
 10
95.6
 20
133.435
 30
0.0
 11
95.8
 21
133.635
 31
0.0
  0
LINE
  8
0
  6
CONTINUOUS
 62
     2
 10
95.6
 20
133.435
 30
0.0
 11
94.6
 21
133.435
 31
0.0
  0
LINE
  8
0
  6
CONTINUOUS
 62
     2
 10
94.6
 20
133.435
 30
0.0
 11
94.6
 21
136.535
 31
0.0
  0
LINE
  8
0
  6
CONTINUOUS
 62
     2
 10
95.8
 20
136.335
 30
0.0
 11
95.8
 21
133.635
 31
0.0
  0
LINE
  8
0
  6
CONTINUOUS
 62
     2
 10
95.8
 20
135.735
 30
0.0
 11
98.25
 21
135.735
 31
0.0
  0
LINE
  8
0
  6
CONTINUOUS
 62
     2
 10
98.23
 20
135.56
 30
0.0
 11
95.8
 21
135.56
 31
0.0
  0
LINE
  8
0
  6
CONTINUOUS
 62
     2
 10
94.6
 20
136.535
 30
0.0
 11
94.3
 21
136.835
 31
0.0
  0
LINE
  8
0
  6
CONTINUOUS
 62
     2
 10
94.3
 20
136.835
 30
0.0
 11
94.3
 21
133.135
 31
0.0
  0
LINE
  8
0
  6
CONTINUOUS
 62
     2
 10
94.6
 20
133.435
 30
0.0
 11
94.3
 21
133.135
 31
0.0
  0
LINE
  8
0
  6
CONTINUOUS
 62
     2
 10
94.3
 20
134.46
 30
0.0
 11
93.25
 21
134.46
 31
0.0
  0
LINE
  8
0
  6
CONTINUOUS
 62
     2
 10
93.25
 20
135.71
 30
0.0
 11
94.3
 21
135.71
 31
0.0
  0
LINE
  8
0
  6
CONTINUOUS
 62
     2
 10
94.3
 20
135.56
 30
0.0
 11
93.25
 21
135.56
 31
0.0
  0
LINE
  8
0
  6
CONTINUOUS
 62
     2
 10
98.25
 20
135.735
 30
0.0
 11
98.25
 21
134.285
 31
0.0
  0
LINE
  8
0
  6
CONTINUOUS
 62
     2
 10
98.25
 20
134.285
 30
0.0
 11
95.8
 21
134.285
 31
0.0
  0
LINE
  8
0
  6
CONTINUOUS
 62
     2
 10
95.8
 20
134.46
 30
0.0
 11
98.25
 21
134.46
 31
0.0
  0
LINE
  8
0
  6
CONTINUOUS
 62
     2
 10
95.585
 20
134.285
 30
0.0
 11
94.6
 21
134.285
 31
0.0
  0
LINE
  8
0
  6
CONTINUOUS
 62
     2
 10
93.25
 20
134.285
 30
0.0
 11
94.3
 21
134.285
 31
0.0
  0
LINE
  8
0
  6
CONTINUOUS
 62
     2
 10
95.585
 20
134.285
 30
0.0
 11
95.785
 21
134.485
 31
0.0
  0
LINE
  8
0
  6
CONTINUOUS
 62
     2
 10
95.785
 20
134.085
 30
0.0
 11
95.585
 21
134.285
 31
0.0
  0
LINE
  8
0
  6
CONTINUOUS
 62
     2
 10
93.0
 20
104.95
 30
0.0
 11
93.25
 21
104.95
 31
0.0
  0
LINE
  8
0
  6
CONTINUOUS
 62
     2
 10
93.25
 20
100.95
 30
0.0
 11
93.0
 21
100.95
 31
0.0
  0
LINE
  8
0
  6
CONTINUOUS
 62
     2
 10
93.25
 20
104.95
 30
0.0
 11
93.25
 21
100.95
 31
0.0
  0
LINE
  8
0
  6
CONTINUOUS
 62
     2
 10
95.6
 20
104.525
 30
0.0
 11
95.8
 21
104.325
 31
0.0
  0
LINE
  8
0
  6
CONTINUOUS
 62
     2
 10
95.575
 20
103.7
 30
0.0
 11
95.775
 21
103.9
 31
0.0
  0
LINE
  8
0
  6
CONTINUOUS
 62
     2
 10
95.775
 20
103.5
 30
0.0
 11
95.575
 21
103.7
 31
0.0
  0
LINE
  8
0
  6
CONTINUOUS
 62
     2
 10
94.6
 20
104.525
 30
0.0
 11
95.6
 21
104.525
 31
0.0
  0
LINE
  8
0
  6
CONTINUOUS
 62
     2
 10
94.6
 20
103.7
 30
0.0
 11
95.575
 21
103.7
 31
0.0
  0
LINE
  8
0
  6
CONTINUOUS
 62
     2
 10
95.6
 20
101.425
 30
0.0
 11
95.8
 21
101.625
 31
0.0
  0
LINE
  8
0
  6
CONTINUOUS
 62
     2
 10
95.6
 20
101.425
 30
0.0
 11
94.6
 21
101.425
 31
0.0
  0
LINE
  8
0
  6
CONTINUOUS
 62
     2
 10
94.6
 20
101.425
 30
0.0
 11
94.6
 21
104.525
 31
0.0
  0
LINE
  8
0
  6
CONTINUOUS
 62
     2
 10
95.8
 20
104.325
 30
0.0
 11
95.8
 21
101.625
 31
0.0
  0
LINE
  8
0
  6
CONTINUOUS
 62
     2
 10
95.8
 20
103.725
 30
0.0
 11
98.25
 21
103.725
 31
0.0
  0
LINE
  8
0
  6
CONTINUOUS
 62
     2
 10
98.23
 20
103.55
 30
0.0
 11
95.8
 21
103.55
 31
0.0
  0
LINE
  8
0
  6
CONTINUOUS
 62
     2
 10
94.6
 20
104.525
 30
0.0
 11
94.3
 21
104.825
 31
0.0
  0
LINE
  8
0
  6
CONTINUOUS
 62
     2
 10
94.3
 20
104.825
 30
0.0
 11
94.3
 21
101.125
 31
0.0
  0
LINE
  8
0
  6
CONTINUOUS
 62
     2
 10
94.6
 20
101.425
 30
0.0
 11
94.3
 21
101.125
 31
0.0
  0
LINE
  8
0
  6
CONTINUOUS
 62
     2
 10
94.3
 20
102.45
 30
0.0
 11
93.25
 21
102.45
 31
0.0
  0
LINE
  8
0
  6
CONTINUOUS
 62
     2
 10
93.25
 20
103.7
 30
0.0
 11
94.3
 21
103.7
 31
0.0
  0
LINE
  8
0
  6
CONTINUOUS
 62
     2
 10
94.3
 20
103.55
 30
0.0
 11
93.25
 21
103.55
 31
0.0
  0
LINE
  8
0
  6
CONTINUOUS
 62
     2
 10
98.25
 20
103.725
 30
0.0
 11
98.25
 21
102.275
 31
0.0
  0
LINE
  8
0
  6
CONTINUOUS
 62
     2
 10
98.25
 20
102.275
 30
0.0
 11
95.8
 21
102.275
 31
0.0
  0
LINE
  8
0
  6
CONTINUOUS
 62
     2
 10
95.8
 20
102.45
 30
0.0
 11
98.25
 21
102.45
 31
0.0
  0
LINE
  8
0
  6
CONTINUOUS
 62
     2
 10
95.585
 20
102.275
 30
0.0
 11
94.6
 21
102.275
 31
0.0
  0
LINE
  8
0
  6
CONTINUOUS
 62
     2
 10
93.25
 20
102.275
 30
0.0
 11
94.3
 21
102.275
 31
0.0
  0
LINE
  8
0
  6
CONTINUOUS
 62
     2
 10
95.585
 20
102.275
 30
0.0
 11
95.785
 21
102.475
 31
0.0
  0
LINE
  8
0
  6
CONTINUOUS
 62
     2
 10
95.785
 20
102.075
 30
0.0
 11
95.585
 21
102.275
 31
0.0
  0
LINE
  8
0
  6
CONTINUOUS
 62
     2
 10
168.75
 20
121.025
 30
0.0
 11
166.996298557
 21
120.0125
 31
0.0
  0
LINE
  8
0
  6
CONTINUOUS
 62
     2
 10
166.996298557
 20
120.0125
 30
0.0
 11
166.996298557
 21
117.9875
 31
0.0
  0
LINE
  8
0
  6
CONTINUOUS
 62
     2
 10
166.996298557
 20
117.9875
 30
0.0
 11
168.75
 21
116.975
 31
0.0
  0
LINE
  8
0
  6
CONTINUOUS
 62
     2
 10
168.75
 20
116.975
 30
0.0
 11
170.503701443
 21
117.9875
 31
0.0
  0
LINE
  8
0
  6
CONTINUOUS
 62
     2
 10
170.503701443
 20
117.9875
 30
0.0
 11
170.503701443
 21
120.0125
 31
0.0
  0
LINE
  8
0
  6
CONTINUOUS
 62
     2
 10
170.503701443
 20
120.0125
 30
0.0
 11
168.75
 21
121.025
 31
0.0
  0
CIRCLE
  8
0
  6
CONTINUOUS
 62
     2
 10
168.75
 20
119.0
 30
0.0
 40
0.8
  0
CIRCLE
  8
0
  6
CONTINUOUS
 62
     2
 10
168.75
 20
119.0
 30
0.0
 40
1.0
  0
ARC
  8
0
  6
LTYPE1
 62
     2
 10
168.75
 20
119.0
 30
0.0
 40
1.975
 50
328.025496594
 51
217.415803658
  0
LINE
  8
0
  6
LTYPE1
 62
     2
 10
170.318637944
 20
117.8
 30
0.0
 11
169.66147392
 21
116.850763076
 31
0.0
  0
LINE
  8
0
  6
LTYPE1
 62
     2
 10
167.181362056
 20
117.8
 30
0.0
 11
167.838529527
 21
116.850758098
 31
0.0
  0
ARC
  8
0
  6
LTYPE1
 62
     2
 10
166.194145143
 20
115.71233814
 30
0.0
 40
2.0
 50
10.612929601
 51
34.695153531
  0
ARC
  8
0
  6
LTYPE1
 62
     2
 10
171.305858303
 20
115.712343118
 30
0.0
 40
2.0
 50
145.304846469
 51
169.387402194
  0
LINE
  8
0
  6
LTYPE1
 62
     2
 10
169.340068544
 20
116.080678053
 30
0.0
 11
169.250002697
 21
115.6
 31
0.0
  0
LINE
  8
0
  6
LTYPE1
 62
     2
 10
168.159932769
 20
116.080684458
 30
0.0
 11
168.250002697
 21
115.6
 31
0.0
  0
CIRCLE
  8
0
  6
CONTINUOUS
 62
     2
 10
168.75
 20
119.0
 30
0.0
 40
2.25
  0
LINE
  8
0
  6
CONTINUOUS
 62
     2
 10
181.25
 20
121.025
 30
0.0
 11
179.496298557
 21
120.0125
 31
0.0
  0
LINE
  8
0
  6
CONTINUOUS
 62
     2
 10
179.496298557
 20
120.0125
 30
0.0
 11
179.496298557
 21
117.9875
 31
0.0
  0
LINE
  8
0
  6
CONTINUOUS
 62
     2
 10
179.496298557
 20
117.9875
 30
0.0
 11
181.25
 21
116.975
 31
0.0
  0
LINE
  8
0
  6
CONTINUOUS
 62
     2
 10
181.25
 20
116.975
 30
0.0
 11
183.003701443
 21
117.9875
 31
0.0
  0
LINE
  8
0
  6
CONTINUOUS
 62
     2
 10
183.003701443
 20
117.9875
 30
0.0
 11
183.003701443
 21
120.0125
 31
0.0
  0
LINE
  8
0
  6
CONTINUOUS
 62
     2
 10
183.003701443
 20
120.0125
 30
0.0
 11
181.25
 21
121.025
 31
0.0
  0
CIRCLE
  8
0
  6
CONTINUOUS
 62
     2
 10
181.25
 20
119.0
 30
0.0
 40
0.8
  0
CIRCLE
  8
0
  6
CONTINUOUS
 62
     2
 10
181.25
 20
119.0
 30
0.0
 40
1.0
  0
ARC
  8
0
  6
LTYPE1
 62
     2
 10
181.25
 20
119.0
 30
0.0
 40
1.975
 50
328.025496594
 51
217.415803658
  0
LINE
  8
0
  6
LTYPE1
 62
     2
 10
182.818637944
 20
117.8
 30
0.0
 11
182.16147392
 21
116.850763076
 31
0.0
  0
LINE
  8
0
  6
LTYPE1
 62
     2
 10
179.681362056
 20
117.8
 30
0.0
 11
180.338529527
 21
116.850758098
 31
0.0
  0
ARC
  8
0
  6
LTYPE1
 62
     2
 10
178.694145143
 20
115.71233814
 30
0.0
 40
2.0
 50
10.612929601
 51
34.695153531
  0
ARC
  8
0
  6
LTYPE1
 62
     2
 10
183.805858303
 20
115.712343118
 30
0.0
 40
2.0
 50
145.304846469
 51
169.387402194
  0
LINE
  8
0
  6
LTYPE1
 62
     2
 10
181.840068544
 20
116.080678053
 30
0.0
 11
181.750002697
 21
115.6
 31
0.0
  0
LINE
  8
0
  6
LTYPE1
 62
     2
 10
180.659932769
 20
116.080684458
 30
0.0
 11
180.750002697
 21
115.6
 31
0.0
  0
CIRCLE
  8
0
  6
CONTINUOUS
 62
     2
 10
181.25
 20
119.0
 30
0.0
 40
2.25
  0
LINE
  8
0
  6
LTYPE2
 62
     2
 10
130.2
 20
119.0
 30
0.0
 11
120.8
 21
119.0
 31
0.0
  0
LINE
  8
0
  6
CONTINUOUS
 62
     2
 10
128.35
 20
117.8
 30
0.0
 11
128.980116473
 21
115.380712247
 31
0.0
  0
LINE
  8
0
  6
CONTINUOUS
 62
     2
 10
128.35
 20
117.8
 30
0.0
 11
130.105340749
 21
116.019893584
 31
0.0
  0
LINE
  8
0
  6
LTYPE1
 62
     2
 10
126.85
 20
111.0
 30
0.0
 11
122.85
 21
111.0
 31
0.0
  0
LINE
  8
0
  6
LTYPE1
 62
     2
 10
122.85
 20
111.6
 30
0.0
 11
123.1
 21
111.6
 31
0.0
  0
ARC
  8
0
  6
LTYPE1
 62
     2
 10
126.85
 20
119.5
 30
0.0
 40
3.0
 50
0.0
 51
90.0
  0
LINE
  8
0
  6
LTYPE1
 62
     2
 10
129.85
 20
119.5
 30
0.0
 11
129.85
 21
114.0
 31
0.0
  0
ARC
  8
0
  6
LTYPE1
 62
     2
 10
126.85
 20
114.0
 30
0.0
 40
3.0
 50
270.0
 51
0.0
  0
LINE
  8
0
  6
LTYPE1
 62
     2
 10
122.85
 20
121.9
 30
0.0
 11
123.1
 21
121.9
 31
0.0
  0
LINE
  8
0
  6
LTYPE1
 62
     2
 10
123.1
 20
111.0
 30
0.0
 11
123.1
 21
121.9
 31
0.0
  0
LINE
  8
0
  6
LTYPE1
 62
     2
 10
122.85
 20
122.5
 30
0.0
 11
126.85
 21
122.5
 31
0.0
  0
LINE
  8
0
  6
CONTINUOUS
 62
     2
 10
124.05
 20
120.05
 30
0.0
 11
123.85
 21
120.05
 31
0.0
  0
LINE
  8
0
  6
CONTINUOUS
 62
     2
 10
123.3
 20
120.05
 30
0.0
 11
122.95
 21
120.05
 31
0.0
  0
LINE
  8
0
  6
CONTINUOUS
 62
     2
 10
122.95
 20
118.05
 30
0.0
 11
123.25
 21
118.05
 31
0.0
  0
LINE
  8
0
  6
CONTINUOUS
 62
     2
 10
123.8
 20
118.05
 30
0.0
 11
124.05
 21
118.05
 31
0.0
  0
LINE
  8
0
  6
CONTINUOUS
 62
     2
 10
124.1
 20
121.1
 30
0.0
 11
122.85
 21
121.1
 31
0.0
  0
LINE
  8
0
  6
CONTINUOUS
 62
     2
 10
124.1
 20
121.1
 30
0.0
 11
124.35
 21
120.85
 31
0.0
  0
LINE
  8
0
  6
CONTINUOUS
 62
     2
 10
124.09
 20
120.035
 30
0.0
 11
124.35
 21
120.335
 31
0.0
  0
LINE
  8
0
  6
CONTINUOUS
 62
     2
 10
124.35
 20
117.75
 30
0.0
 11
124.05
 21
118.02
 31
0.0
  0
LINE
  8
0
  6
CONTINUOUS
 62
     2
 10
124.35
 20
118.325
 30
0.0
 11
124.05
 21
118.055
 31
0.0
  0
LINE
  8
0
  6
CONTINUOUS
 62
     2
 10
124.05
 20
117.025
 30
0.0
 11
124.35
 21
117.325
 31
0.0
  0
LINE
  8
0
  6
CONTINUOUS
 62
     2
 10
122.85
 20
117.05
 30
0.0
 11
124.1
 21
117.05
 31
0.0
  0
LINE
  8
0
  6
CONTINUOUS
 62
     2
 10
124.35
 20
117.305
 30
0.0
 11
124.35
 21
120.85
 31
0.0
  0
LINE
  8
0
  6
CONTINUOUS
 62
     2
 10
124.103
 20
120.05
 30
0.0
 11
124.353
 21
119.85
 31
0.0
  0
LINE
  8
0
  6
CONTINUOUS
 62
     2
 10
124.103
 20
120.05
 30
0.0
 11
122.85
 21
120.05
 31
0.0
  0
LINE
  8
0
  6
CONTINUOUS
 62
     2
 10
122.85
 20
118.05
 30
0.0
 11
124.066666667
 21
118.05
 31
0.0
  0
LINE
  8
0
  6
CONTINUOUS
 62
     2
 10
124.35
 20
120.85
 30
0.0
 11
124.35
 21
120.975
 31
0.0
  0
LINE
  8
0
  6
LTYPE1
 62
     2
 10
124.75
 20
120.975
 30
0.0
 11
124.75
 21
115.6
 31
0.0
  0
LINE
  8
0
  6
LTYPE1
 62
     2
 10
124.35
 20
120.975
 30
0.0
 11
124.75
 21
120.975
 31
0.0
  0
LINE
  8
0
  6
LTYPE1
 62
     2
 10
124.35
 20
117.325
 30
0.0
 11
124.35
 21
115.6
 31
0.0
  0
LINE
  8
0
  6
LTYPE1
 62
     2
 10
123.85
 20
115.6
 30
0.0
 11
126.35
 21
115.6
 31
0.0
  0
LINE
  8
0
  6
LTYPE1
 62
     2
 10
126.35
 20
115.6
 30
0.0
 11
126.35
 21
112.6
 31
0.0
  0
LINE
  8
0
  6
LTYPE1
 62
     2
 10
123.85
 20
115.6
 30
0.0
 11
123.85
 21
112.6
 31
0.0
  0
LINE
  8
0
  6
CONTINUOUS
 62
     2
 10
125.536253903
 20
120.7725
 30
0.0
 11
126.036253903
 21
120.7725
 31
0.0
  0
LINE
  8
0
  6
CONTINUOUS
 62
     2
 10
126.036253903
 20
120.7725
 30
0.0
 11
125.736253903
 21
119.1225
 31
0.0
  0
LINE
  8
0
  6
CONTINUOUS
 62
     2
 10
125.736253903
 20
119.1225
 30
0.0
 11
125.236253903
 21
119.1225
 31
0.0
  0
LINE
  8
0
  6
CONTINUOUS
 62
     2
 10
125.236253903
 20
119.1225
 30
0.0
 11
125.536253903
 21
120.7725
 31
0.0
  0
LINE
  8
0
  6
CONTINUOUS
 62
     2
 10
125.986253903
 20
118.8225
 30
0.0
 11
125.486253903
 21
118.8225
 31
0.0
  0
LINE
  8
0
  6
CONTINUOUS
 62
     2
 10
125.236253903
 20
117.2225
 30
0.0
 11
125.736253903
 21
117.2225
 31
0.0
  0
LINE
  8
0
  6
CONTINUOUS
 62
     2
 10
125.486253903
 20
118.8225
 30
0.0
 11
125.236253903
 21
117.2225
 31
0.0
  0
LINE
  8
0
  6
CONTINUOUS
 62
     2
 10
125.736253903
 20
117.2225
 30
0.0
 11
125.986253903
 21
118.8225
 31
0.0
  0
LINE
  8
0
  6
CONTINUOUS
 62
     2
 10
127.525253903
 20
120.05
 30
0.0
 11
125.904890267
 21
120.05
 31
0.0
  0
LINE
  8
0
  6
CONTINUOUS
 62
     2
 10
125.865550778
 20
118.05
 30
0.0
 11
127.48892057
 21
118.05
 31
0.0
  0
LINE
  8
0
  6
CONTINUOUS
 62
     2
 10
124.75
 20
116.75
 30
0.0
 11
125.0
 21
116.75
 31
0.0
  0
LINE
  8
0
  6
CONTINUOUS
 62
     2
 10
125.0
 20
116.75
 30
0.0
 11
125.0
 21
121.25
 31
0.0
  0
LINE
  8
0
  6
CONTINUOUS
 62
     2
 10
125.0
 20
121.25
 30
0.0
 11
124.75
 21
121.25
 31
0.0
  0
LINE
  8
0
  6
CONTINUOUS
 62
     2
 10
124.75
 20
121.25
 30
0.0
 11
124.75
 21
116.75
 31
0.0
  0
LINE
  8
0
  6
CONTINUOUS
 62
     2
 10
125.0
 20
120.05
 30
0.0
 11
125.404890267
 21
120.05
 31
0.0
  0
LINE
  8
0
  6
CONTINUOUS
 62
     2
 10
125.363981176
 20
119.825
 30
0.0
 11
125.0
 21
119.825
 31
0.0
  0
LINE
  8
0
  6
CONTINUOUS
 62
     2
 10
125.408519528
 20
118.325
 30
0.0
 11
125.0
 21
118.325
 31
0.0
  0
LINE
  8
0
  6
CONTINUOUS
 62
     2
 10
125.0
 20
118.05
 30
0.0
 11
125.365550778
 21
118.05
 31
0.0
  0
LINE
  8
0
  6
CONTINUOUS
 62
     2
 10
124.75
 20
119.825
 30
0.0
 11
124.6
 21
119.825
 31
0.0
  0
LINE
  8
0
  6
CONTINUOUS
 62
     2
 10
124.35
 20
120.05
 30
0.0
 11
124.75
 21
120.05
 31
0.0
  0
LINE
  8
0
  6
CONTINUOUS
 62
     2
 10
124.75
 20
119.825
 30
0.0
 11
124.35
 21
119.825
 31
0.0
  0
LINE
  8
0
  6
CONTINUOUS
 62
     2
 10
124.75
 20
118.325
 30
0.0
 11
124.35
 21
118.325
 31
0.0
  0
LINE
  8
0
  6
CONTINUOUS
 62
     2
 10
124.35
 20
118.05
 30
0.0
 11
124.75
 21
118.05
 31
0.0
  0
LINE
  8
0
  6
CONTINUOUS
 62
     2
 10
127.272253903
 20
121.1
 30
0.0
 11
126.022253903
 21
121.1
 31
0.0
  0
LINE
  8
0
  6
CONTINUOUS
 62
     2
 10
127.272253903
 20
121.1
 30
0.0
 11
127.522253903
 21
120.85
 31
0.0
  0
LINE
  8
0
  6
CONTINUOUS
 62
     2
 10
127.262253903
 20
120.035
 30
0.0
 11
127.522253903
 21
120.335
 31
0.0
  0
LINE
  8
0
  6
CONTINUOUS
 62
     2
 10
127.522253903
 20
117.75
 30
0.0
 11
127.222253903
 21
118.02
 31
0.0
  0
LINE
  8
0
  6
CONTINUOUS
 62
     2
 10
127.522253903
 20
118.325
 30
0.0
 11
127.222253903
 21
118.055
 31
0.0
  0
LINE
  8
0
  6
CONTINUOUS
 62
     2
 10
127.222253903
 20
117.025
 30
0.0
 11
127.522253903
 21
117.325
 31
0.0
  0
LINE
  8
0
  6
CONTINUOUS
 62
     2
 10
126.022253903
 20
117.05
 30
0.0
 11
127.272253903
 21
117.05
 31
0.0
  0
LINE
  8
0
  6
CONTINUOUS
 62
     2
 10
126.022253903
 20
121.1
 30
0.0
 11
126.022253903
 21
117.05
 31
0.0
  0
LINE
  8
0
  6
CONTINUOUS
 62
     2
 10
127.522253903
 20
117.305
 30
0.0
 11
127.522253903
 21
120.85
 31
0.0
  0
LINE
  8
0
  6
CONTINUOUS
 62
     2
 10
127.275253903
 20
120.05
 30
0.0
 11
127.525253903
 21
119.85
 31
0.0
  0
LINE
  8
0
  6
CONTINUOUS
 62
     2
 10
126.022253903
 20
119.825
 30
0.0
 11
125.863981176
 21
119.825
 31
0.0
  0
LINE
  8
0
  6
CONTINUOUS
 62
     2
 10
126.022253903
 20
118.325
 30
0.0
 11
125.908519528
 21
118.325
 31
0.0
  0
LINE
  8
0
  6
CONTINUOUS
 62
     2
 10
127.85
 20
120.05
 30
0.0
 11
127.85
 21
118.05
 31
0.0
  0
LINE
  8
0
  6
CONTINUOUS
 62
     2
 10
127.85
 20
119.825
 30
0.0
 11
127.522253903
 21
119.825
 31
0.0
  0
LINE
  8
0
  6
CONTINUOUS
 62
     2
 10
127.522253903
 20
120.05
 30
0.0
 11
127.85
 21
120.05
 31
0.0
  0
LINE
  8
0
  6
CONTINUOUS
 62
     2
 10
127.85
 20
118.05
 30
0.0
 11
127.522253903
 21
118.05
 31
0.0
  0
LINE
  8
0
  6
CONTINUOUS
 62
     2
 10
127.522253903
 20
118.325
 30
0.0
 11
127.85
 21
118.325
 31
0.0
  0
TEXT
  8
0
  6
CONTINUOUS
 62
     2
 10
141.301493114
 20
96.0
 30
0.3
 40
3.0
  1
Ｍ４ターミナルネジ
 50
0.0
 41
0.9
 51
0.0
  7
KANJI6
  0
LINE
  8
0
  6
CONTINUOUS
 62
     2
 10
128.35
 20
117.8
 30
0.0
 11
141.301493114
 21
95.0
 31
0.0
  0
LINE
  8
0
  6
CONTINUOUS
 62
     2
 10
141.301493114
 20
95.0
 30
0.0
 11
168.401493114
 21
95.0
 31
0.0
  0
LINE
  8
0
  6
CONTINUOUS
 62
     2
 10
122.95
 20
108.25
 30
0.0
 11
122.95
 21
102.25
 31
0.0
  0
LINE
  8
0
  6
CONTINUOUS
 62
     2
 10
122.95
 20
104.25
 30
0.0
 11
125.364814566
 21
103.602952387
 31
0.0
  0
LINE
  8
0
  6
CONTINUOUS
 62
     2
 10
122.95
 20
104.25
 30
0.0
 11
125.364814566
 21
104.897047613
 31
0.0
  0
LINE
  8
0
  6
CONTINUOUS
 62
     2
 10
122.95
 20
104.25
 30
0.0
 11
129.95
 21
104.25
 31
0.0
  0
LINE
  8
0
  6
CONTINUOUS
 62
     2
 10
129.95
 20
104.25
 30
0.0
 11
127.535185434
 21
104.897047613
 31
0.0
  0
LINE
  8
0
  6
CONTINUOUS
 62
     2
 10
129.95
 20
104.25
 30
0.0
 11
127.535185434
 21
103.602952387
 31
0.0
  0
LINE
  8
0
  6
CONTINUOUS
 62
     2
 10
129.95
 20
113.0
 30
0.0
 11
129.95
 21
102.25
 31
0.0
  0
TEXT
  8
0
  6
CONTINUOUS
 62
     2
 10
124.5
 20
105.25
 30
0.3
 40
3.0
  1
１４
 50
0.0
 41
0.6
 51
0.0
  7
KANJI1
  0
LINE
  8
0
  6
CONTINUOUS
 62
     2
 10
115.301493114
 20
111.5
 30
0.0
 11
115.931609587
 21
109.080712247
 31
0.0
  0
LINE
  8
0
  6
CONTINUOUS
 62
     2
 10
115.301493114
 20
111.5
 30
0.0
 11
117.056833864
 21
109.719893584
 31
0.0
  0
LINE
  8
0
  6
CONTINUOUS
 62
     2
 10
108.25
 20
150.0
 30
0.0
 11
123.25
 21
150.0
 31
0.0
  0
LINE
  8
0
  6
CONTINUOUS
 62
     2
 10
123.25
 20
150.0
 30
0.0
 11
120.835185434
 21
150.647047613
 31
0.0
  0
LINE
  8
0
  6
CONTINUOUS
 62
     2
 10
123.25
 20
150.0
 30
0.0
 11
120.835185434
 21
149.352952387
 31
0.0
  0
LINE
  8
0
  6
CONTINUOUS
 62
     2
 10
128.25
 20
150.0
 30
0.0
 11
130.664814566
 21
149.352952387
 31
0.0
  0
LINE
  8
0
  6
CONTINUOUS
 62
     2
 10
128.25
 20
150.0
 30
0.0
 11
130.664814566
 21
150.647047613
 31
0.0
  0
TEXT
  8
0
  6
CONTINUOUS
 62
     2
 10
123.63
 20
151.0
 30
0.3
 40
3.0
  1
１０
 50
0.0
 41
0.6
 51
0.0
  7
KANJI7
  0
TEXT
  8
0
  6
CONTINUOUS
 62
     2
 10
127.73
 20
152.5
 30
0.18
 40
1.8
  1
±１
 50
0.0
 41
0.6
 51
0.0
  7
KANJI8
  0
LINE
  8
0
  6
CONTINUOUS
 62
     2
 10
128.25
 20
121.05
 30
0.0
 11
128.25
 21
152.0
 31
0.0
  0
LINE
  8
0
  6
CONTINUOUS
 62
     2
 10
123.25
 20
126.25
 30
0.0
 11
123.25
 21
152.0
 31
0.0
  0
LINE
  8
0
  6
CONTINUOUS
 62
     2
 10
123.25
 20
150.0
 30
0.0
 11
133.25
 21
150.0
 31
0.0
  0
TEXT
  8
0
  6
CONTINUOUS
 62
     2
 10
113.3
 20
151.0
 30
0.3
 40
3.0
  1
３０
 50
0.0
 41
0.6
 51
0.0
  7
KANJI1
  0
LINE
  8
0
  6
CONTINUOUS
 62
     2
 10
126.250930866
 20
123.4
 30
0.0
 11
126.881047339
 21
125.819287753
 31
0.0
  0
LINE
  8
0
  6
CONTINUOUS
 62
     2
 10
126.250930866
 20
123.4
 30
0.0
 11
128.006271615
 21
125.180106416
 31
0.0
  0
LINE
  8
0
  6
CONTINUOUS
 62
     2
 10
131.64738633
 20
132.9
 30
0.0
 11
149.34738633
 21
132.9
 31
0.0
  0
TEXT
  8
0
  6
CONTINUOUS
 62
     2
 10
131.64738633
 20
133.9
 30
0.3
 40
3.0
  1
端子キャップ
 50
0.0
 41
0.9
 51
0.0
  7
KANJI6
  0
LINE
  8
0
  6
CONTINUOUS
 62
     2
 10
126.250930866
 20
123.4
 30
0.0
 11
131.64738633
 21
132.9
 31
0.0
  0
TEXT
  8
0
  6
CONTINUOUS
 62
     2
 10
131.95
 20
130.2
 30
0.1
 40
2.0
  1
（オプション）
 50
0.0
 41
0.9
 51
0.0
  7
KANJI9
  0
TEXT
  8
0
  6
CONTINUOUS
 62
     2
 10
128.735284184
 20
90.375
 30
0.3
 40
3.0
  1
直列抵抗器
 50
0.0
 41
0.9
 51
0.0
  7
KANJI6
  0
LINE
  8
0
  6
CONTINUOUS
 62
     2
 10
127.798547874
 20
89.5
 30
0.0
 11
146.174284184
 21
89.5
 31
0.0
  0
LINE
  8
0
  6
CONTINUOUS
 62
     2
 10
115.301493114
 20
111.5
 30
0.0
 11
127.798547874
 21
89.5
 31
0.0
  0
TEXT
  8
0
  6
CONTINUOUS
 62
     2
 10
11.250930866
 20
95.643
 30
0.3
 40
3.0
  1
機械的零位調整器
 50
0.0
 41
0.9
 51
0.0
  7
KANJI6
  0
LINE
  8
0
  6
CONTINUOUS
 62
     2
 10
34.950930866
 20
95.0
 30
0.0
 11
10.750930866
 21
95.0
 31
0.0
  0
TEXT
  8
0
  6
CONTINUOUS
 62
     1
 10
112.5
 20
51.1
 30
0.5
 40
4.0
  1
ＡＣＦ－８（電圧計）
 50
0.0
 41
0.9
 51
0.0
  7
KANJI10
  0
TEXT
  8
0
  6
CONTINUOUS
 62
     1
 10
121.8
 20
40.1
 30
0.5
 40
4.0
  1
パネル用計器外形図
 50
0.0
 41
0.9
 51
0.0
  7
KANJI10
  0
TEXT
  8
0
  6
CONTINUOUS
 62
     2
 10
122.0
 20
44.5
 30
0.3
 40
3.0
  1
端子キャップ付（オプション）
 50
0.0
 41
0.9
 51
0.0
  7
KANJI6
  0
TEXT
  8
0
  6
CONTINUOUS
 62
     3
 10
117.5
 20
25.5
 30
0.6
 40
6.0
  1
ＭＳ－６８７９Ｂ
 50
0.0
 41
0.9
 51
0.0
  7
KANJI11
  0
ENDSEC
  0
EOF
