  0
SECTION
  2
HEADER
  9
$ACADVER
  1
AC1009
  9
$DWGCODEPAGE
  3
dos932
  9
$EXTMIN
 10
0.0
 20
0.0
 30
0.0
  9
$EXTMAX
 10
297.0
 20
210.0
 30
0.0
  9
$LIMMIN
 10
0.0
 20
0.0
  9
$LIMMAX
 10
297.0
 20
210.0
  9
$LTSCALE
 40
1.0
  9
$PDMODE
 70
     0
  0
ENDSEC
  0
SECTION
  2
TABLES
  0
TABLE
  2
VPORT
 70
     1
  0
VPORT
  2
*ACTIVE
 70
     0
 10
0.0
 20
0.0
 11
1.0
 21
1.0
 12
148.5
 22
105.0
 13
0.0
 23
0.0
 14
10.0
 24
10.0
 15
10.0
 25
10.0
 16
0.0
 26
0.0
 36
1.0
 17
0.0
 27
0.0
 37
0.0
 40
297.0
 41
1.414285714
 42
50.0
 43
0.0
 44
0.0
 50
0.0
 51
0.0
 71
     0
 72
  1000
 73
     1
 74
     3
 75
     0
 76
     0
 77
     0
 78
     0
  0
ENDTAB
  0
TABLE
  2
LTYPE
 70
     4
  0
LTYPE
  2
CONTINUOUS
 70
    64
  3
Solid line
 72
    65
 73
     0
 40
0.0
  0
LTYPE
  2
LTYPE1
 70
    64
  3
CENTER
 72
    65
 73
     4
 40
5.0
 49
3.5
 49
-0.5
 49
0.5
 49
-0.5
  0
LTYPE
  2
LTYPE2
 70
    64
  3
CENTER
 72
    65
 73
     4
 40
15.0
 49
10.5
 49
-1.5
 49
1.5
 49
-1.5
  0
LTYPE
  2
LTYPE3
 70
    64
  3
HIDDEN
 72
    65
 73
     2
 40
1.0
 49
0.6
 49
-0.4
  0
ENDTAB
  0
TABLE
  2
LAYER
 70
   128
  0
LAYER
  2
0
 70
     0
 62
     7
  6
CONTINUOUS
  0
LAYER
  2
2
 70
     0
 62
     7
  6
CONTINUOUS
  0
LAYER
  2
3
 70
     0
 62
     7
  6
CONTINUOUS
  0
LAYER
  2
4
 70
     0
 62
     7
  6
CONTINUOUS
  0
LAYER
  2
5
 70
     0
 62
     7
  6
CONTINUOUS
  0
LAYER
  2
6
 70
     0
 62
     7
  6
CONTINUOUS
  0
LAYER
  2
7
 70
     0
 62
     7
  6
CONTINUOUS
  0
LAYER
  2
8
 70
     0
 62
     7
  6
CONTINUOUS
  0
LAYER
  2
9
 70
     0
 62
     7
  6
CONTINUOUS
  0
LAYER
  2
10
 70
     0
 62
     7
  6
CONTINUOUS
  0
LAYER
  2
11
 70
     0
 62
     7
  6
CONTINUOUS
  0
LAYER
  2
12
 70
     0
 62
     7
  6
CONTINUOUS
  0
LAYER
  2
13
 70
     0
 62
     7
  6
CONTINUOUS
  0
LAYER
  2
14
 70
     0
 62
     7
  6
CONTINUOUS
  0
LAYER
  2
15
 70
     0
 62
     7
  6
CONTINUOUS
  0
LAYER
  2
16
 70
     0
 62
     7
  6
CONTINUOUS
  0
LAYER
  2
17
 70
     0
 62
     7
  6
CONTINUOUS
  0
LAYER
  2
18
 70
     0
 62
     7
  6
CONTINUOUS
  0
LAYER
  2
19
 70
     0
 62
     7
  6
CONTINUOUS
  0
LAYER
  2
20
 70
     0
 62
     7
  6
CONTINUOUS
  0
LAYER
  2
21
 70
     0
 62
     7
  6
CONTINUOUS
  0
LAYER
  2
22
 70
     0
 62
     7
  6
CONTINUOUS
  0
LAYER
  2
23
 70
     0
 62
     7
  6
CONTINUOUS
  0
LAYER
  2
24
 70
     0
 62
     7
  6
CONTINUOUS
  0
LAYER
  2
25
 70
     0
 62
     7
  6
CONTINUOUS
  0
LAYER
  2
26
 70
     0
 62
     7
  6
CONTINUOUS
  0
LAYER
  2
27
 70
     0
 62
     7
  6
CONTINUOUS
  0
LAYER
  2
28
 70
     0
 62
     7
  6
CONTINUOUS
  0
LAYER
  2
29
 70
     0
 62
     7
  6
CONTINUOUS
  0
LAYER
  2
30
 70
     0
 62
     7
  6
CONTINUOUS
  0
LAYER
  2
31
 70
     0
 62
     7
  6
CONTINUOUS
  0
LAYER
  2
32
 70
     0
 62
     7
  6
CONTINUOUS
  0
LAYER
  2
33
 70
     0
 62
     7
  6
CONTINUOUS
  0
LAYER
  2
34
 70
     0
 62
     7
  6
CONTINUOUS
  0
LAYER
  2
35
 70
     0
 62
     7
  6
CONTINUOUS
  0
LAYER
  2
36
 70
     0
 62
     7
  6
CONTINUOUS
  0
LAYER
  2
37
 70
     0
 62
     7
  6
CONTINUOUS
  0
LAYER
  2
38
 70
     0
 62
     7
  6
CONTINUOUS
  0
LAYER
  2
39
 70
     0
 62
     7
  6
CONTINUOUS
  0
LAYER
  2
40
 70
     0
 62
     7
  6
CONTINUOUS
  0
LAYER
  2
41
 70
     0
 62
     7
  6
CONTINUOUS
  0
LAYER
  2
42
 70
     0
 62
     7
  6
CONTINUOUS
  0
LAYER
  2
43
 70
     0
 62
     7
  6
CONTINUOUS
  0
LAYER
  2
44
 70
     0
 62
     7
  6
CONTINUOUS
  0
LAYER
  2
45
 70
     0
 62
     7
  6
CONTINUOUS
  0
LAYER
  2
46
 70
     0
 62
     7
  6
CONTINUOUS
  0
LAYER
  2
47
 70
     0
 62
     7
  6
CONTINUOUS
  0
LAYER
  2
48
 70
     0
 62
     7
  6
CONTINUOUS
  0
LAYER
  2
49
 70
     0
 62
     7
  6
CONTINUOUS
  0
LAYER
  2
50
 70
     0
 62
     7
  6
CONTINUOUS
  0
LAYER
  2
51
 70
     0
 62
     7
  6
CONTINUOUS
  0
LAYER
  2
52
 70
     0
 62
     7
  6
CONTINUOUS
  0
LAYER
  2
53
 70
     0
 62
     7
  6
CONTINUOUS
  0
LAYER
  2
54
 70
     0
 62
     7
  6
CONTINUOUS
  0
LAYER
  2
55
 70
     0
 62
     7
  6
CONTINUOUS
  0
LAYER
  2
56
 70
     0
 62
     7
  6
CONTINUOUS
  0
LAYER
  2
57
 70
     0
 62
     7
  6
CONTINUOUS
  0
LAYER
  2
58
 70
     0
 62
     7
  6
CONTINUOUS
  0
LAYER
  2
59
 70
     0
 62
     7
  6
CONTINUOUS
  0
LAYER
  2
60
 70
     0
 62
     7
  6
CONTINUOUS
  0
LAYER
  2
61
 70
     0
 62
     7
  6
CONTINUOUS
  0
LAYER
  2
62
 70
     0
 62
     7
  6
CONTINUOUS
  0
LAYER
  2
63
 70
     0
 62
     7
  6
CONTINUOUS
  0
LAYER
  2
64
 70
     0
 62
     7
  6
CONTINUOUS
  0
LAYER
  2
65
 70
     0
 62
     7
  6
CONTINUOUS
  0
LAYER
  2
66
 70
     0
 62
     7
  6
CONTINUOUS
  0
LAYER
  2
67
 70
     0
 62
     7
  6
CONTINUOUS
  0
LAYER
  2
68
 70
     0
 62
     7
  6
CONTINUOUS
  0
LAYER
  2
69
 70
     0
 62
     7
  6
CONTINUOUS
  0
LAYER
  2
70
 70
     0
 62
     7
  6
CONTINUOUS
  0
LAYER
  2
71
 70
     0
 62
     7
  6
CONTINUOUS
  0
LAYER
  2
72
 70
     0
 62
     7
  6
CONTINUOUS
  0
LAYER
  2
73
 70
     0
 62
     7
  6
CONTINUOUS
  0
LAYER
  2
74
 70
     0
 62
     7
  6
CONTINUOUS
  0
LAYER
  2
75
 70
     0
 62
     7
  6
CONTINUOUS
  0
LAYER
  2
76
 70
     0
 62
     7
  6
CONTINUOUS
  0
LAYER
  2
77
 70
     0
 62
     7
  6
CONTINUOUS
  0
LAYER
  2
78
 70
     0
 62
     7
  6
CONTINUOUS
  0
LAYER
  2
79
 70
     0
 62
     7
  6
CONTINUOUS
  0
LAYER
  2
80
 70
     0
 62
     7
  6
CONTINUOUS
  0
LAYER
  2
81
 70
     0
 62
     7
  6
CONTINUOUS
  0
LAYER
  2
82
 70
     0
 62
     7
  6
CONTINUOUS
  0
LAYER
  2
83
 70
     0
 62
     7
  6
CONTINUOUS
  0
LAYER
  2
84
 70
     0
 62
     7
  6
CONTINUOUS
  0
LAYER
  2
85
 70
     0
 62
     7
  6
CONTINUOUS
  0
LAYER
  2
86
 70
     0
 62
     7
  6
CONTINUOUS
  0
LAYER
  2
87
 70
     0
 62
     7
  6
CONTINUOUS
  0
LAYER
  2
88
 70
     0
 62
     7
  6
CONTINUOUS
  0
LAYER
  2
89
 70
     0
 62
     7
  6
CONTINUOUS
  0
LAYER
  2
90
 70
     0
 62
     7
  6
CONTINUOUS
  0
LAYER
  2
91
 70
     0
 62
     7
  6
CONTINUOUS
  0
LAYER
  2
92
 70
     0
 62
     7
  6
CONTINUOUS
  0
LAYER
  2
93
 70
     0
 62
     7
  6
CONTINUOUS
  0
LAYER
  2
94
 70
     0
 62
     7
  6
CONTINUOUS
  0
LAYER
  2
95
 70
     0
 62
     7
  6
CONTINUOUS
  0
LAYER
  2
96
 70
     0
 62
     7
  6
CONTINUOUS
  0
LAYER
  2
97
 70
     0
 62
     7
  6
CONTINUOUS
  0
LAYER
  2
98
 70
     0
 62
     7
  6
CONTINUOUS
  0
LAYER
  2
99
 70
     0
 62
     7
  6
CONTINUOUS
  0
LAYER
  2
100
 70
     0
 62
     7
  6
CONTINUOUS
  0
LAYER
  2
101
 70
     0
 62
     7
  6
CONTINUOUS
  0
LAYER
  2
102
 70
     0
 62
     7
  6
CONTINUOUS
  0
LAYER
  2
103
 70
     0
 62
     7
  6
CONTINUOUS
  0
LAYER
  2
104
 70
     0
 62
     7
  6
CONTINUOUS
  0
LAYER
  2
105
 70
     0
 62
     7
  6
CONTINUOUS
  0
LAYER
  2
106
 70
     0
 62
     7
  6
CONTINUOUS
  0
LAYER
  2
107
 70
     0
 62
     7
  6
CONTINUOUS
  0
LAYER
  2
108
 70
     0
 62
     7
  6
CONTINUOUS
  0
LAYER
  2
109
 70
     0
 62
     7
  6
CONTINUOUS
  0
LAYER
  2
110
 70
     0
 62
     7
  6
CONTINUOUS
  0
LAYER
  2
111
 70
     0
 62
     7
  6
CONTINUOUS
  0
LAYER
  2
112
 70
     0
 62
     7
  6
CONTINUOUS
  0
LAYER
  2
113
 70
     0
 62
     7
  6
CONTINUOUS
  0
LAYER
  2
114
 70
     0
 62
     7
  6
CONTINUOUS
  0
LAYER
  2
115
 70
     0
 62
     7
  6
CONTINUOUS
  0
LAYER
  2
116
 70
     0
 62
     7
  6
CONTINUOUS
  0
LAYER
  2
117
 70
     0
 62
     7
  6
CONTINUOUS
  0
LAYER
  2
118
 70
     0
 62
     7
  6
CONTINUOUS
  0
LAYER
  2
119
 70
     0
 62
     7
  6
CONTINUOUS
  0
LAYER
  2
120
 70
     0
 62
     7
  6
CONTINUOUS
  0
LAYER
  2
121
 70
     0
 62
     7
  6
CONTINUOUS
  0
LAYER
  2
122
 70
     0
 62
     7
  6
CONTINUOUS
  0
LAYER
  2
123
 70
     0
 62
     7
  6
CONTINUOUS
  0
LAYER
  2
124
 70
     0
 62
     7
  6
CONTINUOUS
  0
LAYER
  2
125
 70
     0
 62
     7
  6
CONTINUOUS
  0
LAYER
  2
126
 70
     0
 62
     7
  6
CONTINUOUS
  0
LAYER
  2
127
 70
     0
 62
     7
  6
CONTINUOUS
  0
LAYER
  2
128
 70
     0
 62
     7
  6
CONTINUOUS
  0
ENDTAB
  0
TABLE
  2
STYLE
 70
    11
  0
STYLE
  2
STANDARD
 70
     0
 40
0.0
 41
1.0
 50
0.0
 71
     0
 42
0.2
  3
txt.shx
  4
extfont.shx
  0
STYLE
  2
KANJI0
 70
     0
 40
3.0
 41
0.6
 50
0.0
 71
     0
 42
3.0
  3
txt.shx
  4
extfont.shx
  0
STYLE
  2
KANJI1
 70
     0
 40
1.8
 41
0.6
 50
0.0
 71
     0
 42
1.8
  3
txt.shx
  4
extfont.shx
  0
STYLE
  2
KANJI2
 70
     0
 40
3.0
 41
0.9
 50
0.0
 71
     0
 42
3.0
  3
txt.shx
  4
extfont.shx
  0
STYLE
  2
KANJI3
 70
     0
 40
3.0
 41
0.9
 50
0.0
 71
     0
 42
3.0
  3
txt.shx
  4
extfont.shx
  0
STYLE
  2
KANJI4
 70
     0
 40
3.0
 41
0.666666667
 50
0.0
 71
     0
 42
3.0
  3
txt.shx
  4
extfont.shx
  0
STYLE
  2
KANJI5
 70
     0
 40
3.0
 41
0.3
 50
0.0
 71
     0
 42
3.0
  3
txt.shx
  4
extfont.shx
  0
STYLE
  2
KANJI6
 70
     0
 40
3.0
 41
0.6
 50
0.0
 71
     0
 42
3.0
  3
txt.shx
  4
extfont.shx
  0
STYLE
  2
KANJI7
 70
     0
 40
4.0
 41
0.9
 50
0.0
 71
     0
 42
4.0
  3
txt.shx
  4
extfont.shx
  0
STYLE
  2
KANJI8
 70
     0
 40
3.5
 41
0.9
 50
0.0
 71
     0
 42
3.5
  3
txt.shx
  4
extfont.shx
  0
STYLE
  2
KANJI9
 70
     0
 40
6.0
 41
0.9
 50
0.0
 71
     0
 42
6.0
  3
txt.shx
  4
extfont.shx
  0
ENDTAB
  0
TABLE
  2
VIEW
 70
     0
  0
ENDTAB
  0
ENDSEC
  0
SECTION
  2
BLOCKS
  0
ENDSEC
  0
SECTION
  2
ENTITIES
  0
CIRCLE
  8
0
  6
CONTINUOUS
 62
     1
 10
52.0
 20
64.0
 30
0.0
 40
16.75
  0
CIRCLE
  8
0
  6
CONTINUOUS
 62
     1
 10
68.0
 20
80.0
 30
0.0
 40
1.0
  0
CIRCLE
  8
0
  6
CONTINUOUS
 62
     1
 10
68.0
 20
48.0
 30
0.0
 40
1.0
  0
CIRCLE
  8
0
  6
CONTINUOUS
 62
     1
 10
36.0
 20
48.0
 30
0.0
 40
1.0
  0
CIRCLE
  8
0
  6
CONTINUOUS
 62
     1
 10
36.0
 20
80.0
 30
0.0
 40
1.0
  0
ARC
  8
0
  6
CONTINUOUS
 62
     1
 10
28.5
 20
105.75
 30
0.0
 40
1.5
 50
180.0
 51
270.0
  0
LINE
  8
0
  6
CONTINUOUS
 62
     1
 10
28.5
 20
104.25
 30
0.0
 11
75.5
 21
104.25
 31
0.0
  0
ARC
  8
0
  6
CONTINUOUS
 62
     1
 10
75.5
 20
105.75
 30
0.0
 40
1.5
 50
270.0
 51
0.0
  0
LINE
  8
0
  6
CONTINUOUS
 62
     1
 10
77.0
 20
105.75
 30
0.0
 11
77.0
 21
144.25
 31
0.0
  0
ARC
  8
0
  6
CONTINUOUS
 62
     1
 10
75.5
 20
144.25
 30
0.0
 40
1.5
 50
0.0
 51
90.0
  0
LINE
  8
0
  6
CONTINUOUS
 62
     1
 10
27.0
 20
144.25
 30
0.0
 11
27.0
 21
105.75
 31
0.0
  0
ARC
  8
0
  6
CONTINUOUS
 62
     1
 10
28.5
 20
144.25
 30
0.0
 40
1.5
 50
90.0
 51
180.0
  0
LINE
  8
0
  6
CONTINUOUS
 62
     1
 10
75.5
 20
145.75
 30
0.0
 11
28.5
 21
145.75
 31
0.0
  0
ARC
  8
0
  6
CONTINUOUS
 62
     1
 10
193.5
 20
105.75
 30
0.0
 40
1.5
 50
270.0
 51
0.0
  0
LINE
  8
0
  6
CONTINUOUS
 62
     1
 10
195.0
 20
144.25
 30
0.0
 11
195.0
 21
105.75
 31
0.0
  0
ARC
  8
0
  6
CONTINUOUS
 62
     1
 10
193.5
 20
144.25
 30
0.0
 40
1.5
 50
0.0
 51
90.0
  0
LINE
  8
0
  6
CONTINUOUS
 62
     1
 10
146.5
 20
145.75
 30
0.0
 11
193.5
 21
145.75
 31
0.0
  0
ARC
  8
0
  6
CONTINUOUS
 62
     1
 10
146.5
 20
144.25
 30
0.0
 40
1.5
 50
90.0
 51
180.0
  0
LINE
  8
0
  6
CONTINUOUS
 62
     1
 10
193.5
 20
104.25
 30
0.0
 11
146.5
 21
104.25
 31
0.0
  0
LINE
  8
0
  6
CONTINUOUS
 62
     1
 10
145.0
 20
105.75
 30
0.0
 11
145.0
 21
144.25
 31
0.0
  0
ARC
  8
0
  6
CONTINUOUS
 62
     1
 10
146.5
 20
105.75
 30
0.0
 40
1.5
 50
180.0
 51
270.0
  0
CIRCLE
  8
0
  6
CONTINUOUS
 62
     1
 10
170.0
 20
123.0
 30
0.0
 40
16.25
  0
LINE
  8
0
  6
CONTINUOUS
 62
     1
 10
102.3
 20
145.75
 30
0.0
 11
102.3
 21
104.25
 31
0.0
  0
LINE
  8
0
  6
CONTINUOUS
 62
     1
 10
117.05
 20
106.75
 30
0.0
 11
107.55
 21
106.75
 31
0.0
  0
ARC
  8
0
  6
CONTINUOUS
 62
     1
 10
117.05
 20
107.25
 30
0.0
 40
0.5
 50
270.0
 51
0.0
  0
LINE
  8
0
  6
CONTINUOUS
 62
     1
 10
117.05
 20
139.25
 30
0.0
 11
107.5375
 21
139.25
 31
0.0
  0
LINE
  8
0
  6
CONTINUOUS
 62
     1
 10
117.55
 20
138.75
 30
0.0
 11
117.55
 21
107.25
 31
0.0
  0
ARC
  8
0
  6
CONTINUOUS
 62
     1
 10
117.05
 20
138.75
 30
0.0
 40
0.5
 50
0.0
 51
90.0
  0
LINE
  8
0
  6
CONTINUOUS
 62
     1
 10
96.964329413
 20
105.177942711
 30
0.0
 11
102.3
 21
104.25
 31
0.0
  0
ARC
  8
0
  6
CONTINUOUS
 62
     1
 10
97.05
 20
105.670548588
 30
0.0
 40
0.5
 50
180.0
 51
260.134193057
  0
LINE
  8
0
  6
CONTINUOUS
 62
     1
 10
96.964329413
 20
144.822057289
 30
0.0
 11
102.3
 21
145.75
 31
0.0
  0
LINE
  8
0
  6
CONTINUOUS
 62
     1
 10
96.55
 20
144.329451412
 30
0.0
 11
96.55
 21
105.670548588
 31
0.0
  0
ARC
  8
0
  6
CONTINUOUS
 62
     1
 10
97.05
 20
144.329451412
 30
0.0
 40
0.5
 50
99.865806943
 51
180.0
  0
LINE
  8
0
  6
CONTINUOUS
 62
     2
 10
60.894486611
 20
78.193329698
 30
0.0
 11
59.06390178
 21
76.490696686
 31
0.0
  0
LINE
  8
0
  6
CONTINUOUS
 62
     2
 10
60.894486611
 20
78.193329698
 30
0.0
 11
60.16047015
 21
75.80351384
 31
0.0
  0
LINE
  8
0
  6
CONTINUOUS
 62
     2
 10
60.894486611
 20
78.193329698
 30
0.0
 11
43.105513389
 21
49.806670302
 31
0.0
  0
LINE
  8
0
  6
CONTINUOUS
 62
     2
 10
43.105513389
 20
49.806670302
 30
0.0
 11
44.93609822
 21
51.509303314
 31
0.0
  0
LINE
  8
0
  6
CONTINUOUS
 62
     2
 10
43.105513389
 20
49.806670302
 30
0.0
 11
43.83952985
 21
52.19648616
 31
0.0
  0
TEXT
  8
0
  6
CONTINUOUS
 62
     2
 10
53.502637033
 20
68.281014126
 30
0.3
 40
3.0
  1
φ６７
 50
57.925999125
 41
0.6
 51
0.0
  7
KANJI0
  0
TEXT
  8
0
  6
CONTINUOUS
 62
     2
 10
56.688721789
 20
73.365191928
 30
0.18
 40
1.8
  1
±１
 50
57.925999125
 41
0.6
 51
0.0
  7
KANJI1
  0
LINE
  8
0
  6
CONTINUOUS
 62
     2
 10
40.85
 20
27.55
 30
0.0
 11
63.05
 21
27.55
 31
0.0
  0
TEXT
  8
0
  6
CONTINUOUS
 62
     2
 10
42.65
 20
29.65
 30
0.5
 40
3.0
  1
パネルカット
 50
0.0
 41
0.9
 51
0.0
  7
KANJI2
  0
TEXT
  8
0
  6
CONTINUOUS
 62
     2
 10
128.35
 20
61.0
 30
0.5
 40
3.0
  1
（□；Ｄ，Ｓ，Ｃ）
 50
0.0
 41
0.9
 51
0.0
  7
KANJI2
  0
TEXT
  8
0
  6
CONTINUOUS
 62
     2
 10
128.55
 20
50.7
 30
0.5
 40
3.0
  1
Ｍ５タ－ミナルネジとなります。
 50
0.0
 41
0.9
 51
0.0
  7
KANJI2
  0
LINE
  8
0
  6
CONTINUOUS
 62
     2
 10
119.05
 20
65.2
 30
0.0
 11
218.45
 21
65.2
 31
0.0
  0
LINE
  8
0
  6
CONTINUOUS
 62
     2
 10
119.05
 20
60.2
 30
0.0
 11
218.45
 21
60.2
 31
0.0
  0
LINE
  8
0
  6
CONTINUOUS
 62
     2
 10
119.05
 20
55.2
 30
0.0
 11
218.45
 21
55.2
 31
0.0
  0
LINE
  8
0
  6
CONTINUOUS
 62
     2
 10
119.05
 20
50.2
 30
0.0
 11
218.45
 21
50.2
 31
0.0
  0
LINE
  8
0
  6
LTYPE1
 62
     2
 10
36.0
 20
82.5
 30
0.0
 11
36.0
 21
77.5
 31
0.0
  0
LINE
  8
0
  6
LTYPE1
 62
     2
 10
33.5
 20
80.0
 30
0.0
 11
38.5
 21
80.0
 31
0.0
  0
LINE
  8
0
  6
LTYPE1
 62
     2
 10
68.0
 20
82.5
 30
0.0
 11
68.0
 21
77.5
 31
0.0
  0
LINE
  8
0
  6
LTYPE1
 62
     2
 10
65.5
 20
80.0
 30
0.0
 11
70.5
 21
80.0
 31
0.0
  0
LINE
  8
0
  6
LTYPE1
 62
     2
 10
68.0
 20
50.5
 30
0.0
 11
68.0
 21
45.5
 31
0.0
  0
LINE
  8
0
  6
LTYPE1
 62
     2
 10
65.5
 20
48.0
 30
0.0
 11
70.5
 21
48.0
 31
0.0
  0
LINE
  8
0
  6
LTYPE1
 62
     2
 10
36.0
 20
50.5
 30
0.0
 11
36.0
 21
45.5
 31
0.0
  0
LINE
  8
0
  6
LTYPE1
 62
     2
 10
33.5
 20
48.0
 30
0.0
 11
38.5
 21
48.0
 31
0.0
  0
LINE
  8
0
  6
CONTINUOUS
 62
     2
 10
36.0
 20
86.0
 30
0.0
 11
38.414814566
 21
85.352952387
 31
0.0
  0
LINE
  8
0
  6
CONTINUOUS
 62
     2
 10
36.0
 20
86.0
 30
0.0
 11
38.414814566
 21
86.647047613
 31
0.0
  0
LINE
  8
0
  6
CONTINUOUS
 62
     2
 10
36.0
 20
86.0
 30
0.0
 11
52.0
 21
86.0
 31
0.0
  0
LINE
  8
0
  6
CONTINUOUS
 62
     2
 10
52.0
 20
86.0
 30
0.0
 11
49.585185434
 21
86.647047613
 31
0.0
  0
LINE
  8
0
  6
CONTINUOUS
 62
     2
 10
52.0
 20
86.0
 30
0.0
 11
49.585185434
 21
85.352952387
 31
0.0
  0
TEXT
  8
0
  6
CONTINUOUS
 62
     2
 10
39.62
 20
87.0
 30
0.3
 40
3.0
  1
３２
 50
0.0
 41
0.6
 51
0.0
  7
KANJI0
  0
TEXT
  8
0
  6
CONTINUOUS
 62
     2
 10
43.52
 20
87.0
 30
0.18
 40
1.8
  1
±０．５
 50
0.0
 41
0.6
 51
0.0
  7
KANJI1
  0
LINE
  8
0
  6
CONTINUOUS
 62
     2
 10
52.0
 20
86.0
 30
0.0
 11
54.414814566
 21
85.352952387
 31
0.0
  0
LINE
  8
0
  6
CONTINUOUS
 62
     2
 10
52.0
 20
86.0
 30
0.0
 11
54.414814566
 21
86.647047613
 31
0.0
  0
LINE
  8
0
  6
CONTINUOUS
 62
     2
 10
52.0
 20
86.0
 30
0.0
 11
68.0
 21
86.0
 31
0.0
  0
LINE
  8
0
  6
CONTINUOUS
 62
     2
 10
68.0
 20
86.0
 30
0.0
 11
65.585185434
 21
86.647047613
 31
0.0
  0
LINE
  8
0
  6
CONTINUOUS
 62
     2
 10
68.0
 20
86.0
 30
0.0
 11
65.585185434
 21
85.352952387
 31
0.0
  0
TEXT
  8
0
  6
CONTINUOUS
 62
     2
 10
55.62
 20
87.0
 30
0.3
 40
3.0
  1
３２
 50
0.0
 41
0.6
 51
0.0
  7
KANJI0
  0
TEXT
  8
0
  6
CONTINUOUS
 62
     2
 10
59.52
 20
87.0
 30
0.18
 40
1.8
  1
±０．５
 50
0.0
 41
0.6
 51
0.0
  7
KANJI1
  0
LINE
  8
0
  6
CONTINUOUS
 62
     2
 10
36.0
 20
83.0
 30
0.0
 11
36.0
 21
88.0
 31
0.0
  0
LINE
  8
0
  6
CONTINUOUS
 62
     2
 10
68.0
 20
83.0
 30
0.0
 11
68.0
 21
88.0
 31
0.0
  0
LINE
  8
0
  6
CONTINUOUS
 62
     2
 10
52.0
 20
83.0
 30
0.0
 11
52.0
 21
88.0
 31
0.0
  0
LINE
  8
0
  6
CONTINUOUS
 62
     2
 10
74.0
 20
48.0
 30
0.0
 11
74.647047613
 21
50.414814566
 31
0.0
  0
LINE
  8
0
  6
CONTINUOUS
 62
     2
 10
74.0
 20
48.0
 30
0.0
 11
73.352952387
 21
50.414814566
 31
0.0
  0
LINE
  8
0
  6
CONTINUOUS
 62
     2
 10
74.0
 20
48.0
 30
0.0
 11
74.0
 21
64.0
 31
0.0
  0
LINE
  8
0
  6
CONTINUOUS
 62
     2
 10
74.0
 20
64.0
 30
0.0
 11
73.352952387
 21
61.585185434
 31
0.0
  0
LINE
  8
0
  6
CONTINUOUS
 62
     2
 10
74.0
 20
64.0
 30
0.0
 11
74.647047613
 21
61.585185434
 31
0.0
  0
TEXT
  8
0
  6
CONTINUOUS
 62
     2
 10
73.0
 20
51.62
 30
0.3
 40
3.0
  1
３２
 50
90.0
 41
0.6
 51
0.0
  7
KANJI0
  0
TEXT
  8
0
  6
CONTINUOUS
 62
     2
 10
73.0
 20
55.52
 30
0.18
 40
1.8
  1
±０．５
 50
90.0
 41
0.6
 51
0.0
  7
KANJI1
  0
LINE
  8
0
  6
CONTINUOUS
 62
     2
 10
74.0
 20
64.0
 30
0.0
 11
74.647047613
 21
66.414814566
 31
0.0
  0
LINE
  8
0
  6
CONTINUOUS
 62
     2
 10
74.0
 20
64.0
 30
0.0
 11
73.352952387
 21
66.414814566
 31
0.0
  0
LINE
  8
0
  6
CONTINUOUS
 62
     2
 10
74.0
 20
64.0
 30
0.0
 11
74.0
 21
80.05
 31
0.0
  0
LINE
  8
0
  6
CONTINUOUS
 62
     2
 10
74.0
 20
80.05
 30
0.0
 11
73.352952387
 21
77.635185434
 31
0.0
  0
LINE
  8
0
  6
CONTINUOUS
 62
     2
 10
74.0
 20
80.05
 30
0.0
 11
74.647047613
 21
77.635185434
 31
0.0
  0
TEXT
  8
0
  6
CONTINUOUS
 62
     2
 10
73.0
 20
67.645
 30
0.3
 40
3.0
  1
３２
 50
90.0
 41
0.6
 51
0.0
  7
KANJI0
  0
TEXT
  8
0
  6
CONTINUOUS
 62
     2
 10
73.0
 20
71.545
 30
0.18
 40
1.8
  1
±０．５
 50
90.0
 41
0.6
 51
0.0
  7
KANJI1
  0
LINE
  8
0
  6
CONTINUOUS
 62
     2
 10
71.0
 20
80.0
 30
0.0
 11
76.0
 21
80.0
 31
0.0
  0
LINE
  8
0
  6
CONTINUOUS
 62
     2
 10
71.0
 20
48.0
 30
0.0
 11
76.0
 21
48.0
 31
0.0
  0
LINE
  8
0
  6
CONTINUOUS
 62
     2
 10
71.0
 20
64.0
 30
0.0
 11
76.0
 21
64.0
 31
0.0
  0
TEXT
  8
0
  6
CONTINUOUS
 62
     2
 10
119.05
 20
65.9
 30
0.5
 40
3.0
  1
注１．感度調整用抵抗器は□ＣＦ－１０Ｖ形に限り付きます。
 50
0.0
 41
0.9
 51
0.0
  7
KANJI2
  0
TEXT
  8
0
  6
CONTINUOUS
 62
     2
 10
119.05
 20
55.7
 30
0.5
 40
3.0
  1
注２．ＡＣＦ－１０形交流電流計で１０Ａ以上，３０Ａ以下の場合は
 50
0.0
 41
0.9
 51
0.0
  7
KANJI2
  0
POINT
  8
0
  6
LTYPE2
 62
     2
 10
53.5
 20
125.0
 30
0.0
  0
ARC
  8
0
  6
CONTINUOUS
 62
     2
 10
75.5
 20
105.75
 30
0.0
 40
0.5
 50
270.0
 51
0.0
  0
LINE
  8
0
  6
CONTINUOUS
 62
     2
 10
76.0
 20
105.75
 30
0.0
 11
76.0
 21
144.25
 31
0.0
  0
ARC
  8
0
  6
CONTINUOUS
 62
     2
 10
75.5
 20
144.25
 30
0.0
 40
0.5
 50
0.0
 51
90.0
  0
ARC
  8
0
  6
CONTINUOUS
 62
     2
 10
28.5
 20
144.25
 30
0.0
 40
0.5
 50
90.0
 51
180.0
  0
LINE
  8
0
  6
CONTINUOUS
 62
     2
 10
28.5
 20
105.25
 30
0.0
 11
75.5
 21
105.25
 31
0.0
  0
LINE
  8
0
  6
CONTINUOUS
 62
     2
 10
28.0
 20
144.25
 30
0.0
 11
28.0
 21
105.75
 31
0.0
  0
ARC
  8
0
  6
CONTINUOUS
 62
     2
 10
28.5
 20
105.75
 30
0.0
 40
0.5
 50
180.0
 51
270.0
  0
LINE
  8
0
  6
CONTINUOUS
 62
     2
 10
28.7625
 20
119.25
 30
0.0
 11
75.2625
 21
119.25
 31
0.0
  0
LINE
  8
0
  6
CONTINUOUS
 62
     2
 10
75.2625
 20
119.25
 30
0.0
 11
75.2625
 21
143.5
 31
0.0
  0
ARC
  8
0
  6
CONTINUOUS
 62
     2
 10
74.7625
 20
143.5
 30
0.0
 40
0.5
 50
0.0
 51
90.0
  0
LINE
  8
0
  6
CONTINUOUS
 62
     2
 10
28.7625
 20
143.5
 30
0.0
 11
28.7625
 21
119.25
 31
0.0
  0
LINE
  8
0
  6
CONTINUOUS
 62
     2
 10
74.7625
 20
144.0
 30
0.0
 11
29.2625
 21
144.0
 31
0.0
  0
ARC
  8
0
  6
CONTINUOUS
 62
     2
 10
29.2625
 20
143.5
 30
0.0
 40
0.5
 50
90.0
 51
180.0
  0
CIRCLE
  8
0
  6
CONTINUOUS
 62
     2
 10
30.9625
 20
116.5
 30
0.0
 40
1.5
  0
LINE
  8
0
  6
CONTINUOUS
 62
     2
 10
30.0875
 20
116.7
 30
0.0
 11
30.5625
 21
116.7
 31
0.0
  0
ARC
  8
0
  6
CONTINUOUS
 62
     2
 10
30.5625
 20
116.9
 30
0.0
 40
0.2
 50
270.0
 51
0.0
  0
LINE
  8
0
  6
CONTINUOUS
 62
     2
 10
30.7625
 20
116.9
 30
0.0
 11
30.7625
 21
117.375
 31
0.0
  0
LINE
  8
0
  6
CONTINUOUS
 62
     2
 10
30.7625
 20
117.375
 30
0.0
 11
31.1625
 21
117.375
 31
0.0
  0
LINE
  8
0
  6
CONTINUOUS
 62
     2
 10
31.1625
 20
117.375
 30
0.0
 11
31.1625
 21
116.9
 31
0.0
  0
ARC
  8
0
  6
CONTINUOUS
 62
     2
 10
31.3625
 20
116.9
 30
0.0
 40
0.2
 50
180.0
 51
270.0
  0
LINE
  8
0
  6
CONTINUOUS
 62
     2
 10
31.3625
 20
116.7
 30
0.0
 11
31.8375
 21
116.7
 31
0.0
  0
LINE
  8
0
  6
CONTINUOUS
 62
     2
 10
31.8375
 20
116.7
 30
0.0
 11
31.8375
 21
116.3
 31
0.0
  0
LINE
  8
0
  6
CONTINUOUS
 62
     2
 10
31.8375
 20
116.3
 30
0.0
 11
31.3625
 21
116.3
 31
0.0
  0
ARC
  8
0
  6
CONTINUOUS
 62
     2
 10
31.3625
 20
116.1
 30
0.0
 40
0.2
 50
90.0
 51
180.0
  0
LINE
  8
0
  6
CONTINUOUS
 62
     2
 10
31.1625
 20
116.1
 30
0.0
 11
31.1625
 21
115.625
 31
0.0
  0
LINE
  8
0
  6
CONTINUOUS
 62
     2
 10
31.1625
 20
115.625
 30
0.0
 11
30.7625
 21
115.625
 31
0.0
  0
LINE
  8
0
  6
CONTINUOUS
 62
     2
 10
30.7625
 20
115.625
 30
0.0
 11
30.7625
 21
116.1
 31
0.0
  0
ARC
  8
0
  6
CONTINUOUS
 62
     2
 10
30.5625
 20
116.1
 30
0.0
 40
0.2
 50
0.0
 51
90.0
  0
LINE
  8
0
  6
CONTINUOUS
 62
     2
 10
30.5625
 20
116.3
 30
0.0
 11
30.0875
 21
116.3
 31
0.0
  0
LINE
  8
0
  6
CONTINUOUS
 62
     2
 10
30.0875
 20
116.3
 30
0.0
 11
30.0875
 21
116.7
 31
0.0
  0
CIRCLE
  8
0
  6
CONTINUOUS
 62
     2
 10
72.9625
 20
116.5
 30
0.0
 40
1.5
  0
LINE
  8
0
  6
CONTINUOUS
 62
     2
 10
72.0875
 20
116.7
 30
0.0
 11
72.5625
 21
116.7
 31
0.0
  0
ARC
  8
0
  6
CONTINUOUS
 62
     2
 10
72.5625
 20
116.9
 30
0.0
 40
0.2
 50
270.0
 51
0.0
  0
LINE
  8
0
  6
CONTINUOUS
 62
     2
 10
72.7625
 20
116.9
 30
0.0
 11
72.7625
 21
117.375
 31
0.0
  0
LINE
  8
0
  6
CONTINUOUS
 62
     2
 10
72.7625
 20
117.375
 30
0.0
 11
73.1625
 21
117.375
 31
0.0
  0
LINE
  8
0
  6
CONTINUOUS
 62
     2
 10
73.1625
 20
117.375
 30
0.0
 11
73.1625
 21
116.9
 31
0.0
  0
ARC
  8
0
  6
CONTINUOUS
 62
     2
 10
73.3625
 20
116.9
 30
0.0
 40
0.2
 50
180.0
 51
270.0
  0
LINE
  8
0
  6
CONTINUOUS
 62
     2
 10
73.3625
 20
116.7
 30
0.0
 11
73.8375
 21
116.7
 31
0.0
  0
LINE
  8
0
  6
CONTINUOUS
 62
     2
 10
73.8375
 20
116.7
 30
0.0
 11
73.8375
 21
116.3
 31
0.0
  0
LINE
  8
0
  6
CONTINUOUS
 62
     2
 10
73.8375
 20
116.3
 30
0.0
 11
73.3625
 21
116.3
 31
0.0
  0
ARC
  8
0
  6
CONTINUOUS
 62
     2
 10
73.3625
 20
116.1
 30
0.0
 40
0.2
 50
90.0
 51
180.0
  0
LINE
  8
0
  6
CONTINUOUS
 62
     2
 10
73.1625
 20
116.1
 30
0.0
 11
73.1625
 21
115.625
 31
0.0
  0
LINE
  8
0
  6
CONTINUOUS
 62
     2
 10
73.1625
 20
115.625
 30
0.0
 11
72.7625
 21
115.625
 31
0.0
  0
LINE
  8
0
  6
CONTINUOUS
 62
     2
 10
72.7625
 20
115.625
 30
0.0
 11
72.7625
 21
116.1
 31
0.0
  0
ARC
  8
0
  6
CONTINUOUS
 62
     2
 10
72.5625
 20
116.1
 30
0.0
 40
0.2
 50
0.0
 51
90.0
  0
LINE
  8
0
  6
CONTINUOUS
 62
     2
 10
72.5625
 20
116.3
 30
0.0
 11
72.0875
 21
116.3
 31
0.0
  0
LINE
  8
0
  6
CONTINUOUS
 62
     2
 10
72.0875
 20
116.3
 30
0.0
 11
72.0875
 21
116.7
 31
0.0
  0
LINE
  8
0
  6
CONTINUOUS
 62
     2
 10
33.084893603
 20
133.665106397
 30
0.0
 11
46.484893603
 21
119.265106397
 31
0.0
  0
LINE
  8
0
  6
CONTINUOUS
 62
     2
 10
33.134893603
 20
133.715106397
 30
0.0
 11
48.534893603
 21
119.265106397
 31
0.0
  0
CIRCLE
  8
0
  6
CONTINUOUS
 62
     2
 10
52.0
 20
114.75
 30
0.0
 40
1.5
  0
CIRCLE
  8
0
  6
CONTINUOUS
 62
     2
 10
52.0
 20
114.75
 30
0.0
 40
1.375
  0
LINE
  8
0
  6
CONTINUOUS
 62
     2
 10
50.647918272
 20
115.0
 30
0.0
 11
53.352081728
 21
115.0
 31
0.0
  0
LINE
  8
0
  6
CONTINUOUS
 62
     2
 10
50.647918272
 20
114.5
 30
0.0
 11
53.352081728
 21
114.5
 31
0.0
  0
LINE
  8
0
  6
CONTINUOUS
 62
     2
 10
61.705667739
 20
137.789585798
 30
0.0
 11
61.428503879
 21
137.904390828
 31
0.0
  0
LINE
  8
0
  6
CONTINUOUS
 62
     2
 10
61.428503879
 20
137.904390828
 30
0.0
 11
53.438032371
 21
119.25
 31
0.0
  0
LINE
  8
0
  6
CONTINUOUS
 62
     2
 10
61.705667739
 20
137.789585798
 30
0.0
 11
54.285676423
 21
119.25
 31
0.0
  0
LINE
  8
0
  6
LTYPE1
 62
     2
 10
28.9625
 20
116.5
 30
0.0
 11
32.9625
 21
116.5
 31
0.0
  0
LINE
  8
0
  6
LTYPE1
 62
     2
 10
30.9625
 20
118.5
 30
0.0
 11
30.9625
 21
114.5
 31
0.0
  0
CIRCLE
  8
0
  6
CONTINUOUS
 62
     2
 10
52.0
 20
109.75
 30
0.0
 40
1.8
  0
LINE
  8
0
  6
CONTINUOUS
 62
     2
 10
50.2
 20
109.55
 30
0.0
 11
53.7
 21
109.55
 31
0.0
  0
LINE
  8
0
  6
CONTINUOUS
 62
     2
 10
53.7
 20
109.95
 30
0.0
 11
50.25
 21
109.95
 31
0.0
  0
LINE
  8
0
  6
LTYPE1
 62
     2
 10
49.5
 20
109.75
 30
0.0
 11
54.5
 21
109.75
 31
0.0
  0
LINE
  8
0
  6
LTYPE1
 62
     2
 10
70.9625
 20
116.5
 30
0.0
 11
74.9625
 21
116.5
 31
0.0
  0
LINE
  8
0
  6
LTYPE1
 62
     2
 10
72.9625
 20
118.5
 30
0.0
 11
72.9625
 21
114.5
 31
0.0
  0
LINE
  8
0
  6
CONTINUOUS
 62
     2
 10
75.5
 20
144.75
 30
0.0
 11
28.5
 21
144.75
 31
0.0
  0
ARC
  8
0
  6
CONTINUOUS
 62
     2
 10
193.5
 20
105.75
 30
0.0
 40
0.5
 50
270.0
 51
0.0
  0
ARC
  8
0
  6
CONTINUOUS
 62
     2
 10
193.5
 20
144.25
 30
0.0
 40
0.5
 50
0.0
 51
90.0
  0
LINE
  8
0
  6
CONTINUOUS
 62
     2
 10
194.0
 20
105.75
 30
0.0
 11
194.0
 21
144.25
 31
0.0
  0
ARC
  8
0
  6
CONTINUOUS
 62
     2
 10
146.5
 20
144.25
 30
0.0
 40
0.5
 50
90.0
 51
180.0
  0
LINE
  8
0
  6
CONTINUOUS
 62
     2
 10
193.5
 20
144.75
 30
0.0
 11
146.5
 21
144.75
 31
0.0
  0
ARC
  8
0
  6
CONTINUOUS
 62
     2
 10
146.5
 20
105.75
 30
0.0
 40
0.5
 50
180.0
 51
270.0
  0
LINE
  8
0
  6
CONTINUOUS
 62
     2
 10
146.5
 20
105.25
 30
0.0
 11
193.5
 21
105.25
 31
0.0
  0
LINE
  8
0
  6
CONTINUOUS
 62
     2
 10
146.0
 20
144.25
 30
0.0
 11
146.0
 21
105.75
 31
0.0
  0
LINE
  8
0
  6
CONTINUOUS
 62
     2
 10
140.025
 20
131.825
 30
0.0
 11
140.025
 21
118.025
 31
0.0
  0
TEXT
  8
0
  6
CONTINUOUS
 62
     2
 10
139.025
 20
130.025
 30
0.3
 40
3.0
  1
４
 50
90.0
 41
0.6
 51
0.0
  7
KANJI0
  0
CIRCLE
  8
0
  6
CONTINUOUS
 62
     2
 10
154.0
 20
107.0
 30
0.0
 40
2.0
  0
CIRCLE
  8
0
  6
CONTINUOUS
 62
     2
 10
154.0
 20
107.0
 30
0.0
 40
0.75
  0
LINE
  8
0
  6
CONTINUOUS
 62
     2
 10
154.0
 20
108.6
 30
0.0
 11
152.614359354
 21
107.8
 31
0.0
  0
LINE
  8
0
  6
CONTINUOUS
 62
     2
 10
152.614359354
 20
107.8
 30
0.0
 11
152.614359354
 21
106.2
 31
0.0
  0
LINE
  8
0
  6
CONTINUOUS
 62
     2
 10
152.614359354
 20
106.2
 30
0.0
 11
154.0
 21
105.4
 31
0.0
  0
LINE
  8
0
  6
CONTINUOUS
 62
     2
 10
154.0
 20
105.4
 30
0.0
 11
155.385640646
 21
106.2
 31
0.0
  0
LINE
  8
0
  6
CONTINUOUS
 62
     2
 10
155.385640646
 20
106.2
 30
0.0
 11
155.385640646
 21
107.8
 31
0.0
  0
LINE
  8
0
  6
CONTINUOUS
 62
     2
 10
155.385640646
 20
107.8
 30
0.0
 11
154.0
 21
108.6
 31
0.0
  0
CIRCLE
  8
0
  6
CONTINUOUS
 62
     2
 10
154.0
 20
139.0
 30
0.0
 40
2.0
  0
CIRCLE
  8
0
  6
CONTINUOUS
 62
     2
 10
154.0
 20
139.0
 30
0.0
 40
0.75
  0
LINE
  8
0
  6
CONTINUOUS
 62
     2
 10
154.0
 20
140.6
 30
0.0
 11
152.614359354
 21
139.8
 31
0.0
  0
LINE
  8
0
  6
CONTINUOUS
 62
     2
 10
152.614359354
 20
139.8
 30
0.0
 11
152.614359354
 21
138.2
 31
0.0
  0
LINE
  8
0
  6
CONTINUOUS
 62
     2
 10
152.614359354
 20
138.2
 30
0.0
 11
154.0
 21
137.4
 31
0.0
  0
LINE
  8
0
  6
CONTINUOUS
 62
     2
 10
154.0
 20
137.4
 30
0.0
 11
155.385640646
 21
138.2
 31
0.0
  0
LINE
  8
0
  6
CONTINUOUS
 62
     2
 10
155.385640646
 20
138.2
 30
0.0
 11
155.385640646
 21
139.8
 31
0.0
  0
LINE
  8
0
  6
CONTINUOUS
 62
     2
 10
155.385640646
 20
139.8
 30
0.0
 11
154.0
 21
140.6
 31
0.0
  0
CIRCLE
  8
0
  6
CONTINUOUS
 62
     2
 10
186.0125
 20
139.0
 30
0.0
 40
2.0
  0
CIRCLE
  8
0
  6
CONTINUOUS
 62
     2
 10
186.0125
 20
139.0
 30
0.0
 40
0.75
  0
LINE
  8
0
  6
CONTINUOUS
 62
     2
 10
186.0125
 20
140.6
 30
0.0
 11
184.626859354
 21
139.8
 31
0.0
  0
LINE
  8
0
  6
CONTINUOUS
 62
     2
 10
184.626859354
 20
139.8
 30
0.0
 11
184.626859354
 21
138.2
 31
0.0
  0
LINE
  8
0
  6
CONTINUOUS
 62
     2
 10
184.626859354
 20
138.2
 30
0.0
 11
186.0125
 21
137.4
 31
0.0
  0
LINE
  8
0
  6
CONTINUOUS
 62
     2
 10
186.0125
 20
137.4
 30
0.0
 11
187.398140646
 21
138.2
 31
0.0
  0
LINE
  8
0
  6
CONTINUOUS
 62
     2
 10
187.398140646
 20
138.2
 30
0.0
 11
187.398140646
 21
139.8
 31
0.0
  0
LINE
  8
0
  6
CONTINUOUS
 62
     2
 10
187.398140646
 20
139.8
 30
0.0
 11
186.0125
 21
140.6
 31
0.0
  0
CIRCLE
  8
0
  6
CONTINUOUS
 62
     2
 10
186.0
 20
107.0
 30
0.0
 40
2.0
  0
CIRCLE
  8
0
  6
CONTINUOUS
 62
     2
 10
186.0
 20
107.0
 30
0.0
 40
0.75
  0
LINE
  8
0
  6
CONTINUOUS
 62
     2
 10
186.0
 20
108.6
 30
0.0
 11
184.614359354
 21
107.8
 31
0.0
  0
LINE
  8
0
  6
CONTINUOUS
 62
     2
 10
184.614359354
 20
107.8
 30
0.0
 11
184.614359354
 21
106.2
 31
0.0
  0
LINE
  8
0
  6
CONTINUOUS
 62
     2
 10
184.614359354
 20
106.2
 30
0.0
 11
186.0
 21
105.4
 31
0.0
  0
LINE
  8
0
  6
CONTINUOUS
 62
     2
 10
186.0
 20
105.4
 30
0.0
 11
187.385640646
 21
106.2
 31
0.0
  0
LINE
  8
0
  6
CONTINUOUS
 62
     2
 10
187.385640646
 20
106.2
 30
0.0
 11
187.385640646
 21
107.8
 31
0.0
  0
LINE
  8
0
  6
CONTINUOUS
 62
     2
 10
187.385640646
 20
107.8
 30
0.0
 11
186.0
 21
108.6
 31
0.0
  0
CIRCLE
  8
0
  6
CONTINUOUS
 62
     2
 10
170.0
 20
128.75
 30
0.0
 40
2.0
  0
TEXT
  8
0
  6
CONTINUOUS
 62
     2
 10
162.45
 20
126.05
 30
0.3
 40
3.0
  1
＋
 50
0.0
 41
0.9
 51
0.0
  7
KANJI3
  0
LINE
  8
0
  6
CONTINUOUS
 62
     2
 10
179.25
 20
123.0
 30
0.0
 11
186.75
 21
123.0
 31
0.0
  0
LINE
  8
0
  6
CONTINUOUS
 62
     2
 10
96.55
 20
144.0
 30
0.0
 11
96.3
 21
144.0
 31
0.0
  0
LINE
  8
0
  6
CONTINUOUS
 62
     2
 10
96.3
 20
144.0
 30
0.0
 11
96.3
 21
119.25
 31
0.0
  0
LINE
  8
0
  6
CONTINUOUS
 62
     2
 10
96.3
 20
119.25
 30
0.0
 11
96.55
 21
119.25
 31
0.0
  0
LINE
  8
0
  6
CONTINUOUS
 62
     2
 10
96.55
 20
116.25
 30
0.0
 11
96.35
 21
116.25
 31
0.0
  0
LINE
  8
0
  6
CONTINUOUS
 62
     2
 10
96.35
 20
116.25
 30
0.0
 11
96.35
 21
113.25
 31
0.0
  0
LINE
  8
0
  6
CONTINUOUS
 62
     2
 10
96.35
 20
113.25
 30
0.0
 11
96.55
 21
113.25
 31
0.0
  0
LINE
  8
0
  6
CONTINUOUS
 62
     2
 10
95.7
 20
115.0
 30
0.0
 11
96.35
 21
115.0
 31
0.0
  0
LINE
  8
0
  6
CONTINUOUS
 62
     2
 10
95.7
 20
114.5
 30
0.0
 11
96.35
 21
114.5
 31
0.0
  0
LINE
  8
0
  6
CONTINUOUS
 62
     2
 10
95.95
 20
116.125
 30
0.0
 11
96.35
 21
116.125
 31
0.0
  0
LINE
  8
0
  6
CONTINUOUS
 62
     2
 10
95.95
 20
116.125
 30
0.0
 11
95.95
 21
115.0
 31
0.0
  0
LINE
  8
0
  6
CONTINUOUS
 62
     2
 10
95.95
 20
114.5
 30
0.0
 11
95.95
 21
113.375
 31
0.0
  0
LINE
  8
0
  6
CONTINUOUS
 62
     2
 10
95.95
 20
113.375
 30
0.0
 11
96.35
 21
113.375
 31
0.0
  0
LINE
  8
0
  6
CONTINUOUS
 62
     2
 10
95.7
 20
115.0
 30
0.0
 11
95.7
 21
115.456392775
 31
0.0
  0
LINE
  8
0
  6
CONTINUOUS
 62
     2
 10
95.743094226
 20
115.659462008
 30
0.0
 11
95.95
 21
116.125
 31
0.0
  0
ARC
  8
0
  6
CONTINUOUS
 62
     2
 10
96.2
 20
115.456392775
 30
0.0
 40
0.5
 50
156.037511025
 51
180.0
  0
LINE
  8
0
  6
CONTINUOUS
 62
     2
 10
95.7
 20
114.5
 30
0.0
 11
95.7
 21
114.043607225
 31
0.0
  0
LINE
  8
0
  6
CONTINUOUS
 62
     2
 10
95.743094226
 20
113.840537992
 30
0.0
 11
95.95
 21
113.375
 31
0.0
  0
ARC
  8
0
  6
CONTINUOUS
 62
     2
 10
96.2
 20
114.043607225
 30
0.0
 40
0.5
 50
180.0
 51
203.962488975
  0
LINE
  8
0
  6
CONTINUOUS
 62
     2
 10
117.55
 20
106.25
 30
0.0
 11
117.55
 21
99.25
 31
0.0
  0
LINE
  8
0
  6
CONTINUOUS
 62
     2
 10
117.55
 20
101.25
 30
0.0
 11
119.964814566
 21
100.602952387
 31
0.0
  0
LINE
  8
0
  6
CONTINUOUS
 62
     2
 10
117.55
 20
101.25
 30
0.0
 11
119.964814566
 21
101.897047613
 31
0.0
  0
LINE
  8
0
  6
CONTINUOUS
 62
     2
 10
117.55
 20
101.25
 30
0.0
 11
124.55
 21
101.25
 31
0.0
  0
LINE
  8
0
  6
CONTINUOUS
 62
     2
 10
124.55
 20
101.25
 30
0.0
 11
122.135185434
 21
101.897047613
 31
0.0
  0
LINE
  8
0
  6
CONTINUOUS
 62
     2
 10
124.55
 20
101.25
 30
0.0
 11
122.135185434
 21
100.602952387
 31
0.0
  0
LINE
  8
0
  6
CONTINUOUS
 62
     2
 10
124.55
 20
117.05
 30
0.0
 11
124.55
 21
99.25
 31
0.0
  0
TEXT
  8
0
  6
CONTINUOUS
 62
     2
 10
119.1
 20
102.25
 30
0.3
 40
3.0
  1
１４
 50
0.0
 41
0.6
 51
0.0
  7
KANJI0
  0
ARC
  8
0
  6
LTYPE3
 62
     2
 10
163.25
 20
123.5
 30
0.0
 40
3.0
 50
90.0
 51
180.0
  0
LINE
  8
0
  6
LTYPE3
 62
     2
 10
160.25
 20
118.0
 30
0.0
 11
160.25
 21
123.5
 31
0.0
  0
LINE
  8
0
  6
LTYPE3
 62
     2
 10
176.75
 20
115.0
 30
0.0
 11
163.25
 21
115.0
 31
0.0
  0
ARC
  8
0
  6
LTYPE3
 62
     2
 10
163.25
 20
118.0
 30
0.0
 40
3.0
 50
180.0
 51
270.0
  0
LINE
  8
0
  6
LTYPE3
 62
     2
 10
163.275
 20
126.5
 30
0.0
 11
176.75
 21
126.5
 31
0.0
  0
ARC
  8
0
  6
LTYPE3
 62
     2
 10
176.75
 20
123.5
 30
0.0
 40
3.0
 50
0.0
 51
90.0
  0
ARC
  8
0
  6
LTYPE3
 62
     2
 10
176.75
 20
118.0
 30
0.0
 40
3.0
 50
270.0
 51
0.0
  0
LINE
  8
0
  6
LTYPE3
 62
     2
 10
179.75
 20
123.5
 30
0.0
 11
179.75
 21
118.0
 31
0.0
  0
POINT
  8
0
  6
LTYPE3
 62
     2
 10
165.0
 20
119.6
 30
0.0
  0
LINE
  8
0
  6
LTYPE3
 62
     2
 10
165.0
 20
119.6
 30
0.0
 11
162.5
 21
119.6
 31
0.0
  0
LINE
  8
0
  6
LTYPE3
 62
     2
 10
165.0
 20
119.6
 30
0.0
 11
165.0
 21
116.6
 31
0.0
  0
LINE
  8
0
  6
LTYPE3
 62
     2
 10
162.5
 20
119.6
 30
0.0
 11
162.5
 21
116.6
 31
0.0
  0
POINT
  8
0
  6
LTYPE3
 62
     2
 10
177.5
 20
119.6
 30
0.0
  0
LINE
  8
0
  6
LTYPE3
 62
     2
 10
177.5
 20
119.6
 30
0.0
 11
175.0
 21
119.6
 31
0.0
  0
LINE
  8
0
  6
LTYPE3
 62
     2
 10
177.5
 20
119.6
 30
0.0
 11
177.5
 21
116.6
 31
0.0
  0
LINE
  8
0
  6
LTYPE3
 62
     2
 10
175.0
 20
119.6
 30
0.0
 11
175.0
 21
116.6
 31
0.0
  0
LINE
  8
0
  6
CONTINUOUS
 62
     2
 10
179.25
 20
123.0
 30
0.0
 11
193.75
 21
123.0
 31
0.0
  0
LINE
  8
0
  6
LTYPE1
 62
     2
 10
101.5
 20
139.0
 30
0.0
 11
108.9
 21
139.0
 31
0.0
  0
LINE
  8
0
  6
LTYPE1
 62
     2
 10
101.5
 20
107.0
 30
0.0
 11
108.9
 21
107.0
 31
0.0
  0
LINE
  8
0
  6
LTYPE1
 62
     2
 10
120.15
 20
128.75
 30
0.0
 11
114.3
 21
128.75
 31
0.0
  0
LINE
  8
0
  6
LTYPE1
 62
     2
 10
163.75
 20
126.0
 30
0.0
 11
163.75
 21
120.0
 31
0.0
  0
LINE
  8
0
  6
LTYPE1
 62
     2
 10
176.25
 20
126.0
 30
0.0
 11
176.25
 21
120.0
 31
0.0
  0
LINE
  8
0
  6
LTYPE1
 62
     2
 10
151.0
 20
139.0
 30
0.0
 11
157.0
 21
139.0
 31
0.0
  0
LINE
  8
0
  6
LTYPE1
 62
     2
 10
183.0125
 20
139.0
 30
0.0
 11
189.0125
 21
139.0
 31
0.0
  0
LINE
  8
0
  6
LTYPE1
 62
     2
 10
151.0
 20
107.0
 30
0.0
 11
157.0
 21
107.0
 31
0.0
  0
LINE
  8
0
  6
LTYPE1
 62
     2
 10
183.0
 20
107.0
 30
0.0
 11
189.0
 21
107.0
 31
0.0
  0
LINE
  8
0
  6
LTYPE1
 62
     2
 10
154.0
 20
142.0
 30
0.0
 11
154.0
 21
136.0
 31
0.0
  0
LINE
  8
0
  6
LTYPE1
 62
     2
 10
186.0125
 20
142.0
 30
0.0
 11
186.0125
 21
136.0
 31
0.0
  0
LINE
  8
0
  6
LTYPE1
 62
     2
 10
186.0
 20
110.0
 30
0.0
 11
186.0
 21
104.0
 31
0.0
  0
LINE
  8
0
  6
LTYPE1
 62
     2
 10
154.0
 20
110.0
 30
0.0
 11
154.0
 21
104.0
 31
0.0
  0
LINE
  8
0
  6
CONTINUOUS
 62
     2
 10
112.5
 20
139.25
 30
0.0
 11
111.852952387
 21
136.835185434
 31
0.0
  0
LINE
  8
0
  6
CONTINUOUS
 62
     2
 10
112.5
 20
139.25
 30
0.0
 11
113.147047613
 21
136.835185434
 31
0.0
  0
LINE
  8
0
  6
CONTINUOUS
 62
     2
 10
112.5
 20
139.25
 30
0.0
 11
112.5
 21
106.75
 31
0.0
  0
LINE
  8
0
  6
CONTINUOUS
 62
     2
 10
112.5
 20
106.75
 30
0.0
 11
113.147047613
 21
109.164814566
 31
0.0
  0
LINE
  8
0
  6
CONTINUOUS
 62
     2
 10
112.5
 20
106.75
 30
0.0
 11
111.852952387
 21
109.164814566
 31
0.0
  0
LINE
  8
0
  6
CONTINUOUS
 62
     2
 10
112.5
 20
106.75
 30
0.0
 11
110.5
 21
106.75
 31
0.0
  0
TEXT
  8
0
  6
CONTINUOUS
 62
     2
 10
111.5
 20
119.5
 30
0.5
 40
3.0
  1
φ６５
 50
90.0
 41
0.666666667
 51
0.0
  7
KANJI4
  0
LINE
  8
0
  6
CONTINUOUS
 62
     2
 10
102.55
 20
149.275
 30
0.0
 11
102.55
 21
152.75
 31
0.0
  0
LINE
  8
0
  6
CONTINUOUS
 62
     2
 10
102.3
 20
150.75
 30
0.0
 11
99.885185434
 21
151.397047613
 31
0.0
  0
LINE
  8
0
  6
CONTINUOUS
 62
     2
 10
102.3
 20
150.75
 30
0.0
 11
99.885185434
 21
150.102952387
 31
0.0
  0
LINE
  8
0
  6
CONTINUOUS
 62
     2
 10
102.3
 20
150.75
 30
0.0
 11
98.25
 21
150.75
 31
0.0
  0
TEXT
  8
0
  6
CONTINUOUS
 62
     2
 10
97.275
 20
151.75
 30
0.3
 40
3.0
  1
０．５　
 50
0.0
 41
0.3
 51
0.0
  7
KANJI5
  0
TEXT
  8
0
  6
CONTINUOUS
 62
     2
 10
104.15
 20
151.75
 30
0.3
 40
3.0
  1
１０
 50
0.0
 41
0.3
 51
0.0
  7
KANJI5
  0
LINE
  8
0
  6
CONTINUOUS
 62
     2
 10
102.55
 20
150.75
 30
0.0
 11
104.374524064
 21
150.26112025
 31
0.0
  0
LINE
  8
0
  6
CONTINUOUS
 62
     2
 10
102.55
 20
150.75
 30
0.0
 11
104.394524064
 21
151.244238733
 31
0.0
  0
LINE
  8
0
  6
CONTINUOUS
 62
     2
 10
107.55
 20
150.75
 30
0.0
 11
105.764524064
 21
151.228416835
 31
0.0
  0
LINE
  8
0
  6
CONTINUOUS
 62
     2
 10
107.55
 20
150.75
 30
0.0
 11
105.764524064
 21
150.271583165
 31
0.0
  0
LINE
  8
0
  6
CONTINUOUS
 62
     2
 10
107.55
 20
150.75
 30
0.0
 11
102.3
 21
150.75
 31
0.0
  0
LINE
  8
0
  6
CONTINUOUS
 62
     2
 10
102.3
 20
152.75
 30
0.0
 11
102.3
 21
146.75
 31
0.0
  0
LINE
  8
0
  6
CONTINUOUS
 62
     2
 10
107.55
 20
140.825
 30
0.0
 11
107.55
 21
152.75
 31
0.0
  0
LINE
  8
0
  6
CONTINUOUS
 62
     2
 10
112.55
 20
155.75
 30
0.0
 11
128.5
 21
155.75
 31
0.0
  0
TEXT
  8
0
  6
CONTINUOUS
 62
     2
 10
117.405
 20
156.75
 30
0.3
 40
3.0
  1
１１
 50
0.0
 41
0.6
 51
0.0
  7
KANJI0
  0
TEXT
  8
0
  6
CONTINUOUS
 62
     2
 10
121.305
 20
156.75
 30
0.18
 40
1.8
  1
±１
 50
0.0
 41
0.6
 51
0.0
  7
KANJI1
  0
LINE
  8
0
  6
CONTINUOUS
 62
     2
 10
123.5
 20
155.75
 30
0.0
 11
125.914814566
 21
155.102952387
 31
0.0
  0
LINE
  8
0
  6
CONTINUOUS
 62
     2
 10
123.5
 20
155.75
 30
0.0
 11
125.914814566
 21
156.397047613
 31
0.0
  0
LINE
  8
0
  6
CONTINUOUS
 62
     2
 10
102.55
 20
155.75
 30
0.0
 11
117.55
 21
155.75
 31
0.0
  0
LINE
  8
0
  6
CONTINUOUS
 62
     2
 10
117.55
 20
155.75
 30
0.0
 11
115.135185434
 21
156.397047613
 31
0.0
  0
LINE
  8
0
  6
CONTINUOUS
 62
     2
 10
117.55
 20
155.75
 30
0.0
 11
115.135185434
 21
155.102952387
 31
0.0
  0
TEXT
  8
0
  6
CONTINUOUS
 62
     2
 10
108.1
 20
156.75
 30
0.3
 40
3.0
  1
３０
 50
0.0
 41
0.6
 51
0.0
  7
KANJI0
  0
LINE
  8
0
  6
CONTINUOUS
 62
     2
 10
102.55
 20
155.75
 30
0.0
 11
104.964814566
 21
155.102952387
 31
0.0
  0
LINE
  8
0
  6
CONTINUOUS
 62
     2
 10
102.55
 20
155.75
 30
0.0
 11
104.964814566
 21
156.397047613
 31
0.0
  0
LINE
  8
0
  6
CONTINUOUS
 62
     2
 10
102.55
 20
155.725
 30
0.0
 11
100.135185434
 21
156.372047613
 31
0.0
  0
LINE
  8
0
  6
CONTINUOUS
 62
     2
 10
117.55
 20
155.75
 30
0.0
 11
115.135185434
 21
155.102952387
 31
0.0
  0
LINE
  8
0
  6
CONTINUOUS
 62
     2
 10
117.55
 20
155.75
 30
0.0
 11
115.135185434
 21
156.397047613
 31
0.0
  0
TEXT
  8
0
  6
CONTINUOUS
 62
     2
 10
97.025
 20
156.775
 30
0.3
 40
3.0
  1
１２．５
 50
0.0
 41
0.3
 51
0.0
  7
KANJI5
  0
LINE
  8
0
  6
CONTINUOUS
 62
     2
 10
96.3
 20
155.75
 30
0.0
 11
98.714814566
 21
155.102952387
 31
0.0
  0
LINE
  8
0
  6
CONTINUOUS
 62
     2
 10
96.3
 20
155.75
 30
0.0
 11
98.714814566
 21
156.397047613
 31
0.0
  0
LINE
  8
0
  6
CONTINUOUS
 62
     2
 10
96.3
 20
155.75
 30
0.0
 11
102.55
 21
155.75
 31
0.0
  0
LINE
  8
0
  6
CONTINUOUS
 62
     2
 10
102.55
 20
155.75
 30
0.0
 11
100.135185434
 21
155.102952387
 31
0.0
  0
LINE
  8
0
  6
CONTINUOUS
 62
     2
 10
96.3
 20
145.326436456
 30
0.0
 11
96.3
 21
157.75
 31
0.0
  0
LINE
  8
0
  6
CONTINUOUS
 62
     2
 10
102.55
 20
142.05
 30
0.0
 11
102.55
 21
157.75
 31
0.0
  0
LINE
  8
0
  6
CONTINUOUS
 62
     2
 10
117.55
 20
139.75
 30
0.0
 11
117.55
 21
157.75
 31
0.0
  0
LINE
  8
0
  6
CONTINUOUS
 62
     2
 10
123.5
 20
125.1
 30
0.0
 11
123.5
 21
157.75
 31
0.0
  0
LINE
  8
0
  6
CONTINUOUS
 62
     2
 10
154.0
 20
150.75
 30
0.0
 11
156.414814566
 21
150.102952387
 31
0.0
  0
LINE
  8
0
  6
CONTINUOUS
 62
     2
 10
154.0
 20
150.75
 30
0.0
 11
156.414814566
 21
151.397047613
 31
0.0
  0
LINE
  8
0
  6
CONTINUOUS
 62
     2
 10
154.0
 20
150.75
 30
0.0
 11
170.0
 21
150.75
 31
0.0
  0
LINE
  8
0
  6
CONTINUOUS
 62
     2
 10
170.0
 20
150.75
 30
0.0
 11
167.585185434
 21
151.397047613
 31
0.0
  0
LINE
  8
0
  6
CONTINUOUS
 62
     2
 10
170.0
 20
150.75
 30
0.0
 11
167.585185434
 21
150.102952387
 31
0.0
  0
TEXT
  8
0
  6
CONTINUOUS
 62
     2
 10
157.62
 20
151.75
 30
0.3
 40
3.0
  1
３２
 50
0.0
 41
0.6
 51
0.0
  7
KANJI0
  0
TEXT
  8
0
  6
CONTINUOUS
 62
     2
 10
161.52
 20
151.75
 30
0.18
 40
1.8
  1
±０．５
 50
0.0
 41
0.6
 51
0.0
  7
KANJI1
  0
LINE
  8
0
  6
CONTINUOUS
 62
     2
 10
170.0
 20
150.75
 30
0.0
 11
172.414814566
 21
150.102952387
 31
0.0
  0
LINE
  8
0
  6
CONTINUOUS
 62
     2
 10
170.0
 20
150.75
 30
0.0
 11
172.414814566
 21
151.397047613
 31
0.0
  0
LINE
  8
0
  6
CONTINUOUS
 62
     2
 10
170.0
 20
150.75
 30
0.0
 11
186.0125
 21
150.75
 31
0.0
  0
LINE
  8
0
  6
CONTINUOUS
 62
     2
 10
186.0125
 20
150.75
 30
0.0
 11
183.597685434
 21
151.397047613
 31
0.0
  0
LINE
  8
0
  6
CONTINUOUS
 62
     2
 10
186.0125
 20
150.75
 30
0.0
 11
183.597685434
 21
150.102952387
 31
0.0
  0
TEXT
  8
0
  6
CONTINUOUS
 62
     2
 10
173.62625
 20
151.75
 30
0.3
 40
3.0
  1
３２
 50
0.0
 41
0.6
 51
0.0
  7
KANJI0
  0
TEXT
  8
0
  6
CONTINUOUS
 62
     2
 10
177.52625
 20
151.75
 30
0.18
 40
1.8
  1
±０．５
 50
0.0
 41
0.6
 51
0.0
  7
KANJI1
  0
LINE
  8
0
  6
CONTINUOUS
 62
     2
 10
145.0
 20
155.75
 30
0.0
 11
147.414814566
 21
155.102952387
 31
0.0
  0
LINE
  8
0
  6
CONTINUOUS
 62
     2
 10
145.0
 20
155.75
 30
0.0
 11
147.414814566
 21
156.397047613
 31
0.0
  0
LINE
  8
0
  6
CONTINUOUS
 62
     2
 10
145.0
 20
155.75
 30
0.0
 11
195.0
 21
155.75
 31
0.0
  0
LINE
  8
0
  6
CONTINUOUS
 62
     2
 10
195.0
 20
155.75
 30
0.0
 11
192.585185434
 21
156.397047613
 31
0.0
  0
LINE
  8
0
  6
CONTINUOUS
 62
     2
 10
195.0
 20
155.75
 30
0.0
 11
192.585185434
 21
155.102952387
 31
0.0
  0
TEXT
  8
0
  6
CONTINUOUS
 62
     2
 10
165.83
 20
156.75
 30
0.3
 40
3.0
  1
１００
 50
0.0
 41
0.6
 51
0.0
  7
KANJI0
  0
TEXT
  8
0
  6
CONTINUOUS
 62
     2
 10
171.83
 20
156.75
 30
0.18
 40
1.8
  1
±１
 50
0.0
 41
0.6
 51
0.0
  7
KANJI1
  0
LINE
  8
0
  6
CONTINUOUS
 62
     2
 10
145.0
 20
145.25
 30
0.0
 11
145.0
 21
157.75
 31
0.0
  0
LINE
  8
0
  6
CONTINUOUS
 62
     2
 10
195.0
 20
145.25
 30
0.0
 11
195.0
 21
157.75
 31
0.0
  0
LINE
  8
0
  6
CONTINUOUS
 62
     2
 10
154.0
 20
142.5
 30
0.0
 11
154.0
 21
152.75
 31
0.0
  0
LINE
  8
0
  6
CONTINUOUS
 62
     2
 10
186.0125
 20
142.5
 30
0.0
 11
186.0125
 21
152.75
 31
0.0
  0
LINE
  8
0
  6
CONTINUOUS
 62
     2
 10
170.0
 20
148.25
 30
0.0
 11
170.0
 21
152.75
 31
0.0
  0
LINE
  8
0
  6
CONTINUOUS
 62
     2
 10
200.0
 20
107.0
 30
0.0
 11
200.647047613
 21
109.414814566
 31
0.0
  0
LINE
  8
0
  6
CONTINUOUS
 62
     2
 10
200.0
 20
107.0
 30
0.0
 11
199.352952387
 21
109.414814566
 31
0.0
  0
LINE
  8
0
  6
CONTINUOUS
 62
     2
 10
200.0
 20
107.0
 30
0.0
 11
200.0
 21
123.0
 31
0.0
  0
LINE
  8
0
  6
CONTINUOUS
 62
     2
 10
200.0
 20
123.0
 30
0.0
 11
199.352952387
 21
120.585185434
 31
0.0
  0
LINE
  8
0
  6
CONTINUOUS
 62
     2
 10
200.0
 20
123.0
 30
0.0
 11
200.647047613
 21
120.585185434
 31
0.0
  0
TEXT
  8
0
  6
CONTINUOUS
 62
     2
 10
199.0
 20
110.62
 30
0.3
 40
3.0
  1
３２
 50
90.0
 41
0.6
 51
0.0
  7
KANJI0
  0
TEXT
  8
0
  6
CONTINUOUS
 62
     2
 10
199.0
 20
114.52
 30
0.18
 40
1.8
  1
±０．５
 50
90.0
 41
0.6
 51
0.0
  7
KANJI1
  0
LINE
  8
0
  6
CONTINUOUS
 62
     2
 10
200.0
 20
123.0
 30
0.0
 11
200.647047613
 21
125.414814566
 31
0.0
  0
LINE
  8
0
  6
CONTINUOUS
 62
     2
 10
200.0
 20
123.0
 30
0.0
 11
199.352952387
 21
125.414814566
 31
0.0
  0
LINE
  8
0
  6
CONTINUOUS
 62
     2
 10
200.0
 20
123.0
 30
0.0
 11
200.0
 21
139.0
 31
0.0
  0
LINE
  8
0
  6
CONTINUOUS
 62
     2
 10
200.0
 20
139.0
 30
0.0
 11
199.352952387
 21
136.585185434
 31
0.0
  0
LINE
  8
0
  6
CONTINUOUS
 62
     2
 10
200.0
 20
139.0
 30
0.0
 11
200.647047613
 21
136.585185434
 31
0.0
  0
TEXT
  8
0
  6
CONTINUOUS
 62
     2
 10
199.0
 20
126.62
 30
0.3
 40
3.0
  1
３２
 50
90.0
 41
0.6
 51
0.0
  7
KANJI0
  0
TEXT
  8
0
  6
CONTINUOUS
 62
     2
 10
199.0
 20
130.52
 30
0.18
 40
1.8
  1
±０．５
 50
90.0
 41
0.6
 51
0.0
  7
KANJI1
  0
LINE
  8
0
  6
CONTINUOUS
 62
     2
 10
189.5
 20
107.0
 30
0.0
 11
202.0
 21
107.0
 31
0.0
  0
LINE
  8
0
  6
CONTINUOUS
 62
     2
 10
189.5125
 20
139.0
 30
0.0
 11
202.0
 21
139.0
 31
0.0
  0
LINE
  8
0
  6
CONTINUOUS
 62
     2
 10
205.5
 20
104.275
 30
0.0
 11
206.147047613
 21
106.689814566
 31
0.0
  0
LINE
  8
0
  6
CONTINUOUS
 62
     2
 10
205.5
 20
104.275
 30
0.0
 11
204.852952387
 21
106.689814566
 31
0.0
  0
LINE
  8
0
  6
CONTINUOUS
 62
     2
 10
205.5
 20
104.275
 30
0.0
 11
205.5
 21
145.775
 31
0.0
  0
LINE
  8
0
  6
CONTINUOUS
 62
     2
 10
205.5
 20
145.775
 30
0.0
 11
204.852952387
 21
143.360185434
 31
0.0
  0
LINE
  8
0
  6
CONTINUOUS
 62
     2
 10
205.5
 20
145.775
 30
0.0
 11
206.147047613
 21
143.360185434
 31
0.0
  0
TEXT
  8
0
  6
CONTINUOUS
 62
     2
 10
204.5
 20
121.905
 30
0.3
 40
3.0
  1
８３
 50
90.0
 41
0.6
 51
0.0
  7
KANJI0
  0
TEXT
  8
0
  6
CONTINUOUS
 62
     2
 10
204.5
 20
125.805
 30
0.18
 40
1.8
  1
±１
 50
90.0
 41
0.6
 51
0.0
  7
KANJI1
  0
LINE
  8
0
  6
CONTINUOUS
 62
     2
 10
194.5
 20
104.275
 30
0.0
 11
207.5
 21
104.275
 31
0.0
  0
LINE
  8
0
  6
CONTINUOUS
 62
     2
 10
194.5
 20
145.775
 30
0.0
 11
207.5
 21
145.775
 31
0.0
  0
LINE
  8
0
  6
LTYPE1
 62
     2
 10
138.5
 20
123.0
 30
0.0
 11
197.0
 21
123.0
 31
0.0
  0
LINE
  8
0
  6
CONTINUOUS
 62
     2
 10
197.5
 20
123.0
 30
0.0
 11
202.0
 21
123.0
 31
0.0
  0
LINE
  8
0
  6
CONTINUOUS
 62
     2
 10
123.5
 20
121.6
 30
0.0
 11
124.130116473
 21
119.180712247
 31
0.0
  0
LINE
  8
0
  6
CONTINUOUS
 62
     2
 10
123.5
 20
121.6
 30
0.0
 11
125.255340749
 21
119.819893584
 31
0.0
  0
TEXT
  8
0
  6
CONTINUOUS
 62
     2
 10
138.2100753
 20
100.225
 30
0.3
 40
3.0
  1
注２
 50
0.0
 41
0.9
 51
0.0
  7
KANJI3
  0
TEXT
  8
0
  6
CONTINUOUS
 62
     2
 10
138.6100753
 20
96.0
 30
0.3
 40
3.0
  1
Ｍ４（Ｍ５）ターミナルネジ
 50
0.0
 41
0.9
 51
0.0
  7
KANJI3
  0
LINE
  8
0
  6
CONTINUOUS
 62
     2
 10
123.5
 20
121.6
 30
0.0
 11
138.6100753
 21
95.0
 31
0.0
  0
LINE
  8
0
  6
LTYPE1
 62
     2
 10
170.0
 20
147.75
 30
0.0
 11
170.0
 21
100.0
 31
0.0
  0
LINE
  8
0
  6
CONTINUOUS
 62
     2
 10
138.6100753
 20
95.0
 30
0.0
 11
177.6100753
 21
95.0
 31
0.0
  0
LINE
  8
0
  6
CONTINUOUS
 62
     2
 10
106.1100753
 20
105.5
 30
0.0
 11
106.740191773
 21
103.080712247
 31
0.0
  0
LINE
  8
0
  6
CONTINUOUS
 62
     2
 10
106.1100753
 20
105.5
 30
0.0
 11
107.865416049
 21
103.719893584
 31
0.0
  0
TEXT
  8
0
  6
CONTINUOUS
 62
     2
 10
112.074578708
 20
96.0
 30
0.3
 40
3.0
  1
Ｍ３取付ボルト
 50
0.0
 41
0.9
 51
0.0
  7
KANJI3
  0
LINE
  8
0
  6
CONTINUOUS
 62
     2
 10
106.1100753
 20
105.5
 30
0.0
 11
112.074578708
 21
95.0
 31
0.0
  0
LINE
  8
0
  6
CONTINUOUS
 62
     2
 10
112.074578708
 20
95.0
 30
0.0
 11
132.674578708
 21
95.0
 31
0.0
  0
LINE
  8
0
  6
CONTINUOUS
 62
     2
 10
53.4
 20
113.6
 30
0.0
 11
54.030116473
 21
111.180712247
 31
0.0
  0
LINE
  8
0
  6
CONTINUOUS
 62
     2
 10
53.4
 20
113.6
 30
0.0
 11
55.155340749
 21
111.819893584
 31
0.0
  0
TEXT
  8
0
  6
CONTINUOUS
 62
     2
 10
63.965691751
 20
96.0
 30
0.3
 40
3.0
  1
予定指針調整器
 50
0.0
 41
0.9
 51
0.0
  7
KANJI3
  0
LINE
  8
0
  6
CONTINUOUS
 62
     2
 10
53.4
 20
113.6
 30
0.0
 11
63.965691751
 21
95.0
 31
0.0
  0
LINE
  8
0
  6
CONTINUOUS
 62
     2
 10
63.965691751
 20
95.0
 30
0.0
 11
85.365691751
 21
95.0
 31
0.0
  0
LINE
  8
0
  6
CONTINUOUS
 62
     2
 10
50.365691751
 20
108.5
 30
0.0
 11
49.735575278
 21
106.080712247
 31
0.0
  0
LINE
  8
0
  6
CONTINUOUS
 62
     2
 10
50.365691751
 20
108.5
 30
0.0
 11
48.610351002
 21
106.719893584
 31
0.0
  0
LINE
  8
0
  6
CONTINUOUS
 62
     2
 10
42.697044512
 20
95.0
 30
0.0
 11
27.997044512
 21
95.0
 31
0.0
  0
TEXT
  8
0
  6
CONTINUOUS
 62
     2
 10
27.997044512
 20
96.0
 30
0.3
 40
3.0
  1
零位調整器
 50
0.0
 41
0.9
 51
0.0
  7
KANJI3
  0
LINE
  8
0
  6
CONTINUOUS
 62
     2
 10
50.365691751
 20
108.5
 30
0.0
 11
42.697044512
 21
95.0
 31
0.0
  0
LINE
  8
0
  6
CONTINUOUS
 62
     2
 10
171.697044512
 20
131.0
 30
0.0
 11
172.327160985
 21
133.419287753
 31
0.0
  0
LINE
  8
0
  6
CONTINUOUS
 62
     2
 10
171.697044512
 20
131.0
 30
0.0
 11
173.452385262
 21
132.780106416
 31
0.0
  0
LINE
  8
0
  6
CONTINUOUS
 62
     2
 10
171.697044512
 20
131.0
 30
0.0
 11
188.454458849
 21
160.5
 31
0.0
  0
TEXT
  8
0
  6
CONTINUOUS
 62
     2
 10
188.604458849
 20
165.25
 30
0.3
 40
3.0
  1
注１
 50
0.0
 41
0.9
 51
0.0
  7
KANJI3
  0
TEXT
  8
0
  6
CONTINUOUS
 62
     2
 10
188.454458849
 20
161.5
 30
0.3
 40
3.0
  1
感度調整用抵抗器
 50
0.0
 41
0.9
 51
0.0
  7
KANJI3
  0
LINE
  8
0
  6
CONTINUOUS
 62
     2
 10
188.454458849
 20
160.5
 30
0.0
 11
212.454458849
 21
160.5
 31
0.0
  0
LINE
  8
0
  6
CONTINUOUS
 62
     2
 10
120.454458849
 20
127.5
 30
0.0
 11
121.084575322
 21
129.919287753
 31
0.0
  0
LINE
  8
0
  6
CONTINUOUS
 62
     2
 10
120.454458849
 20
127.5
 30
0.0
 11
122.209799598
 21
129.280106416
 31
0.0
  0
TEXT
  8
0
  6
CONTINUOUS
 62
     2
 10
125.765707122
 20
137.85
 30
0.3
 40
3.0
  1
端子キャップ
 50
0.0
 41
0.9
 51
0.0
  7
KANJI3
  0
LINE
  8
0
  6
CONTINUOUS
 62
     2
 10
120.454458849
 20
127.5
 30
0.0
 11
125.765707122
 21
136.85
 31
0.0
  0
LINE
  8
0
  6
CONTINUOUS
 62
     2
 10
125.765707122
 20
136.85
 30
0.0
 11
144.065707122
 21
136.85
 31
0.0
  0
LINE
  8
0
  6
CONTINUOUS
 62
     2
 10
61.7
 20
138.1
 30
0.0
 11
62.330116473
 21
140.519287753
 31
0.0
  0
LINE
  8
0
  6
CONTINUOUS
 62
     2
 10
61.7
 20
138.1
 30
0.0
 11
63.455340749
 21
139.880106416
 31
0.0
  0
TEXT
  8
0
  6
CONTINUOUS
 62
     2
 10
71.726046205
 20
156.75
 30
0.3
 40
3.0
  1
予定指針（赤色）
 50
0.0
 41
0.9
 51
0.0
  7
KANJI3
  0
LINE
  8
0
  6
CONTINUOUS
 62
     2
 10
61.7
 20
138.1
 30
0.0
 11
71.726046205
 21
155.75
 31
0.0
  0
LINE
  8
0
  6
CONTINUOUS
 62
     2
 10
71.726046205
 20
155.75
 30
0.0
 11
94.226046205
 21
155.75
 31
0.0
  0
LINE
  8
0
  6
CONTINUOUS
 62
     2
 10
33.726046205
 20
133.75
 30
0.0
 11
34.356162678
 21
136.169287753
 31
0.0
  0
LINE
  8
0
  6
CONTINUOUS
 62
     2
 10
33.726046205
 20
133.75
 30
0.0
 11
35.481386954
 21
135.530106416
 31
0.0
  0
LINE
  8
0
  6
CONTINUOUS
 62
     2
 10
46.223100964
 20
155.75
 30
0.0
 11
52.334829359
 21
155.75
 31
0.0
  0
TEXT
  8
0
  6
CONTINUOUS
 62
     2
 10
46.223100964
 20
156.75
 30
0.3
 40
3.0
  1
指針
 50
0.0
 41
0.9
 51
0.0
  7
KANJI3
  0
LINE
  8
0
  6
CONTINUOUS
 62
     2
 10
33.726046205
 20
133.75
 30
0.0
 11
46.223100964
 21
155.75
 31
0.0
  0
LINE
  8
0
  6
CONTINUOUS
 62
     2
 10
69.0
 20
47.0
 30
0.0
 11
69.630116473
 21
44.580712247
 31
0.0
  0
LINE
  8
0
  6
CONTINUOUS
 62
     2
 10
69.0
 20
47.0
 30
0.0
 11
70.755340749
 21
45.219893584
 31
0.0
  0
TEXT
  8
0
  6
CONTINUOUS
 62
     2
 10
74.566869847
 20
38.2
 30
0.5
 40
3.0
  1
４－φ４
 50
0.0
 41
0.6
 51
0.0
  7
KANJI6
  0
LINE
  8
0
  6
CONTINUOUS
 62
     2
 10
69.0
 20
47.0
 30
0.0
 11
74.566869847
 21
37.2
 31
0.0
  0
TEXT
  8
0
  6
CONTINUOUS
 62
     2
 10
83.72
 20
37.85
 30
0.18
 40
1.8
  1
－０
 50
0.0
 41
0.6
 51
0.0
  7
KANJI1
  0
TEXT
  8
0
  6
CONTINUOUS
 62
     2
 10
83.72
 20
39.65
 30
0.18
 40
1.8
  1
＋０．５
 50
0.0
 41
0.6
 51
0.0
  7
KANJI1
  0
LINE
  8
0
  6
CONTINUOUS
 62
     2
 10
102.3
 20
140.95
 30
0.0
 11
102.55
 21
140.95
 31
0.0
  0
LINE
  8
0
  6
CONTINUOUS
 62
     2
 10
102.55
 20
136.95
 30
0.0
 11
102.3
 21
136.95
 31
0.0
  0
LINE
  8
0
  6
CONTINUOUS
 62
     2
 10
102.55
 20
140.95
 30
0.0
 11
102.55
 21
136.95
 31
0.0
  0
LINE
  8
0
  6
CONTINUOUS
 62
     2
 10
104.9
 20
140.525
 30
0.0
 11
105.1
 21
140.325
 31
0.0
  0
LINE
  8
0
  6
CONTINUOUS
 62
     2
 10
104.875
 20
139.7
 30
0.0
 11
105.075
 21
139.9
 31
0.0
  0
LINE
  8
0
  6
CONTINUOUS
 62
     2
 10
105.075
 20
139.5
 30
0.0
 11
104.875
 21
139.7
 31
0.0
  0
LINE
  8
0
  6
CONTINUOUS
 62
     2
 10
103.9
 20
140.525
 30
0.0
 11
104.9
 21
140.525
 31
0.0
  0
LINE
  8
0
  6
CONTINUOUS
 62
     2
 10
103.9
 20
139.7
 30
0.0
 11
104.875
 21
139.7
 31
0.0
  0
LINE
  8
0
  6
CONTINUOUS
 62
     2
 10
104.9
 20
137.425
 30
0.0
 11
105.1
 21
137.625
 31
0.0
  0
LINE
  8
0
  6
CONTINUOUS
 62
     2
 10
104.9
 20
137.425
 30
0.0
 11
103.9
 21
137.425
 31
0.0
  0
LINE
  8
0
  6
CONTINUOUS
 62
     2
 10
103.9
 20
137.425
 30
0.0
 11
103.9
 21
140.525
 31
0.0
  0
LINE
  8
0
  6
CONTINUOUS
 62
     2
 10
105.1
 20
140.325
 30
0.0
 11
105.1
 21
137.625
 31
0.0
  0
LINE
  8
0
  6
CONTINUOUS
 62
     2
 10
105.1
 20
139.725
 30
0.0
 11
107.55
 21
139.725
 31
0.0
  0
LINE
  8
0
  6
CONTINUOUS
 62
     2
 10
107.53
 20
139.55
 30
0.0
 11
105.1
 21
139.55
 31
0.0
  0
LINE
  8
0
  6
CONTINUOUS
 62
     2
 10
103.9
 20
140.525
 30
0.0
 11
103.6
 21
140.825
 31
0.0
  0
LINE
  8
0
  6
CONTINUOUS
 62
     2
 10
103.6
 20
140.825
 30
0.0
 11
103.6
 21
137.125
 31
0.0
  0
LINE
  8
0
  6
CONTINUOUS
 62
     2
 10
103.9
 20
137.425
 30
0.0
 11
103.6
 21
137.125
 31
0.0
  0
LINE
  8
0
  6
CONTINUOUS
 62
     2
 10
103.6
 20
138.45
 30
0.0
 11
102.55
 21
138.45
 31
0.0
  0
LINE
  8
0
  6
CONTINUOUS
 62
     2
 10
102.55
 20
139.7
 30
0.0
 11
103.6
 21
139.7
 31
0.0
  0
LINE
  8
0
  6
CONTINUOUS
 62
     2
 10
103.6
 20
139.55
 30
0.0
 11
102.55
 21
139.55
 31
0.0
  0
LINE
  8
0
  6
CONTINUOUS
 62
     2
 10
107.55
 20
139.725
 30
0.0
 11
107.55
 21
138.275
 31
0.0
  0
LINE
  8
0
  6
CONTINUOUS
 62
     2
 10
107.55
 20
138.275
 30
0.0
 11
105.1
 21
138.275
 31
0.0
  0
LINE
  8
0
  6
CONTINUOUS
 62
     2
 10
105.1
 20
138.45
 30
0.0
 11
107.55
 21
138.45
 31
0.0
  0
LINE
  8
0
  6
CONTINUOUS
 62
     2
 10
104.885
 20
138.275
 30
0.0
 11
103.9
 21
138.275
 31
0.0
  0
LINE
  8
0
  6
CONTINUOUS
 62
     2
 10
102.55
 20
138.275
 30
0.0
 11
103.6
 21
138.275
 31
0.0
  0
LINE
  8
0
  6
CONTINUOUS
 62
     2
 10
104.885
 20
138.275
 30
0.0
 11
105.085
 21
138.475
 31
0.0
  0
LINE
  8
0
  6
CONTINUOUS
 62
     2
 10
105.085
 20
138.075
 30
0.0
 11
104.885
 21
138.275
 31
0.0
  0
LINE
  8
0
  6
CONTINUOUS
 62
     2
 10
102.3
 20
108.95
 30
0.0
 11
102.55
 21
108.95
 31
0.0
  0
LINE
  8
0
  6
CONTINUOUS
 62
     2
 10
102.55
 20
104.95
 30
0.0
 11
102.3
 21
104.95
 31
0.0
  0
LINE
  8
0
  6
CONTINUOUS
 62
     2
 10
102.55
 20
108.95
 30
0.0
 11
102.55
 21
104.95
 31
0.0
  0
LINE
  8
0
  6
CONTINUOUS
 62
     2
 10
104.9
 20
108.525
 30
0.0
 11
105.1
 21
108.325
 31
0.0
  0
LINE
  8
0
  6
CONTINUOUS
 62
     2
 10
104.875
 20
107.7
 30
0.0
 11
105.075
 21
107.9
 31
0.0
  0
LINE
  8
0
  6
CONTINUOUS
 62
     2
 10
105.075
 20
107.5
 30
0.0
 11
104.875
 21
107.7
 31
0.0
  0
LINE
  8
0
  6
CONTINUOUS
 62
     2
 10
103.9
 20
108.525
 30
0.0
 11
104.9
 21
108.525
 31
0.0
  0
LINE
  8
0
  6
CONTINUOUS
 62
     2
 10
103.9
 20
107.7
 30
0.0
 11
104.875
 21
107.7
 31
0.0
  0
LINE
  8
0
  6
CONTINUOUS
 62
     2
 10
104.9
 20
105.425
 30
0.0
 11
105.1
 21
105.625
 31
0.0
  0
LINE
  8
0
  6
CONTINUOUS
 62
     2
 10
104.9
 20
105.425
 30
0.0
 11
103.9
 21
105.425
 31
0.0
  0
LINE
  8
0
  6
CONTINUOUS
 62
     2
 10
103.9
 20
105.425
 30
0.0
 11
103.9
 21
108.525
 31
0.0
  0
LINE
  8
0
  6
CONTINUOUS
 62
     2
 10
105.1
 20
108.325
 30
0.0
 11
105.1
 21
105.625
 31
0.0
  0
LINE
  8
0
  6
CONTINUOUS
 62
     2
 10
105.1
 20
107.725
 30
0.0
 11
107.55
 21
107.725
 31
0.0
  0
LINE
  8
0
  6
CONTINUOUS
 62
     2
 10
107.53
 20
107.55
 30
0.0
 11
105.1
 21
107.55
 31
0.0
  0
LINE
  8
0
  6
CONTINUOUS
 62
     2
 10
103.9
 20
108.525
 30
0.0
 11
103.6
 21
108.825
 31
0.0
  0
LINE
  8
0
  6
CONTINUOUS
 62
     2
 10
103.6
 20
108.825
 30
0.0
 11
103.6
 21
105.125
 31
0.0
  0
LINE
  8
0
  6
CONTINUOUS
 62
     2
 10
103.9
 20
105.425
 30
0.0
 11
103.6
 21
105.125
 31
0.0
  0
LINE
  8
0
  6
CONTINUOUS
 62
     2
 10
103.6
 20
106.45
 30
0.0
 11
102.55
 21
106.45
 31
0.0
  0
LINE
  8
0
  6
CONTINUOUS
 62
     2
 10
102.55
 20
107.7
 30
0.0
 11
103.6
 21
107.7
 31
0.0
  0
LINE
  8
0
  6
CONTINUOUS
 62
     2
 10
103.6
 20
107.55
 30
0.0
 11
102.55
 21
107.55
 31
0.0
  0
LINE
  8
0
  6
CONTINUOUS
 62
     2
 10
107.55
 20
107.725
 30
0.0
 11
107.55
 21
106.275
 31
0.0
  0
LINE
  8
0
  6
CONTINUOUS
 62
     2
 10
107.55
 20
106.275
 30
0.0
 11
105.1
 21
106.275
 31
0.0
  0
LINE
  8
0
  6
CONTINUOUS
 62
     2
 10
105.1
 20
106.45
 30
0.0
 11
107.55
 21
106.45
 31
0.0
  0
LINE
  8
0
  6
CONTINUOUS
 62
     2
 10
104.885
 20
106.275
 30
0.0
 11
103.9
 21
106.275
 31
0.0
  0
LINE
  8
0
  6
CONTINUOUS
 62
     2
 10
102.55
 20
106.275
 30
0.0
 11
103.6
 21
106.275
 31
0.0
  0
LINE
  8
0
  6
CONTINUOUS
 62
     2
 10
104.885
 20
106.275
 30
0.0
 11
105.085
 21
106.475
 31
0.0
  0
LINE
  8
0
  6
CONTINUOUS
 62
     2
 10
105.085
 20
106.075
 30
0.0
 11
104.885
 21
106.275
 31
0.0
  0
LINE
  8
0
  6
CONTINUOUS
 62
     2
 10
176.25
 20
125.025
 30
0.0
 11
174.496298557
 21
124.0125
 31
0.0
  0
LINE
  8
0
  6
CONTINUOUS
 62
     2
 10
174.496298557
 20
124.0125
 30
0.0
 11
174.496298557
 21
121.9875
 31
0.0
  0
LINE
  8
0
  6
CONTINUOUS
 62
     2
 10
174.496298557
 20
121.9875
 30
0.0
 11
176.25
 21
120.975
 31
0.0
  0
LINE
  8
0
  6
CONTINUOUS
 62
     2
 10
176.25
 20
120.975
 30
0.0
 11
178.003701443
 21
121.9875
 31
0.0
  0
LINE
  8
0
  6
CONTINUOUS
 62
     2
 10
178.003701443
 20
121.9875
 30
0.0
 11
178.003701443
 21
124.0125
 31
0.0
  0
LINE
  8
0
  6
CONTINUOUS
 62
     2
 10
178.003701443
 20
124.0125
 30
0.0
 11
176.25
 21
125.025
 31
0.0
  0
CIRCLE
  8
0
  6
CONTINUOUS
 62
     2
 10
176.25
 20
123.0
 30
0.0
 40
0.8
  0
CIRCLE
  8
0
  6
CONTINUOUS
 62
     2
 10
176.25
 20
123.0
 30
0.0
 40
1.0
  0
ARC
  8
0
  6
LTYPE3
 62
     2
 10
176.25
 20
123.0
 30
0.0
 40
1.975
 50
328.025496594
 51
217.415803658
  0
LINE
  8
0
  6
LTYPE3
 62
     2
 10
177.818637944
 20
121.8
 30
0.0
 11
177.16147392
 21
120.850763076
 31
0.0
  0
LINE
  8
0
  6
LTYPE3
 62
     2
 10
174.681362056
 20
121.8
 30
0.0
 11
175.338529527
 21
120.850758098
 31
0.0
  0
ARC
  8
0
  6
LTYPE3
 62
     2
 10
173.694145143
 20
119.71233814
 30
0.0
 40
2.0
 50
10.612929601
 51
34.695153531
  0
ARC
  8
0
  6
LTYPE3
 62
     2
 10
178.805858303
 20
119.712343118
 30
0.0
 40
2.0
 50
145.304846469
 51
169.387402194
  0
LINE
  8
0
  6
LTYPE3
 62
     2
 10
176.840068544
 20
120.080678053
 30
0.0
 11
176.750002697
 21
119.6
 31
0.0
  0
LINE
  8
0
  6
LTYPE3
 62
     2
 10
175.659932769
 20
120.080684458
 30
0.0
 11
175.750002697
 21
119.6
 31
0.0
  0
CIRCLE
  8
0
  6
CONTINUOUS
 62
     2
 10
176.25
 20
123.0
 30
0.0
 40
2.25
  0
LINE
  8
0
  6
CONTINUOUS
 62
     2
 10
163.75
 20
125.025
 30
0.0
 11
161.996298557
 21
124.0125
 31
0.0
  0
LINE
  8
0
  6
CONTINUOUS
 62
     2
 10
161.996298557
 20
124.0125
 30
0.0
 11
161.996298557
 21
121.9875
 31
0.0
  0
LINE
  8
0
  6
CONTINUOUS
 62
     2
 10
161.996298557
 20
121.9875
 30
0.0
 11
163.75
 21
120.975
 31
0.0
  0
LINE
  8
0
  6
CONTINUOUS
 62
     2
 10
163.75
 20
120.975
 30
0.0
 11
165.503701443
 21
121.9875
 31
0.0
  0
LINE
  8
0
  6
CONTINUOUS
 62
     2
 10
165.503701443
 20
121.9875
 30
0.0
 11
165.503701443
 21
124.0125
 31
0.0
  0
LINE
  8
0
  6
CONTINUOUS
 62
     2
 10
165.503701443
 20
124.0125
 30
0.0
 11
163.75
 21
125.025
 31
0.0
  0
CIRCLE
  8
0
  6
CONTINUOUS
 62
     2
 10
163.75
 20
123.0
 30
0.0
 40
0.8
  0
CIRCLE
  8
0
  6
CONTINUOUS
 62
     2
 10
163.75
 20
123.0
 30
0.0
 40
1.0
  0
ARC
  8
0
  6
LTYPE3
 62
     2
 10
163.75
 20
123.0
 30
0.0
 40
1.975
 50
328.025496594
 51
217.415803658
  0
LINE
  8
0
  6
LTYPE3
 62
     2
 10
165.318637944
 20
121.8
 30
0.0
 11
164.66147392
 21
120.850763076
 31
0.0
  0
LINE
  8
0
  6
LTYPE3
 62
     2
 10
162.181362056
 20
121.8
 30
0.0
 11
162.838529527
 21
120.850758098
 31
0.0
  0
ARC
  8
0
  6
LTYPE3
 62
     2
 10
161.194145143
 20
119.71233814
 30
0.0
 40
2.0
 50
10.612929601
 51
34.695153531
  0
ARC
  8
0
  6
LTYPE3
 62
     2
 10
166.305858303
 20
119.712343118
 30
0.0
 40
2.0
 50
145.304846469
 51
169.387402194
  0
LINE
  8
0
  6
LTYPE3
 62
     2
 10
164.340068544
 20
120.080678053
 30
0.0
 11
164.250002697
 21
119.6
 31
0.0
  0
LINE
  8
0
  6
LTYPE3
 62
     2
 10
163.159932769
 20
120.080684458
 30
0.0
 11
163.250002697
 21
119.6
 31
0.0
  0
CIRCLE
  8
0
  6
CONTINUOUS
 62
     2
 10
163.75
 20
123.0
 30
0.0
 40
2.25
  0
LINE
  8
0
  6
CONTINUOUS
 62
     2
 10
140.025
 20
125.0
 30
0.0
 11
140.672047613
 21
127.414814566
 31
0.0
  0
LINE
  8
0
  6
CONTINUOUS
 62
     2
 10
140.025
 20
125.0
 30
0.0
 11
139.377952387
 21
127.414814566
 31
0.0
  0
LINE
  8
0
  6
CONTINUOUS
 62
     2
 10
140.025
 20
123.0
 30
0.0
 11
139.377952387
 21
120.585185434
 31
0.0
  0
LINE
  8
0
  6
CONTINUOUS
 62
     2
 10
140.025
 20
123.0
 30
0.0
 11
140.672047613
 21
120.585185434
 31
0.0
  0
LINE
  8
0
  6
LTYPE1
 62
     2
 10
116.25
 20
123.0
 30
0.0
 11
125.25
 21
123.0
 31
0.0
  0
LINE
  8
0
  6
LTYPE3
 62
     2
 10
117.55
 20
117.05
 30
0.0
 11
117.8
 21
117.05
 31
0.0
  0
LINE
  8
0
  6
CONTINUOUS
 62
     2
 10
117.55
 20
125.05
 30
0.0
 11
118.05
 21
125.05
 31
0.0
  0
LINE
  8
0
  6
CONTINUOUS
 62
     2
 10
118.05
 20
121.05
 30
0.0
 11
117.55
 21
121.05
 31
0.0
  0
LINE
  8
0
  6
CONTINUOUS
 62
     2
 10
118.05
 20
125.05
 30
0.0
 11
118.05
 21
121.05
 31
0.0
  0
LINE
  8
0
  6
CONTINUOUS
 62
     2
 10
118.05
 20
124.85
 30
0.0
 11
118.05
 21
124.975
 31
0.0
  0
LINE
  8
0
  6
LTYPE3
 62
     2
 10
118.45
 20
124.975
 30
0.0
 11
118.45
 21
119.6
 31
0.0
  0
LINE
  8
0
  6
LTYPE3
 62
     2
 10
118.05
 20
124.975
 30
0.0
 11
118.45
 21
124.975
 31
0.0
  0
LINE
  8
0
  6
LTYPE3
 62
     2
 10
117.55
 20
119.6
 30
0.0
 11
120.05
 21
119.6
 31
0.0
  0
LINE
  8
0
  6
LTYPE3
 62
     2
 10
120.05
 20
119.6
 30
0.0
 11
120.05
 21
116.6
 31
0.0
  0
LINE
  8
0
  6
LTYPE3
 62
     2
 10
118.05
 20
121.05
 30
0.0
 11
118.05
 21
119.6
 31
0.0
  0
ARC
  8
0
  6
LTYPE3
 62
     2
 10
121.55
 20
123.5
 30
0.0
 40
3.0
 50
0.0
 51
90.0
  0
LINE
  8
0
  6
LTYPE3
 62
     2
 10
117.55
 20
125.9
 30
0.0
 11
117.8
 21
125.9
 31
0.0
  0
LINE
  8
0
  6
LTYPE3
 62
     2
 10
117.8
 20
115.0
 30
0.0
 11
117.8
 21
125.9
 31
0.0
  0
LINE
  8
0
  6
LTYPE3
 62
     2
 10
117.55
 20
126.5
 30
0.0
 11
121.55
 21
126.5
 31
0.0
  0
LINE
  8
0
  6
LTYPE3
 62
     2
 10
124.55
 20
123.5
 30
0.0
 11
124.55
 21
118.0
 31
0.0
  0
LINE
  8
0
  6
LTYPE3
 62
     2
 10
121.55
 20
115.0
 30
0.0
 11
117.55
 21
115.0
 31
0.0
  0
ARC
  8
0
  6
LTYPE3
 62
     2
 10
121.55
 20
118.0
 30
0.0
 40
3.0
 50
270.0
 51
0.0
  0
LINE
  8
0
  6
CONTINUOUS
 62
     2
 10
121.372253903
 20
125.1
 30
0.0
 11
120.122253903
 21
125.1
 31
0.0
  0
LINE
  8
0
  6
CONTINUOUS
 62
     2
 10
121.372253903
 20
125.1
 30
0.0
 11
121.622253903
 21
124.85
 31
0.0
  0
LINE
  8
0
  6
CONTINUOUS
 62
     2
 10
119.45
 20
124.85
 30
0.0
 11
119.95
 21
124.85
 31
0.0
  0
LINE
  8
0
  6
CONTINUOUS
 62
     2
 10
119.95
 20
124.85
 30
0.0
 11
119.65
 21
123.2
 31
0.0
  0
LINE
  8
0
  6
CONTINUOUS
 62
     2
 10
119.65
 20
123.2
 30
0.0
 11
119.15
 21
123.2
 31
0.0
  0
LINE
  8
0
  6
CONTINUOUS
 62
     2
 10
119.15
 20
123.2
 30
0.0
 11
119.45
 21
124.85
 31
0.0
  0
LINE
  8
0
  6
CONTINUOUS
 62
     2
 10
121.362253903
 20
124.035
 30
0.0
 11
121.622253903
 21
124.335
 31
0.0
  0
LINE
  8
0
  6
CONTINUOUS
 62
     2
 10
119.763636364
 20
123.825
 30
0.0
 11
120.122253903
 21
123.825
 31
0.0
  0
LINE
  8
0
  6
CONTINUOUS
 62
     2
 10
119.9
 20
122.9
 30
0.0
 11
119.4
 21
122.9
 31
0.0
  0
LINE
  8
0
  6
CONTINUOUS
 62
     2
 10
121.622253903
 20
122.325
 30
0.0
 11
121.322253903
 21
122.055
 31
0.0
  0
LINE
  8
0
  6
CONTINUOUS
 62
     2
 10
120.122253903
 20
122.325
 30
0.0
 11
119.822253903
 21
122.325
 31
0.0
  0
LINE
  8
0
  6
CONTINUOUS
 62
     2
 10
121.322253903
 20
121.025
 30
0.0
 11
121.622253903
 21
121.325
 31
0.0
  0
LINE
  8
0
  6
CONTINUOUS
 62
     2
 10
120.122253903
 20
121.05
 30
0.0
 11
121.372253903
 21
121.05
 31
0.0
  0
LINE
  8
0
  6
CONTINUOUS
 62
     2
 10
119.15
 20
121.3
 30
0.0
 11
119.65
 21
121.3
 31
0.0
  0
LINE
  8
0
  6
CONTINUOUS
 62
     2
 10
119.4
 20
122.9
 30
0.0
 11
119.15
 21
121.3
 31
0.0
  0
LINE
  8
0
  6
CONTINUOUS
 62
     2
 10
119.65
 20
121.3
 30
0.0
 11
119.9
 21
122.9
 31
0.0
  0
LINE
  8
0
  6
CONTINUOUS
 62
     2
 10
120.122253903
 20
125.1
 30
0.0
 11
120.122253903
 21
121.05
 31
0.0
  0
LINE
  8
0
  6
CONTINUOUS
 62
     2
 10
121.622253903
 20
121.305
 30
0.0
 11
121.622253903
 21
124.85
 31
0.0
  0
LINE
  8
0
  6
CONTINUOUS
 62
     2
 10
121.375253903
 20
124.05
 30
0.0
 11
121.625253903
 21
123.85
 31
0.0
  0
LINE
  8
0
  6
CONTINUOUS
 62
     2
 10
121.222253903
 20
124.05
 30
0.0
 11
121.375253903
 21
124.05
 31
0.0
  0
LINE
  8
0
  6
CONTINUOUS
 62
     2
 10
119.804545455
 20
124.05
 30
0.0
 11
121.375253903
 21
124.05
 31
0.0
  0
LINE
  8
0
  6
CONTINUOUS
 62
     2
 10
121.622253903
 20
121.75
 30
0.0
 11
121.322253903
 21
122.02
 31
0.0
  0
LINE
  8
0
  6
CONTINUOUS
 62
     2
 10
121.316698348
 20
122.05
 30
0.0
 11
119.7671875
 21
122.05
 31
0.0
  0
LINE
  8
0
  6
CONTINUOUS
 62
     2
 10
123.5
 20
123.825
 30
0.0
 11
121.622253903
 21
123.825
 31
0.0
  0
LINE
  8
0
  6
CONTINUOUS
 62
     2
 10
121.622253903
 20
124.05
 30
0.0
 11
123.5
 21
124.05
 31
0.0
  0
LINE
  8
0
  6
CONTINUOUS
 62
     2
 10
121.622253903
 20
122.325
 30
0.0
 11
123.5
 21
122.325
 31
0.0
  0
LINE
  8
0
  6
CONTINUOUS
 62
     2
 10
123.5
 20
122.05
 30
0.0
 11
121.622253903
 21
122.05
 31
0.0
  0
LINE
  8
0
  6
CONTINUOUS
 62
     2
 10
118.45
 20
120.75
 30
0.0
 11
118.675
 21
120.75
 31
0.0
  0
LINE
  8
0
  6
CONTINUOUS
 62
     2
 10
118.675
 20
120.75
 30
0.0
 11
118.675
 21
125.25
 31
0.0
  0
LINE
  8
0
  6
CONTINUOUS
 62
     2
 10
118.675
 20
125.25
 30
0.0
 11
118.45
 21
125.25
 31
0.0
  0
LINE
  8
0
  6
CONTINUOUS
 62
     2
 10
118.45
 20
125.25
 30
0.0
 11
118.45
 21
120.75
 31
0.0
  0
LINE
  8
0
  6
CONTINUOUS
 62
     2
 10
118.45
 20
124.05
 30
0.0
 11
118.05
 21
124.05
 31
0.0
  0
LINE
  8
0
  6
CONTINUOUS
 62
     2
 10
119.3044
 20
124.05
 30
0.0
 11
118.675
 21
124.05
 31
0.0
  0
LINE
  8
0
  6
CONTINUOUS
 62
     2
 10
118.45
 20
123.825
 30
0.0
 11
118.05
 21
123.825
 31
0.0
  0
LINE
  8
0
  6
CONTINUOUS
 62
     2
 10
119.3044
 20
123.825
 30
0.0
 11
118.675
 21
123.825
 31
0.0
  0
LINE
  8
0
  6
CONTINUOUS
 62
     2
 10
118.45
 20
122.325
 30
0.0
 11
118.05
 21
122.325
 31
0.0
  0
LINE
  8
0
  6
CONTINUOUS
 62
     2
 10
119.3044
 20
122.325
 30
0.0
 11
118.675
 21
122.325
 31
0.0
  0
LINE
  8
0
  6
CONTINUOUS
 62
     2
 10
118.45
 20
122.05
 30
0.0
 11
118.05
 21
122.05
 31
0.0
  0
LINE
  8
0
  6
CONTINUOUS
 62
     2
 10
119.2044
 20
122.05
 30
0.0
 11
118.675
 21
122.05
 31
0.0
  0
LINE
  8
0
  6
CONTINUOUS
 62
     2
 10
123.5
 20
124.05
 30
0.0
 11
123.5
 21
122.05
 31
0.0
  0
LINE
  8
0
  6
LTYPE1
 62
     2
 10
172.7
 20
128.75
 30
0.0
 11
167.15
 21
128.75
 31
0.0
  0
LINE
  8
0
  6
CONTINUOUS
 62
     2
 10
74.566869847
 20
37.2
 30
0.0
 11
89.266869847
 21
37.2
 31
0.0
  0
TEXT
  8
0
  6
CONTINUOUS
 62
     1
 10
107.221509463
 20
38.405875349
 30
0.4
 40
4.0
  1
□ＣＦ－１０
 50
0.0
 41
0.9
 51
0.0
  7
KANJI7
  0
TEXT
  8
0
  6
CONTINUOUS
 62
     1
 10
119.572324957
 20
25.987619174
 30
0.35
 40
3.5
  1
パネル用計器外形図
 50
0.0
 41
0.9
 51
0.0
  7
KANJI8
  0
TEXT
  8
0
  6
CONTINUOUS
 62
     2
 10
119.650860786
 20
30.486933802
 30
0.3
 40
3.0
  1
予定指針付　端子キャップ付
 50
0.0
 41
0.9
 51
0.0
  7
KANJI3
  0
TEXT
  8
0
  6
CONTINUOUS
 62
     3
 10
171.0
 20
25.5
 30
0.6
 40
6.0
  1
ＭＳ－７２４７Ａ
 50
0.0
 41
0.9
 51
0.0
  7
KANJI9
  0
LINE
  8
0
  6
LTYPE1
 62
     2
 10
80.01
 20
125.0
 30
0.0
 11
24.13
 21
125.0
 31
0.0
  0
LINE
  8
0
  6
LTYPE1
 62
     2
 10
52.0
 20
148.59
 30
0.0
 11
52.0
 21
101.6
 31
0.0
  0
LINE
  8
0
  6
LTYPE1
 62
     2
 10
52.0
 20
82.5
 30
0.0
 11
52.0
 21
44.45
 31
0.0
  0
LINE
  8
0
  6
LTYPE1
 62
     2
 10
33.02
 20
64.0
 30
0.0
 11
70.5
 21
64.0
 31
0.0
  0
LINE
  8
0
  6
LTYPE1
 62
     2
 10
127.0
 20
125.0
 30
0.0
 11
112.0
 21
125.0
 31
0.0
  0
LINE
  8
0
  6
LTYPE1
 62
     2
 10
197.0
 20
125.0
 30
0.0
 11
135.89
 21
125.0
 31
0.0
  0
ENDSEC
  0
EOF
