  0
SECTION
  2
HEADER
  9
$ACADVER
  1
AC1009
  9
$DWGCODEPAGE
  3
dos932
  9
$EXTMIN
 10
0.0
 20
0.0
 30
0.0
  9
$EXTMAX
 10
297.0
 20
210.0
 30
0.0
  9
$LIMMIN
 10
0.0
 20
0.0
  9
$LIMMAX
 10
297.0
 20
210.0
  9
$LTSCALE
 40
1.0
  9
$PDMODE
 70
     0
  0
ENDSEC
  0
SECTION
  2
TABLES
  0
TABLE
  2
VPORT
 70
     1
  0
VPORT
  2
*ACTIVE
 70
     0
 10
0.0
 20
0.0
 11
1.0
 21
1.0
 12
148.5
 22
105.0
 13
0.0
 23
0.0
 14
10.0
 24
10.0
 15
10.0
 25
10.0
 16
0.0
 26
0.0
 36
1.0
 17
0.0
 27
0.0
 37
0.0
 40
297.0
 41
1.414285714
 42
50.0
 43
0.0
 44
0.0
 50
0.0
 51
0.0
 71
     0
 72
  1000
 73
     1
 74
     3
 75
     0
 76
     0
 77
     0
 78
     0
  0
ENDTAB
  0
TABLE
  2
LTYPE
 70
     3
  0
LTYPE
  2
CONTINUOUS
 70
    64
  3
Solid line
 72
    65
 73
     0
 40
0.0
  0
LTYPE
  2
LTYPE1
 70
    64
  3
CENTER
 72
    65
 73
     4
 40
5.0
 49
3.5
 49
-0.5
 49
0.5
 49
-0.5
  0
LTYPE
  2
LTYPE2
 70
    64
  3
HIDDEN
 72
    65
 73
     2
 40
1.0
 49
0.6
 49
-0.4
  0
ENDTAB
  0
TABLE
  2
LAYER
 70
   128
  0
LAYER
  2
0
 70
     0
 62
     7
  6
CONTINUOUS
  0
LAYER
  2
2
 70
     0
 62
     7
  6
CONTINUOUS
  0
LAYER
  2
3
 70
     0
 62
     7
  6
CONTINUOUS
  0
LAYER
  2
4
 70
     0
 62
     7
  6
CONTINUOUS
  0
LAYER
  2
5
 70
     0
 62
     7
  6
CONTINUOUS
  0
LAYER
  2
6
 70
     0
 62
     7
  6
CONTINUOUS
  0
LAYER
  2
7
 70
     0
 62
     7
  6
CONTINUOUS
  0
LAYER
  2
8
 70
     0
 62
     7
  6
CONTINUOUS
  0
LAYER
  2
9
 70
     0
 62
     7
  6
CONTINUOUS
  0
LAYER
  2
10
 70
     0
 62
     7
  6
CONTINUOUS
  0
LAYER
  2
11
 70
     0
 62
     7
  6
CONTINUOUS
  0
LAYER
  2
12
 70
     0
 62
     7
  6
CONTINUOUS
  0
LAYER
  2
13
 70
     0
 62
     7
  6
CONTINUOUS
  0
LAYER
  2
14
 70
     0
 62
     7
  6
CONTINUOUS
  0
LAYER
  2
15
 70
     0
 62
     7
  6
CONTINUOUS
  0
LAYER
  2
16
 70
     0
 62
     7
  6
CONTINUOUS
  0
LAYER
  2
17
 70
     0
 62
     7
  6
CONTINUOUS
  0
LAYER
  2
18
 70
     0
 62
     7
  6
CONTINUOUS
  0
LAYER
  2
19
 70
     0
 62
     7
  6
CONTINUOUS
  0
LAYER
  2
20
 70
     0
 62
     7
  6
CONTINUOUS
  0
LAYER
  2
21
 70
     0
 62
     7
  6
CONTINUOUS
  0
LAYER
  2
22
 70
     0
 62
     7
  6
CONTINUOUS
  0
LAYER
  2
23
 70
     0
 62
     7
  6
CONTINUOUS
  0
LAYER
  2
24
 70
     0
 62
     7
  6
CONTINUOUS
  0
LAYER
  2
25
 70
     0
 62
     7
  6
CONTINUOUS
  0
LAYER
  2
26
 70
     0
 62
     7
  6
CONTINUOUS
  0
LAYER
  2
27
 70
     0
 62
     7
  6
CONTINUOUS
  0
LAYER
  2
28
 70
     0
 62
     7
  6
CONTINUOUS
  0
LAYER
  2
29
 70
     0
 62
     7
  6
CONTINUOUS
  0
LAYER
  2
30
 70
     0
 62
     7
  6
CONTINUOUS
  0
LAYER
  2
31
 70
     0
 62
     7
  6
CONTINUOUS
  0
LAYER
  2
32
 70
     0
 62
     7
  6
CONTINUOUS
  0
LAYER
  2
33
 70
     0
 62
     7
  6
CONTINUOUS
  0
LAYER
  2
34
 70
     0
 62
     7
  6
CONTINUOUS
  0
LAYER
  2
35
 70
     0
 62
     7
  6
CONTINUOUS
  0
LAYER
  2
36
 70
     0
 62
     7
  6
CONTINUOUS
  0
LAYER
  2
37
 70
     0
 62
     7
  6
CONTINUOUS
  0
LAYER
  2
38
 70
     0
 62
     7
  6
CONTINUOUS
  0
LAYER
  2
39
 70
     0
 62
     7
  6
CONTINUOUS
  0
LAYER
  2
40
 70
     0
 62
     7
  6
CONTINUOUS
  0
LAYER
  2
41
 70
     0
 62
     7
  6
CONTINUOUS
  0
LAYER
  2
42
 70
     0
 62
     7
  6
CONTINUOUS
  0
LAYER
  2
43
 70
     0
 62
     7
  6
CONTINUOUS
  0
LAYER
  2
44
 70
     0
 62
     7
  6
CONTINUOUS
  0
LAYER
  2
45
 70
     0
 62
     7
  6
CONTINUOUS
  0
LAYER
  2
46
 70
     0
 62
     7
  6
CONTINUOUS
  0
LAYER
  2
47
 70
     0
 62
     7
  6
CONTINUOUS
  0
LAYER
  2
48
 70
     0
 62
     7
  6
CONTINUOUS
  0
LAYER
  2
49
 70
     0
 62
     7
  6
CONTINUOUS
  0
LAYER
  2
50
 70
     0
 62
     7
  6
CONTINUOUS
  0
LAYER
  2
51
 70
     0
 62
     7
  6
CONTINUOUS
  0
LAYER
  2
52
 70
     0
 62
     7
  6
CONTINUOUS
  0
LAYER
  2
53
 70
     0
 62
     7
  6
CONTINUOUS
  0
LAYER
  2
54
 70
     0
 62
     7
  6
CONTINUOUS
  0
LAYER
  2
55
 70
     0
 62
     7
  6
CONTINUOUS
  0
LAYER
  2
56
 70
     0
 62
     7
  6
CONTINUOUS
  0
LAYER
  2
57
 70
     0
 62
     7
  6
CONTINUOUS
  0
LAYER
  2
58
 70
     0
 62
     7
  6
CONTINUOUS
  0
LAYER
  2
59
 70
     0
 62
     7
  6
CONTINUOUS
  0
LAYER
  2
60
 70
     0
 62
     7
  6
CONTINUOUS
  0
LAYER
  2
61
 70
     0
 62
     7
  6
CONTINUOUS
  0
LAYER
  2
62
 70
     0
 62
     7
  6
CONTINUOUS
  0
LAYER
  2
63
 70
     0
 62
     7
  6
CONTINUOUS
  0
LAYER
  2
64
 70
     0
 62
     7
  6
CONTINUOUS
  0
LAYER
  2
65
 70
     0
 62
     7
  6
CONTINUOUS
  0
LAYER
  2
66
 70
     0
 62
     7
  6
CONTINUOUS
  0
LAYER
  2
67
 70
     0
 62
     7
  6
CONTINUOUS
  0
LAYER
  2
68
 70
     0
 62
     7
  6
CONTINUOUS
  0
LAYER
  2
69
 70
     0
 62
     7
  6
CONTINUOUS
  0
LAYER
  2
70
 70
     0
 62
     7
  6
CONTINUOUS
  0
LAYER
  2
71
 70
     0
 62
     7
  6
CONTINUOUS
  0
LAYER
  2
72
 70
     0
 62
     7
  6
CONTINUOUS
  0
LAYER
  2
73
 70
     0
 62
     7
  6
CONTINUOUS
  0
LAYER
  2
74
 70
     0
 62
     7
  6
CONTINUOUS
  0
LAYER
  2
75
 70
     0
 62
     7
  6
CONTINUOUS
  0
LAYER
  2
76
 70
     0
 62
     7
  6
CONTINUOUS
  0
LAYER
  2
77
 70
     0
 62
     7
  6
CONTINUOUS
  0
LAYER
  2
78
 70
     0
 62
     7
  6
CONTINUOUS
  0
LAYER
  2
79
 70
     0
 62
     7
  6
CONTINUOUS
  0
LAYER
  2
80
 70
     0
 62
     7
  6
CONTINUOUS
  0
LAYER
  2
81
 70
     0
 62
     7
  6
CONTINUOUS
  0
LAYER
  2
82
 70
     0
 62
     7
  6
CONTINUOUS
  0
LAYER
  2
83
 70
     0
 62
     7
  6
CONTINUOUS
  0
LAYER
  2
84
 70
     0
 62
     7
  6
CONTINUOUS
  0
LAYER
  2
85
 70
     0
 62
     7
  6
CONTINUOUS
  0
LAYER
  2
86
 70
     0
 62
     7
  6
CONTINUOUS
  0
LAYER
  2
87
 70
     0
 62
     7
  6
CONTINUOUS
  0
LAYER
  2
88
 70
     0
 62
     7
  6
CONTINUOUS
  0
LAYER
  2
89
 70
     0
 62
     7
  6
CONTINUOUS
  0
LAYER
  2
90
 70
     0
 62
     7
  6
CONTINUOUS
  0
LAYER
  2
91
 70
     0
 62
     7
  6
CONTINUOUS
  0
LAYER
  2
92
 70
     0
 62
     7
  6
CONTINUOUS
  0
LAYER
  2
93
 70
     0
 62
     7
  6
CONTINUOUS
  0
LAYER
  2
94
 70
     0
 62
     7
  6
CONTINUOUS
  0
LAYER
  2
95
 70
     0
 62
     7
  6
CONTINUOUS
  0
LAYER
  2
96
 70
     0
 62
     7
  6
CONTINUOUS
  0
LAYER
  2
97
 70
     0
 62
     7
  6
CONTINUOUS
  0
LAYER
  2
98
 70
     0
 62
     7
  6
CONTINUOUS
  0
LAYER
  2
99
 70
     0
 62
     7
  6
CONTINUOUS
  0
LAYER
  2
100
 70
     0
 62
     7
  6
CONTINUOUS
  0
LAYER
  2
101
 70
     0
 62
     7
  6
CONTINUOUS
  0
LAYER
  2
102
 70
     0
 62
     7
  6
CONTINUOUS
  0
LAYER
  2
103
 70
     0
 62
     7
  6
CONTINUOUS
  0
LAYER
  2
104
 70
     0
 62
     7
  6
CONTINUOUS
  0
LAYER
  2
105
 70
     0
 62
     7
  6
CONTINUOUS
  0
LAYER
  2
106
 70
     0
 62
     7
  6
CONTINUOUS
  0
LAYER
  2
107
 70
     0
 62
     7
  6
CONTINUOUS
  0
LAYER
  2
108
 70
     0
 62
     7
  6
CONTINUOUS
  0
LAYER
  2
109
 70
     0
 62
     7
  6
CONTINUOUS
  0
LAYER
  2
110
 70
     0
 62
     7
  6
CONTINUOUS
  0
LAYER
  2
111
 70
     0
 62
     7
  6
CONTINUOUS
  0
LAYER
  2
112
 70
     0
 62
     7
  6
CONTINUOUS
  0
LAYER
  2
113
 70
     0
 62
     7
  6
CONTINUOUS
  0
LAYER
  2
114
 70
     0
 62
     7
  6
CONTINUOUS
  0
LAYER
  2
115
 70
     0
 62
     7
  6
CONTINUOUS
  0
LAYER
  2
116
 70
     0
 62
     7
  6
CONTINUOUS
  0
LAYER
  2
117
 70
     0
 62
     7
  6
CONTINUOUS
  0
LAYER
  2
118
 70
     0
 62
     7
  6
CONTINUOUS
  0
LAYER
  2
119
 70
     0
 62
     7
  6
CONTINUOUS
  0
LAYER
  2
120
 70
     0
 62
     7
  6
CONTINUOUS
  0
LAYER
  2
121
 70
     0
 62
     7
  6
CONTINUOUS
  0
LAYER
  2
122
 70
     0
 62
     7
  6
CONTINUOUS
  0
LAYER
  2
123
 70
     0
 62
     7
  6
CONTINUOUS
  0
LAYER
  2
124
 70
     0
 62
     7
  6
CONTINUOUS
  0
LAYER
  2
125
 70
     0
 62
     7
  6
CONTINUOUS
  0
LAYER
  2
126
 70
     0
 62
     7
  6
CONTINUOUS
  0
LAYER
  2
127
 70
     0
 62
     7
  6
CONTINUOUS
  0
LAYER
  2
128
 70
     0
 62
     7
  6
CONTINUOUS
  0
ENDTAB
  0
TABLE
  2
STYLE
 70
    11
  0
STYLE
  2
STANDARD
 70
     0
 40
0.0
 41
1.0
 50
0.0
 71
     0
 42
0.2
  3
txt.shx
  4
extfont.shx
  0
STYLE
  2
KANJI0
 70
     0
 40
3.0
 41
0.9
 50
0.0
 71
     0
 42
3.0
  3
txt.shx
  4
extfont.shx
  0
STYLE
  2
KANJI1
 70
     0
 40
3.0
 41
0.9
 50
0.0
 71
     0
 42
3.0
  3
txt.shx
  4
extfont.shx
  0
STYLE
  2
KANJI2
 70
     0
 40
3.0
 41
0.666666667
 50
0.0
 71
     0
 42
3.0
  3
txt.shx
  4
extfont.shx
  0
STYLE
  2
KANJI3
 70
     0
 40
1.8
 41
0.666666667
 50
0.0
 71
     0
 42
1.8
  3
txt.shx
  4
extfont.shx
  0
STYLE
  2
KANJI4
 70
     0
 40
3.0
 41
0.6
 50
0.0
 71
     0
 42
3.0
  3
txt.shx
  4
extfont.shx
  0
STYLE
  2
KANJI5
 70
     0
 40
1.8
 41
0.6
 50
0.0
 71
     0
 42
1.8
  3
txt.shx
  4
extfont.shx
  0
STYLE
  2
KANJI6
 70
     0
 40
3.0
 41
0.666666667
 50
0.0
 71
     0
 42
3.0
  3
txt.shx
  4
extfont.shx
  0
STYLE
  2
KANJI7
 70
     0
 40
4.0
 41
0.9
 50
0.0
 71
     0
 42
4.0
  3
txt.shx
  4
extfont.shx
  0
STYLE
  2
KANJI8
 70
     0
 40
3.0
 41
0.9
 50
0.0
 71
     0
 42
3.0
  3
txt.shx
  4
extfont.shx
  0
STYLE
  2
KANJI9
 70
     0
 40
5.8
 41
0.827586207
 50
0.0
 71
     0
 42
5.8
  3
txt.shx
  4
extfont.shx
  0
ENDTAB
  0
TABLE
  2
VIEW
 70
     0
  0
ENDTAB
  0
ENDSEC
  0
SECTION
  2
BLOCKS
  0
ENDSEC
  0
SECTION
  2
ENTITIES
  0
ARC
  8
0
  6
CONTINUOUS
 62
     1
 10
21.5
 20
147.375
 30
0.0
 40
1.625
 50
90.0
 51
180.0
  0
LINE
  8
0
  6
CONTINUOUS
 62
     1
 10
19.875
 20
147.375
 30
0.0
 11
19.875
 21
100.375
 31
0.0
  0
ARC
  8
0
  6
CONTINUOUS
 62
     1
 10
21.5
 20
100.375
 30
0.0
 40
1.625
 50
180.0
 51
270.0
  0
ARC
  8
0
  6
CONTINUOUS
 62
     1
 10
78.5
 20
147.375
 30
0.0
 40
1.625
 50
0.0
 51
90.0
  0
LINE
  8
0
  6
CONTINUOUS
 62
     1
 10
21.5
 20
149.0
 30
0.0
 11
78.500001349
 21
149.0
 31
0.0
  0
ARC
  8
0
  6
CONTINUOUS
 62
     1
 10
78.5
 20
100.375
 30
0.0
 40
1.625
 50
270.0
 51
0.0
  0
LINE
  8
0
  6
CONTINUOUS
 62
     1
 10
80.125
 20
100.375
 30
0.0
 11
80.125
 21
147.375
 31
0.0
  0
LINE
  8
0
  6
CONTINUOUS
 62
     1
 10
78.5
 20
98.75
 30
0.0
 11
21.5
 21
98.75
 31
0.0
  0
TEXT
  8
0
  6
CONTINUOUS
 62
     1
 10
42.05
 20
19.25
 30
0.5
 40
3.0
  1
パネルカット
 50
0.0
 41
0.9
 51
0.0
  7
KANJI0
  0
ARC
  8
0
  6
CONTINUOUS
 62
     1
 10
208.375
 20
147.25
 30
0.0
 40
1.625
 50
0.0
 51
90.0
  0
LINE
  8
0
  6
CONTINUOUS
 62
     1
 10
151.625
 20
148.875
 30
0.0
 11
208.375
 21
148.875
 31
0.0
  0
ARC
  8
0
  6
CONTINUOUS
 62
     1
 10
151.625
 20
147.25
 30
0.0
 40
1.625
 50
90.0
 51
180.0
  0
ARC
  8
0
  6
CONTINUOUS
 62
     1
 10
151.625
 20
100.5
 30
0.0
 40
1.625
 50
180.0
 51
270.0
  0
LINE
  8
0
  6
CONTINUOUS
 62
     1
 10
151.625
 20
98.875
 30
0.0
 11
208.375
 21
98.875
 31
0.0
  0
LINE
  8
0
  6
CONTINUOUS
 62
     1
 10
150.0
 20
147.25
 30
0.0
 11
150.0
 21
100.5
 31
0.0
  0
ARC
  8
0
  6
CONTINUOUS
 62
     1
 10
208.375
 20
100.5
 30
0.0
 40
1.625
 50
270.0
 51
0.0
  0
LINE
  8
0
  6
CONTINUOUS
 62
     1
 10
210.0
 20
100.5
 30
0.0
 11
210.0
 21
147.25
 31
0.0
  0
CIRCLE
  8
0
  6
CONTINUOUS
 62
     1
 10
50.0
 20
50.0
 30
0.0
 40
21.75
  0
CIRCLE
  8
0
  6
CONTINUOUS
 62
     1
 10
25.0
 20
72.5
 30
0.0
 40
1.25
  0
CIRCLE
  8
0
  6
CONTINUOUS
 62
     1
 10
75.0
 20
72.5
 30
0.0
 40
1.25
  0
CIRCLE
  8
0
  6
CONTINUOUS
 62
     1
 10
75.0
 20
32.5
 30
0.0
 40
1.25
  0
CIRCLE
  8
0
  6
CONTINUOUS
 62
     1
 10
25.0
 20
32.5
 30
0.0
 40
1.25
  0
ARC
  8
0
  6
CONTINUOUS
 62
     2
 10
21.5
 20
147.375
 30
0.0
 40
0.5
 50
90.0
 51
180.0
  0
ARC
  8
0
  6
CONTINUOUS
 62
     2
 10
22.35
 20
146.525
 30
0.0
 40
0.5
 50
90.0
 51
180.0
  0
LINE
  8
0
  6
CONTINUOUS
 62
     2
 10
22.35
 20
147.025
 30
0.0
 11
77.65
 21
147.025
 31
0.0
  0
LINE
  8
0
  6
CONTINUOUS
 62
     2
 10
21.85
 20
146.525
 30
0.0
 11
21.85
 21
116.375
 31
0.0
  0
ARC
  8
0
  6
CONTINUOUS
 62
     2
 10
78.5
 20
147.375
 30
0.0
 40
0.5
 50
0.0
 51
90.0
  0
ARC
  8
0
  6
CONTINUOUS
 62
     2
 10
77.65
 20
146.525
 30
0.0
 40
0.5
 50
0.0
 51
90.0
  0
LINE
  8
0
  6
CONTINUOUS
 62
     2
 10
78.15
 20
146.525
 30
0.0
 11
78.15
 21
116.375
 31
0.0
  0
LINE
  8
0
  6
CONTINUOUS
 62
     2
 10
21.5
 20
147.875
 30
0.0
 11
77.875
 21
147.875
 31
0.0
  0
LINE
  8
0
  6
CONTINUOUS
 62
     2
 10
78.5
 20
147.875
 30
0.0
 11
22.125
 21
147.875
 31
0.0
  0
LINE
  8
0
  6
CONTINUOUS
 62
     2
 10
79.0
 20
147.375
 30
0.0
 11
79.0
 21
100.375
 31
0.0
  0
LINE
  8
0
  6
CONTINUOUS
 62
     2
 10
78.15
 20
116.375
 30
0.0
 11
21.85
 21
116.375
 31
0.0
  0
ARC
  8
0
  6
CONTINUOUS
 62
     2
 10
21.5
 20
100.375
 30
0.0
 40
0.5
 50
180.0
 51
270.0
  0
LINE
  8
0
  6
CONTINUOUS
 62
     2
 10
21.0
 20
100.375
 30
0.0
 11
21.0
 21
147.375
 31
0.0
  0
ARC
  8
0
  6
CONTINUOUS
 62
     2
 10
78.5
 20
100.375
 30
0.0
 40
0.5
 50
270.0
 51
0.0
  0
LINE
  8
0
  6
CONTINUOUS
 62
     2
 10
21.5
 20
99.875
 30
0.0
 11
78.5
 21
99.875
 31
0.0
  0
CIRCLE
  8
0
  6
CONTINUOUS
 62
     2
 10
75.0
 20
113.375
 30
0.0
 40
1.5
  0
LINE
  8
0
  6
CONTINUOUS
 62
     2
 10
74.125
 20
113.575
 30
0.0
 11
74.6
 21
113.575
 31
0.0
  0
ARC
  8
0
  6
CONTINUOUS
 62
     2
 10
74.6
 20
113.775
 30
0.0
 40
0.2
 50
270.0
 51
0.0
  0
LINE
  8
0
  6
CONTINUOUS
 62
     2
 10
74.8
 20
113.775
 30
0.0
 11
74.8
 21
114.25
 31
0.0
  0
LINE
  8
0
  6
CONTINUOUS
 62
     2
 10
74.8
 20
114.25
 30
0.0
 11
75.2
 21
114.25
 31
0.0
  0
LINE
  8
0
  6
CONTINUOUS
 62
     2
 10
75.2
 20
114.25
 30
0.0
 11
75.2
 21
113.775
 31
0.0
  0
ARC
  8
0
  6
CONTINUOUS
 62
     2
 10
75.4
 20
113.775
 30
0.0
 40
0.2
 50
180.0
 51
270.0
  0
LINE
  8
0
  6
CONTINUOUS
 62
     2
 10
75.4
 20
113.575
 30
0.0
 11
75.875
 21
113.575
 31
0.0
  0
LINE
  8
0
  6
CONTINUOUS
 62
     2
 10
75.875
 20
113.575
 30
0.0
 11
75.875
 21
113.175
 31
0.0
  0
LINE
  8
0
  6
CONTINUOUS
 62
     2
 10
75.875
 20
113.175
 30
0.0
 11
75.4
 21
113.175
 31
0.0
  0
ARC
  8
0
  6
CONTINUOUS
 62
     2
 10
75.4
 20
112.975
 30
0.0
 40
0.2
 50
90.0
 51
180.0
  0
LINE
  8
0
  6
CONTINUOUS
 62
     2
 10
75.2
 20
112.975
 30
0.0
 11
75.2
 21
112.5
 31
0.0
  0
LINE
  8
0
  6
CONTINUOUS
 62
     2
 10
75.2
 20
112.5
 30
0.0
 11
74.8
 21
112.5
 31
0.0
  0
LINE
  8
0
  6
CONTINUOUS
 62
     2
 10
74.8
 20
112.5
 30
0.0
 11
74.8
 21
112.975
 31
0.0
  0
ARC
  8
0
  6
CONTINUOUS
 62
     2
 10
74.6
 20
112.975
 30
0.0
 40
0.2
 50
0.0
 51
90.0
  0
LINE
  8
0
  6
CONTINUOUS
 62
     2
 10
74.6
 20
113.175
 30
0.0
 11
74.125
 21
113.175
 31
0.0
  0
LINE
  8
0
  6
CONTINUOUS
 62
     2
 10
74.125
 20
113.175
 30
0.0
 11
74.125
 21
113.575
 31
0.0
  0
CIRCLE
  8
0
  6
CONTINUOUS
 62
     2
 10
25.0
 20
113.375
 30
0.0
 40
1.5
  0
LINE
  8
0
  6
CONTINUOUS
 62
     2
 10
24.125
 20
113.575
 30
0.0
 11
24.6
 21
113.575
 31
0.0
  0
ARC
  8
0
  6
CONTINUOUS
 62
     2
 10
24.6
 20
113.775
 30
0.0
 40
0.2
 50
270.0
 51
0.0
  0
LINE
  8
0
  6
CONTINUOUS
 62
     2
 10
24.8
 20
113.775
 30
0.0
 11
24.8
 21
114.25
 31
0.0
  0
LINE
  8
0
  6
CONTINUOUS
 62
     2
 10
24.8
 20
114.25
 30
0.0
 11
25.2
 21
114.25
 31
0.0
  0
LINE
  8
0
  6
CONTINUOUS
 62
     2
 10
25.2
 20
114.25
 30
0.0
 11
25.2
 21
113.775
 31
0.0
  0
ARC
  8
0
  6
CONTINUOUS
 62
     2
 10
25.4
 20
113.775
 30
0.0
 40
0.2
 50
180.0
 51
270.0
  0
LINE
  8
0
  6
CONTINUOUS
 62
     2
 10
25.4
 20
113.575
 30
0.0
 11
25.875
 21
113.575
 31
0.0
  0
LINE
  8
0
  6
CONTINUOUS
 62
     2
 10
25.875
 20
113.575
 30
0.0
 11
25.875
 21
113.175
 31
0.0
  0
LINE
  8
0
  6
CONTINUOUS
 62
     2
 10
25.875
 20
113.175
 30
0.0
 11
25.4
 21
113.175
 31
0.0
  0
ARC
  8
0
  6
CONTINUOUS
 62
     2
 10
25.4
 20
112.975
 30
0.0
 40
0.2
 50
90.0
 51
180.0
  0
LINE
  8
0
  6
CONTINUOUS
 62
     2
 10
25.2
 20
112.975
 30
0.0
 11
25.2
 21
112.5
 31
0.0
  0
LINE
  8
0
  6
CONTINUOUS
 62
     2
 10
25.2
 20
112.5
 30
0.0
 11
24.8
 21
112.5
 31
0.0
  0
LINE
  8
0
  6
CONTINUOUS
 62
     2
 10
24.8
 20
112.5
 30
0.0
 11
24.8
 21
112.975
 31
0.0
  0
ARC
  8
0
  6
CONTINUOUS
 62
     2
 10
24.6
 20
112.975
 30
0.0
 40
0.2
 50
0.0
 51
90.0
  0
LINE
  8
0
  6
CONTINUOUS
 62
     2
 10
24.6
 20
113.175
 30
0.0
 11
24.125
 21
113.175
 31
0.0
  0
LINE
  8
0
  6
CONTINUOUS
 62
     2
 10
24.125
 20
113.175
 30
0.0
 11
24.125
 21
113.575
 31
0.0
  0
CIRCLE
  8
0
  6
CONTINUOUS
 62
     2
 10
50.0
 20
103.425
 30
0.0
 40
1.8
  0
LINE
  8
0
  6
CONTINUOUS
 62
     2
 10
48.25
 20
103.225
 30
0.0
 11
51.7
 21
103.225
 31
0.0
  0
LINE
  8
0
  6
CONTINUOUS
 62
     2
 10
51.7
 20
103.625
 30
0.0
 11
48.25
 21
103.625
 31
0.0
  0
LINE
  8
0
  6
CONTINUOUS
 62
     2
 10
41.2
 20
18.55
 30
0.0
 11
60.55
 21
18.55
 31
0.0
  0
LINE
  8
0
  6
CONTINUOUS
 62
     2
 10
27.2
 20
131.125
 30
0.0
 11
41.05
 21
116.375
 31
0.0
  0
LINE
  8
0
  6
CONTINUOUS
 62
     2
 10
43.35
 20
116.375
 30
0.0
 11
27.25
 21
131.225
 31
0.0
  0
ARC
  8
0
  6
CONTINUOUS
 62
     2
 10
208.375
 20
147.25
 30
0.0
 40
0.5
 50
0.0
 51
90.0
  0
LINE
  8
0
  6
CONTINUOUS
 62
     2
 10
151.625
 20
147.75
 30
0.0
 11
208.375
 21
147.75
 31
0.0
  0
ARC
  8
0
  6
CONTINUOUS
 62
     2
 10
151.625
 20
147.25
 30
0.0
 40
0.5
 50
90.0
 51
180.0
  0
ARC
  8
0
  6
CONTINUOUS
 62
     2
 10
151.625
 20
100.5
 30
0.0
 40
0.5
 50
180.0
 51
270.0
  0
LINE
  8
0
  6
CONTINUOUS
 62
     2
 10
151.625
 20
100.0
 30
0.0
 11
208.375
 21
100.0
 31
0.0
  0
LINE
  8
0
  6
CONTINUOUS
 62
     2
 10
151.125
 20
100.5
 30
0.0
 11
151.125
 21
147.25
 31
0.0
  0
ARC
  8
0
  6
CONTINUOUS
 62
     2
 10
208.375
 20
100.5
 30
0.0
 40
0.5
 50
270.0
 51
0.0
  0
LINE
  8
0
  6
CONTINUOUS
 62
     2
 10
208.875
 20
147.25
 30
0.0
 11
208.875
 21
100.5
 31
0.0
  0
TEXT
  8
0
  6
CONTINUOUS
 62
     2
 10
120.0
 20
57.0
 30
0.3
 40
3.0
  1
注）ＡＣＦ－１２ＮＢ形交流電流計で１０Ａ以上，３０Ａ以下の場合は
 50
0.0
 41
0.9
 51
0.0
  7
KANJI1
  0
TEXT
  8
0
  6
CONTINUOUS
 62
     2
 10
126.0
 20
52.0
 30
0.3
 40
3.0
  1
Ｍ５タ－ミナルネジとなります。
 50
0.0
 41
0.9
 51
0.0
  7
KANJI1
  0
LINE
  8
0
  6
CONTINUOUS
 62
     2
 10
126.0
 20
51.0
 30
0.0
 11
169.0
 21
51.0
 31
0.0
  0
LINE
  8
0
  6
LTYPE1
 62
     2
 10
50.0
 20
157.95
 30
0.0
 11
50.0
 21
92.95
 31
0.0
  0
LINE
  8
0
  6
LTYPE1
 62
     2
 10
23.0
 20
113.375
 30
0.0
 11
27.0
 21
113.375
 31
0.0
  0
LINE
  8
0
  6
LTYPE1
 62
     2
 10
25.0
 20
115.375
 30
0.0
 11
25.0
 21
111.375
 31
0.0
  0
LINE
  8
0
  6
LTYPE1
 62
     2
 10
47.0
 20
103.425
 30
0.0
 11
53.0
 21
103.425
 31
0.0
  0
LINE
  8
0
  6
LTYPE1
 62
     2
 10
73.0
 20
113.375
 30
0.0
 11
77.0
 21
113.375
 31
0.0
  0
LINE
  8
0
  6
LTYPE1
 62
     2
 10
75.0
 20
115.375
 30
0.0
 11
75.0
 21
111.375
 31
0.0
  0
LINE
  8
0
  6
CONTINUOUS
 62
     2
 10
150.0
 20
160.325
 30
0.0
 11
152.414814566
 21
159.677952387
 31
0.0
  0
LINE
  8
0
  6
CONTINUOUS
 62
     2
 10
150.0
 20
160.325
 30
0.0
 11
152.414814566
 21
160.972047613
 31
0.0
  0
LINE
  8
0
  6
CONTINUOUS
 62
     2
 10
150.0
 20
160.325
 30
0.0
 11
210.0
 21
160.325
 31
0.0
  0
LINE
  8
0
  6
CONTINUOUS
 62
     2
 10
210.0
 20
160.325
 30
0.0
 11
207.585185434
 21
160.972047613
 31
0.0
  0
LINE
  8
0
  6
CONTINUOUS
 62
     2
 10
210.0
 20
160.325
 30
0.0
 11
207.585185434
 21
159.677952387
 31
0.0
  0
TEXT
  8
0
  6
CONTINUOUS
 62
     2
 10
174.03
 20
161.325
 30
0.3
 40
3.0
  1
１２０
 50
0.0
 41
0.666666667
 51
0.0
  7
KANJI2
  0
TEXT
  8
0
  6
CONTINUOUS
 62
     2
 10
180.63
 20
161.325
 30
0.18
 40
1.8
  1
±１．５
 50
0.0
 41
0.666666667
 51
0.0
  7
KANJI3
  0
LINE
  8
0
  6
CONTINUOUS
 62
     2
 10
150.0
 20
148.25
 30
0.0
 11
150.0
 21
162.325
 31
0.0
  0
LINE
  8
0
  6
CONTINUOUS
 62
     2
 10
210.0
 20
148.25
 30
0.0
 11
210.0
 21
162.325
 31
0.0
  0
LINE
  8
0
  6
CONTINUOUS
 62
     2
 10
155.0
 20
155.325
 30
0.0
 11
157.414814566
 21
154.677952387
 31
0.0
  0
LINE
  8
0
  6
CONTINUOUS
 62
     2
 10
155.0
 20
155.325
 30
0.0
 11
157.414814566
 21
155.972047613
 31
0.0
  0
LINE
  8
0
  6
CONTINUOUS
 62
     2
 10
155.0
 20
155.325
 30
0.0
 11
180.0
 21
155.325
 31
0.0
  0
LINE
  8
0
  6
CONTINUOUS
 62
     2
 10
180.0
 20
155.325
 30
0.0
 11
177.585185434
 21
155.972047613
 31
0.0
  0
LINE
  8
0
  6
CONTINUOUS
 62
     2
 10
180.0
 20
155.325
 30
0.0
 11
177.585185434
 21
154.677952387
 31
0.0
  0
TEXT
  8
0
  6
CONTINUOUS
 62
     2
 10
162.68
 20
156.325
 30
0.3
 40
3.0
  1
５０
 50
0.0
 41
0.666666667
 51
0.0
  7
KANJI2
  0
LINE
  8
0
  6
CONTINUOUS
 62
     2
 10
180.0
 20
155.325
 30
0.0
 11
182.414814566
 21
154.677952387
 31
0.0
  0
LINE
  8
0
  6
CONTINUOUS
 62
     2
 10
180.0
 20
155.325
 30
0.0
 11
182.414814566
 21
155.972047613
 31
0.0
  0
LINE
  8
0
  6
CONTINUOUS
 62
     2
 10
180.0
 20
155.325
 30
0.0
 11
205.0
 21
155.325
 31
0.0
  0
LINE
  8
0
  6
CONTINUOUS
 62
     2
 10
205.0
 20
155.325
 30
0.0
 11
202.585185434
 21
155.972047613
 31
0.0
  0
LINE
  8
0
  6
CONTINUOUS
 62
     2
 10
205.0
 20
155.325
 30
0.0
 11
202.585185434
 21
154.677952387
 31
0.0
  0
TEXT
  8
0
  6
CONTINUOUS
 62
     2
 10
187.68
 20
156.325
 30
0.3
 40
3.0
  1
５０
 50
0.0
 41
0.666666667
 51
0.0
  7
KANJI2
  0
TEXT
  8
0
  6
CONTINUOUS
 62
     2
 10
191.98
 20
156.325
 30
0.18
 40
1.8
  1
±０．５
 50
0.0
 41
0.666666667
 51
0.0
  7
KANJI3
  0
TEXT
  8
0
  6
CONTINUOUS
 62
     2
 10
166.98
 20
156.325
 30
0.18
 40
1.8
  1
±０．５
 50
0.0
 41
0.666666667
 51
0.0
  7
KANJI3
  0
LINE
  8
0
  6
CONTINUOUS
 62
     2
 10
205.0
 20
148.5
 30
0.0
 11
205.0
 21
157.325
 31
0.0
  0
LINE
  8
0
  6
CONTINUOUS
 62
     2
 10
155.0
 20
148.5
 30
0.0
 11
155.0
 21
157.325
 31
0.0
  0
LINE
  8
0
  6
LTYPE1
 62
     2
 10
180.0
 20
150.875
 30
0.0
 11
180.0
 21
93.5
 31
0.0
  0
LINE
  8
0
  6
CONTINUOUS
 62
     2
 10
180.0
 20
151.375
 30
0.0
 11
180.0
 21
157.325
 31
0.0
  0
LINE
  8
0
  6
CONTINUOUS
 62
     2
 10
51.192324442
 20
101.375
 30
0.0
 11
51.822440915
 21
98.955712247
 31
0.0
  0
LINE
  8
0
  6
CONTINUOUS
 62
     2
 10
51.192324442
 20
101.375
 30
0.0
 11
52.947665191
 21
99.594893584
 31
0.0
  0
LINE
  8
0
  6
CONTINUOUS
 62
     2
 10
51.192324442
 20
101.375
 30
0.0
 11
58.292923737
 21
88.875
 31
0.0
  0
LINE
  8
0
  6
CONTINUOUS
 62
     2
 10
68.836052532
 20
60.875
 30
0.0
 11
66.421237967
 21
60.227952387
 31
0.0
  0
LINE
  8
0
  6
CONTINUOUS
 62
     2
 10
68.836052532
 20
60.875
 30
0.0
 11
67.068285579
 21
59.107233047
 31
0.0
  0
LINE
  8
0
  6
CONTINUOUS
 62
     2
 10
68.836052532
 20
60.875
 30
0.0
 11
31.163947468
 21
39.125
 31
0.0
  0
LINE
  8
0
  6
CONTINUOUS
 62
     2
 10
31.163947468
 20
39.125
 30
0.0
 11
33.578762033
 21
39.772047613
 31
0.0
  0
LINE
  8
0
  6
CONTINUOUS
 62
     2
 10
31.163947468
 20
39.125
 30
0.0
 11
32.931714421
 21
40.892766953
 31
0.0
  0
LINE
  8
0
  6
CONTINUOUS
 62
     2
 10
76.0
 20
31.5
 30
0.0
 11
76.630116473
 21
29.080712247
 31
0.0
  0
LINE
  8
0
  6
CONTINUOUS
 62
     2
 10
76.0
 20
31.5
 30
0.0
 11
77.755340749
 21
29.719893584
 31
0.0
  0
TEXT
  8
0
  6
CONTINUOUS
 62
     2
 10
80.828407521
 20
24.0
 30
0.3
 40
3.0
  1
４－φ５
 50
0.0
 41
0.6
 51
0.0
  7
KANJI4
  0
TEXT
  8
0
  6
CONTINUOUS
 62
     2
 10
89.398407521
 20
24.0
 30
0.18
 40
1.8
  1
－０
 50
0.0
 41
0.6
 51
0.0
  7
KANJI5
  0
TEXT
  8
0
  6
CONTINUOUS
 62
     2
 10
89.398407521
 20
25.8
 30
0.18
 40
1.8
  1
＋０．５
 50
0.0
 41
0.6
 51
0.0
  7
KANJI5
  0
LINE
  8
0
  6
CONTINUOUS
 62
     2
 10
80.828407521
 20
23.0
 30
0.0
 11
94.928407521
 21
23.0
 31
0.0
  0
LINE
  8
0
  6
CONTINUOUS
 62
     2
 10
76.0
 20
31.5
 30
0.0
 11
80.828407521
 21
23.0
 31
0.0
  0
LINE
  8
0
  6
LTYPE1
 62
     2
 10
25.0
 20
75.0
 30
0.0
 11
25.0
 21
70.0
 31
0.0
  0
LINE
  8
0
  6
LTYPE1
 62
     2
 10
22.5
 20
72.5
 30
0.0
 11
27.5
 21
72.5
 31
0.0
  0
LINE
  8
0
  6
LTYPE1
 62
     2
 10
75.0
 20
75.0
 30
0.0
 11
75.0
 21
70.0
 31
0.0
  0
LINE
  8
0
  6
LTYPE1
 62
     2
 10
72.5
 20
72.5
 30
0.0
 11
77.5
 21
72.5
 31
0.0
  0
LINE
  8
0
  6
LTYPE1
 62
     2
 10
75.0
 20
35.0
 30
0.0
 11
75.0
 21
30.0
 31
0.0
  0
LINE
  8
0
  6
LTYPE1
 62
     2
 10
72.5
 20
32.5
 30
0.0
 11
77.5
 21
32.5
 31
0.0
  0
LINE
  8
0
  6
LTYPE1
 62
     2
 10
25.0
 20
35.0
 30
0.0
 11
25.0
 21
30.0
 31
0.0
  0
LINE
  8
0
  6
LTYPE1
 62
     2
 10
22.5
 20
32.5
 30
0.0
 11
27.5
 21
32.5
 31
0.0
  0
TEXT
  8
0
  6
CONTINUOUS
 62
     2
 10
36.232231473
 20
43.628525404
 30
0.3
 40
3.0
  1
φ８７　　
 50
30.0
 41
0.666666667
 51
0.0
  7
KANJI2
  0
TEXT
  8
0
  6
CONTINUOUS
 62
     2
 10
41.812217152
 20
46.47622598
 30
0.18
 40
1.8
  1
±１
 50
28.0
 41
0.6
 51
0.0
  7
KANJI5
  0
LINE
  8
0
  6
LTYPE1
 62
     2
 10
50.0
 20
75.0
 30
0.0
 11
50.0
 21
27.0
 31
0.0
  0
LINE
  8
0
  6
CONTINUOUS
 62
     2
 10
75.0
 20
78.75
 30
0.0
 11
72.585185434
 21
79.397047613
 31
0.0
  0
LINE
  8
0
  6
CONTINUOUS
 62
     2
 10
75.0
 20
78.75
 30
0.0
 11
72.585185434
 21
78.102952387
 31
0.0
  0
LINE
  8
0
  6
CONTINUOUS
 62
     2
 10
75.0
 20
78.75
 30
0.0
 11
50.0
 21
78.75
 31
0.0
  0
LINE
  8
0
  6
CONTINUOUS
 62
     2
 10
50.0
 20
78.75
 30
0.0
 11
52.414814566
 21
78.102952387
 31
0.0
  0
LINE
  8
0
  6
CONTINUOUS
 62
     2
 10
50.0
 20
78.75
 30
0.0
 11
52.414814566
 21
79.397047613
 31
0.0
  0
TEXT
  8
0
  6
CONTINUOUS
 62
     2
 10
58.12
 20
79.75
 30
0.3
 40
3.0
  1
５０
 50
0.0
 41
0.6
 51
0.0
  7
KANJI4
  0
TEXT
  8
0
  6
CONTINUOUS
 62
     2
 10
62.02
 20
79.75
 30
0.18
 40
1.8
  1
±０．５
 50
0.0
 41
0.6
 51
0.0
  7
KANJI5
  0
LINE
  8
0
  6
CONTINUOUS
 62
     2
 10
50.0
 20
78.75
 30
0.0
 11
47.585185434
 21
79.397047613
 31
0.0
  0
LINE
  8
0
  6
CONTINUOUS
 62
     2
 10
50.0
 20
78.75
 30
0.0
 11
47.585185434
 21
78.102952387
 31
0.0
  0
LINE
  8
0
  6
CONTINUOUS
 62
     2
 10
50.0
 20
78.75
 30
0.0
 11
25.0
 21
78.75
 31
0.0
  0
LINE
  8
0
  6
CONTINUOUS
 62
     2
 10
25.0
 20
78.75
 30
0.0
 11
27.414814566
 21
78.102952387
 31
0.0
  0
LINE
  8
0
  6
CONTINUOUS
 62
     2
 10
25.0
 20
78.75
 30
0.0
 11
27.414814566
 21
79.397047613
 31
0.0
  0
TEXT
  8
0
  6
CONTINUOUS
 62
     2
 10
33.12
 20
79.75
 30
0.3
 40
3.0
  1
５０
 50
0.0
 41
0.6
 51
0.0
  7
KANJI4
  0
TEXT
  8
0
  6
CONTINUOUS
 62
     2
 10
37.02
 20
79.75
 30
0.18
 40
1.8
  1
±０．５
 50
0.0
 41
0.6
 51
0.0
  7
KANJI5
  0
LINE
  8
0
  6
CONTINUOUS
 62
     2
 10
25.0
 20
75.5
 30
0.0
 11
25.0
 21
80.75
 31
0.0
  0
LINE
  8
0
  6
CONTINUOUS
 62
     2
 10
50.0
 20
75.5
 30
0.0
 11
50.0
 21
80.75
 31
0.0
  0
LINE
  8
0
  6
CONTINUOUS
 62
     2
 10
75.0
 20
75.5
 30
0.0
 11
75.0
 21
80.75
 31
0.0
  0
LINE
  8
0
  6
CONTINUOUS
 62
     2
 10
81.25
 20
72.5
 30
0.0
 11
80.602952387
 21
70.085185434
 31
0.0
  0
LINE
  8
0
  6
CONTINUOUS
 62
     2
 10
81.25
 20
72.5
 30
0.0
 11
81.897047613
 21
70.085185434
 31
0.0
  0
LINE
  8
0
  6
CONTINUOUS
 62
     2
 10
81.25
 20
72.5
 30
0.0
 11
81.25
 21
50.0
 31
0.0
  0
LINE
  8
0
  6
CONTINUOUS
 62
     2
 10
81.25
 20
50.0
 30
0.0
 11
81.897047613
 21
52.414814566
 31
0.0
  0
LINE
  8
0
  6
CONTINUOUS
 62
     2
 10
81.25
 20
50.0
 30
0.0
 11
80.602952387
 21
52.414814566
 31
0.0
  0
TEXT
  8
0
  6
CONTINUOUS
 62
     2
 10
80.25
 20
56.43
 30
0.3
 40
3.0
  1
４５
 50
90.0
 41
0.666666667
 51
0.0
  7
KANJI2
  0
TEXT
  8
0
  6
CONTINUOUS
 62
     2
 10
80.25
 20
60.73
 30
0.18
 40
1.8
  1
±０．５
 50
90.0
 41
0.666666667
 51
0.0
  7
KANJI3
  0
LINE
  8
0
  6
CONTINUOUS
 62
     2
 10
81.25
 20
50.0
 30
0.0
 11
80.602952387
 21
47.585185434
 31
0.0
  0
LINE
  8
0
  6
CONTINUOUS
 62
     2
 10
81.25
 20
50.0
 30
0.0
 11
81.897047613
 21
47.585185434
 31
0.0
  0
LINE
  8
0
  6
CONTINUOUS
 62
     2
 10
81.25
 20
50.0
 30
0.0
 11
81.25
 21
32.5
 31
0.0
  0
LINE
  8
0
  6
CONTINUOUS
 62
     2
 10
81.25
 20
32.5
 30
0.0
 11
81.897047613
 21
34.914814566
 31
0.0
  0
LINE
  8
0
  6
CONTINUOUS
 62
     2
 10
81.25
 20
32.5
 30
0.0
 11
80.602952387
 21
34.914814566
 31
0.0
  0
TEXT
  8
0
  6
CONTINUOUS
 62
     2
 10
80.25
 20
36.43
 30
0.3
 40
3.0
  1
３５
 50
90.0
 41
0.666666667
 51
0.0
  7
KANJI2
  0
TEXT
  8
0
  6
CONTINUOUS
 62
     2
 10
80.25
 20
40.73
 30
0.18
 40
1.8
  1
±０．５
 50
90.0
 41
0.666666667
 51
0.0
  7
KANJI3
  0
LINE
  8
0
  6
CONTINUOUS
 62
     2
 10
78.0
 20
72.5
 30
0.0
 11
83.25
 21
72.5
 31
0.0
  0
LINE
  8
0
  6
CONTINUOUS
 62
     2
 10
78.0
 20
32.5
 30
0.0
 11
83.25
 21
32.5
 31
0.0
  0
LINE
  8
0
  6
LTYPE1
 62
     2
 10
21.19
 20
50.0
 30
0.0
 11
77.5
 21
50.0
 31
0.0
  0
LINE
  8
0
  6
CONTINUOUS
 62
     2
 10
78.0
 20
50.0
 30
0.0
 11
83.25
 21
50.0
 31
0.0
  0
LINE
  8
0
  6
CONTINUOUS
 62
     2
 10
28.681688273
 20
131.15
 30
0.0
 11
29.311804746
 21
133.569287753
 31
0.0
  0
LINE
  8
0
  6
CONTINUOUS
 62
     2
 10
28.681688273
 20
131.15
 30
0.0
 11
30.437029023
 21
132.930106416
 31
0.0
  0
TEXT
  8
0
  6
CONTINUOUS
 62
     2
 10
45.254487028
 20
161.325
 30
0.3
 40
3.0
  1
指針
 50
0.0
 41
0.9
 51
0.0
  7
KANJI1
  0
LINE
  8
0
  6
CONTINUOUS
 62
     2
 10
28.681688273
 20
131.15
 30
0.0
 11
45.254487028
 21
160.325
 31
0.0
  0
LINE
  8
0
  6
CONTINUOUS
 62
     2
 10
45.254487028
 20
160.325
 30
0.0
 11
51.654487028
 21
160.325
 31
0.0
  0
LINE
  8
0
  6
CONTINUOUS
 62
     1
 10
106.425898032
 20
98.55
 30
0.0
 11
106.425898032
 21
149.2
 31
0.0
  0
ARC
  8
0
  6
CONTINUOUS
 62
     1
 10
100.675898032
 20
147.875
 30
0.0
 40
0.25
 50
90.0
 51
180.0
  0
LINE
  8
0
  6
CONTINUOUS
 62
     1
 10
100.675898032
 20
148.125
 30
0.0
 11
106.425898032
 21
149.2
 31
0.0
  0
LINE
  8
0
  6
CONTINUOUS
 62
     1
 10
100.425898032
 20
116.375
 30
0.0
 11
100.425898032
 21
100.275
 31
0.0
  0
ARC
  8
0
  6
CONTINUOUS
 62
     1
 10
100.675898032
 20
99.875
 30
0.0
 40
0.25
 50
180.0
 51
270.0
  0
LINE
  8
0
  6
CONTINUOUS
 62
     1
 10
100.425898032
 20
99.875
 30
0.0
 11
100.425898032
 21
100.275
 31
0.0
  0
LINE
  8
0
  6
CONTINUOUS
 62
     1
 10
100.675898032
 20
99.625
 30
0.0
 11
106.425898032
 21
98.55
 31
0.0
  0
LINE
  8
0
  6
CONTINUOUS
 62
     1
 10
100.175898032
 20
147.475
 30
0.0
 11
100.425898032
 21
147.475
 31
0.0
  0
LINE
  8
0
  6
CONTINUOUS
 62
     1
 10
100.175898032
 20
116.375
 30
0.0
 11
100.425898032
 21
116.375
 31
0.0
  0
LINE
  8
0
  6
CONTINUOUS
 62
     1
 10
100.175898032
 20
116.375
 30
0.0
 11
100.175898032
 21
147.475
 31
0.0
  0
LINE
  8
0
  6
CONTINUOUS
 62
     1
 10
100.425898032
 20
147.875
 30
0.0
 11
100.425898032
 21
116.375
 31
0.0
  0
LINE
  8
0
  6
CONTINUOUS
 62
     1
 10
121.425898032
 20
140.939005183
 30
0.0
 11
110.375898032
 21
140.939005183
 31
0.0
  0
LINE
  8
0
  6
CONTINUOUS
 62
     1
 10
110.375898032
 20
140.30507779
 30
0.0
 11
121.425898032
 21
140.30507779
 31
0.0
  0
ARC
  8
0
  6
CONTINUOUS
 62
     1
 10
110.375886486
 20
139.396258547
 30
0.0
 40
1.542819243
 50
89.999680045
 51
92.265960209
  0
ARC
  8
0
  6
CONTINUOUS
 62
     1
 10
110.374900564
 20
139.421738553
 30
0.0
 40
1.517320179
 50
92.26680158
 51
94.557245331
  0
ARC
  8
0
  6
CONTINUOUS
 62
     1
 10
110.370870313
 20
139.473683247
 30
0.0
 40
1.465219491
 50
94.561537399
 51
96.904771301
  0
ARC
  8
0
  6
CONTINUOUS
 62
     1
 10
110.361899225
 20
139.549362793
 30
0.0
 40
1.389010338
 50
96.912696718
 51
99.339629763
  0
ARC
  8
0
  6
CONTINUOUS
 62
     1
 10
110.346467607
 20
139.644845033
 30
0.0
 40
1.292289525
 50
99.35153033
 51
101.896772347
  0
ARC
  8
0
  6
CONTINUOUS
 62
     1
 10
110.323552445
 20
139.755253988
 30
0.0
 40
1.179528197
 50
101.913178365
 51
104.616725295
  0
ARC
  8
0
  6
CONTINUOUS
 62
     1
 10
110.292712676
 20
139.875089839
 30
0.0
 40
1.055788371
 50
104.638385883
 51
107.547685887
  0
ARC
  8
0
  6
CONTINUOUS
 62
     1
 10
110.254134681
 20
139.998588343
 30
0.0
 40
0.926405569
 50
107.575635384
 51
110.74815007
  0
ARC
  8
0
  6
CONTINUOUS
 62
     1
 10
110.208633877
 20
140.120095036
 30
0.0
 40
0.796659993
 50
110.783760527
 51
114.290104825
  0
ARC
  8
0
  6
CONTINUOUS
 62
     1
 10
110.157613049
 20
140.234429819
 30
0.0
 40
0.671459208
 50
114.335179023
 51
118.262798181
  0
ARC
  8
0
  6
CONTINUOUS
 62
     1
 10
110.102979527
 20
140.337216068
 30
0.0
 40
0.555057027
 50
118.319632886
 51
122.776624624
  0
ARC
  8
0
  6
CONTINUOUS
 62
     1
 10
110.047027172
 20
140.425152801
 30
0.0
 40
0.450830608
 50
122.848029548
 51
127.965876755
  0
ARC
  8
0
  6
CONTINUOUS
 62
     1
 10
109.992290994
 20
140.49621108
 30
0.0
 40
0.36113705
 50
128.054997269
 51
133.987182624
  0
ARC
  8
0
  6
CONTINUOUS
 62
     1
 10
109.941384336
 20
140.549741806
 30
0.0
 40
0.287267933
 50
134.096851995
 51
141.007050543
  0
ARC
  8
0
  6
CONTINUOUS
 62
     1
 10
109.896830091
 20
140.586487707
 30
0.0
 40
0.229518502
 50
141.138143748
 51
149.167386761
  0
ARC
  8
0
  6
CONTINUOUS
 62
     1
 10
109.860896982
 20
140.608499621
 30
0.0
 40
0.187382702
 50
149.315402158
 51
158.516920988
  0
ARC
  8
0
  6
CONTINUOUS
 62
     1
 10
109.835451944
 20
140.618963455
 30
0.0
 40
0.159873853
 50
158.666803775
 51
168.91336416
  0
ARC
  8
0
  6
CONTINUOUS
 62
     1
 10
109.821837095
 20
140.621950078
 30
0.0
 40
0.145939119
 50
169.036186972
 51
179.949858604
  0
ARC
  8
0
  6
CONTINUOUS
 62
     1
 10
109.820777987
 20
140.622103393
 30
0.0
 40
0.144879958
 50
180.010123675
 51
191.003826063
  0
ARC
  8
0
  6
CONTINUOUS
 62
     1
 10
109.83233147
 20
140.624284955
 30
0.0
 40
0.15663744
 50
190.980484302
 51
201.439340746
  0
ARC
  8
0
  6
CONTINUOUS
 62
     1
 10
109.85588139
 20
140.633200603
 30
0.0
 40
0.1818169
 50
201.341920872
 51
210.82575287
  0
ARC
  8
0
  6
CONTINUOUS
 62
     1
 10
109.89018297
 20
140.653039876
 30
0.0
 40
0.221439561
 50
210.685890036
 51
219.008576653
  0
ARC
  8
0
  6
CONTINUOUS
 62
     1
 10
109.933448729
 20
140.687155345
 30
0.0
 40
0.27653377
 50
218.858657654
 51
226.037432926
  0
ARC
  8
0
  6
CONTINUOUS
 62
     1
 10
109.983466978
 20
140.737801177
 30
0.0
 40
0.347711418
 50
225.898182602
 51
232.05963481
  0
ARC
  8
0
  6
CONTINUOUS
 62
     1
 10
110.037746056
 20
140.805946344
 30
0.0
 40
0.43482813
 50
231.939883326
 51
237.246209095
  0
ARC
  8
0
  6
CONTINUOUS
 62
     1
 10
110.093675924
 20
140.891175408
 30
0.0
 40
0.536766589
 50
237.147396653
 51
241.75634176
  0
ARC
  8
0
  6
CONTINUOUS
 62
     1
 10
110.148696904
 20
140.991684512
 30
0.0
 40
0.651347171
 50
241.676538243
 51
245.725482632
  0
ARC
  8
0
  6
CONTINUOUS
 62
     1
 10
110.200464206
 20
141.10437313
 30
0.0
 40
0.775355044
 50
245.661705951
 51
249.264427683
  0
ARC
  8
0
  6
CONTINUOUS
 62
     1
 10
110.246997118
 20
141.225026998
 30
0.0
 40
0.904669074
 50
249.213726559
 51
252.462487425
  0
ARC
  8
0
  6
CONTINUOUS
 62
     1
 10
110.286802028
 20
141.348578355
 30
0.0
 40
1.034472421
 50
252.422330955
 51
255.391592162
  0
ARC
  8
0
  6
CONTINUOUS
 62
     1
 10
110.318961431
 20
141.469427077
 30
0.0
 40
1.15952551
 50
255.359951028
 51
258.110145008
  0
ARC
  8
0
  6
CONTINUOUS
 62
     1
 10
110.343183206
 20
141.581801412
 30
0.0
 40
1.274479461
 50
258.085440649
 51
260.666256826
  0
ARC
  8
0
  6
CONTINUOUS
 62
     1
 10
110.35980579
 20
141.680131469
 30
0.0
 40
1.374203673
 50
260.64729245
 51
263.100379005
  0
ARC
  8
0
  6
CONTINUOUS
 62
     1
 10
110.369760095
 20
141.75941401
 30
0.0
 40
1.454107918
 50
263.086273443
 51
265.447415669
  0
ARC
  8
0
  6
CONTINUOUS
 62
     1
 10
110.374490502
 20
141.815539529
 30
0.0
 40
1.51043185
 50
265.437531179
 51
267.738421906
  0
ARC
  8
0
  6
CONTINUOUS
 62
     1
 10
110.375840346
 20
141.845563112
 30
0.0
 40
1.540485323
 50
267.732321857
 51
270.00203601
  0
LINE
  8
0
  6
CONTINUOUS
 62
     1
 10
120.175898032
 20
140.939005183
 30
0.0
 11
120.175898032
 21
140.30507779
 31
0.0
  0
LINE
  8
0
  6
CONTINUOUS
 62
     1
 10
121.425898032
 20
138.571541817
 30
0.0
 11
110.375898032
 21
138.571541817
 31
0.0
  0
LINE
  8
0
  6
CONTINUOUS
 62
     1
 10
110.375898032
 20
137.648049604
 30
0.0
 11
121.425898032
 21
137.648049604
 31
0.0
  0
ARC
  8
0
  6
CONTINUOUS
 62
     1
 10
110.375889826
 20
137.510721754
 30
0.0
 40
1.06032785
 50
89.999556575
 51
93.298055373
  0
ARC
  8
0
  6
CONTINUOUS
 62
     1
 10
110.375188623
 20
137.52316935
 30
0.0
 40
1.04786053
 50
93.298934097
 51
96.622359869
  0
ARC
  8
0
  6
CONTINUOUS
 62
     1
 10
110.372322153
 20
137.548546255
 30
0.0
 40
1.022322372
 50
96.626800983
 51
100.004156422
  0
ARC
  8
0
  6
CONTINUOUS
 62
     1
 10
110.365941363
 20
137.585519019
 30
0.0
 40
0.984803314
 50
100.012250577
 51
103.473654698
  0
ARC
  8
0
  6
CONTINUOUS
 62
     1
 10
110.354965388
 20
137.632166458
 30
0.0
 40
0.936882383
 50
103.485573106
 51
107.062824859
  0
ARC
  8
0
  6
CONTINUOUS
 62
     1
 10
110.338666438
 20
137.686106452
 30
0.0
 40
0.880534228
 50
107.078802649
 51
110.805886721
  0
ARC
  8
0
  6
CONTINUOUS
 62
     1
 10
110.31673077
 20
137.744652013
 30
0.0
 40
0.818014907
 50
110.826222476
 51
114.739691376
  0
ARC
  8
0
  6
CONTINUOUS
 62
     1
 10
110.289290896
 20
137.80498677
 30
0.0
 40
0.75173435
 50
114.764727054
 51
118.903850021
  0
ARC
  8
0
  6
CONTINUOUS
 62
     1
 10
110.256926785
 20
137.864348125
 30
0.0
 40
0.684124704
 50
118.933933911
 51
123.340433914
  0
ARC
  8
0
  6
CONTINUOUS
 62
     1
 10
110.22063631
 20
137.920204981
 30
0.0
 40
0.617515204
 50
123.375863574
 51
128.092967621
  0
ARC
  8
0
  6
CONTINUOUS
 62
     1
 10
110.181776418
 20
137.970418738
 30
0.0
 40
0.554022385
 50
128.133888698
 51
133.204312511
  0
ARC
  8
0
  6
CONTINUOUS
 62
     1
 10
110.141979254
 20
138.013376309
 30
0.0
 40
0.495464821
 50
133.25056913
 51
138.712976847
  0
ARC
  8
0
  6
CONTINUOUS
 62
     1
 10
110.103048716
 20
138.048086204
 30
0.0
 40
0.443309379
 50
138.763885711
 51
144.647402982
  0
ARC
  8
0
  6
CONTINUOUS
 62
     1
 10
110.066844595
 20
138.074231465
 30
0.0
 40
0.398653409
 50
144.701487441
 51
151.01816857
  0
ARC
  8
0
  6
CONTINUOUS
 62
     1
 10
110.035162124
 20
138.092175762
 30
0.0
 40
0.362244001
 50
151.072897354
 51
157.808836511
  0
ARC
  8
0
  6
CONTINUOUS
 62
     1
 10
110.009614639
 20
138.102922522
 30
0.0
 40
0.334529954
 50
157.860475332
 51
164.967550294
  0
ARC
  8
0
  6
CONTINUOUS
 62
     1
 10
109.991527787
 20
138.108029899
 30
0.0
 40
0.315737463
 50
165.011371372
 51
172.402969018
  0
ARC
  8
0
  6
CONTINUOUS
 62
     1
 10
109.98185206
 20
138.1094873
 30
0.0
 40
0.305954034
 50
172.43394864
 51
179.98833237
  0
ARC
  8
0
  6
CONTINUOUS
 62
     1
 10
109.981099724
 20
138.109562083
 30
0.0
 40
0.305201693
 50
180.00234277
 51
187.575375853
  0
ARC
  8
0
  6
CONTINUOUS
 62
     1
 10
109.989310719
 20
138.110626584
 30
0.0
 40
0.313481359
 50
187.570395493
 51
195.015264491
  0
ARC
  8
0
  6
CONTINUOUS
 62
     1
 10
110.006050043
 20
138.114978036
 30
0.0
 40
0.330776535
 50
194.992073783
 51
202.179900311
  0
ARC
  8
0
  6
CONTINUOUS
 62
     1
 10
110.030436599
 20
138.124663494
 30
0.0
 40
0.357015055
 50
202.141776919
 51
208.976488897
  0
ARC
  8
0
  6
CONTINUOUS
 62
     1
 10
110.061201796
 20
138.141322501
 30
0.0
 40
0.391999628
 50
208.928165706
 51
215.35217738
  0
ARC
  8
0
  6
CONTINUOUS
 62
     1
 10
110.096773263
 20
138.166057963
 30
0.0
 40
0.435324251
 50
215.298588768
 51
221.290124523
  0
ARC
  8
0
  6
CONTINUOUS
 62
     1
 10
110.135378177
 20
138.199344246
 30
0.0
 40
0.486296043
 50
221.235487318
 51
226.800965372
  0
ARC
  8
0
  6
CONTINUOUS
 62
     1
 10
110.175159049
 20
138.240978666
 30
0.0
 40
0.543878331
 50
226.748370393
 51
231.913427859
  0
ARC
  8
0
  6
CONTINUOUS
 62
     1
 10
110.214294381
 20
138.290079677
 30
0.0
 40
0.606665639
 50
231.86482783
 51
236.666341197
  0
ARC
  8
0
  6
CONTINUOUS
 62
     1
 10
110.251115786
 20
138.34513221
 30
0.0
 40
0.672895249
 50
236.622779565
 51
241.10285359
  0
ARC
  8
0
  6
CONTINUOUS
 62
     1
 10
110.284214038
 20
138.404076895
 30
0.0
 40
0.740495172
 50
241.064724424
 51
245.266698642
  0
ARC
  8
0
  6
CONTINUOUS
 62
     1
 10
110.312526608
 20
138.464437553
 30
0.0
 40
0.807164625
 50
245.233994835
 51
249.200091282
  0
ARC
  8
0
  6
CONTINUOUS
 62
     1
 10
110.335400964
 20
138.523478045
 30
0.0
 40
0.870480136
 50
249.172581652
 51
252.942729196
  0
ARC
  8
0
  6
CONTINUOUS
 62
     1
 10
110.352629288
 20
138.578378274
 30
0.0
 40
0.928019028
 50
252.920086688
 51
256.531515436
  0
ARC
  8
0
  6
CONTINUOUS
 62
     1
 10
110.364452369
 20
138.626417155
 30
0.0
 40
0.97749052
 50
256.513393611
 51
260.000701128
  0
ARC
  8
0
  6
CONTINUOUS
 62
     1
 10
110.371532478
 20
138.665150249
 30
0.0
 40
1.016864647
 50
259.98677829
 51
263.382265986
  0
ARC
  8
0
  6
CONTINUOUS
 62
     1
 10
110.374897006
 20
138.69256989
 30
0.0
 40
1.044489354
 50
263.372274422
 51
266.706429852
  0
ARC
  8
0
  6
CONTINUOUS
 62
     1
 10
110.375856989
 20
138.707237313
 30
0.0
 40
1.059187709
 50
266.700169793
 51
270.002220172
  0
LINE
  8
0
  6
CONTINUOUS
 62
     1
 10
120.175898032
 20
138.571541817
 30
0.0
 11
120.175898032
 21
137.648049604
 31
0.0
  0
LINE
  8
0
  6
CONTINUOUS
 62
     1
 10
110.375898032
 20
135.322585945
 30
0.0
 11
121.425898032
 21
135.322585945
 31
0.0
  0
LINE
  8
0
  6
CONTINUOUS
 62
     1
 10
121.425898032
 20
134.156867003
 30
0.0
 11
110.375898032
 21
134.156867003
 31
0.0
  0
ARC
  8
0
  6
CONTINUOUS
 62
     1
 10
110.375893581
 20
134.482999048
 30
0.0
 40
0.839867955
 50
89.999756033
 51
94.165455327
  0
ARC
  8
0
  6
CONTINUOUS
 62
     1
 10
110.375513568
 20
134.488338928
 30
0.0
 40
0.834514578
 50
94.166063845
 51
98.348757391
  0
ARC
  8
0
  6
CONTINUOUS
 62
     1
 10
110.373960039
 20
134.499225305
 30
0.0
 40
0.823517999
 50
98.351792056
 51
102.570854602
  0
ARC
  8
0
  6
CONTINUOUS
 62
     1
 10
110.370501987
 20
134.515086097
 30
0.0
 40
0.807284798
 50
102.576312183
 51
106.850992563
  0
ARC
  8
0
  6
CONTINUOUS
 62
     1
 10
110.364553556
 20
134.535097026
 30
0.0
 40
0.786408756
 50
106.858848364
 51
111.208139018
  0
ARC
  8
0
  6
CONTINUOUS
 62
     1
 10
110.355720386
 20
134.558236264
 30
0.0
 40
0.761641233
 50
111.218359386
 51
115.660786268
  0
ARC
  8
0
  6
CONTINUOUS
 62
     1
 10
110.343832524
 20
134.583350893
 30
0.0
 40
0.73385564
 50
115.673301045
 51
120.226599046
  0
ARC
  8
0
  6
CONTINUOUS
 62
     1
 10
110.328961789
 20
134.609232755
 30
0.0
 40
0.704006427
 50
120.24129304
 51
124.921941096
  0
ARC
  8
0
  6
CONTINUOUS
 62
     1
 10
110.311422661
 20
134.63469662
 30
0.0
 40
0.673087351
 50
124.938636953
 51
129.761224897
  0
ARC
  8
0
  6
CONTINUOUS
 62
     1
 10
110.291756015
 20
134.658656647
 30
0.0
 40
0.642090333
 50
129.779652373
 51
134.756067807
  0
ARC
  8
0
  6
CONTINUOUS
 62
     1
 10
110.270697475
 20
134.680195393
 30
0.0
 40
0.611968366
 50
134.77585246
 51
139.914299638
  0
ARC
  8
0
  6
CONTINUOUS
 62
     1
 10
110.249131621
 20
134.698620954
 30
0.0
 40
0.583603933
 50
139.934927211
 51
145.238828129
  0
ARC
  8
0
  6
CONTINUOUS
 62
     1
 10
110.228036248
 20
134.713508186
 30
0.0
 40
0.557785307
 50
145.259651582
 51
150.726529018
  0
ARC
  8
0
  6
CONTINUOUS
 62
     1
 10
110.208419164
 20
134.72472137
 30
0.0
 40
0.535190434
 50
150.746749756
 51
156.367253784
  0
ARC
  8
0
  6
CONTINUOUS
 62
     1
 10
110.191253017
 20
134.732416842
 30
0.0
 40
0.51637907
 50
156.385965726
 51
162.143249984
  0
ARC
  8
0
  6
CONTINUOUS
 62
     1
 10
110.177411715
 20
134.73702534
 30
0.0
 40
0.501791436
 50
162.159488627
 51
168.029161382
  0
ARC
  8
0
  6
CONTINUOUS
 62
     1
 10
110.167612986
 20
134.739215378
 30
0.0
 40
0.491751564
 50
168.04198026
 51
173.99281157
  0
ARC
  8
0
  6
CONTINUOUS
 62
     1
 10
110.162371273
 20
134.739840285
 30
0.0
 40
0.486473242
 50
174.001399106
 51
179.99685188
  0
ARC
  8
0
  6
CONTINUOUS
 62
     1
 10
110.161963746
 20
134.739872351
 30
0.0
 40
0.486065714
 50
180.000629093
 51
186.001113165
  0
ARC
  8
0
  6
CONTINUOUS
 62
     1
 10
110.166412038
 20
134.740328792
 30
0.0
 40
0.490537349
 50
185.99981437
 51
191.96538901
  0
ARC
  8
0
  6
CONTINUOUS
 62
     1
 10
110.175480722
 20
134.742194666
 30
0.0
 40
0.499795835
 50
191.959107689
 51
197.85223764
  0
ARC
  8
0
  6
CONTINUOUS
 62
     1
 10
110.188692968
 20
134.746347995
 30
0.0
 40
0.513645183
 50
197.841412891
 51
203.629366452
  0
ARC
  8
0
  6
CONTINUOUS
 62
     1
 10
110.205361932
 20
134.753492149
 30
0.0
 40
0.531780105
 50
203.614706752
 51
209.271284378
  0
ARC
  8
0
  6
CONTINUOUS
 62
     1
 10
110.224636022
 20
134.764100561
 30
0.0
 40
0.553780132
 50
209.253684729
 51
214.760131348
  0
ARC
  8
0
  6
CONTINUOUS
 62
     1
 10
110.245554767
 20
134.77837702
 30
0.0
 40
0.579105489
 50
214.740552839
 51
220.085683794
  0
ARC
  8
0
  6
CONTINUOUS
 62
     1
 10
110.267111581
 20
134.796234883
 30
0.0
 40
0.607097524
 50
220.065072197
 51
225.2447739
  0
ARC
  8
0
  6
CONTINUOUS
 62
     1
 10
110.288319295
 20
134.817296182
 30
0.0
 40
0.636985557
 50
225.223976185
 51
230.24029779
  0
ARC
  8
0
  6
CONTINUOUS
 62
     1
 10
110.308273546
 20
134.840911048
 30
0.0
 40
0.667901262
 50
230.220038738
 51
235.08009519
  0
ARC
  8
0
  6
CONTINUOUS
 62
     1
 10
110.326210473
 20
134.866196088
 30
0.0
 40
0.698901496
 50
235.060952638
 51
239.775808437
  0
ARC
  8
0
  6
CONTINUOUS
 62
     1
 10
110.341554118
 20
134.892089019
 30
0.0
 40
0.728998394
 50
239.758222198
 51
244.341874419
  0
ARC
  8
0
  6
CONTINUOUS
 62
     1
 10
110.35395069
 20
134.917415962
 30
0.0
 40
0.757195691
 50
244.32616451
 51
248.794686398
  0
ARC
  8
0
  6
CONTINUOUS
 62
     1
 10
110.363287516
 20
134.940967096
 30
0.0
 40
0.782529439
 50
248.781073055
 51
253.151935326
  0
ARC
  8
0
  6
CONTINUOUS
 62
     1
 10
110.369695023
 20
134.961574961
 30
0.0
 40
0.804109881
 50
253.140563268
 51
257.432129464
  0
ARC
  8
0
  6
CONTINUOUS
 62
     1
 10
110.373532091
 20
134.978190883
 30
0.0
 40
0.821162608
 50
257.423088819
 51
261.654258628
  0
ARC
  8
0
  6
CONTINUOUS
 62
     1
 10
110.375355499
 20
134.989953633
 30
0.0
 40
0.83306546
 50
261.647602301
 51
265.837574962
  0
ARC
  8
0
  6
CONTINUOUS
 62
     1
 10
110.375875795
 20
134.996245824
 30
0.0
 40
0.839378821
 50
265.833328524
 51
270.001456317
  0
LINE
  8
0
  6
CONTINUOUS
 62
     1
 10
120.175898032
 20
135.322585945
 30
0.0
 11
120.175898032
 21
134.156867003
 31
0.0
  0
LINE
  8
0
  6
CONTINUOUS
 62
     1
 10
110.375898032
 20
131.358678625
 30
0.0
 11
121.425898032
 21
131.358678625
 31
0.0
  0
LINE
  8
0
  6
CONTINUOUS
 62
     1
 10
121.425898032
 20
130.010487556
 30
0.0
 11
110.375898032
 21
130.010487556
 31
0.0
  0
ARC
  8
0
  6
CONTINUOUS
 62
     1
 10
110.375896979
 20
130.631610653
 30
0.0
 40
0.726876903
 50
89.999916963
 51
94.81459242
  0
ARC
  8
0
  6
CONTINUOUS
 62
     1
 10
110.375806528
 20
130.632709908
 30
0.0
 40
0.725773935
 50
94.814760621
 51
99.634094483
  0
ARC
  8
0
  6
CONTINUOUS
 62
     1
 10
110.375436781
 20
130.634951072
 30
0.0
 40
0.7235025
 50
99.634929116
 51
104.464136384
  0
ARC
  8
0
  6
CONTINUOUS
 62
     1
 10
110.374613735
 20
130.638216216
 30
0.0
 40
0.720135272
 50
104.465615339
 51
109.309672111
  0
ARC
  8
0
  6
CONTINUOUS
 62
     1
 10
110.373197972
 20
130.642335782
 30
0.0
 40
0.715779296
 50
109.311762331
 51
114.175280878
  0
ARC
  8
0
  6
CONTINUOUS
 62
     1
 10
110.371095634
 20
130.647099277
 30
0.0
 40
0.710572606
 50
114.17792851
 51
119.065031456
  0
ARC
  8
0
  6
CONTINUOUS
 62
     1
 10
110.368266313
 20
130.652269388
 30
0.0
 40
0.704679084
 50
119.068172251
 51
123.982372176
  0
ARC
  8
0
  6
CONTINUOUS
 62
     1
 10
110.364727083
 20
130.657597359
 30
0.0
 40
0.698282872
 50
123.985920193
 51
128.930005091
  0
ARC
  8
0
  6
CONTINUOUS
 62
     1
 10
110.360552821
 20
130.662839224
 30
0.0
 40
0.691582168
 50
128.933867118
 51
133.909796294
  0
ARC
  8
0
  6
CONTINUOUS
 62
     1
 10
110.355872339
 20
130.667771383
 30
0.0
 40
0.684782851
 50
133.913863017
 51
138.922677168
  0
ARC
  8
0
  6
CONTINUOUS
 62
     1
 10
110.350860635
 20
130.672205074
 30
0.0
 40
0.678091637
 50
138.926829685
 51
143.968584096
  0
ARC
  8
0
  6
CONTINUOUS
 62
     1
 10
110.345728361
 20
130.675997825
 30
0.0
 40
0.671710191
 50
143.972697717
 51
149.046420205
  0
ARC
  8
0
  6
CONTINUOUS
 62
     1
 10
110.340708136
 20
130.679062164
 30
0.0
 40
0.665828803
 50
149.050362214
 51
154.154046355
  0
ARC
  8
0
  6
CONTINUOUS
 62
     1
 10
110.336039798
 20
130.681370198
 30
0.0
 40
0.660621249
 50
154.157687597
 51
159.288322855
  0
ARC
  8
0
  6
CONTINUOUS
 62
     1
 10
110.331954814
 20
130.682954141
 30
0.0
 40
0.656240084
 50
159.291540891
 51
164.44518461
  0
ARC
  8
0
  6
CONTINUOUS
 62
     1
 10
110.328661096
 20
130.683902678
 30
0.0
 40
0.652812642
 50
164.447866132
 51
169.619758483
  0
ARC
  8
0
  6
CONTINUOUS
 62
     1
 10
110.326329365
 20
130.684353448
 30
0.0
 40
0.650437854
 50
169.621807485
 51
174.806526191
  0
ARC
  8
0
  6
CONTINUOUS
 62
     1
 10
110.325082056
 20
130.684482052
 30
0.0
 40
0.649184025
 50
174.807865119
 51
179.999514189
  0
ARC
  8
0
  6
CONTINUOUS
 62
     1
 10
110.324985106
 20
130.684488663
 30
0.0
 40
0.649087074
 50
180.000097719
 51
185.192522855
  0
ARC
  8
0
  6
CONTINUOUS
 62
     1
 10
110.326043622
 20
130.684582593
 30
0.0
 40
0.650149747
 50
185.19232425
 51
190.379342079
  0
ARC
  8
0
  6
CONTINUOUS
 62
     1
 10
110.328201606
 20
130.684966637
 30
0.0
 40
0.65234161
 50
190.378373039
 51
195.554002368
  0
ARC
  8
0
  6
CONTINUOUS
 62
     1
 10
110.331345638
 20
130.685821486
 30
0.0
 40
0.655599727
 50
195.55229656
 51
200.710977506
  0
ARC
  8
0
  6
CONTINUOUS
 62
     1
 10
110.335312304
 20
130.687291949
 30
0.0
 40
0.659830088
 50
200.708599027
 51
205.84539023
  0
ARC
  8
0
  6
CONTINUOUS
 62
     1
 10
110.339898978
 20
130.689475483
 30
0.0
 40
0.664909874
 50
205.842425022
 51
210.953167238
  0
ARC
  8
0
  6
CONTINUOUS
 62
     1
 10
110.344877158
 20
130.692414083
 30
0.0
 40
0.670690533
 50
210.949719763
 51
216.031161012
  0
ARC
  8
0
  6
CONTINUOUS
 62
     1
 10
110.350007292
 20
130.696089984
 30
0.0
 40
0.677001518
 50
216.027354068
 51
221.077232048
  0
ARC
  8
0
  6
CONTINUOUS
 62
     1
 10
110.355054448
 20
130.700425354
 30
0.0
 40
0.683654856
 50
221.073187859
 51
226.090271574
  0
ARC
  8
0
  6
CONTINUOUS
 62
     1
 10
110.359803369
 20
130.705286449
 30
0.0
 40
0.690450444
 50
226.08612287
 51
231.070213281
  0
ARC
  8
0
  6
CONTINUOUS
 62
     1
 10
110.364072282
 20
130.71049148
 30
0.0
 40
0.697181972
 50
231.066088912
 51
236.017985728
  0
ARC
  8
0
  6
CONTINUOUS
 62
     1
 10
110.367724047
 20
130.715821706
 30
0.0
 40
0.703642957
 50
236.014007684
 51
240.935448303
  0
ARC
  8
0
  6
CONTINUOUS
 62
     1
 10
110.370674451
 20
130.721035536
 30
0.0
 40
0.709633517
 50
240.9317329
 51
245.825307093
  0
ARC
  8
0
  6
CONTINUOUS
 62
     1
 10
110.372896654
 20
130.725883813
 30
0.0
 40
0.714966644
 50
245.821953204
 51
250.691003099
  0
ARC
  8
0
  6
CONTINUOUS
 62
     1
 10
110.37442167
 20
130.730126247
 30
0.0
 40
0.719474704
 50
250.688102906
 51
255.536609789
  0
ARC
  8
0
  6
CONTINUOUS
 62
     1
 10
110.37533493
 20
130.733546894
 30
0.0
 40
0.723015039
 50
255.534234697
 51
260.366699776
  0
ARC
  8
0
  6
CONTINUOUS
 62
     1
 10
110.375768909
 20
130.735968436
 30
0.0
 40
0.725475058
 50
260.364912172
 51
265.186232643
  0
ARC
  8
0
  6
CONTINUOUS
 62
     1
 10
110.375892735
 20
130.737263781
 30
0.0
 40
0.726776225
 50
265.185074809
 51
270.000417615
  0
LINE
  8
0
  6
CONTINUOUS
 62
     1
 10
120.175898032
 20
131.358678625
 30
0.0
 11
120.175898032
 21
130.010487556
 31
0.0
  0
LINE
  8
0
  6
CONTINUOUS
 62
     1
 10
110.375898032
 20
126.883009232
 30
0.0
 11
121.425898032
 21
126.883009232
 31
0.0
  0
LINE
  8
0
  6
CONTINUOUS
 62
     1
 10
121.425898032
 20
125.421454135
 30
0.0
 11
110.375898032
 21
125.421454135
 31
0.0
  0
ARC
  8
0
  6
CONTINUOUS
 62
     1
 10
110.375898032
 20
126.152454135
 30
0.0
 40
0.731
 50
90.000106212
 51
269.999893788
  0
LINE
  8
0
  6
CONTINUOUS
 62
     1
 10
120.175898032
 20
126.883009232
 30
0.0
 11
120.175898032
 21
125.421454135
 31
0.0
  0
LINE
  8
0
  6
CONTINUOUS
 62
     1
 10
109.598151936
 20
142.625
 30
0.0
 11
120.925898032
 21
142.625
 31
0.0
  0
LINE
  8
0
  6
CONTINUOUS
 62
     1
 10
120.925898032
 20
100.125
 30
0.0
 11
106.425898032
 21
100.125
 31
0.0
  0
ARC
  8
0
  6
CONTINUOUS
 62
     1
 10
120.925898032
 20
142.125
 30
0.0
 40
0.5
 50
0.0
 51
90.0
  0
LINE
  8
0
  6
CONTINUOUS
 62
     1
 10
121.425898032
 20
142.125
 30
0.0
 11
121.425898032
 21
100.625
 31
0.0
  0
ARC
  8
0
  6
CONTINUOUS
 62
     1
 10
120.925898032
 20
100.625
 30
0.0
 40
0.5
 50
270.0
 51
0.0
  0
LINE
  8
0
  6
CONTINUOUS
 62
     2
 10
121.425898032
 20
99.625
 30
0.0
 11
121.425898032
 21
93.625
 31
0.0
  0
LINE
  8
0
  6
CONTINUOUS
 62
     2
 10
121.425898032
 20
95.625
 30
0.0
 11
123.840712598
 21
94.977952387
 31
0.0
  0
LINE
  8
0
  6
CONTINUOUS
 62
     2
 10
121.425898032
 20
95.625
 30
0.0
 11
123.840712598
 21
96.272047613
 31
0.0
  0
LINE
  8
0
  6
CONTINUOUS
 62
     2
 10
121.425898032
 20
95.625
 30
0.0
 11
128.425898032
 21
95.625
 31
0.0
  0
LINE
  8
0
  6
CONTINUOUS
 62
     2
 10
128.425898032
 20
95.625
 30
0.0
 11
126.011083467
 21
96.272047613
 31
0.0
  0
LINE
  8
0
  6
CONTINUOUS
 62
     2
 10
128.425898032
 20
95.625
 30
0.0
 11
126.011083467
 21
94.977952387
 31
0.0
  0
LINE
  8
0
  6
CONTINUOUS
 62
     2
 10
128.425898032
 20
111.375
 30
0.0
 11
128.425898032
 21
93.625
 31
0.0
  0
TEXT
  8
0
  6
CONTINUOUS
 62
     2
 10
122.775898032
 20
96.625
 30
0.3
 40
3.0
  1
１４
 50
0.0
 41
0.666666667
 51
0.0
  7
KANJI2
  0
LINE
  8
0
  6
CONTINUOUS
 62
     2
 10
116.425898032
 20
142.625
 30
0.0
 11
115.77885042
 21
140.210185434
 31
0.0
  0
LINE
  8
0
  6
CONTINUOUS
 62
     2
 10
116.425898032
 20
142.625
 30
0.0
 11
117.072945645
 21
140.210185434
 31
0.0
  0
LINE
  8
0
  6
CONTINUOUS
 62
     2
 10
116.425898032
 20
142.625
 30
0.0
 11
116.425898032
 21
100.125
 31
0.0
  0
LINE
  8
0
  6
CONTINUOUS
 62
     2
 10
116.425898032
 20
100.125
 30
0.0
 11
117.072945645
 21
102.539814566
 31
0.0
  0
LINE
  8
0
  6
CONTINUOUS
 62
     2
 10
116.425898032
 20
100.125
 30
0.0
 11
115.77885042
 21
102.539814566
 31
0.0
  0
LINE
  8
0
  6
LTYPE1
 62
     2
 10
103.275898032
 20
143.875
 30
0.0
 11
113.775898032
 21
143.875
 31
0.0
  0
LINE
  8
0
  6
LTYPE1
 62
     2
 10
103.275898032
 20
103.875
 30
0.0
 11
113.775898032
 21
103.875
 31
0.0
  0
LINE
  8
0
  6
LTYPE1
 62
     2
 10
118.275898032
 20
117.375
 30
0.0
 11
128.775898032
 21
117.375
 31
0.0
  0
LINE
  8
0
  6
CONTINUOUS
 62
     2
 10
100.175898032
 20
159.2
 30
0.0
 11
97.761083467
 21
159.847047613
 31
0.0
  0
LINE
  8
0
  6
CONTINUOUS
 62
     2
 10
100.175898032
 20
159.2
 30
0.0
 11
97.761083467
 21
158.552952387
 31
0.0
  0
TEXT
  8
0
  6
CONTINUOUS
 62
     2
 10
89.275898032
 20
160.2
 30
0.3
 40
3.0
  1
１２．５　
 50
0.0
 41
0.666666667
 51
0.0
  7
KANJI2
  0
LINE
  8
0
  6
CONTINUOUS
 62
     2
 10
88.925898032
 20
159.2
 30
0.0
 11
121.425898032
 21
159.2
 31
0.0
  0
LINE
  8
0
  6
CONTINUOUS
 62
     2
 10
121.425898032
 20
159.2
 30
0.0
 11
119.011083467
 21
159.847047613
 31
0.0
  0
LINE
  8
0
  6
CONTINUOUS
 62
     2
 10
121.425898032
 20
159.2
 30
0.0
 11
119.011083467
 21
158.552952387
 31
0.0
  0
LINE
  8
0
  6
CONTINUOUS
 62
     2
 10
121.425898032
 20
159.2
 30
0.0
 11
123.840712598
 21
158.552952387
 31
0.0
  0
LINE
  8
0
  6
CONTINUOUS
 62
     2
 10
121.425898032
 20
159.2
 30
0.0
 11
123.840712598
 21
159.847047613
 31
0.0
  0
LINE
  8
0
  6
CONTINUOUS
 62
     2
 10
121.425898032
 20
159.2
 30
0.0
 11
127.375898032
 21
159.2
 31
0.0
  0
LINE
  8
0
  6
CONTINUOUS
 62
     2
 10
127.375898032
 20
159.2
 30
0.0
 11
124.961083467
 21
159.847047613
 31
0.0
  0
LINE
  8
0
  6
CONTINUOUS
 62
     2
 10
127.375898032
 20
159.2
 30
0.0
 11
124.961083467
 21
158.552952387
 31
0.0
  0
TEXT
  8
0
  6
CONTINUOUS
 62
     2
 10
121.160898032
 20
160.2
 30
0.3
 40
3.0
  1
１１
 50
0.0
 41
0.666666667
 51
0.0
  7
KANJI2
  0
TEXT
  8
0
  6
CONTINUOUS
 62
     2
 10
124.960898032
 20
160.2
 30
0.18
 40
1.8
  1
±１
 50
0.0
 41
0.666666667
 51
0.0
  7
KANJI3
  0
POINT
  8
0
  6
CONTINUOUS
 62
     2
 10
121.425898032
 20
159.2
 30
0.0
  0
TEXT
  8
0
  6
CONTINUOUS
 62
     2
 10
111.850898032
 20
160.2
 30
0.3
 40
3.0
  1
３０
 50
0.0
 41
0.666666667
 51
0.0
  7
KANJI2
  0
LINE
  8
0
  6
CONTINUOUS
 62
     2
 10
106.925898032
 20
159.2
 30
0.0
 11
109.340712598
 21
158.552952387
 31
0.0
  0
LINE
  8
0
  6
CONTINUOUS
 62
     2
 10
106.925898032
 20
159.2
 30
0.0
 11
109.340712598
 21
159.847047613
 31
0.0
  0
LINE
  8
0
  6
CONTINUOUS
 62
     2
 10
106.425898032
 20
154.2
 30
0.0
 11
104.011083467
 21
154.847047613
 31
0.0
  0
LINE
  8
0
  6
CONTINUOUS
 62
     2
 10
106.425898032
 20
154.2
 30
0.0
 11
104.011083467
 21
153.552952387
 31
0.0
  0
LINE
  8
0
  6
CONTINUOUS
 62
     2
 10
106.925898032
 20
154.2
 30
0.0
 11
109.340712598
 21
153.552952387
 31
0.0
  0
LINE
  8
0
  6
CONTINUOUS
 62
     2
 10
106.925898032
 20
154.2
 30
0.0
 11
109.340712598
 21
154.847047613
 31
0.0
  0
LINE
  8
0
  6
CONTINUOUS
 62
     2
 10
106.925898032
 20
154.2
 30
0.0
 11
112.375898032
 21
154.2
 31
0.0
  0
LINE
  8
0
  6
CONTINUOUS
 62
     2
 10
112.375898032
 20
154.2
 30
0.0
 11
109.961083467
 21
154.847047613
 31
0.0
  0
LINE
  8
0
  6
CONTINUOUS
 62
     2
 10
112.375898032
 20
154.2
 30
0.0
 11
109.961083467
 21
153.552952387
 31
0.0
  0
TEXT
  8
0
  6
CONTINUOUS
 62
     2
 10
107.500898032
 20
155.2
 30
0.3
 40
3.0
  1
１０
 50
0.0
 41
0.666666667
 51
0.0
  7
KANJI2
  0
LINE
  8
0
  6
CONTINUOUS
 62
     2
 10
99.875898032
 20
154.2
 30
0.0
 11
106.925898032
 21
154.2
 31
0.0
  0
LINE
  8
0
  6
CONTINUOUS
 62
     2
 10
100.175898032
 20
148.475
 30
0.0
 11
100.175898032
 21
161.2
 31
0.0
  0
LINE
  8
0
  6
CONTINUOUS
 62
     2
 10
106.925898032
 20
146.925
 30
0.0
 11
106.925898032
 21
161.2
 31
0.0
  0
LINE
  8
0
  6
CONTINUOUS
 62
     2
 10
121.425898032
 20
143.125
 30
0.0
 11
121.425898032
 21
161.2
 31
0.0
  0
LINE
  8
0
  6
CONTINUOUS
 62
     2
 10
127.375898032
 20
119.025
 30
0.0
 11
127.375898032
 21
161.2
 31
0.0
  0
LINE
  8
0
  6
CONTINUOUS
 62
     2
 10
106.425898032
 20
150.2
 30
0.0
 11
106.425898032
 21
156.2
 31
0.0
  0
LINE
  8
0
  6
CONTINUOUS
 62
     2
 10
112.375898032
 20
145.925
 30
0.0
 11
112.375898032
 21
156.2
 31
0.0
  0
LINE
  8
0
  6
CONTINUOUS
 62
     2
 10
125.2
 20
115.375
 30
0.0
 11
125.830116473
 21
112.955712247
 31
0.0
  0
LINE
  8
0
  6
CONTINUOUS
 62
     2
 10
125.2
 20
115.375
 30
0.0
 11
126.955340749
 21
113.594893584
 31
0.0
  0
TEXT
  8
0
  6
CONTINUOUS
 62
     2
 10
140.492324442
 20
92.65
 30
0.3
 40
3.0
  1
注
 50
0.0
 41
0.9
 51
0.0
  7
KANJI1
  0
TEXT
  8
0
  6
CONTINUOUS
 62
     2
 10
140.892324442
 20
88.75
 30
0.3
 40
3.0
  1
Ｍ４（Ｍ５）ターミナルネジ
 50
0.0
 41
0.9
 51
0.0
  7
KANJI1
  0
LINE
  8
0
  6
CONTINUOUS
 62
     2
 10
125.2
 20
115.375
 30
0.0
 11
140.892324442
 21
87.75
 31
0.0
  0
LINE
  8
0
  6
CONTINUOUS
 62
     2
 10
140.892324442
 20
87.75
 30
0.0
 11
179.892324442
 21
87.75
 31
0.0
  0
LINE
  8
0
  6
CONTINUOUS
 62
     2
 10
108.892324442
 20
101.25
 30
0.0
 11
109.522440915
 21
98.830712247
 31
0.0
  0
LINE
  8
0
  6
CONTINUOUS
 62
     2
 10
108.892324442
 20
101.25
 30
0.0
 11
110.647665191
 21
99.469893584
 31
0.0
  0
TEXT
  8
0
  6
CONTINUOUS
 62
     2
 10
116.560971681
 20
88.75
 30
0.3
 40
3.0
  1
Ｍ４取付ボルト
 50
0.0
 41
0.9
 51
0.0
  7
KANJI1
  0
LINE
  8
0
  6
CONTINUOUS
 62
     2
 10
108.892324442
 20
101.25
 30
0.0
 11
116.560971681
 21
87.75
 31
0.0
  0
LINE
  8
0
  6
CONTINUOUS
 62
     2
 10
116.560971681
 20
87.75
 30
0.0
 11
137.460971681
 21
87.75
 31
0.0
  0
LINE
  8
0
  6
CONTINUOUS
 62
     2
 10
124.192923737
 20
121.75
 30
0.0
 11
124.82304021
 21
124.169287753
 31
0.0
  0
LINE
  8
0
  6
CONTINUOUS
 62
     2
 10
124.192923737
 20
121.75
 30
0.0
 11
125.948264487
 21
123.530106416
 31
0.0
  0
TEXT
  8
0
  6
CONTINUOUS
 62
     2
 10
130.881688273
 20
134.525
 30
0.3
 40
3.0
  1
端子キャップ
 50
0.0
 41
0.9
 51
0.0
  7
KANJI1
  0
LINE
  8
0
  6
CONTINUOUS
 62
     2
 10
124.192923737
 20
121.75
 30
0.0
 11
130.881688273
 21
133.525
 31
0.0
  0
LINE
  8
0
  6
CONTINUOUS
 62
     2
 10
130.881688273
 20
133.525
 30
0.0
 11
149.181688273
 21
133.525
 31
0.0
  0
LINE
  8
0
  6
CONTINUOUS
 62
     2
 10
106.425898032
 20
145.925
 30
0.0
 11
106.925898032
 21
145.925
 31
0.0
  0
LINE
  8
0
  6
CONTINUOUS
 62
     2
 10
109.348151936
 20
145.975
 30
0.0
 11
108.098151936
 21
145.975
 31
0.0
  0
LINE
  8
0
  6
CONTINUOUS
 62
     2
 10
109.348151936
 20
145.975
 30
0.0
 11
109.598151936
 21
145.725
 31
0.0
  0
LINE
  8
0
  6
CONTINUOUS
 62
     2
 10
109.598151936
 20
144.925
 30
0.0
 11
112.375898032
 21
144.925
 31
0.0
  0
LINE
  8
0
  6
CONTINUOUS
 62
     2
 10
112.375898032
 20
144.7
 30
0.0
 11
109.598151936
 21
144.7
 31
0.0
  0
LINE
  8
0
  6
CONTINUOUS
 62
     2
 10
109.338151936
 20
144.91
 30
0.0
 11
109.598151936
 21
145.21
 31
0.0
  0
LINE
  8
0
  6
CONTINUOUS
 62
     2
 10
112.375898032
 20
142.925
 30
0.0
 11
109.598151936
 21
142.925
 31
0.0
  0
LINE
  8
0
  6
CONTINUOUS
 62
     2
 10
109.598151936
 20
143.2
 30
0.0
 11
112.375898032
 21
143.2
 31
0.0
  0
LINE
  8
0
  6
CONTINUOUS
 62
     2
 10
109.598151936
 20
142.625
 30
0.0
 11
109.298151936
 21
142.895
 31
0.0
  0
LINE
  8
0
  6
CONTINUOUS
 62
     2
 10
109.598151936
 20
143.2
 30
0.0
 11
109.298151936
 21
142.93
 31
0.0
  0
LINE
  8
0
  6
CONTINUOUS
 62
     2
 10
112.375898032
 20
144.925
 30
0.0
 11
112.375898032
 21
142.925
 31
0.0
  0
LINE
  8
0
  6
CONTINUOUS
 62
     2
 10
106.925898032
 20
141.925
 30
0.0
 11
106.425898032
 21
141.925
 31
0.0
  0
LINE
  8
0
  6
CONTINUOUS
 62
     2
 10
109.298151936
 20
141.9
 30
0.0
 11
109.598151936
 21
142.2
 31
0.0
  0
LINE
  8
0
  6
CONTINUOUS
 62
     2
 10
108.098151936
 20
141.925
 30
0.0
 11
109.348151936
 21
141.925
 31
0.0
  0
LINE
  8
0
  6
CONTINUOUS
 62
     2
 10
106.925898032
 20
145.925
 30
0.0
 11
106.925898032
 21
141.925
 31
0.0
  0
LINE
  8
0
  6
CONTINUOUS
 62
     2
 10
108.098151936
 20
145.975
 30
0.0
 11
108.098151936
 21
141.925
 31
0.0
  0
LINE
  8
0
  6
CONTINUOUS
 62
     2
 10
109.598151936
 20
142.18
 30
0.0
 11
109.598151936
 21
145.725
 31
0.0
  0
LINE
  8
0
  6
CONTINUOUS
 62
     2
 10
109.351151936
 20
144.925
 30
0.0
 11
109.601151936
 21
144.725
 31
0.0
  0
LINE
  8
0
  6
CONTINUOUS
 62
     2
 10
109.351151936
 20
144.925
 30
0.0
 11
108.098151936
 21
144.925
 31
0.0
  0
LINE
  8
0
  6
CONTINUOUS
 62
     2
 10
108.098151936
 20
142.925
 30
0.0
 11
109.314818602
 21
142.925
 31
0.0
  0
LINE
  8
0
  6
CONTINUOUS
 62
     2
 10
108.098151936
 20
145.975
 30
0.0
 11
107.698151936
 21
146.375
 31
0.0
  0
LINE
  8
0
  6
CONTINUOUS
 62
     2
 10
107.698151936
 20
146.375
 30
0.0
 11
107.698151936
 21
141.525
 31
0.0
  0
LINE
  8
0
  6
CONTINUOUS
 62
     2
 10
108.098151936
 20
141.925
 30
0.0
 11
107.698151936
 21
141.525
 31
0.0
  0
LINE
  8
0
  6
CONTINUOUS
 62
     2
 10
106.925898032
 20
142.925
 30
0.0
 11
107.698151936
 21
142.925
 31
0.0
  0
LINE
  8
0
  6
CONTINUOUS
 62
     2
 10
107.698151936
 20
143.2
 30
0.0
 11
106.925898032
 21
143.2
 31
0.0
  0
LINE
  8
0
  6
CONTINUOUS
 62
     2
 10
107.698151936
 20
144.925
 30
0.0
 11
106.925898032
 21
144.925
 31
0.0
  0
LINE
  8
0
  6
CONTINUOUS
 62
     2
 10
106.925898032
 20
144.7
 30
0.0
 11
107.698151936
 21
144.7
 31
0.0
  0
LINE
  8
0
  6
CONTINUOUS
 62
     2
 10
106.425898032
 20
105.925
 30
0.0
 11
106.925898032
 21
105.925
 31
0.0
  0
LINE
  8
0
  6
CONTINUOUS
 62
     2
 10
109.348151936
 20
105.975
 30
0.0
 11
108.098151936
 21
105.975
 31
0.0
  0
LINE
  8
0
  6
CONTINUOUS
 62
     2
 10
109.348151936
 20
105.975
 30
0.0
 11
109.598151936
 21
105.725
 31
0.0
  0
LINE
  8
0
  6
CONTINUOUS
 62
     2
 10
109.598151936
 20
104.925
 30
0.0
 11
112.375898032
 21
104.925
 31
0.0
  0
LINE
  8
0
  6
CONTINUOUS
 62
     2
 10
112.375898032
 20
104.7
 30
0.0
 11
109.598151936
 21
104.7
 31
0.0
  0
LINE
  8
0
  6
CONTINUOUS
 62
     2
 10
109.338151936
 20
104.91
 30
0.0
 11
109.598151936
 21
105.21
 31
0.0
  0
LINE
  8
0
  6
CONTINUOUS
 62
     2
 10
112.375898032
 20
102.925
 30
0.0
 11
109.598151936
 21
102.925
 31
0.0
  0
LINE
  8
0
  6
CONTINUOUS
 62
     2
 10
109.598151936
 20
103.2
 30
0.0
 11
112.375898032
 21
103.2
 31
0.0
  0
LINE
  8
0
  6
CONTINUOUS
 62
     2
 10
109.598151936
 20
102.625
 30
0.0
 11
109.298151936
 21
102.895
 31
0.0
  0
LINE
  8
0
  6
CONTINUOUS
 62
     2
 10
109.598151936
 20
103.2
 30
0.0
 11
109.298151936
 21
102.93
 31
0.0
  0
LINE
  8
0
  6
CONTINUOUS
 62
     2
 10
112.375898032
 20
104.925
 30
0.0
 11
112.375898032
 21
102.925
 31
0.0
  0
LINE
  8
0
  6
CONTINUOUS
 62
     2
 10
106.925898032
 20
101.925
 30
0.0
 11
106.425898032
 21
101.925
 31
0.0
  0
LINE
  8
0
  6
CONTINUOUS
 62
     2
 10
109.298151936
 20
101.9
 30
0.0
 11
109.598151936
 21
102.2
 31
0.0
  0
LINE
  8
0
  6
CONTINUOUS
 62
     2
 10
108.098151936
 20
101.925
 30
0.0
 11
109.348151936
 21
101.925
 31
0.0
  0
LINE
  8
0
  6
CONTINUOUS
 62
     2
 10
106.925898032
 20
105.925
 30
0.0
 11
106.925898032
 21
101.925
 31
0.0
  0
LINE
  8
0
  6
CONTINUOUS
 62
     2
 10
108.098151936
 20
105.975
 30
0.0
 11
108.098151936
 21
101.925
 31
0.0
  0
LINE
  8
0
  6
CONTINUOUS
 62
     2
 10
109.598151936
 20
102.18
 30
0.0
 11
109.598151936
 21
105.725
 31
0.0
  0
LINE
  8
0
  6
CONTINUOUS
 62
     2
 10
109.351151936
 20
104.925
 30
0.0
 11
109.601151936
 21
104.725
 31
0.0
  0
LINE
  8
0
  6
CONTINUOUS
 62
     2
 10
109.351151936
 20
104.925
 30
0.0
 11
108.098151936
 21
104.925
 31
0.0
  0
LINE
  8
0
  6
CONTINUOUS
 62
     2
 10
108.098151936
 20
102.925
 30
0.0
 11
109.314818602
 21
102.925
 31
0.0
  0
LINE
  8
0
  6
CONTINUOUS
 62
     2
 10
108.098151936
 20
105.975
 30
0.0
 11
107.698151936
 21
106.375
 31
0.0
  0
LINE
  8
0
  6
CONTINUOUS
 62
     2
 10
107.698151936
 20
106.375
 30
0.0
 11
107.698151936
 21
101.525
 31
0.0
  0
LINE
  8
0
  6
CONTINUOUS
 62
     2
 10
108.098151936
 20
101.925
 30
0.0
 11
107.698151936
 21
101.525
 31
0.0
  0
LINE
  8
0
  6
CONTINUOUS
 62
     2
 10
106.925898032
 20
102.925
 30
0.0
 11
107.698151936
 21
102.925
 31
0.0
  0
LINE
  8
0
  6
CONTINUOUS
 62
     2
 10
107.698151936
 20
103.2
 30
0.0
 11
106.925898032
 21
103.2
 31
0.0
  0
LINE
  8
0
  6
CONTINUOUS
 62
     2
 10
107.698151936
 20
104.925
 30
0.0
 11
106.925898032
 21
104.925
 31
0.0
  0
LINE
  8
0
  6
CONTINUOUS
 62
     2
 10
106.925898032
 20
104.7
 30
0.0
 11
107.698151936
 21
104.7
 31
0.0
  0
LINE
  8
0
  6
LTYPE2
 62
     2
 10
121.425898032
 20
111.425
 30
0.0
 11
121.675898032
 21
111.425
 31
0.0
  0
LINE
  8
0
  6
CONTINUOUS
 62
     2
 10
121.425898032
 20
119.425
 30
0.0
 11
121.925898032
 21
119.425
 31
0.0
  0
LINE
  8
0
  6
CONTINUOUS
 62
     2
 10
121.925898032
 20
115.425
 30
0.0
 11
121.425898032
 21
115.425
 31
0.0
  0
LINE
  8
0
  6
CONTINUOUS
 62
     2
 10
121.925898032
 20
119.425
 30
0.0
 11
121.925898032
 21
115.425
 31
0.0
  0
LINE
  8
0
  6
CONTINUOUS
 62
     2
 10
121.925898032
 20
119.225
 30
0.0
 11
121.925898032
 21
119.35
 31
0.0
  0
LINE
  8
0
  6
LTYPE2
 62
     2
 10
122.325898032
 20
119.35
 30
0.0
 11
122.325898032
 21
113.975
 31
0.0
  0
LINE
  8
0
  6
LTYPE2
 62
     2
 10
121.925898032
 20
119.35
 30
0.0
 11
122.325898032
 21
119.35
 31
0.0
  0
LINE
  8
0
  6
LTYPE2
 62
     2
 10
121.425898032
 20
113.975
 30
0.0
 11
123.925898032
 21
113.975
 31
0.0
  0
LINE
  8
0
  6
LTYPE2
 62
     2
 10
123.925898032
 20
113.975
 30
0.0
 11
123.925898032
 21
110.975
 31
0.0
  0
LINE
  8
0
  6
LTYPE2
 62
     2
 10
121.925898032
 20
115.425
 30
0.0
 11
121.925898032
 21
113.975
 31
0.0
  0
ARC
  8
0
  6
LTYPE2
 62
     2
 10
125.425898032
 20
117.875
 30
0.0
 40
3.0
 50
0.0
 51
90.0
  0
LINE
  8
0
  6
LTYPE2
 62
     2
 10
121.425898032
 20
120.275
 30
0.0
 11
121.675898032
 21
120.275
 31
0.0
  0
LINE
  8
0
  6
LTYPE2
 62
     2
 10
121.675898032
 20
109.375
 30
0.0
 11
121.675898032
 21
120.275
 31
0.0
  0
LINE
  8
0
  6
LTYPE2
 62
     2
 10
121.425898032
 20
120.875
 30
0.0
 11
125.425898032
 21
120.875
 31
0.0
  0
LINE
  8
0
  6
LTYPE2
 62
     2
 10
128.425898032
 20
117.875
 30
0.0
 11
128.425898032
 21
112.375
 31
0.0
  0
LINE
  8
0
  6
LTYPE2
 62
     2
 10
125.425898032
 20
109.375
 30
0.0
 11
121.425898032
 21
109.375
 31
0.0
  0
ARC
  8
0
  6
LTYPE2
 62
     2
 10
125.425898032
 20
112.375
 30
0.0
 40
3.0
 50
270.0
 51
0.0
  0
LINE
  8
0
  6
CONTINUOUS
 62
     2
 10
125.248151936
 20
119.475
 30
0.0
 11
123.998151936
 21
119.475
 31
0.0
  0
LINE
  8
0
  6
CONTINUOUS
 62
     2
 10
125.248151936
 20
119.475
 30
0.0
 11
125.498151936
 21
119.225
 31
0.0
  0
LINE
  8
0
  6
CONTINUOUS
 62
     2
 10
123.325898032
 20
119.225
 30
0.0
 11
123.825898032
 21
119.225
 31
0.0
  0
LINE
  8
0
  6
CONTINUOUS
 62
     2
 10
123.825898032
 20
119.225
 30
0.0
 11
123.525898032
 21
117.575
 31
0.0
  0
LINE
  8
0
  6
CONTINUOUS
 62
     2
 10
123.525898032
 20
117.575
 30
0.0
 11
123.025898032
 21
117.575
 31
0.0
  0
LINE
  8
0
  6
CONTINUOUS
 62
     2
 10
123.025898032
 20
117.575
 30
0.0
 11
123.325898032
 21
119.225
 31
0.0
  0
LINE
  8
0
  6
CONTINUOUS
 62
     2
 10
125.238151936
 20
118.41
 30
0.0
 11
125.498151936
 21
118.71
 31
0.0
  0
LINE
  8
0
  6
CONTINUOUS
 62
     2
 10
123.639534396
 20
118.2
 30
0.0
 11
123.998151936
 21
118.2
 31
0.0
  0
LINE
  8
0
  6
CONTINUOUS
 62
     2
 10
123.775898032
 20
117.275
 30
0.0
 11
123.275898032
 21
117.275
 31
0.0
  0
LINE
  8
0
  6
CONTINUOUS
 62
     2
 10
125.498151936
 20
116.7
 30
0.0
 11
125.198151936
 21
116.43
 31
0.0
  0
LINE
  8
0
  6
CONTINUOUS
 62
     2
 10
123.998151936
 20
116.7
 30
0.0
 11
123.698151936
 21
116.7
 31
0.0
  0
LINE
  8
0
  6
CONTINUOUS
 62
     2
 10
125.198151936
 20
115.4
 30
0.0
 11
125.498151936
 21
115.7
 31
0.0
  0
LINE
  8
0
  6
CONTINUOUS
 62
     2
 10
123.998151936
 20
115.425
 30
0.0
 11
125.248151936
 21
115.425
 31
0.0
  0
LINE
  8
0
  6
CONTINUOUS
 62
     2
 10
123.025898032
 20
115.675
 30
0.0
 11
123.525898032
 21
115.675
 31
0.0
  0
LINE
  8
0
  6
CONTINUOUS
 62
     2
 10
123.275898032
 20
117.275
 30
0.0
 11
123.025898032
 21
115.675
 31
0.0
  0
LINE
  8
0
  6
CONTINUOUS
 62
     2
 10
123.525898032
 20
115.675
 30
0.0
 11
123.775898032
 21
117.275
 31
0.0
  0
LINE
  8
0
  6
CONTINUOUS
 62
     2
 10
123.998151936
 20
119.475
 30
0.0
 11
123.998151936
 21
115.425
 31
0.0
  0
LINE
  8
0
  6
CONTINUOUS
 62
     2
 10
125.498151936
 20
115.68
 30
0.0
 11
125.498151936
 21
119.225
 31
0.0
  0
LINE
  8
0
  6
CONTINUOUS
 62
     2
 10
125.251151936
 20
118.425
 30
0.0
 11
125.501151936
 21
118.225
 31
0.0
  0
LINE
  8
0
  6
CONTINUOUS
 62
     2
 10
125.098151936
 20
118.425
 30
0.0
 11
125.251151936
 21
118.425
 31
0.0
  0
LINE
  8
0
  6
CONTINUOUS
 62
     2
 10
123.680443487
 20
118.425
 30
0.0
 11
125.251151936
 21
118.425
 31
0.0
  0
LINE
  8
0
  6
CONTINUOUS
 62
     2
 10
125.498151936
 20
116.125
 30
0.0
 11
125.198151936
 21
116.395
 31
0.0
  0
LINE
  8
0
  6
CONTINUOUS
 62
     2
 10
125.19259638
 20
116.425
 30
0.0
 11
123.643085532
 21
116.425
 31
0.0
  0
LINE
  8
0
  6
CONTINUOUS
 62
     2
 10
127.375898032
 20
118.2
 30
0.0
 11
125.498151936
 21
118.2
 31
0.0
  0
LINE
  8
0
  6
CONTINUOUS
 62
     2
 10
125.498151936
 20
118.425
 30
0.0
 11
127.375898032
 21
118.425
 31
0.0
  0
LINE
  8
0
  6
CONTINUOUS
 62
     2
 10
125.498151936
 20
116.7
 30
0.0
 11
127.375898032
 21
116.7
 31
0.0
  0
LINE
  8
0
  6
CONTINUOUS
 62
     2
 10
127.375898032
 20
116.425
 30
0.0
 11
125.498151936
 21
116.425
 31
0.0
  0
LINE
  8
0
  6
CONTINUOUS
 62
     2
 10
122.325898032
 20
115.125
 30
0.0
 11
122.550898032
 21
115.125
 31
0.0
  0
LINE
  8
0
  6
CONTINUOUS
 62
     2
 10
122.550898032
 20
115.125
 30
0.0
 11
122.550898032
 21
119.625
 31
0.0
  0
LINE
  8
0
  6
CONTINUOUS
 62
     2
 10
122.550898032
 20
119.625
 30
0.0
 11
122.325898032
 21
119.625
 31
0.0
  0
LINE
  8
0
  6
CONTINUOUS
 62
     2
 10
122.325898032
 20
119.625
 30
0.0
 11
122.325898032
 21
115.125
 31
0.0
  0
LINE
  8
0
  6
CONTINUOUS
 62
     2
 10
122.325898032
 20
118.425
 30
0.0
 11
121.925898032
 21
118.425
 31
0.0
  0
LINE
  8
0
  6
CONTINUOUS
 62
     2
 10
123.180298032
 20
118.425
 30
0.0
 11
122.550898032
 21
118.425
 31
0.0
  0
LINE
  8
0
  6
CONTINUOUS
 62
     2
 10
122.325898032
 20
118.2
 30
0.0
 11
121.925898032
 21
118.2
 31
0.0
  0
LINE
  8
0
  6
CONTINUOUS
 62
     2
 10
123.180298032
 20
118.2
 30
0.0
 11
122.550898032
 21
118.2
 31
0.0
  0
LINE
  8
0
  6
CONTINUOUS
 62
     2
 10
122.325898032
 20
116.7
 30
0.0
 11
121.925898032
 21
116.7
 31
0.0
  0
LINE
  8
0
  6
CONTINUOUS
 62
     2
 10
123.180298032
 20
116.7
 30
0.0
 11
122.550898032
 21
116.7
 31
0.0
  0
LINE
  8
0
  6
CONTINUOUS
 62
     2
 10
122.325898032
 20
116.425
 30
0.0
 11
121.925898032
 21
116.425
 31
0.0
  0
LINE
  8
0
  6
CONTINUOUS
 62
     2
 10
123.080298032
 20
116.425
 30
0.0
 11
122.550898032
 21
116.425
 31
0.0
  0
LINE
  8
0
  6
CONTINUOUS
 62
     2
 10
127.375898032
 20
118.425
 30
0.0
 11
127.375898032
 21
116.425
 31
0.0
  0
CIRCLE
  8
0
  6
CONTINUOUS
 62
     1
 10
180.0
 20
121.375
 30
0.0
 40
21.25
  0
LINE
  8
0
  6
CONTINUOUS
 62
     1
 10
189.073286215
 20
139.058073892
 30
0.0
 11
189.654773682
 21
140.30507779
 31
0.0
  0
LINE
  8
0
  6
CONTINUOUS
 62
     1
 10
188.295312002
 20
140.939005183
 30
0.0
 11
187.713824534
 21
139.692001284
 31
0.0
  0
LINE
  8
0
  6
CONTINUOUS
 62
     1
 10
192.818564593
 20
136.563812553
 30
0.0
 11
193.665663416
 21
137.648049604
 31
0.0
  0
LINE
  8
0
  6
CONTINUOUS
 62
     1
 10
195.906765011
 20
133.290974651
 30
0.0
 11
196.976053014
 21
134.156867003
 31
0.0
  0
LINE
  8
0
  6
CONTINUOUS
 62
     1
 10
196.032072427
 20
135.322585945
 30
0.0
 11
194.962784424
 21
134.456693593
 31
0.0
  0
LINE
  8
0
  6
CONTINUOUS
 62
     1
 10
198.179586716
 20
129.407325432
 30
0.0
 11
199.416252334
 21
130.010487556
 31
0.0
  0
LINE
  8
0
  6
CONTINUOUS
 62
     1
 10
198.758695613
 20
131.358678625
 30
0.0
 11
197.522029995
 21
130.755516502
 31
0.0
  0
LINE
  8
0
  6
CONTINUOUS
 62
     1
 10
199.520525161
 20
125.111940253
 30
0.0
 11
200.861177074
 21
125.421454135
 31
0.0
  0
LINE
  8
0
  6
CONTINUOUS
 62
     1
 10
200.523750493
 20
126.883009232
 30
0.0
 11
199.183098579
 21
126.57349535
 31
0.0
  0
ARC
  8
0
  6
CONTINUOUS
 62
     1
 10
180.0
 20
121.375
 30
0.0
 40
19.875
 50
10.837381646
 51
15.162618354
  0
ARC
  8
0
  6
CONTINUOUS
 62
     1
 10
180.0
 20
121.375
 30
0.0
 40
19.875
 50
23.837381646
 51
28.162618354
  0
ARC
  8
0
  6
CONTINUOUS
 62
     1
 10
180.0
 20
121.375
 30
0.0
 40
19.875
 50
36.837381646
 51
41.162618354
  0
ARC
  8
0
  6
CONTINUOUS
 62
     1
 10
180.0
 20
121.375
 30
0.0
 40
19.875
 50
49.837381646
 51
54.162618354
  0
ARC
  8
0
  6
CONTINUOUS
 62
     1
 10
180.0
 20
121.375
 30
0.0
 40
19.875
 50
62.837381646
 51
67.162618354
  0
LINE
  8
0
  6
CONTINUOUS
 62
     1
 10
170.926713785
 20
139.058073892
 30
0.0
 11
170.345226318
 21
140.30507779
 31
0.0
  0
LINE
  8
0
  6
CONTINUOUS
 62
     1
 10
171.704687998
 20
140.939005183
 30
0.0
 11
172.286175466
 21
139.692001284
 31
0.0
  0
LINE
  8
0
  6
CONTINUOUS
 62
     1
 10
167.181435407
 20
136.563812553
 30
0.0
 11
166.334336584
 21
137.648049604
 31
0.0
  0
LINE
  8
0
  6
CONTINUOUS
 62
     1
 10
167.516352714
 20
138.571541817
 30
0.0
 11
168.363451538
 21
137.487304766
 31
0.0
  0
LINE
  8
0
  6
CONTINUOUS
 62
     1
 10
164.093234989
 20
133.290974651
 30
0.0
 11
163.023946986
 21
134.156867003
 31
0.0
  0
LINE
  8
0
  6
CONTINUOUS
 62
     1
 10
163.967927573
 20
135.322585945
 30
0.0
 11
165.037215576
 21
134.456693593
 31
0.0
  0
LINE
  8
0
  6
CONTINUOUS
 62
     1
 10
161.820413284
 20
129.407325432
 30
0.0
 11
160.583747666
 21
130.010487556
 31
0.0
  0
LINE
  8
0
  6
CONTINUOUS
 62
     1
 10
161.241304387
 20
131.358678625
 30
0.0
 11
162.477970005
 21
130.755516502
 31
0.0
  0
LINE
  8
0
  6
CONTINUOUS
 62
     1
 10
160.479474839
 20
125.111940253
 30
0.0
 11
159.138822926
 21
125.421454135
 31
0.0
  0
LINE
  8
0
  6
CONTINUOUS
 62
     1
 10
159.476249507
 20
126.883009232
 30
0.0
 11
160.816901421
 21
126.57349535
 31
0.0
  0
ARC
  8
0
  6
CONTINUOUS
 62
     1
 10
180.0
 20
121.375
 30
0.0
 40
19.875
 50
164.837381646
 51
169.162618354
  0
ARC
  8
0
  6
CONTINUOUS
 62
     1
 10
180.0
 20
121.375
 30
0.0
 40
19.875
 50
151.837381646
 51
156.162618354
  0
ARC
  8
0
  6
CONTINUOUS
 62
     1
 10
180.0
 20
121.375
 30
0.0
 40
19.875
 50
138.837381646
 51
143.162618354
  0
ARC
  8
0
  6
CONTINUOUS
 62
     1
 10
180.0
 20
121.375
 30
0.0
 40
19.875
 50
125.837381646
 51
130.162618354
  0
ARC
  8
0
  6
CONTINUOUS
 62
     1
 10
180.0
 20
121.375
 30
0.0
 40
19.875
 50
112.837381646
 51
117.162618354
  0
LINE
  8
0
  6
CONTINUOUS
 62
     1
 10
192.483647286
 20
138.571541817
 30
0.0
 11
191.636548462
 21
137.487304766
 31
0.0
  0
LINE
  8
0
  6
CONTINUOUS
 62
     2
 10
179.85000375
 20
107.230616041
 30
0.0
 11
179.85000375
 21
106.768747373
 31
0.0
  0
LINE
  8
0
  6
CONTINUOUS
 62
     2
 10
179.75000625
 20
107.057415291
 30
0.0
 11
179.75000625
 21
106.826480956
 31
0.0
  0
LINE
  8
0
  6
CONTINUOUS
 62
     2
 10
179.85000375
 20
106.768747373
 30
0.0
 11
178.917976244
 21
106.230641041
 31
0.0
  0
LINE
  8
0
  6
CONTINUOUS
 62
     2
 10
178.917976244
 20
106.230641041
 30
0.0
 11
179.658983122
 21
105.802820521
 31
0.0
  0
LINE
  8
0
  6
CONTINUOUS
 62
     2
 10
178.717981244
 20
106.230641041
 30
0.0
 11
179.458988122
 21
105.802820521
 31
0.0
  0
LINE
  8
0
  6
CONTINUOUS
 62
     2
 10
179.658983122
 20
105.802820521
 30
0.0
 11
179.258993122
 21
105.571886186
 31
0.0
  0
LINE
  8
0
  6
CONTINUOUS
 62
     2
 10
179.458988122
 20
105.802820521
 30
0.0
 11
179.258993122
 21
105.687353353
 31
0.0
  0
LINE
  8
0
  6
CONTINUOUS
 62
     2
 10
178.517986244
 20
105.999706707
 30
0.0
 11
179.258993122
 21
105.571886186
 31
0.0
  0
LINE
  8
0
  6
CONTINUOUS
 62
     2
 10
178.517986244
 20
106.115173874
 30
0.0
 11
179.258993122
 21
105.687353353
 31
0.0
  0
LINE
  8
0
  6
CONTINUOUS
 62
     2
 10
179.75000625
 20
106.826480956
 30
0.0
 11
178.714981319
 21
106.228909034
 31
0.0
  0
LINE
  8
0
  6
CONTINUOUS
 62
     2
 10
178.517986244
 20
106.230641041
 30
0.0
 11
179.258993122
 21
105.802820521
 31
0.0
  0
LINE
  8
0
  6
CONTINUOUS
 62
     2
 10
179.85000375
 20
107.230616041
 30
0.0
 11
176.895783613
 21
105.52499625
 31
0.0
  0
LINE
  8
0
  6
CONTINUOUS
 62
     2
 10
179.75000625
 20
107.057415291
 30
0.0
 11
177.268979364
 21
105.62499375
 31
0.0
  0
LINE
  8
0
  6
CONTINUOUS
 62
     2
 10
179.65000875
 20
106.88421454
 30
0.0
 11
177.642175115
 21
105.72499125
 31
0.0
  0
LINE
  8
0
  6
CONTINUOUS
 62
     2
 10
178.517986244
 20
105.999706707
 30
0.0
 11
177.695763613
 21
105.52499625
 31
0.0
  0
LINE
  8
0
  6
CONTINUOUS
 62
     2
 10
176.895783613
 20
105.52499625
 30
0.0
 11
177.695763613
 21
105.52499625
 31
0.0
  0
LINE
  8
0
  6
CONTINUOUS
 62
     2
 10
178.517986244
 20
106.115173874
 30
0.0
 11
177.668969364
 21
105.62499375
 31
0.0
  0
LINE
  8
0
  6
CONTINUOUS
 62
     2
 10
177.268979364
 20
105.62499375
 30
0.0
 11
177.668969364
 21
105.62499375
 31
0.0
  0
LINE
  8
0
  6
CONTINUOUS
 62
     2
 10
180.14999625
 20
107.230616041
 30
0.0
 11
180.14999625
 21
106.768747373
 31
0.0
  0
LINE
  8
0
  6
CONTINUOUS
 62
     2
 10
180.24999375
 20
107.057415291
 30
0.0
 11
180.24999375
 21
106.826480956
 31
0.0
  0
LINE
  8
0
  6
CONTINUOUS
 62
     2
 10
180.14999625
 20
106.768747373
 30
0.0
 11
181.082023756
 21
106.230641041
 31
0.0
  0
LINE
  8
0
  6
CONTINUOUS
 62
     2
 10
181.082023756
 20
106.230641041
 30
0.0
 11
180.341016878
 21
105.802820521
 31
0.0
  0
LINE
  8
0
  6
CONTINUOUS
 62
     2
 10
181.282018756
 20
106.230641041
 30
0.0
 11
180.541011878
 21
105.802820521
 31
0.0
  0
LINE
  8
0
  6
CONTINUOUS
 62
     2
 10
180.341016878
 20
105.802820521
 30
0.0
 11
180.741006878
 21
105.571886186
 31
0.0
  0
LINE
  8
0
  6
CONTINUOUS
 62
     2
 10
180.541011878
 20
105.802820521
 30
0.0
 11
180.741006878
 21
105.687353353
 31
0.0
  0
LINE
  8
0
  6
CONTINUOUS
 62
     2
 10
181.482013756
 20
105.999706707
 30
0.0
 11
180.741006878
 21
105.571886186
 31
0.0
  0
LINE
  8
0
  6
CONTINUOUS
 62
     2
 10
181.482013756
 20
106.115173874
 30
0.0
 11
180.741006878
 21
105.687353353
 31
0.0
  0
LINE
  8
0
  6
CONTINUOUS
 62
     2
 10
180.24999375
 20
106.826480956
 30
0.0
 11
181.285018681
 21
106.228909034
 31
0.0
  0
LINE
  8
0
  6
CONTINUOUS
 62
     2
 10
181.482013756
 20
106.230641041
 30
0.0
 11
180.741006878
 21
105.802820521
 31
0.0
  0
LINE
  8
0
  6
CONTINUOUS
 62
     2
 10
180.14999625
 20
107.230616041
 30
0.0
 11
183.104216387
 21
105.52499625
 31
0.0
  0
LINE
  8
0
  6
CONTINUOUS
 62
     2
 10
180.24999375
 20
107.057415291
 30
0.0
 11
182.731020636
 21
105.62499375
 31
0.0
  0
LINE
  8
0
  6
CONTINUOUS
 62
     2
 10
180.34999125
 20
106.88421454
 30
0.0
 11
182.357824885
 21
105.72499125
 31
0.0
  0
LINE
  8
0
  6
CONTINUOUS
 62
     2
 10
181.482013756
 20
105.999706707
 30
0.0
 11
182.304236387
 21
105.52499625
 31
0.0
  0
LINE
  8
0
  6
CONTINUOUS
 62
     2
 10
183.104216387
 20
105.52499625
 30
0.0
 11
182.304236387
 21
105.52499625
 31
0.0
  0
LINE
  8
0
  6
CONTINUOUS
 62
     2
 10
181.482013756
 20
106.115173874
 30
0.0
 11
182.331030636
 21
105.62499375
 31
0.0
  0
LINE
  8
0
  6
CONTINUOUS
 62
     2
 10
182.731020636
 20
105.62499375
 30
0.0
 11
182.331030636
 21
105.62499375
 31
0.0
  0
LINE
  8
0
  6
CONTINUOUS
 62
     2
 10
179.85000375
 20
103.519383959
 30
0.0
 11
179.85000375
 21
103.981252627
 31
0.0
  0
LINE
  8
0
  6
CONTINUOUS
 62
     2
 10
179.75000625
 20
103.692584709
 30
0.0
 11
179.75000625
 21
103.923519044
 31
0.0
  0
LINE
  8
0
  6
CONTINUOUS
 62
     2
 10
179.85000375
 20
103.981252627
 30
0.0
 11
178.917976244
 21
104.519358959
 31
0.0
  0
LINE
  8
0
  6
CONTINUOUS
 62
     2
 10
178.917976244
 20
104.519358959
 30
0.0
 11
179.658983122
 21
104.947179479
 31
0.0
  0
LINE
  8
0
  6
CONTINUOUS
 62
     2
 10
178.717981244
 20
104.519358959
 30
0.0
 11
179.458988122
 21
104.947179479
 31
0.0
  0
LINE
  8
0
  6
CONTINUOUS
 62
     2
 10
179.658983122
 20
104.947179479
 30
0.0
 11
179.258993122
 21
105.178113814
 31
0.0
  0
LINE
  8
0
  6
CONTINUOUS
 62
     2
 10
179.458988122
 20
104.947179479
 30
0.0
 11
179.258993122
 21
105.062646647
 31
0.0
  0
LINE
  8
0
  6
CONTINUOUS
 62
     2
 10
178.517986244
 20
104.750293293
 30
0.0
 11
179.258993122
 21
105.178113814
 31
0.0
  0
LINE
  8
0
  6
CONTINUOUS
 62
     2
 10
178.517986244
 20
104.634826126
 30
0.0
 11
179.258993122
 21
105.062646647
 31
0.0
  0
LINE
  8
0
  6
CONTINUOUS
 62
     2
 10
179.75000625
 20
103.923519044
 30
0.0
 11
178.714981319
 21
104.521090966
 31
0.0
  0
LINE
  8
0
  6
CONTINUOUS
 62
     2
 10
178.517986244
 20
104.519358959
 30
0.0
 11
179.258993122
 21
104.947179479
 31
0.0
  0
LINE
  8
0
  6
CONTINUOUS
 62
     2
 10
179.85000375
 20
103.519383959
 30
0.0
 11
176.895783613
 21
105.22500375
 31
0.0
  0
LINE
  8
0
  6
CONTINUOUS
 62
     2
 10
179.75000625
 20
103.692584709
 30
0.0
 11
177.268979364
 21
105.12500625
 31
0.0
  0
LINE
  8
0
  6
CONTINUOUS
 62
     2
 10
179.65000875
 20
103.86578546
 30
0.0
 11
177.642175115
 21
105.02500875
 31
0.0
  0
LINE
  8
0
  6
CONTINUOUS
 62
     2
 10
178.517986244
 20
104.750293293
 30
0.0
 11
177.695763613
 21
105.22500375
 31
0.0
  0
LINE
  8
0
  6
CONTINUOUS
 62
     2
 10
176.895783613
 20
105.22500375
 30
0.0
 11
177.695763613
 21
105.22500375
 31
0.0
  0
LINE
  8
0
  6
CONTINUOUS
 62
     2
 10
178.517986244
 20
104.634826126
 30
0.0
 11
177.668969364
 21
105.12500625
 31
0.0
  0
LINE
  8
0
  6
CONTINUOUS
 62
     2
 10
177.268979364
 20
105.12500625
 30
0.0
 11
177.668969364
 21
105.12500625
 31
0.0
  0
LINE
  8
0
  6
CONTINUOUS
 62
     2
 10
180.14999625
 20
103.519383959
 30
0.0
 11
180.14999625
 21
103.981252627
 31
0.0
  0
LINE
  8
0
  6
CONTINUOUS
 62
     2
 10
180.24999375
 20
103.692584709
 30
0.0
 11
180.24999375
 21
103.923519044
 31
0.0
  0
LINE
  8
0
  6
CONTINUOUS
 62
     2
 10
180.14999625
 20
103.981252627
 30
0.0
 11
181.082023756
 21
104.519358959
 31
0.0
  0
LINE
  8
0
  6
CONTINUOUS
 62
     2
 10
181.082023756
 20
104.519358959
 30
0.0
 11
180.341016878
 21
104.947179479
 31
0.0
  0
LINE
  8
0
  6
CONTINUOUS
 62
     2
 10
181.282018756
 20
104.519358959
 30
0.0
 11
180.541011878
 21
104.947179479
 31
0.0
  0
LINE
  8
0
  6
CONTINUOUS
 62
     2
 10
180.341016878
 20
104.947179479
 30
0.0
 11
180.741006878
 21
105.178113814
 31
0.0
  0
LINE
  8
0
  6
CONTINUOUS
 62
     2
 10
180.541011878
 20
104.947179479
 30
0.0
 11
180.741006878
 21
105.062646647
 31
0.0
  0
LINE
  8
0
  6
CONTINUOUS
 62
     2
 10
181.482013756
 20
104.750293293
 30
0.0
 11
180.741006878
 21
105.178113814
 31
0.0
  0
LINE
  8
0
  6
CONTINUOUS
 62
     2
 10
181.482013756
 20
104.634826126
 30
0.0
 11
180.741006878
 21
105.062646647
 31
0.0
  0
LINE
  8
0
  6
CONTINUOUS
 62
     2
 10
180.24999375
 20
103.923519044
 30
0.0
 11
181.285018681
 21
104.521090966
 31
0.0
  0
LINE
  8
0
  6
CONTINUOUS
 62
     2
 10
181.482013756
 20
104.519358959
 30
0.0
 11
180.741006878
 21
104.947179479
 31
0.0
  0
LINE
  8
0
  6
CONTINUOUS
 62
     2
 10
180.14999625
 20
103.519383959
 30
0.0
 11
183.104216387
 21
105.22500375
 31
0.0
  0
LINE
  8
0
  6
CONTINUOUS
 62
     2
 10
180.24999375
 20
103.692584709
 30
0.0
 11
182.731020636
 21
105.12500625
 31
0.0
  0
LINE
  8
0
  6
CONTINUOUS
 62
     2
 10
180.34999125
 20
103.86578546
 30
0.0
 11
182.357824885
 21
105.02500875
 31
0.0
  0
LINE
  8
0
  6
CONTINUOUS
 62
     2
 10
181.482013756
 20
104.750293293
 30
0.0
 11
182.304236387
 21
105.22500375
 31
0.0
  0
LINE
  8
0
  6
CONTINUOUS
 62
     2
 10
183.104216387
 20
105.22500375
 30
0.0
 11
182.304236387
 21
105.22500375
 31
0.0
  0
LINE
  8
0
  6
CONTINUOUS
 62
     2
 10
181.482013756
 20
104.634826126
 30
0.0
 11
182.331030636
 21
105.12500625
 31
0.0
  0
LINE
  8
0
  6
CONTINUOUS
 62
     2
 10
182.731020636
 20
105.12500625
 30
0.0
 11
182.331030636
 21
105.12500625
 31
0.0
  0
ARC
  8
0
  6
LTYPE2
 62
     2
 10
173.25
 20
117.875
 30
0.0
 40
3.0
 50
90.0
 51
180.0
  0
LINE
  8
0
  6
LTYPE2
 62
     2
 10
170.25
 20
112.375
 30
0.0
 11
170.25
 21
117.875
 31
0.0
  0
LINE
  8
0
  6
LTYPE2
 62
     2
 10
186.75
 20
109.375
 30
0.0
 11
173.25
 21
109.375
 31
0.0
  0
ARC
  8
0
  6
LTYPE2
 62
     2
 10
173.25
 20
112.375
 30
0.0
 40
3.0
 50
180.0
 51
270.0
  0
LINE
  8
0
  6
LTYPE2
 62
     2
 10
173.275
 20
120.875
 30
0.0
 11
186.75
 21
120.875
 31
0.0
  0
ARC
  8
0
  6
LTYPE2
 62
     2
 10
186.75
 20
117.875
 30
0.0
 40
3.0
 50
0.0
 51
90.0
  0
ARC
  8
0
  6
LTYPE2
 62
     2
 10
186.75
 20
112.375
 30
0.0
 40
3.0
 50
270.0
 51
0.0
  0
LINE
  8
0
  6
LTYPE2
 62
     2
 10
189.75
 20
117.875
 30
0.0
 11
189.75
 21
112.375
 31
0.0
  0
LINE
  8
0
  6
LTYPE1
 62
     2
 10
186.25
 20
120.375
 30
0.0
 11
186.25
 21
114.375
 31
0.0
  0
LINE
  8
0
  6
LTYPE1
 62
     2
 10
183.25
 20
117.375
 30
0.0
 11
189.25
 21
117.375
 31
0.0
  0
LINE
  8
0
  6
LTYPE1
 62
     2
 10
173.75
 20
120.375
 30
0.0
 11
173.75
 21
114.375
 31
0.0
  0
LINE
  8
0
  6
LTYPE1
 62
     2
 10
170.75
 20
117.375
 30
0.0
 11
176.75
 21
117.375
 31
0.0
  0
POINT
  8
0
  6
CONTINUOUS
 62
     2
 10
175.0
 20
113.975
 30
0.0
  0
LINE
  8
0
  6
LTYPE2
 62
     2
 10
175.0
 20
113.975
 30
0.0
 11
172.5
 21
113.975
 31
0.0
  0
LINE
  8
0
  6
LTYPE2
 62
     2
 10
172.5
 20
113.975
 30
0.0
 11
172.5
 21
110.975
 31
0.0
  0
LINE
  8
0
  6
LTYPE2
 62
     2
 10
175.0
 20
113.975
 30
0.0
 11
175.0
 21
110.975
 31
0.0
  0
LINE
  8
0
  6
CONTINUOUS
 62
     2
 10
173.75
 20
119.4
 30
0.0
 11
171.996298557
 21
118.3875
 31
0.0
  0
LINE
  8
0
  6
CONTINUOUS
 62
     2
 10
171.996298557
 20
118.3875
 30
0.0
 11
171.996298557
 21
116.3625
 31
0.0
  0
LINE
  8
0
  6
CONTINUOUS
 62
     2
 10
171.996298557
 20
116.3625
 30
0.0
 11
173.75
 21
115.35
 31
0.0
  0
LINE
  8
0
  6
CONTINUOUS
 62
     2
 10
173.75
 20
115.35
 30
0.0
 11
175.503701443
 21
116.3625
 31
0.0
  0
LINE
  8
0
  6
CONTINUOUS
 62
     2
 10
175.503701443
 20
116.3625
 30
0.0
 11
175.503701443
 21
118.3875
 31
0.0
  0
LINE
  8
0
  6
CONTINUOUS
 62
     2
 10
175.503701443
 20
118.3875
 30
0.0
 11
173.75
 21
119.4
 31
0.0
  0
CIRCLE
  8
0
  6
CONTINUOUS
 62
     2
 10
173.75
 20
117.375
 30
0.0
 40
0.8
  0
CIRCLE
  8
0
  6
CONTINUOUS
 62
     2
 10
173.75
 20
117.375
 30
0.0
 40
1.0
  0
ARC
  8
0
  6
LTYPE2
 62
     2
 10
173.75
 20
117.375
 30
0.0
 40
1.975
 50
328.025496594
 51
217.415803658
  0
LINE
  8
0
  6
LTYPE2
 62
     2
 10
175.318637944
 20
116.175
 30
0.0
 11
174.66147392
 21
115.225763076
 31
0.0
  0
LINE
  8
0
  6
LTYPE2
 62
     2
 10
172.181362056
 20
116.175
 30
0.0
 11
172.838529527
 21
115.225758098
 31
0.0
  0
ARC
  8
0
  6
LTYPE2
 62
     2
 10
171.194145143
 20
114.08733814
 30
0.0
 40
2.0
 50
10.612929601
 51
34.695153531
  0
ARC
  8
0
  6
LTYPE2
 62
     2
 10
176.305858303
 20
114.087343118
 30
0.0
 40
2.0
 50
145.304846469
 51
169.387402194
  0
LINE
  8
0
  6
LTYPE2
 62
     2
 10
174.340068544
 20
114.455678053
 30
0.0
 11
174.250002697
 21
113.975
 31
0.0
  0
LINE
  8
0
  6
LTYPE2
 62
     2
 10
173.159932769
 20
114.455684458
 30
0.0
 11
173.250002697
 21
113.975
 31
0.0
  0
CIRCLE
  8
0
  6
CONTINUOUS
 62
     2
 10
173.75
 20
117.375
 30
0.0
 40
2.25
  0
POINT
  8
0
  6
CONTINUOUS
 62
     2
 10
187.5
 20
113.975
 30
0.0
  0
LINE
  8
0
  6
LTYPE2
 62
     2
 10
187.5
 20
113.975
 30
0.0
 11
185.0
 21
113.975
 31
0.0
  0
LINE
  8
0
  6
LTYPE2
 62
     2
 10
185.0
 20
113.975
 30
0.0
 11
185.0
 21
110.975
 31
0.0
  0
LINE
  8
0
  6
LTYPE2
 62
     2
 10
187.5
 20
113.975
 30
0.0
 11
187.5
 21
110.975
 31
0.0
  0
LINE
  8
0
  6
CONTINUOUS
 62
     2
 10
186.25
 20
119.4
 30
0.0
 11
184.496298557
 21
118.3875
 31
0.0
  0
LINE
  8
0
  6
CONTINUOUS
 62
     2
 10
184.496298557
 20
118.3875
 30
0.0
 11
184.496298557
 21
116.3625
 31
0.0
  0
LINE
  8
0
  6
CONTINUOUS
 62
     2
 10
184.496298557
 20
116.3625
 30
0.0
 11
186.25
 21
115.35
 31
0.0
  0
LINE
  8
0
  6
CONTINUOUS
 62
     2
 10
186.25
 20
115.35
 30
0.0
 11
188.003701443
 21
116.3625
 31
0.0
  0
LINE
  8
0
  6
CONTINUOUS
 62
     2
 10
188.003701443
 20
116.3625
 30
0.0
 11
188.003701443
 21
118.3875
 31
0.0
  0
LINE
  8
0
  6
CONTINUOUS
 62
     2
 10
188.003701443
 20
118.3875
 30
0.0
 11
186.25
 21
119.4
 31
0.0
  0
CIRCLE
  8
0
  6
CONTINUOUS
 62
     2
 10
186.25
 20
117.375
 30
0.0
 40
0.8
  0
CIRCLE
  8
0
  6
CONTINUOUS
 62
     2
 10
186.25
 20
117.375
 30
0.0
 40
1.0
  0
ARC
  8
0
  6
LTYPE2
 62
     2
 10
186.25
 20
117.375
 30
0.0
 40
1.975
 50
328.025496594
 51
217.415803658
  0
LINE
  8
0
  6
LTYPE2
 62
     2
 10
187.818637944
 20
116.175
 30
0.0
 11
187.16147392
 21
115.225763076
 31
0.0
  0
LINE
  8
0
  6
LTYPE2
 62
     2
 10
184.681362056
 20
116.175
 30
0.0
 11
185.338529527
 21
115.225758098
 31
0.0
  0
ARC
  8
0
  6
LTYPE2
 62
     2
 10
183.694145143
 20
114.08733814
 30
0.0
 40
2.0
 50
10.612929601
 51
34.695153531
  0
ARC
  8
0
  6
LTYPE2
 62
     2
 10
188.805858303
 20
114.087343118
 30
0.0
 40
2.0
 50
145.304846469
 51
169.387402194
  0
LINE
  8
0
  6
LTYPE2
 62
     2
 10
186.840068544
 20
114.455678053
 30
0.0
 11
186.750002697
 21
113.975
 31
0.0
  0
LINE
  8
0
  6
LTYPE2
 62
     2
 10
185.659932769
 20
114.455684458
 30
0.0
 11
185.750002697
 21
113.975
 31
0.0
  0
CIRCLE
  8
0
  6
CONTINUOUS
 62
     2
 10
186.25
 20
117.375
 30
0.0
 40
2.25
  0
LINE
  8
0
  6
CONTINUOUS
 62
     2
 10
148.5
 20
123.875
 30
0.0
 11
149.147047613
 21
126.289814566
 31
0.0
  0
LINE
  8
0
  6
CONTINUOUS
 62
     2
 10
148.5
 20
123.875
 30
0.0
 11
147.852952387
 21
126.289814566
 31
0.0
  0
LINE
  8
0
  6
CONTINUOUS
 62
     2
 10
148.5
 20
128.875
 30
0.0
 11
148.5
 21
116.375
 31
0.0
  0
LINE
  8
0
  6
CONTINUOUS
 62
     2
 10
148.5
 20
121.375
 30
0.0
 11
147.852952387
 21
118.960185434
 31
0.0
  0
LINE
  8
0
  6
CONTINUOUS
 62
     2
 10
148.5
 20
121.375
 30
0.0
 11
149.147047613
 21
118.960185434
 31
0.0
  0
TEXT
  8
0
  6
CONTINUOUS
 62
     2
 10
147.5
 20
121.725
 30
0.3
 40
3.0
  1
５
 50
90.0
 41
0.6
 51
0.0
  7
KANJI4
  0
LINE
  8
0
  6
CONTINUOUS
 62
     2
 10
155.0
 20
105.9
 30
0.0
 11
153.246298557
 21
104.8875
 31
0.0
  0
LINE
  8
0
  6
CONTINUOUS
 62
     2
 10
153.246298557
 20
104.8875
 30
0.0
 11
153.246298557
 21
102.8625
 31
0.0
  0
LINE
  8
0
  6
CONTINUOUS
 62
     2
 10
153.246298557
 20
102.8625
 30
0.0
 11
155.0
 21
101.85
 31
0.0
  0
LINE
  8
0
  6
CONTINUOUS
 62
     2
 10
155.0
 20
101.85
 30
0.0
 11
156.753701443
 21
102.8625
 31
0.0
  0
LINE
  8
0
  6
CONTINUOUS
 62
     2
 10
156.753701443
 20
102.8625
 30
0.0
 11
156.753701443
 21
104.8875
 31
0.0
  0
LINE
  8
0
  6
CONTINUOUS
 62
     2
 10
156.753701443
 20
104.8875
 30
0.0
 11
155.0
 21
105.9
 31
0.0
  0
CIRCLE
  8
0
  6
CONTINUOUS
 62
     2
 10
155.0
 20
103.875
 30
0.0
 40
0.8
  0
CIRCLE
  8
0
  6
CONTINUOUS
 62
     2
 10
155.0
 20
103.875
 30
0.0
 40
1.0
  0
LINE
  8
0
  6
LTYPE1
 62
     2
 10
152.0
 20
103.875
 30
0.0
 11
158.0
 21
103.875
 31
0.0
  0
LINE
  8
0
  6
LTYPE1
 62
     2
 10
155.0
 20
106.875
 30
0.0
 11
155.0
 21
100.875
 31
0.0
  0
CIRCLE
  8
0
  6
CONTINUOUS
 62
     2
 10
155.0
 20
103.875
 30
0.0
 40
2.35
  0
LINE
  8
0
  6
CONTINUOUS
 62
     2
 10
205.0
 20
105.9
 30
0.0
 11
203.246298557
 21
104.8875
 31
0.0
  0
LINE
  8
0
  6
CONTINUOUS
 62
     2
 10
203.246298557
 20
104.8875
 30
0.0
 11
203.246298557
 21
102.8625
 31
0.0
  0
LINE
  8
0
  6
CONTINUOUS
 62
     2
 10
203.246298557
 20
102.8625
 30
0.0
 11
205.0
 21
101.85
 31
0.0
  0
LINE
  8
0
  6
CONTINUOUS
 62
     2
 10
205.0
 20
101.85
 30
0.0
 11
206.753701443
 21
102.8625
 31
0.0
  0
LINE
  8
0
  6
CONTINUOUS
 62
     2
 10
206.753701443
 20
102.8625
 30
0.0
 11
206.753701443
 21
104.8875
 31
0.0
  0
LINE
  8
0
  6
CONTINUOUS
 62
     2
 10
206.753701443
 20
104.8875
 30
0.0
 11
205.0
 21
105.9
 31
0.0
  0
CIRCLE
  8
0
  6
CONTINUOUS
 62
     2
 10
205.0
 20
103.875
 30
0.0
 40
0.8
  0
CIRCLE
  8
0
  6
CONTINUOUS
 62
     2
 10
205.0
 20
103.875
 30
0.0
 40
1.0
  0
LINE
  8
0
  6
LTYPE1
 62
     2
 10
202.0
 20
103.875
 30
0.0
 11
208.0
 21
103.875
 31
0.0
  0
LINE
  8
0
  6
LTYPE1
 62
     2
 10
205.0
 20
106.875
 30
0.0
 11
205.0
 21
100.875
 31
0.0
  0
CIRCLE
  8
0
  6
CONTINUOUS
 62
     2
 10
205.0
 20
103.875
 30
0.0
 40
2.35
  0
LINE
  8
0
  6
CONTINUOUS
 62
     2
 10
205.0
 20
145.9
 30
0.0
 11
203.246298557
 21
144.8875
 31
0.0
  0
LINE
  8
0
  6
CONTINUOUS
 62
     2
 10
203.246298557
 20
144.8875
 30
0.0
 11
203.246298557
 21
142.8625
 31
0.0
  0
LINE
  8
0
  6
CONTINUOUS
 62
     2
 10
203.246298557
 20
142.8625
 30
0.0
 11
205.0
 21
141.85
 31
0.0
  0
LINE
  8
0
  6
CONTINUOUS
 62
     2
 10
205.0
 20
141.85
 30
0.0
 11
206.753701443
 21
142.8625
 31
0.0
  0
LINE
  8
0
  6
CONTINUOUS
 62
     2
 10
206.753701443
 20
142.8625
 30
0.0
 11
206.753701443
 21
144.8875
 31
0.0
  0
LINE
  8
0
  6
CONTINUOUS
 62
     2
 10
206.753701443
 20
144.8875
 30
0.0
 11
205.0
 21
145.9
 31
0.0
  0
CIRCLE
  8
0
  6
CONTINUOUS
 62
     2
 10
205.0
 20
143.875
 30
0.0
 40
0.8
  0
CIRCLE
  8
0
  6
CONTINUOUS
 62
     2
 10
205.0
 20
143.875
 30
0.0
 40
1.0
  0
LINE
  8
0
  6
LTYPE1
 62
     2
 10
202.0
 20
143.875
 30
0.0
 11
208.0
 21
143.875
 31
0.0
  0
LINE
  8
0
  6
LTYPE1
 62
     2
 10
205.0
 20
146.875
 30
0.0
 11
205.0
 21
140.875
 31
0.0
  0
CIRCLE
  8
0
  6
CONTINUOUS
 62
     2
 10
205.0
 20
143.875
 30
0.0
 40
2.35
  0
LINE
  8
0
  6
CONTINUOUS
 62
     2
 10
155.0
 20
145.9
 30
0.0
 11
153.246298557
 21
144.8875
 31
0.0
  0
LINE
  8
0
  6
CONTINUOUS
 62
     2
 10
153.246298557
 20
144.8875
 30
0.0
 11
153.246298557
 21
142.8625
 31
0.0
  0
LINE
  8
0
  6
CONTINUOUS
 62
     2
 10
153.246298557
 20
142.8625
 30
0.0
 11
155.0
 21
141.85
 31
0.0
  0
LINE
  8
0
  6
CONTINUOUS
 62
     2
 10
155.0
 20
141.85
 30
0.0
 11
156.753701443
 21
142.8625
 31
0.0
  0
LINE
  8
0
  6
CONTINUOUS
 62
     2
 10
156.753701443
 20
142.8625
 30
0.0
 11
156.753701443
 21
144.8875
 31
0.0
  0
LINE
  8
0
  6
CONTINUOUS
 62
     2
 10
156.753701443
 20
144.8875
 30
0.0
 11
155.0
 21
145.9
 31
0.0
  0
CIRCLE
  8
0
  6
CONTINUOUS
 62
     2
 10
155.0
 20
143.875
 30
0.0
 40
0.8
  0
CIRCLE
  8
0
  6
CONTINUOUS
 62
     2
 10
155.0
 20
143.875
 30
0.0
 40
1.0
  0
LINE
  8
0
  6
LTYPE1
 62
     2
 10
152.0
 20
143.875
 30
0.0
 11
158.0
 21
143.875
 31
0.0
  0
LINE
  8
0
  6
LTYPE1
 62
     2
 10
155.0
 20
146.875
 30
0.0
 11
155.0
 21
140.875
 31
0.0
  0
CIRCLE
  8
0
  6
CONTINUOUS
 62
     2
 10
155.0
 20
143.875
 30
0.0
 40
2.35
  0
LINE
  8
0
  6
CONTINUOUS
 62
     2
 10
215.0
 20
143.875
 30
0.0
 11
214.352952387
 21
141.460185434
 31
0.0
  0
LINE
  8
0
  6
CONTINUOUS
 62
     2
 10
215.0
 20
143.875
 30
0.0
 11
215.647047613
 21
141.460185434
 31
0.0
  0
LINE
  8
0
  6
CONTINUOUS
 62
     2
 10
215.0
 20
143.875
 30
0.0
 11
215.0
 21
121.375
 31
0.0
  0
LINE
  8
0
  6
CONTINUOUS
 62
     2
 10
215.0
 20
121.375
 30
0.0
 11
215.647047613
 21
123.789814566
 31
0.0
  0
LINE
  8
0
  6
CONTINUOUS
 62
     2
 10
215.0
 20
121.375
 30
0.0
 11
214.352952387
 21
123.789814566
 31
0.0
  0
TEXT
  8
0
  6
CONTINUOUS
 62
     2
 10
214.0
 20
128.875
 30
0.3
 40
3.0
  1
４５
 50
90.0
 41
0.6
 51
0.0
  7
KANJI4
  0
TEXT
  8
0
  6
CONTINUOUS
 62
     2
 10
214.0
 20
132.775
 30
0.18
 40
1.8
  1
±０．５
 50
90.0
 41
0.6
 51
0.0
  7
KANJI5
  0
LINE
  8
0
  6
CONTINUOUS
 62
     2
 10
215.0
 20
121.375
 30
0.0
 11
214.352952387
 21
118.960185434
 31
0.0
  0
LINE
  8
0
  6
CONTINUOUS
 62
     2
 10
215.0
 20
121.375
 30
0.0
 11
215.647047613
 21
118.960185434
 31
0.0
  0
LINE
  8
0
  6
CONTINUOUS
 62
     2
 10
215.0
 20
121.375
 30
0.0
 11
215.0
 21
103.875
 31
0.0
  0
LINE
  8
0
  6
CONTINUOUS
 62
     2
 10
215.0
 20
103.875
 30
0.0
 11
215.647047613
 21
106.289814566
 31
0.0
  0
LINE
  8
0
  6
CONTINUOUS
 62
     2
 10
215.0
 20
103.875
 30
0.0
 11
214.352952387
 21
106.289814566
 31
0.0
  0
TEXT
  8
0
  6
CONTINUOUS
 62
     2
 10
214.0
 20
108.245
 30
0.3
 40
3.0
  1
３５
 50
90.0
 41
0.6
 51
0.0
  7
KANJI4
  0
TEXT
  8
0
  6
CONTINUOUS
 62
     2
 10
214.0
 20
112.145
 30
0.18
 40
1.8
  1
±０．５
 50
90.0
 41
0.6
 51
0.0
  7
KANJI5
  0
LINE
  8
0
  6
CONTINUOUS
 62
     2
 10
208.5
 20
143.875
 30
0.0
 11
217.0
 21
143.875
 31
0.0
  0
LINE
  8
0
  6
CONTINUOUS
 62
     2
 10
208.5
 20
103.875
 30
0.0
 11
217.0
 21
103.875
 31
0.0
  0
LINE
  8
0
  6
CONTINUOUS
 62
     2
 10
212.5
 20
121.375
 30
0.0
 11
217.0
 21
121.375
 31
0.0
  0
TEXT
  8
0
  6
CONTINUOUS
 62
     2
 10
58.292923737
 20
89.875
 30
0.3
 40
3.0
  1
機械的零位調整器
 50
0.0
 41
0.9
 51
0.0
  7
KANJI1
  0
LINE
  8
0
  6
CONTINUOUS
 62
     2
 10
58.292923737
 20
88.875
 30
0.0
 11
81.838
 21
88.875
 31
0.0
  0
LINE
  8
0
  6
CONTINUOUS
 62
     2
 10
149.524
 20
121.375
 30
0.0
 11
146.5
 21
121.375
 31
0.0
  0
LINE
  8
0
  6
LTYPE1
 62
     2
 10
149.524
 20
121.375
 30
0.0
 11
212.0
 21
121.375
 31
0.0
  0
LINE
  8
0
  6
CONTINUOUS
 62
     2
 10
19.69
 20
52.5
 30
0.0
 11
20.337047613
 21
54.914814566
 31
0.0
  0
LINE
  8
0
  6
CONTINUOUS
 62
     2
 10
19.69
 20
52.5
 30
0.0
 11
19.042952387
 21
54.914814566
 31
0.0
  0
LINE
  8
0
  6
CONTINUOUS
 62
     2
 10
19.69
 20
57.5
 30
0.0
 11
19.69
 21
45.0
 31
0.0
  0
LINE
  8
0
  6
CONTINUOUS
 62
     2
 10
19.69
 20
50.0
 30
0.0
 11
19.042952387
 21
47.585185434
 31
0.0
  0
LINE
  8
0
  6
CONTINUOUS
 62
     2
 10
19.69
 20
50.0
 30
0.0
 11
20.337047613
 21
47.585185434
 31
0.0
  0
TEXT
  8
0
  6
CONTINUOUS
 62
     2
 10
18.69
 20
50.35
 30
0.3
 40
3.0
  1
５
 50
90.0
 41
0.6
 51
0.0
  7
KANJI4
  0
LINE
  8
0
  6
CONTINUOUS
 62
     2
 10
20.714
 20
50.0
 30
0.0
 11
17.69
 21
50.0
 31
0.0
  0
LINE
  8
0
  6
CONTINUOUS
 62
     2
 10
20.714
 20
52.5
 30
0.0
 11
17.69
 21
52.5
 31
0.0
  0
LINE
  8
0
  6
CONTINUOUS
 62
     2
 10
209.375
 20
98.875
 30
0.0
 11
224.803
 21
98.875
 31
0.0
  0
LINE
  8
0
  6
CONTINUOUS
 62
     2
 10
209.375
 20
148.875
 30
0.0
 11
225.103
 21
148.875
 31
0.0
  0
LINE
  8
0
  6
CONTINUOUS
 62
     2
 10
222.803
 20
148.875
 30
0.0
 11
222.803
 21
98.875
 31
0.0
  0
LINE
  8
0
  6
CONTINUOUS
 62
     2
 10
222.803
 20
98.875
 30
0.0
 11
223.450047613
 21
101.289814566
 31
0.0
  0
LINE
  8
0
  6
CONTINUOUS
 62
     2
 10
222.803
 20
98.875
 30
0.0
 11
222.155952387
 21
101.289814566
 31
0.0
  0
LINE
  8
0
  6
CONTINUOUS
 62
     2
 10
222.803
 20
148.875
 30
0.0
 11
222.155952387
 21
146.460185434
 31
0.0
  0
LINE
  8
0
  6
CONTINUOUS
 62
     2
 10
222.803
 20
148.875
 30
0.0
 11
223.450047613
 21
146.460185434
 31
0.0
  0
TEXT
  8
0
  6
CONTINUOUS
 62
     2
 10
221.803
 20
120.294
 30
0.3
 40
3.0
  1
１００
 50
90.0
 41
0.666666667
 51
0.0
  7
KANJI2
  0
TEXT
  8
0
  6
CONTINUOUS
 62
     2
 10
221.803
 20
127.99
 30
0.18
 40
1.8
  1
±１
 50
90.0
 41
0.666666667
 51
0.0
  7
KANJI3
  0
LINE
  8
0
  6
CONTINUOUS
 62
     2
 10
120.0
 20
56.0
 30
0.0
 11
214.339
 21
56.0
 31
0.0
  0
LINE
  8
0
  6
LTYPE1
 62
     2
 10
12.271844117
 20
52.5
 30
0.0
 11
90.805844117
 21
52.5
 31
0.0
  0
TEXT
  8
0
  6
CONTINUOUS
 62
     2
 10
126.881688273
 20
138.525
 30
0.3
 40
3.0
  1
（オプション）
 50
0.0
 41
0.9
 51
0.0
  7
KANJI1
  0
TEXT
  8
0
  6
CONTINUOUS
 62
     2
 10
115.425898032
 20
115.875
 30
0.5
 40
3.0
  1
φ８５
 50
90.0
 41
0.666666667
 51
0.0
  7
KANJI6
  0
TEXT
  8
0
  6
CONTINUOUS
 62
     1
 10
127.0
 20
38.0
 30
0.4
 40
4.0
  1
ＡＣＦ－１２ＮＢ
 50
0.0
 41
0.9
 51
0.0
  7
KANJI7
  0
TEXT
  8
0
  6
CONTINUOUS
 62
     1
 10
133.0
 20
28.322
 30
0.4
 40
4.0
  1
配電盤用パネル計器
 50
0.0
 41
0.9
 51
0.0
  7
KANJI7
  0
TEXT
  8
0
  6
CONTINUOUS
 62
     2
 10
133.0
 20
32.896
 30
0.2
 40
3.0
  1
端子キャップ付（オプション）
 50
0.0
 41
0.9
 51
0.0
  7
KANJI8
  0
TEXT
  8
0
  6
CONTINUOUS
 62
     3
 10
177.0
 20
20.0
 30
0.2
 40
5.8
  1
ＭＳ－７７２８
 50
0.0
 41
0.827586207
 51
0.0
  7
KANJI9
  0
TEXT
  8
0
  6
CONTINUOUS
 62
     3
 10
212.847
 20
20.0
 30
0.2
 40
5.8
  1
Ａ
 50
0.0
 41
0.827586207
 51
0.0
  7
KANJI9
  0
LINE
  8
0
  6
LTYPE1
 62
     2
 10
15.24
 20
123.875
 30
0.0
 11
82.55
 21
123.875
 31
0.0
  0
LINE
  8
0
  6
LTYPE1
 62
     2
 10
96.52
 20
123.875
 30
0.0
 11
130.81
 21
123.875
 31
0.0
  0
LINE
  8
0
  6
LTYPE1
 62
     2
 10
142.24
 20
123.875
 30
0.0
 11
212.64
 21
123.875
 31
0.0
  0
TEXT
  8
0
  6
CONTINUOUS
 62
     2
 10
100.225898032
 20
155.3
 30
0.3
 40
3.0
  1
０．５
 50
0.0
 41
0.666666667
 51
0.0
  7
KANJI2
  0
ENDSEC
  0
EOF
