  0
SECTION
  2
HEADER
  9
$ACADVER
  1
AC1009
  9
$DWGCODEPAGE
  3
dos932
  9
$EXTMIN
 10
0.0
 20
0.0
 30
0.0
  9
$EXTMAX
 10
297.0
 20
210.0
 30
0.0
  9
$LIMMIN
 10
0.0
 20
0.0
  9
$LIMMAX
 10
297.0
 20
210.0
  9
$LTSCALE
 40
1.0
  9
$PDMODE
 70
     0
  0
ENDSEC
  0
SECTION
  2
TABLES
  0
TABLE
  2
VPORT
 70
     1
  0
VPORT
  2
*ACTIVE
 70
     0
 10
0.0
 20
0.0
 11
1.0
 21
1.0
 12
148.5
 22
105.0
 13
0.0
 23
0.0
 14
10.0
 24
10.0
 15
10.0
 25
10.0
 16
0.0
 26
0.0
 36
1.0
 17
0.0
 27
0.0
 37
0.0
 40
297.0
 41
1.414285714
 42
50.0
 43
0.0
 44
0.0
 50
0.0
 51
0.0
 71
     0
 72
  1000
 73
     1
 74
     3
 75
     0
 76
     0
 77
     0
 78
     0
  0
ENDTAB
  0
TABLE
  2
LTYPE
 70
     5
  0
LTYPE
  2
CONTINUOUS
 70
    64
  3
Solid line
 72
    65
 73
     0
 40
0.0
  0
LTYPE
  2
LTYPE1
 70
    64
  3
HIDDEN
 72
    65
 73
     2
 40
3.0
 49
1.8
 49
-1.2
  0
LTYPE
  2
LTYPE2
 70
    64
  3
CENTER
 72
    65
 73
     4
 40
15.0
 49
10.5
 49
-1.5
 49
1.5
 49
-1.5
  0
LTYPE
  2
LTYPE3
 70
    64
  3
HIDDEN
 72
    65
 73
     2
 40
2.0
 49
1.2
 49
-0.8
  0
LTYPE
  2
LTYPE4
 70
    64
  3
CENTER
 72
    65
 73
     4
 40
8.0
 49
5.6
 49
-0.8
 49
0.8
 49
-0.8
  0
ENDTAB
  0
TABLE
  2
LAYER
 70
   128
  0
LAYER
  2
0
 70
     0
 62
     7
  6
CONTINUOUS
  0
LAYER
  2
2
 70
     0
 62
     7
  6
CONTINUOUS
  0
LAYER
  2
3
 70
     0
 62
     7
  6
CONTINUOUS
  0
LAYER
  2
4
 70
     0
 62
     7
  6
CONTINUOUS
  0
LAYER
  2
5
 70
     0
 62
     7
  6
CONTINUOUS
  0
LAYER
  2
6
 70
     0
 62
     7
  6
CONTINUOUS
  0
LAYER
  2
7
 70
     0
 62
     7
  6
CONTINUOUS
  0
LAYER
  2
8
 70
     0
 62
     7
  6
CONTINUOUS
  0
LAYER
  2
9
 70
     0
 62
     7
  6
CONTINUOUS
  0
LAYER
  2
10
 70
     0
 62
     7
  6
CONTINUOUS
  0
LAYER
  2
11
 70
     0
 62
     7
  6
CONTINUOUS
  0
LAYER
  2
12
 70
     0
 62
     7
  6
CONTINUOUS
  0
LAYER
  2
13
 70
     0
 62
     7
  6
CONTINUOUS
  0
LAYER
  2
14
 70
     0
 62
     7
  6
CONTINUOUS
  0
LAYER
  2
15
 70
     0
 62
     7
  6
CONTINUOUS
  0
LAYER
  2
16
 70
     0
 62
     7
  6
CONTINUOUS
  0
LAYER
  2
17
 70
     0
 62
     7
  6
CONTINUOUS
  0
LAYER
  2
18
 70
     0
 62
     7
  6
CONTINUOUS
  0
LAYER
  2
19
 70
     0
 62
     7
  6
CONTINUOUS
  0
LAYER
  2
20
 70
     0
 62
     7
  6
CONTINUOUS
  0
LAYER
  2
21
 70
     0
 62
     7
  6
CONTINUOUS
  0
LAYER
  2
22
 70
     0
 62
     7
  6
CONTINUOUS
  0
LAYER
  2
23
 70
     0
 62
     7
  6
CONTINUOUS
  0
LAYER
  2
24
 70
     0
 62
     7
  6
CONTINUOUS
  0
LAYER
  2
25
 70
     0
 62
     7
  6
CONTINUOUS
  0
LAYER
  2
26
 70
     0
 62
     7
  6
CONTINUOUS
  0
LAYER
  2
27
 70
     0
 62
     7
  6
CONTINUOUS
  0
LAYER
  2
28
 70
     0
 62
     7
  6
CONTINUOUS
  0
LAYER
  2
29
 70
     0
 62
     7
  6
CONTINUOUS
  0
LAYER
  2
30
 70
     0
 62
     7
  6
CONTINUOUS
  0
LAYER
  2
31
 70
     0
 62
     7
  6
CONTINUOUS
  0
LAYER
  2
32
 70
     0
 62
     7
  6
CONTINUOUS
  0
LAYER
  2
33
 70
     0
 62
     7
  6
CONTINUOUS
  0
LAYER
  2
34
 70
     0
 62
     7
  6
CONTINUOUS
  0
LAYER
  2
35
 70
     0
 62
     7
  6
CONTINUOUS
  0
LAYER
  2
36
 70
     0
 62
     7
  6
CONTINUOUS
  0
LAYER
  2
37
 70
     0
 62
     7
  6
CONTINUOUS
  0
LAYER
  2
38
 70
     0
 62
     7
  6
CONTINUOUS
  0
LAYER
  2
39
 70
     0
 62
     7
  6
CONTINUOUS
  0
LAYER
  2
40
 70
     0
 62
     7
  6
CONTINUOUS
  0
LAYER
  2
41
 70
     0
 62
     7
  6
CONTINUOUS
  0
LAYER
  2
42
 70
     0
 62
     7
  6
CONTINUOUS
  0
LAYER
  2
43
 70
     0
 62
     7
  6
CONTINUOUS
  0
LAYER
  2
44
 70
     0
 62
     7
  6
CONTINUOUS
  0
LAYER
  2
45
 70
     0
 62
     7
  6
CONTINUOUS
  0
LAYER
  2
46
 70
     0
 62
     7
  6
CONTINUOUS
  0
LAYER
  2
47
 70
     0
 62
     7
  6
CONTINUOUS
  0
LAYER
  2
48
 70
     0
 62
     7
  6
CONTINUOUS
  0
LAYER
  2
49
 70
     0
 62
     7
  6
CONTINUOUS
  0
LAYER
  2
50
 70
     0
 62
     7
  6
CONTINUOUS
  0
LAYER
  2
51
 70
     0
 62
     7
  6
CONTINUOUS
  0
LAYER
  2
52
 70
     0
 62
     7
  6
CONTINUOUS
  0
LAYER
  2
53
 70
     0
 62
     7
  6
CONTINUOUS
  0
LAYER
  2
54
 70
     0
 62
     7
  6
CONTINUOUS
  0
LAYER
  2
55
 70
     0
 62
     7
  6
CONTINUOUS
  0
LAYER
  2
56
 70
     0
 62
     7
  6
CONTINUOUS
  0
LAYER
  2
57
 70
     0
 62
     7
  6
CONTINUOUS
  0
LAYER
  2
58
 70
     0
 62
     7
  6
CONTINUOUS
  0
LAYER
  2
59
 70
     0
 62
     7
  6
CONTINUOUS
  0
LAYER
  2
60
 70
     0
 62
     7
  6
CONTINUOUS
  0
LAYER
  2
61
 70
     0
 62
     7
  6
CONTINUOUS
  0
LAYER
  2
62
 70
     0
 62
     7
  6
CONTINUOUS
  0
LAYER
  2
63
 70
     0
 62
     7
  6
CONTINUOUS
  0
LAYER
  2
64
 70
     0
 62
     7
  6
CONTINUOUS
  0
LAYER
  2
65
 70
     0
 62
     7
  6
CONTINUOUS
  0
LAYER
  2
66
 70
     0
 62
     7
  6
CONTINUOUS
  0
LAYER
  2
67
 70
     0
 62
     7
  6
CONTINUOUS
  0
LAYER
  2
68
 70
     0
 62
     7
  6
CONTINUOUS
  0
LAYER
  2
69
 70
     0
 62
     7
  6
CONTINUOUS
  0
LAYER
  2
70
 70
     0
 62
     7
  6
CONTINUOUS
  0
LAYER
  2
71
 70
     0
 62
     7
  6
CONTINUOUS
  0
LAYER
  2
72
 70
     0
 62
     7
  6
CONTINUOUS
  0
LAYER
  2
73
 70
     0
 62
     7
  6
CONTINUOUS
  0
LAYER
  2
74
 70
     0
 62
     7
  6
CONTINUOUS
  0
LAYER
  2
75
 70
     0
 62
     7
  6
CONTINUOUS
  0
LAYER
  2
76
 70
     0
 62
     7
  6
CONTINUOUS
  0
LAYER
  2
77
 70
     0
 62
     7
  6
CONTINUOUS
  0
LAYER
  2
78
 70
     0
 62
     7
  6
CONTINUOUS
  0
LAYER
  2
79
 70
     0
 62
     7
  6
CONTINUOUS
  0
LAYER
  2
80
 70
     0
 62
     7
  6
CONTINUOUS
  0
LAYER
  2
81
 70
     0
 62
     7
  6
CONTINUOUS
  0
LAYER
  2
82
 70
     0
 62
     7
  6
CONTINUOUS
  0
LAYER
  2
83
 70
     0
 62
     7
  6
CONTINUOUS
  0
LAYER
  2
84
 70
     0
 62
     7
  6
CONTINUOUS
  0
LAYER
  2
85
 70
     0
 62
     7
  6
CONTINUOUS
  0
LAYER
  2
86
 70
     0
 62
     7
  6
CONTINUOUS
  0
LAYER
  2
87
 70
     0
 62
     7
  6
CONTINUOUS
  0
LAYER
  2
88
 70
     0
 62
     7
  6
CONTINUOUS
  0
LAYER
  2
89
 70
     0
 62
     7
  6
CONTINUOUS
  0
LAYER
  2
90
 70
     0
 62
     7
  6
CONTINUOUS
  0
LAYER
  2
91
 70
     0
 62
     7
  6
CONTINUOUS
  0
LAYER
  2
92
 70
     0
 62
     7
  6
CONTINUOUS
  0
LAYER
  2
93
 70
     0
 62
     7
  6
CONTINUOUS
  0
LAYER
  2
94
 70
     0
 62
     7
  6
CONTINUOUS
  0
LAYER
  2
95
 70
     0
 62
     7
  6
CONTINUOUS
  0
LAYER
  2
96
 70
     0
 62
     7
  6
CONTINUOUS
  0
LAYER
  2
97
 70
     0
 62
     7
  6
CONTINUOUS
  0
LAYER
  2
98
 70
     0
 62
     7
  6
CONTINUOUS
  0
LAYER
  2
99
 70
     0
 62
     7
  6
CONTINUOUS
  0
LAYER
  2
100
 70
     0
 62
     7
  6
CONTINUOUS
  0
LAYER
  2
101
 70
     0
 62
     7
  6
CONTINUOUS
  0
LAYER
  2
102
 70
     0
 62
     7
  6
CONTINUOUS
  0
LAYER
  2
103
 70
     0
 62
     7
  6
CONTINUOUS
  0
LAYER
  2
104
 70
     0
 62
     7
  6
CONTINUOUS
  0
LAYER
  2
105
 70
     0
 62
     7
  6
CONTINUOUS
  0
LAYER
  2
106
 70
     0
 62
     7
  6
CONTINUOUS
  0
LAYER
  2
107
 70
     0
 62
     7
  6
CONTINUOUS
  0
LAYER
  2
108
 70
     0
 62
     7
  6
CONTINUOUS
  0
LAYER
  2
109
 70
     0
 62
     7
  6
CONTINUOUS
  0
LAYER
  2
110
 70
     0
 62
     7
  6
CONTINUOUS
  0
LAYER
  2
111
 70
     0
 62
     7
  6
CONTINUOUS
  0
LAYER
  2
112
 70
     0
 62
     7
  6
CONTINUOUS
  0
LAYER
  2
113
 70
     0
 62
     7
  6
CONTINUOUS
  0
LAYER
  2
114
 70
     0
 62
     7
  6
CONTINUOUS
  0
LAYER
  2
115
 70
     0
 62
     7
  6
CONTINUOUS
  0
LAYER
  2
116
 70
     0
 62
     7
  6
CONTINUOUS
  0
LAYER
  2
117
 70
     0
 62
     7
  6
CONTINUOUS
  0
LAYER
  2
118
 70
     0
 62
     7
  6
CONTINUOUS
  0
LAYER
  2
119
 70
     0
 62
     7
  6
CONTINUOUS
  0
LAYER
  2
120
 70
     0
 62
     7
  6
CONTINUOUS
  0
LAYER
  2
121
 70
     0
 62
     7
  6
CONTINUOUS
  0
LAYER
  2
122
 70
     0
 62
     7
  6
CONTINUOUS
  0
LAYER
  2
123
 70
     0
 62
     7
  6
CONTINUOUS
  0
LAYER
  2
124
 70
     0
 62
     7
  6
CONTINUOUS
  0
LAYER
  2
125
 70
     0
 62
     7
  6
CONTINUOUS
  0
LAYER
  2
126
 70
     0
 62
     7
  6
CONTINUOUS
  0
LAYER
  2
127
 70
     0
 62
     7
  6
CONTINUOUS
  0
LAYER
  2
128
 70
     0
 62
     7
  6
CONTINUOUS
  0
ENDTAB
  0
TABLE
  2
STYLE
 70
    18
  0
STYLE
  2
STANDARD
 70
     0
 40
0.0
 41
1.0
 50
0.0
 71
     0
 42
0.2
  3
txt.shx
  4
extfont.shx
  0
STYLE
  2
KANJI0
 70
     0
 40
2.5
 41
0.6
 50
0.0
 71
     0
 42
2.5
  3
txt.shx
  4
extfont.shx
  0
STYLE
  2
KANJI1
 70
     0
 40
2.0
 41
0.5
 50
0.0
 71
     0
 42
2.0
  3
txt.shx
  4
extfont.shx
  0
STYLE
  2
KANJI2
 70
     0
 40
1.5
 41
0.666666667
 50
0.0
 71
     0
 42
1.5
  3
txt.shx
  4
extfont.shx
  0
STYLE
  2
KANJI3
 70
     0
 40
3.0
 41
0.9
 50
0.0
 71
     0
 42
3.0
  3
txt.shx
  4
extfont.shx
  0
STYLE
  2
KANJI4
 70
     0
 40
3.0
 41
0.6
 50
0.0
 71
     0
 42
3.0
  3
txt.shx
  4
extfont.shx
  0
STYLE
  2
KANJI5
 70
     0
 40
1.8
 41
0.6
 50
0.0
 71
     0
 42
1.8
  3
txt.shx
  4
extfont.shx
  0
STYLE
  2
KANJI6
 70
     0
 40
3.0
 41
0.6
 50
0.0
 71
     0
 42
3.0
  3
txt.shx
  4
extfont.shx
  0
STYLE
  2
KANJI7
 70
     0
 40
3.0
 41
0.9
 50
0.0
 71
     0
 42
3.0
  3
txt.shx
  4
extfont.shx
  0
STYLE
  2
KANJI8
 70
     0
 40
3.0
 41
0.9
 50
0.0
 71
     0
 42
3.0
  3
txt.shx
  4
extfont.shx
  0
STYLE
  2
KANJI9
 70
     0
 40
3.0
 41
0.9
 50
0.0
 71
     0
 42
3.0
  3
txt.shx
  4
extfont.shx
  0
STYLE
  2
KANJI10
 70
     0
 40
3.0
 41
0.9
 50
0.0
 71
     0
 42
3.0
  3
txt.shx
  4
extfont.shx
  0
STYLE
  2
KANJI11
 70
     0
 40
6.0
 41
0.833333333
 50
0.0
 71
     0
 42
6.0
  3
txt.shx
  4
extfont.shx
  0
STYLE
  2
KANJI12
 70
     0
 40
3.0
 41
0.8
 50
0.0
 71
     0
 42
3.0
  3
txt.shx
  4
extfont.shx
  0
STYLE
  2
KANJI13
 70
     0
 40
3.0
 41
0.666666667
 50
0.0
 71
     0
 42
3.0
  3
txt.shx
  4
extfont.shx
  0
STYLE
  2
KANJI14
 70
     0
 40
3.0
 41
0.8
 50
0.0
 71
     0
 42
3.0
  3
txt.shx
  4
extfont.shx
  0
STYLE
  2
KANJI15
 70
     0
 40
5.0
 41
0.9
 50
0.0
 71
     0
 42
5.0
  3
txt.shx
  4
extfont.shx
  0
STYLE
  2
KANJI16
 70
     0
 40
5.0
 41
0.9
 50
0.0
 71
     0
 42
5.0
  3
txt.shx
  4
extfont.shx
  0
ENDTAB
  0
TABLE
  2
VIEW
 70
     0
  0
ENDTAB
  0
ENDSEC
  0
SECTION
  2
BLOCKS
  0
ENDSEC
  0
SECTION
  2
ENTITIES
  0
ARC
  8
0
  6
CONTINUOUS
 62
     1
 10
246.7
 20
223.3
 30
0.0
 40
1.7
 50
90.0
 51
180.0
  0
LINE
  8
0
  6
CONTINUOUS
 62
     1
 10
246.7
 20
225.0
 30
0.0
 11
293.3
 21
225.0
 31
0.0
  0
ARC
  8
0
  6
CONTINUOUS
 62
     1
 10
293.3
 20
223.3
 30
0.0
 40
1.7
 50
0.0
 51
90.0
  0
ARC
  8
0
  6
CONTINUOUS
 62
     1
 10
246.7
 20
223.3
 30
0.0
 40
0.9
 50
90.0
 51
180.0
  0
LINE
  8
0
  6
CONTINUOUS
 62
     1
 10
246.7
 20
224.2
 30
0.0
 11
293.3
 21
224.2
 31
0.0
  0
ARC
  8
0
  6
CONTINUOUS
 62
     1
 10
293.3
 20
223.3
 30
0.0
 40
0.9
 50
0.0
 51
90.0
  0
TEXT
  8
0
  6
CONTINUOUS
 62
     1
 10
247.5
 20
220.5
 30
0.3
 40
2.5
  1
ＣＯＮＮＥＣＴＩＯＮＳ　ＯＦ　ＴＡＣＨＯ－ＭＥＴＥＲ
 50
0.0
 41
0.6
 51
0.0
  7
KANJI0
  0
CIRCLE
  8
0
  6
CONTINUOUS
 62
     1
 10
273.3
 20
214.0
 30
0.0
 40
1.5
  0
CIRCLE
  8
0
  6
CONTINUOUS
 62
     1
 10
269.9
 20
214.0
 30
0.0
 40
1.5
  0
CIRCLE
  8
0
  6
CONTINUOUS
 62
     1
 10
276.7
 20
214.0
 30
0.0
 40
1.5
  0
CIRCLE
  8
0
  6
CONTINUOUS
 62
     1
 10
280.1
 20
214.0
 30
0.0
 40
1.5
  0
LINE
  8
0
  6
CONTINUOUS
 62
     1
 10
255.0
 20
214.0
 30
0.0
 11
255.0
 21
217.6
 31
0.0
  0
LINE
  8
0
  6
CONTINUOUS
 62
     1
 10
255.0
 20
217.6
 30
0.0
 11
256.5
 21
217.6
 31
0.0
  0
LINE
  8
0
  6
CONTINUOUS
 62
     1
 10
256.5
 20
217.6
 30
0.0
 11
256.5
 21
214.0
 31
0.0
  0
LINE
  8
0
  6
CONTINUOUS
 62
     1
 10
256.5
 20
214.0
 30
0.0
 11
255.0
 21
214.0
 31
0.0
  0
LINE
  8
0
  6
CONTINUOUS
 62
     1
 10
255.0
 20
217.0
 30
0.0
 11
252.0
 21
217.0
 31
0.0
  0
LINE
  8
0
  6
CONTINUOUS
 62
     1
 10
252.0
 20
217.0
 30
0.0
 11
252.0
 21
214.6
 31
0.0
  0
LINE
  8
0
  6
CONTINUOUS
 62
     1
 10
252.0
 20
214.6
 30
0.0
 11
255.0
 21
214.6
 31
0.0
  0
LINE
  8
0
  6
CONTINUOUS
 62
     1
 10
256.5
 20
214.6
 30
0.0
 11
259.5
 21
214.6
 31
0.0
  0
LINE
  8
0
  6
CONTINUOUS
 62
     1
 10
259.5
 20
214.6
 30
0.0
 11
259.5
 21
217.0
 31
0.0
  0
LINE
  8
0
  6
CONTINUOUS
 62
     1
 10
259.5
 20
217.0
 30
0.0
 11
256.5
 21
217.0
 31
0.0
  0
LINE
  8
0
  6
CONTINUOUS
 62
     1
 10
259.5
 20
217.0
 30
0.0
 11
259.8
 21
216.7
 31
0.0
  0
LINE
  8
0
  6
CONTINUOUS
 62
     1
 10
259.8
 20
216.7
 30
0.0
 11
259.8
 21
214.9
 31
0.0
  0
LINE
  8
0
  6
CONTINUOUS
 62
     1
 10
259.8
 20
214.9
 30
0.0
 11
259.5
 21
214.6
 31
0.0
  0
LINE
  8
0
  6
CONTINUOUS
 62
     1
 10
252.0
 20
214.6
 30
0.0
 11
251.7
 21
214.9
 31
0.0
  0
LINE
  8
0
  6
CONTINUOUS
 62
     1
 10
251.7
 20
214.9
 30
0.0
 11
251.7
 21
216.7
 31
0.0
  0
LINE
  8
0
  6
CONTINUOUS
 62
     1
 10
251.7
 20
216.7
 30
0.0
 11
252.0
 21
217.0
 31
0.0
  0
LINE
  8
0
  6
CONTINUOUS
 62
     1
 10
259.8
 20
216.2
 30
0.0
 11
273.3
 21
216.2
 31
0.0
  0
LINE
  8
0
  6
CONTINUOUS
 62
     1
 10
273.3
 20
216.2
 30
0.0
 11
273.3
 21
215.5
 31
0.0
  0
LINE
  8
0
  6
CONTINUOUS
 62
     1
 10
269.9
 20
215.5
 30
0.0
 11
269.9
 21
215.6
 31
0.0
  0
LINE
  8
0
  6
CONTINUOUS
 62
     1
 10
269.9
 20
215.6
 30
0.0
 11
259.8
 21
215.6
 31
0.0
  0
TEXT
  8
0
  6
CONTINUOUS
 62
     1
 10
247.5
 20
212.0
 30
0.2
 40
2.0
  1
ＴＹＰＥ　ＴＮ－１／ＴＮ－２　　　　　　　　　　　　
 50
0.0
 41
0.5
 51
0.0
  7
KANJI1
  0
TEXT
  8
0
  6
CONTINUOUS
 62
     1
 10
269.5
 20
213.2
 30
0.2
 40
2.0
  1
１　　　　　　　　　　　　　　　　　　　　　　　　　
 50
0.0
 41
0.5
 51
0.0
  7
KANJI1
  0
TEXT
  8
0
  6
CONTINUOUS
 62
     1
 10
272.9
 20
213.2
 30
0.2
 40
2.0
  1
２　　　　　　　　　　　　　　　　　　　　　　　　　
 50
0.0
 41
0.5
 51
0.0
  7
KANJI1
  0
TEXT
  8
0
  6
CONTINUOUS
 62
     1
 10
276.2
 20
213.2
 30
0.2
 40
2.0
  1
３　　　　　　　　　　　　　　　　　　　　　　　　　
 50
0.0
 41
0.5
 51
0.0
  7
KANJI1
  0
TEXT
  8
0
  6
CONTINUOUS
 62
     1
 10
279.6
 20
213.2
 30
0.2
 40
2.0
  1
４　　　　　　　　　　　　　　　　　　　　　　　　　
 50
0.0
 41
0.5
 51
0.0
  7
KANJI1
  0
TEXT
  8
0
  6
CONTINUOUS
 62
     1
 10
271.1
 20
210.2
 30
0.2
 40
2.0
  1
５　　　　　　　　　　　　　　　　　　　　　　　　　
 50
0.0
 41
0.5
 51
0.0
  7
KANJI1
  0
TEXT
  8
0
  6
CONTINUOUS
 62
     1
 10
274.5
 20
210.2
 30
0.2
 40
2.0
  1
６　　　　　　　　　　　　　　　　　　　　　　　　　
 50
0.0
 41
0.5
 51
0.0
  7
KANJI1
  0
TEXT
  8
0
  6
CONTINUOUS
 62
     1
 10
277.9
 20
210.2
 30
0.2
 40
2.0
  1
７　　　　　　　　　　　　　　　　　　　　　　　　　
 50
0.0
 41
0.5
 51
0.0
  7
KANJI1
  0
TEXT
  8
0
  6
CONTINUOUS
 62
     1
 10
284.5
 20
210.8
 30
0.15
 40
1.5
  1
ＳＯＵＲＣＥ　　　
 50
0.0
 41
0.666666667
 51
0.0
  7
KANJI2
  0
ARC
  8
0
  6
CONTINUOUS
 62
     1
 10
246.7
 20
223.3
 30
0.0
 40
1.7
 50
90.0
 51
180.0
  0
LINE
  8
0
  6
CONTINUOUS
 62
     1
 10
246.7
 20
225.0
 30
0.0
 11
293.3
 21
225.0
 31
0.0
  0
ARC
  8
0
  6
CONTINUOUS
 62
     1
 10
293.3
 20
223.3
 30
0.0
 40
1.7
 50
0.0
 51
90.0
  0
ARC
  8
0
  6
CONTINUOUS
 62
     1
 10
246.7
 20
223.3
 30
0.0
 40
0.9
 50
90.0
 51
180.0
  0
LINE
  8
0
  6
CONTINUOUS
 62
     1
 10
246.7
 20
224.2
 30
0.0
 11
293.3
 21
224.2
 31
0.0
  0
ARC
  8
0
  6
CONTINUOUS
 62
     1
 10
293.3
 20
223.3
 30
0.0
 40
0.9
 50
0.0
 51
90.0
  0
TEXT
  8
0
  6
CONTINUOUS
 62
     1
 10
247.5
 20
220.5
 30
0.3
 40
2.5
  1
ＣＯＮＮＥＣＴＩＯＮＳ　ＯＦ　ＴＡＣＨＯ－ＭＥＴＥＲ
 50
0.0
 41
0.6
 51
0.0
  7
KANJI0
  0
CIRCLE
  8
0
  6
CONTINUOUS
 62
     1
 10
273.3
 20
214.0
 30
0.0
 40
1.5
  0
CIRCLE
  8
0
  6
CONTINUOUS
 62
     1
 10
269.9
 20
214.0
 30
0.0
 40
1.5
  0
CIRCLE
  8
0
  6
CONTINUOUS
 62
     1
 10
276.7
 20
214.0
 30
0.0
 40
1.5
  0
CIRCLE
  8
0
  6
CONTINUOUS
 62
     1
 10
280.1
 20
214.0
 30
0.0
 40
1.5
  0
LINE
  8
0
  6
CONTINUOUS
 62
     1
 10
255.0
 20
214.0
 30
0.0
 11
255.0
 21
217.6
 31
0.0
  0
LINE
  8
0
  6
CONTINUOUS
 62
     1
 10
255.0
 20
217.6
 30
0.0
 11
256.5
 21
217.6
 31
0.0
  0
LINE
  8
0
  6
CONTINUOUS
 62
     1
 10
256.5
 20
217.6
 30
0.0
 11
256.5
 21
214.0
 31
0.0
  0
LINE
  8
0
  6
CONTINUOUS
 62
     1
 10
256.5
 20
214.0
 30
0.0
 11
255.0
 21
214.0
 31
0.0
  0
LINE
  8
0
  6
CONTINUOUS
 62
     1
 10
255.0
 20
217.0
 30
0.0
 11
252.0
 21
217.0
 31
0.0
  0
LINE
  8
0
  6
CONTINUOUS
 62
     1
 10
252.0
 20
217.0
 30
0.0
 11
252.0
 21
214.6
 31
0.0
  0
LINE
  8
0
  6
CONTINUOUS
 62
     1
 10
252.0
 20
214.6
 30
0.0
 11
255.0
 21
214.6
 31
0.0
  0
LINE
  8
0
  6
CONTINUOUS
 62
     1
 10
256.5
 20
214.6
 30
0.0
 11
259.5
 21
214.6
 31
0.0
  0
LINE
  8
0
  6
CONTINUOUS
 62
     1
 10
259.5
 20
214.6
 30
0.0
 11
259.5
 21
217.0
 31
0.0
  0
LINE
  8
0
  6
CONTINUOUS
 62
     1
 10
259.5
 20
217.0
 30
0.0
 11
256.5
 21
217.0
 31
0.0
  0
LINE
  8
0
  6
CONTINUOUS
 62
     1
 10
259.5
 20
217.0
 30
0.0
 11
259.8
 21
216.7
 31
0.0
  0
LINE
  8
0
  6
CONTINUOUS
 62
     1
 10
259.8
 20
216.7
 30
0.0
 11
259.8
 21
214.9
 31
0.0
  0
LINE
  8
0
  6
CONTINUOUS
 62
     1
 10
259.8
 20
214.9
 30
0.0
 11
259.5
 21
214.6
 31
0.0
  0
LINE
  8
0
  6
CONTINUOUS
 62
     1
 10
252.0
 20
214.6
 30
0.0
 11
251.7
 21
214.9
 31
0.0
  0
LINE
  8
0
  6
CONTINUOUS
 62
     1
 10
251.7
 20
214.9
 30
0.0
 11
251.7
 21
216.7
 31
0.0
  0
LINE
  8
0
  6
CONTINUOUS
 62
     1
 10
251.7
 20
216.7
 30
0.0
 11
252.0
 21
217.0
 31
0.0
  0
LINE
  8
0
  6
CONTINUOUS
 62
     1
 10
259.8
 20
216.2
 30
0.0
 11
273.3
 21
216.2
 31
0.0
  0
LINE
  8
0
  6
CONTINUOUS
 62
     1
 10
273.3
 20
216.2
 30
0.0
 11
273.3
 21
215.5
 31
0.0
  0
LINE
  8
0
  6
CONTINUOUS
 62
     1
 10
269.9
 20
215.5
 30
0.0
 11
269.9
 21
215.6
 31
0.0
  0
LINE
  8
0
  6
CONTINUOUS
 62
     1
 10
269.9
 20
215.6
 30
0.0
 11
259.8
 21
215.6
 31
0.0
  0
TEXT
  8
0
  6
CONTINUOUS
 62
     1
 10
247.5
 20
212.0
 30
0.2
 40
2.0
  1
ＴＹＰＥ　ＴＮ－１／ＴＮ－２　　　　　　　　　　　　
 50
0.0
 41
0.5
 51
0.0
  7
KANJI1
  0
TEXT
  8
0
  6
CONTINUOUS
 62
     1
 10
269.5
 20
213.2
 30
0.2
 40
2.0
  1
１　　　　　　　　　　　　　　　　　　　　　　　　　
 50
0.0
 41
0.5
 51
0.0
  7
KANJI1
  0
TEXT
  8
0
  6
CONTINUOUS
 62
     1
 10
272.9
 20
213.2
 30
0.2
 40
2.0
  1
２　　　　　　　　　　　　　　　　　　　　　　　　　
 50
0.0
 41
0.5
 51
0.0
  7
KANJI1
  0
TEXT
  8
0
  6
CONTINUOUS
 62
     1
 10
276.2
 20
213.2
 30
0.2
 40
2.0
  1
３　　　　　　　　　　　　　　　　　　　　　　　　　
 50
0.0
 41
0.5
 51
0.0
  7
KANJI1
  0
TEXT
  8
0
  6
CONTINUOUS
 62
     1
 10
279.6
 20
213.2
 30
0.2
 40
2.0
  1
４　　　　　　　　　　　　　　　　　　　　　　　　　
 50
0.0
 41
0.5
 51
0.0
  7
KANJI1
  0
TEXT
  8
0
  6
CONTINUOUS
 62
     1
 10
271.1
 20
210.2
 30
0.2
 40
2.0
  1
５　　　　　　　　　　　　　　　　　　　　　　　　　
 50
0.0
 41
0.5
 51
0.0
  7
KANJI1
  0
TEXT
  8
0
  6
CONTINUOUS
 62
     1
 10
274.5
 20
210.2
 30
0.2
 40
2.0
  1
６　　　　　　　　　　　　　　　　　　　　　　　　　
 50
0.0
 41
0.5
 51
0.0
  7
KANJI1
  0
TEXT
  8
0
  6
CONTINUOUS
 62
     1
 10
277.9
 20
210.2
 30
0.2
 40
2.0
  1
７　　　　　　　　　　　　　　　　　　　　　　　　　
 50
0.0
 41
0.5
 51
0.0
  7
KANJI1
  0
TEXT
  8
0
  6
CONTINUOUS
 62
     1
 10
284.5
 20
210.8
 30
0.15
 40
1.5
  1
ＳＯＵＲＣＥ　　　
 50
0.0
 41
0.666666667
 51
0.0
  7
KANJI2
  0
ARC
  8
0
  6
CONTINUOUS
 62
     1
 10
246.7
 20
223.3
 30
0.0
 40
1.7
 50
90.0
 51
180.0
  0
LINE
  8
0
  6
CONTINUOUS
 62
     1
 10
246.7
 20
225.0
 30
0.0
 11
293.3
 21
225.0
 31
0.0
  0
ARC
  8
0
  6
CONTINUOUS
 62
     1
 10
293.3
 20
223.3
 30
0.0
 40
1.7
 50
0.0
 51
90.0
  0
ARC
  8
0
  6
CONTINUOUS
 62
     1
 10
246.7
 20
223.3
 30
0.0
 40
0.9
 50
90.0
 51
180.0
  0
LINE
  8
0
  6
CONTINUOUS
 62
     1
 10
246.7
 20
224.2
 30
0.0
 11
293.3
 21
224.2
 31
0.0
  0
ARC
  8
0
  6
CONTINUOUS
 62
     1
 10
293.3
 20
223.3
 30
0.0
 40
0.9
 50
0.0
 51
90.0
  0
TEXT
  8
0
  6
CONTINUOUS
 62
     1
 10
247.5
 20
220.5
 30
0.3
 40
2.5
  1
ＣＯＮＮＥＣＴＩＯＮＳ　ＯＦ　ＴＡＣＨＯ－ＭＥＴＥＲ
 50
0.0
 41
0.6
 51
0.0
  7
KANJI0
  0
CIRCLE
  8
0
  6
CONTINUOUS
 62
     1
 10
273.3
 20
214.0
 30
0.0
 40
1.5
  0
CIRCLE
  8
0
  6
CONTINUOUS
 62
     1
 10
269.9
 20
214.0
 30
0.0
 40
1.5
  0
CIRCLE
  8
0
  6
CONTINUOUS
 62
     1
 10
276.7
 20
214.0
 30
0.0
 40
1.5
  0
CIRCLE
  8
0
  6
CONTINUOUS
 62
     1
 10
280.1
 20
214.0
 30
0.0
 40
1.5
  0
LINE
  8
0
  6
CONTINUOUS
 62
     1
 10
255.0
 20
214.0
 30
0.0
 11
255.0
 21
217.6
 31
0.0
  0
LINE
  8
0
  6
CONTINUOUS
 62
     1
 10
255.0
 20
217.6
 30
0.0
 11
256.5
 21
217.6
 31
0.0
  0
LINE
  8
0
  6
CONTINUOUS
 62
     1
 10
256.5
 20
217.6
 30
0.0
 11
256.5
 21
214.0
 31
0.0
  0
LINE
  8
0
  6
CONTINUOUS
 62
     1
 10
256.5
 20
214.0
 30
0.0
 11
255.0
 21
214.0
 31
0.0
  0
LINE
  8
0
  6
CONTINUOUS
 62
     1
 10
255.0
 20
217.0
 30
0.0
 11
252.0
 21
217.0
 31
0.0
  0
LINE
  8
0
  6
CONTINUOUS
 62
     1
 10
252.0
 20
217.0
 30
0.0
 11
252.0
 21
214.6
 31
0.0
  0
LINE
  8
0
  6
CONTINUOUS
 62
     1
 10
252.0
 20
214.6
 30
0.0
 11
255.0
 21
214.6
 31
0.0
  0
LINE
  8
0
  6
CONTINUOUS
 62
     1
 10
256.5
 20
214.6
 30
0.0
 11
259.5
 21
214.6
 31
0.0
  0
LINE
  8
0
  6
CONTINUOUS
 62
     1
 10
259.5
 20
214.6
 30
0.0
 11
259.5
 21
217.0
 31
0.0
  0
LINE
  8
0
  6
CONTINUOUS
 62
     1
 10
259.5
 20
217.0
 30
0.0
 11
256.5
 21
217.0
 31
0.0
  0
LINE
  8
0
  6
CONTINUOUS
 62
     1
 10
259.5
 20
217.0
 30
0.0
 11
259.8
 21
216.7
 31
0.0
  0
LINE
  8
0
  6
CONTINUOUS
 62
     1
 10
259.8
 20
216.7
 30
0.0
 11
259.8
 21
214.9
 31
0.0
  0
LINE
  8
0
  6
CONTINUOUS
 62
     1
 10
259.8
 20
214.9
 30
0.0
 11
259.5
 21
214.6
 31
0.0
  0
LINE
  8
0
  6
CONTINUOUS
 62
     1
 10
252.0
 20
214.6
 30
0.0
 11
251.7
 21
214.9
 31
0.0
  0
LINE
  8
0
  6
CONTINUOUS
 62
     1
 10
251.7
 20
214.9
 30
0.0
 11
251.7
 21
216.7
 31
0.0
  0
LINE
  8
0
  6
CONTINUOUS
 62
     1
 10
251.7
 20
216.7
 30
0.0
 11
252.0
 21
217.0
 31
0.0
  0
LINE
  8
0
  6
CONTINUOUS
 62
     1
 10
259.8
 20
216.2
 30
0.0
 11
273.3
 21
216.2
 31
0.0
  0
LINE
  8
0
  6
CONTINUOUS
 62
     1
 10
273.3
 20
216.2
 30
0.0
 11
273.3
 21
215.5
 31
0.0
  0
LINE
  8
0
  6
CONTINUOUS
 62
     1
 10
269.9
 20
215.5
 30
0.0
 11
269.9
 21
215.6
 31
0.0
  0
LINE
  8
0
  6
CONTINUOUS
 62
     1
 10
269.9
 20
215.6
 30
0.0
 11
259.8
 21
215.6
 31
0.0
  0
TEXT
  8
0
  6
CONTINUOUS
 62
     1
 10
247.5
 20
212.0
 30
0.2
 40
2.0
  1
ＴＹＰＥ　ＴＮ－１／ＴＮ－２　　　　　　　　　　　　
 50
0.0
 41
0.5
 51
0.0
  7
KANJI1
  0
TEXT
  8
0
  6
CONTINUOUS
 62
     1
 10
269.5
 20
213.2
 30
0.2
 40
2.0
  1
１　　　　　　　　　　　　　　　　　　　　　　　　　
 50
0.0
 41
0.5
 51
0.0
  7
KANJI1
  0
TEXT
  8
0
  6
CONTINUOUS
 62
     1
 10
272.9
 20
213.2
 30
0.2
 40
2.0
  1
２　　　　　　　　　　　　　　　　　　　　　　　　　
 50
0.0
 41
0.5
 51
0.0
  7
KANJI1
  0
TEXT
  8
0
  6
CONTINUOUS
 62
     1
 10
276.2
 20
213.2
 30
0.2
 40
2.0
  1
３　　　　　　　　　　　　　　　　　　　　　　　　　
 50
0.0
 41
0.5
 51
0.0
  7
KANJI1
  0
TEXT
  8
0
  6
CONTINUOUS
 62
     1
 10
279.6
 20
213.2
 30
0.2
 40
2.0
  1
４　　　　　　　　　　　　　　　　　　　　　　　　　
 50
0.0
 41
0.5
 51
0.0
  7
KANJI1
  0
TEXT
  8
0
  6
CONTINUOUS
 62
     1
 10
271.1
 20
210.2
 30
0.2
 40
2.0
  1
５　　　　　　　　　　　　　　　　　　　　　　　　　
 50
0.0
 41
0.5
 51
0.0
  7
KANJI1
  0
TEXT
  8
0
  6
CONTINUOUS
 62
     1
 10
274.5
 20
210.2
 30
0.2
 40
2.0
  1
６　　　　　　　　　　　　　　　　　　　　　　　　　
 50
0.0
 41
0.5
 51
0.0
  7
KANJI1
  0
TEXT
  8
0
  6
CONTINUOUS
 62
     1
 10
277.9
 20
210.2
 30
0.2
 40
2.0
  1
７　　　　　　　　　　　　　　　　　　　　　　　　　
 50
0.0
 41
0.5
 51
0.0
  7
KANJI1
  0
TEXT
  8
0
  6
CONTINUOUS
 62
     1
 10
284.5
 20
210.8
 30
0.15
 40
1.5
  1
ＳＯＵＲＣＥ　　　
 50
0.0
 41
0.666666667
 51
0.0
  7
KANJI2
  0
ARC
  8
0
  6
CONTINUOUS
 62
     1
 10
78.9
 20
100.5
 30
0.0
 40
3.0
 50
270.0
 51
0.0
  0
LINE
  8
0
  6
CONTINUOUS
 62
     1
 10
81.9
 20
100.5
 30
0.0
 11
81.9
 21
149.5
 31
0.0
  0
ARC
  8
0
  6
CONTINUOUS
 62
     1
 10
78.9
 20
149.5
 30
0.0
 40
3.0
 50
0.0
 51
90.0
  0
LINE
  8
0
  6
CONTINUOUS
 62
     1
 10
78.9
 20
152.5
 30
0.0
 11
29.9
 21
152.5
 31
0.0
  0
ARC
  8
0
  6
CONTINUOUS
 62
     1
 10
29.9
 20
149.5
 30
0.0
 40
3.0
 50
90.0
 51
180.0
  0
LINE
  8
0
  6
CONTINUOUS
 62
     1
 10
29.9
 20
97.5
 30
0.0
 11
78.9
 21
97.5
 31
0.0
  0
LINE
  8
0
  6
CONTINUOUS
 62
     1
 10
26.9
 20
149.5
 30
0.0
 11
26.9
 21
100.5
 31
0.0
  0
ARC
  8
0
  6
CONTINUOUS
 62
     1
 10
29.9
 20
100.5
 30
0.0
 40
3.0
 50
180.0
 51
270.0
  0
CIRCLE
  8
0
  6
CONTINUOUS
 62
     1
 10
54.4
 20
125.0
 30
0.0
 40
25.5
  0
CIRCLE
  8
0
  6
CONTINUOUS
 62
     1
 10
54.4
 20
125.0
 30
0.0
 40
3.05
  0
LINE
  8
0
  6
CONTINUOUS
 62
     1
 10
104.0
 20
152.475
 30
0.0
 11
98.75
 21
152.475
 31
0.0
  0
ARC
  8
0
  6
CONTINUOUS
 62
     1
 10
98.75
 20
151.975
 30
0.0
 40
0.5
 50
90.0
 51
180.0
  0
LINE
  8
0
  6
CONTINUOUS
 62
     1
 10
98.25
 20
150.475
 30
0.0
 11
94.75
 21
150.475
 31
0.0
  0
ARC
  8
0
  6
CONTINUOUS
 62
     1
 10
94.75
 20
150.225
 30
0.0
 40
0.25
 50
90.0
 51
180.0
  0
LINE
  8
0
  6
CONTINUOUS
 62
     1
 10
93.5
 20
122.725
 30
0.0
 11
93.7
 21
122.725
 31
0.0
  0
LINE
  8
0
  6
CONTINUOUS
 62
     1
 10
104.0
 20
97.475
 30
0.0
 11
98.75
 21
97.475
 31
0.0
  0
ARC
  8
0
  6
CONTINUOUS
 62
     1
 10
98.75
 20
97.975
 30
0.0
 40
0.5
 50
180.0
 51
270.0
  0
LINE
  8
0
  6
CONTINUOUS
 62
     1
 10
98.25
 20
99.475
 30
0.0
 11
94.75
 21
99.475
 31
0.0
  0
ARC
  8
0
  6
CONTINUOUS
 62
     1
 10
94.75
 20
99.725
 30
0.0
 40
0.25
 50
180.0
 51
270.0
  0
LINE
  8
0
  6
CONTINUOUS
 62
     1
 10
93.7
 20
122.725
 30
0.0
 11
94.5
 21
99.725
 31
0.0
  0
LINE
  8
0
  6
CONTINUOUS
 62
     1
 10
98.25
 20
97.975
 30
0.0
 11
98.25
 21
124.975
 31
0.0
  0
LINE
  8
0
  6
CONTINUOUS
 62
     1
 10
93.677077922
 20
126.565990258
 30
0.0
 11
94.5
 21
150.225
 31
0.0
  0
LINE
  8
0
  6
CONTINUOUS
 62
     1
 10
98.25
 20
151.975
 30
0.0
 11
98.25
 21
150.625
 31
0.0
  0
LINE
  8
0
  6
CONTINUOUS
 62
     1
 10
104.0
 20
152.475
 30
0.0
 11
104.0
 21
151.825
 31
0.0
  0
LINE
  8
0
  6
CONTINUOUS
 62
     1
 10
98.25
 20
150.625
 30
0.0
 11
98.25
 21
150.475
 31
0.0
  0
LINE
  8
0
  6
CONTINUOUS
 62
     1
 10
104.0
 20
151.825
 30
0.0
 11
104.0
 21
125.225
 31
0.0
  0
LINE
  8
0
  6
CONTINUOUS
 62
     1
 10
104.0
 20
125.225
 30
0.0
 11
104.0
 21
97.475
 31
0.0
  0
LINE
  8
0
  6
CONTINUOUS
 62
     1
 10
93.5
 20
126.565990258
 30
0.0
 11
93.5
 21
122.725
 31
0.0
  0
LINE
  8
0
  6
CONTINUOUS
 62
     1
 10
98.25
 20
125.0
 30
0.0
 11
98.25
 21
150.475
 31
0.0
  0
LINE
  8
0
  6
CONTINUOUS
 62
     1
 10
98.25
 20
142.975
 30
0.0
 11
98.25
 21
151.975001907
 31
0.0
  0
ARC
  8
0
  6
CONTINUOUS
 62
     1
 10
212.3
 20
100.5
 30
0.0
 40
3.0
 50
270.0
 51
0.0
  0
LINE
  8
0
  6
CONTINUOUS
 62
     1
 10
163.3
 20
97.5
 30
0.0
 11
212.3
 21
97.5
 31
0.0
  0
ARC
  8
0
  6
CONTINUOUS
 62
     1
 10
163.3
 20
100.5
 30
0.0
 40
3.0
 50
180.0
 51
270.0
  0
ARC
  8
0
  6
CONTINUOUS
 62
     1
 10
163.3
 20
149.5
 30
0.0
 40
3.0
 50
90.0
 51
180.0
  0
LINE
  8
0
  6
CONTINUOUS
 62
     1
 10
215.3
 20
100.5
 30
0.0
 11
215.3
 21
149.5
 31
0.0
  0
LINE
  8
0
  6
CONTINUOUS
 62
     1
 10
212.3
 20
152.5
 30
0.0
 11
163.3
 21
152.5
 31
0.0
  0
ARC
  8
0
  6
CONTINUOUS
 62
     1
 10
212.3
 20
149.5
 30
0.0
 40
3.0
 50
360.0
 51
90.0
  0
TEXT
  8
0
  6
CONTINUOUS
 62
     1
 10
178.65
 20
19.9
 30
0.5
 40
3.0
  1
パネルカット
 50
0.0
 41
0.9
 51
0.0
  7
KANJI3
  0
LINE
  8
0
  6
CONTINUOUS
 62
     1
 10
177.4
 20
19.05
 30
0.0
 11
198.3
 21
19.05
 31
0.0
  0
CIRCLE
  8
0
  6
CONTINUOUS
 62
     1
 10
165.3
 20
31.65
 30
0.0
 40
1.5
  0
CIRCLE
  8
0
  6
CONTINUOUS
 62
     1
 10
210.3
 20
31.65
 30
0.0
 40
1.5
  0
CIRCLE
  8
0
  6
CONTINUOUS
 62
     1
 10
210.3
 20
76.65
 30
0.0
 40
1.5
  0
CIRCLE
  8
0
  6
CONTINUOUS
 62
     1
 10
165.3
 20
76.65
 30
0.0
 40
1.5
  0
CIRCLE
  8
0
  6
CONTINUOUS
 62
     1
 10
187.8
 20
54.15
 30
0.0
 40
25.25
  0
LINE
  8
0
  6
CONTINUOUS
 62
     1
 10
141.75
 20
149.65
 30
0.0
 11
141.75
 21
100.25
 31
0.0
  0
LINE
  8
0
  6
CONTINUOUS
 62
     1
 10
115.85
 20
148.775001907
 30
0.0
 11
115.55
 21
148.175001907
 31
0.0
  0
LINE
  8
0
  6
CONTINUOUS
 62
     1
 10
115.55
 20
148.175001907
 30
0.0
 11
115.35
 21
147.575001907
 31
0.0
  0
LINE
  8
0
  6
CONTINUOUS
 62
     1
 10
115.35
 20
147.575001907
 30
0.0
 11
114.55
 21
146.575001907
 31
0.0
  0
LINE
  8
0
  6
CONTINUOUS
 62
     1
 10
114.55
 20
146.575001907
 30
0.0
 11
114.35
 21
145.575001907
 31
0.0
  0
LINE
  8
0
  6
CONTINUOUS
 62
     1
 10
114.35
 20
145.575001907
 30
0.0
 11
113.95
 21
143.975001907
 31
0.0
  0
LINE
  8
0
  6
CONTINUOUS
 62
     1
 10
113.95
 20
143.975001907
 30
0.0
 11
113.95
 21
142.575001907
 31
0.0
  0
LINE
  8
0
  6
CONTINUOUS
 62
     1
 10
113.95
 20
142.575001907
 30
0.0
 11
113.95
 21
141.675001907
 31
0.0
  0
LINE
  8
0
  6
CONTINUOUS
 62
     1
 10
113.95
 20
141.675001907
 30
0.0
 11
113.95
 21
141.275001907
 31
0.0
  0
LINE
  8
0
  6
CONTINUOUS
 62
     1
 10
113.95
 20
141.275001907
 30
0.0
 11
114.35
 21
139.875001907
 31
0.0
  0
LINE
  8
0
  6
CONTINUOUS
 62
     1
 10
114.35
 20
139.875001907
 30
0.0
 11
114.85
 21
138.075001907
 31
0.0
  0
LINE
  8
0
  6
CONTINUOUS
 62
     1
 10
114.85
 20
138.075001907
 30
0.0
 11
114.75
 21
137.175001907
 31
0.0
  0
LINE
  8
0
  6
CONTINUOUS
 62
     1
 10
114.75
 20
137.175001907
 30
0.0
 11
114.25
 21
136.175001907
 31
0.0
  0
LINE
  8
0
  6
CONTINUOUS
 62
     1
 10
114.25
 20
136.175001907
 30
0.0
 11
113.55
 21
135.575001907
 31
0.0
  0
LINE
  8
0
  6
CONTINUOUS
 62
     1
 10
113.55
 20
135.575001907
 30
0.0
 11
113.35
 21
135.275001907
 31
0.0
  0
LINE
  8
0
  6
CONTINUOUS
 62
     1
 10
113.35
 20
135.275001907
 30
0.0
 11
113.15
 21
133.575001907
 31
0.0
  0
LINE
  8
0
  6
CONTINUOUS
 62
     1
 10
113.15
 20
133.575001907
 30
0.0
 11
113.65
 21
132.075001907
 31
0.0
  0
LINE
  8
0
  6
CONTINUOUS
 62
     1
 10
113.65
 20
132.075001907
 30
0.0
 11
114.15
 21
131.575001907
 31
0.0
  0
LINE
  8
0
  6
CONTINUOUS
 62
     1
 10
114.15
 20
131.575001907
 30
0.0
 11
114.55
 21
129.875001907
 31
0.0
  0
LINE
  8
0
  6
CONTINUOUS
 62
     1
 10
114.55
 20
129.875001907
 30
0.0
 11
114.45
 21
128.875001907
 31
0.0
  0
LINE
  8
0
  6
CONTINUOUS
 62
     1
 10
114.45
 20
128.875001907
 30
0.0
 11
114.45
 21
127.975001907
 31
0.0
  0
LINE
  8
0
  6
CONTINUOUS
 62
     1
 10
114.45
 20
127.975001907
 30
0.0
 11
114.25
 21
127.175001907
 31
0.0
  0
LINE
  8
0
  6
CONTINUOUS
 62
     1
 10
114.25
 20
127.175001907
 30
0.0
 11
113.95
 21
125.375001907
 31
0.0
  0
LINE
  8
0
  6
CONTINUOUS
 62
     1
 10
113.95
 20
125.375001907
 30
0.0
 11
113.65
 21
125.175001907
 31
0.0
  0
LINE
  8
0
  6
CONTINUOUS
 62
     1
 10
113.65
 20
125.175001907
 30
0.0
 11
113.15
 21
123.775001907
 31
0.0
  0
LINE
  8
0
  6
CONTINUOUS
 62
     1
 10
113.15
 20
123.775001907
 30
0.0
 11
113.15
 21
123.275001907
 31
0.0
  0
LINE
  8
0
  6
CONTINUOUS
 62
     1
 10
113.15
 20
123.275001907
 30
0.0
 11
112.85
 21
122.575001907
 31
0.0
  0
LINE
  8
0
  6
CONTINUOUS
 62
     1
 10
112.85
 20
122.575001907
 30
0.0
 11
112.65
 21
121.875001907
 31
0.0
  0
LINE
  8
0
  6
CONTINUOUS
 62
     1
 10
112.65
 20
121.875001907
 30
0.0
 11
112.95
 21
121.875001907
 31
0.0
  0
LINE
  8
0
  6
CONTINUOUS
 62
     1
 10
112.95
 20
121.875001907
 30
0.0
 11
112.95
 21
121.075001907
 31
0.0
  0
LINE
  8
0
  6
CONTINUOUS
 62
     1
 10
112.95
 20
121.075001907
 30
0.0
 11
112.95
 21
120.375001907
 31
0.0
  0
LINE
  8
0
  6
CONTINUOUS
 62
     1
 10
112.95
 20
120.375001907
 30
0.0
 11
113.05
 21
119.475001907
 31
0.0
  0
LINE
  8
0
  6
CONTINUOUS
 62
     1
 10
113.05
 20
119.475001907
 30
0.0
 11
113.05
 21
119.075001907
 31
0.0
  0
LINE
  8
0
  6
CONTINUOUS
 62
     1
 10
113.05
 20
119.075001907
 30
0.0
 11
113.05
 21
118.075001907
 31
0.0
  0
LINE
  8
0
  6
CONTINUOUS
 62
     1
 10
113.05
 20
118.075001907
 30
0.0
 11
113.05
 21
117.275001907
 31
0.0
  0
LINE
  8
0
  6
CONTINUOUS
 62
     1
 10
113.05
 20
117.275001907
 30
0.0
 11
113.05
 21
116.575001907
 31
0.0
  0
LINE
  8
0
  6
CONTINUOUS
 62
     1
 10
113.05
 20
116.575001907
 30
0.0
 11
113.15
 21
115.875001907
 31
0.0
  0
LINE
  8
0
  6
CONTINUOUS
 62
     1
 10
113.15
 20
115.875001907
 30
0.0
 11
113.75
 21
115.175001907
 31
0.0
  0
LINE
  8
0
  6
CONTINUOUS
 62
     1
 10
113.75
 20
115.175001907
 30
0.0
 11
113.75
 21
114.275001907
 31
0.0
  0
LINE
  8
0
  6
CONTINUOUS
 62
     1
 10
113.75
 20
114.275001907
 30
0.0
 11
113.45
 21
113.875001907
 31
0.0
  0
LINE
  8
0
  6
CONTINUOUS
 62
     1
 10
113.45
 20
113.875001907
 30
0.0
 11
112.85
 21
112.575001907
 31
0.0
  0
LINE
  8
0
  6
CONTINUOUS
 62
     1
 10
112.85
 20
112.575001907
 30
0.0
 11
113.05
 21
111.475001907
 31
0.0
  0
LINE
  8
0
  6
CONTINUOUS
 62
     1
 10
113.05
 20
111.475001907
 30
0.0
 11
113.05
 21
110.375001907
 31
0.0
  0
LINE
  8
0
  6
CONTINUOUS
 62
     1
 10
113.05
 20
110.375001907
 30
0.0
 11
113.45
 21
109.475001907
 31
0.0
  0
LINE
  8
0
  6
CONTINUOUS
 62
     1
 10
113.45
 20
109.475001907
 30
0.0
 11
113.75
 21
108.575001907
 31
0.0
  0
LINE
  8
0
  6
CONTINUOUS
 62
     1
 10
113.75
 20
108.575001907
 30
0.0
 11
114.35
 21
107.675001907
 31
0.0
  0
LINE
  8
0
  6
CONTINUOUS
 62
     1
 10
114.35
 20
107.675001907
 30
0.0
 11
114.45
 21
106.475001907
 31
0.0
  0
LINE
  8
0
  6
CONTINUOUS
 62
     1
 10
114.45
 20
106.475001907
 30
0.0
 11
114.65
 21
105.575001907
 31
0.0
  0
LINE
  8
0
  6
CONTINUOUS
 62
     1
 10
114.65
 20
105.575001907
 30
0.0
 11
114.65
 21
104.675001907
 31
0.0
  0
LINE
  8
0
  6
CONTINUOUS
 62
     1
 10
114.65
 20
104.675001907
 30
0.0
 11
114.15
 21
103.675001907
 31
0.0
  0
LINE
  8
0
  6
CONTINUOUS
 62
     1
 10
114.15
 20
103.675001907
 30
0.0
 11
113.65
 21
103.075001907
 31
0.0
  0
LINE
  8
0
  6
CONTINUOUS
 62
     1
 10
113.65
 20
103.075001907
 30
0.0
 11
113.65
 21
102.375001907
 31
0.0
  0
LINE
  8
0
  6
CONTINUOUS
 62
     1
 10
113.65
 20
102.375001907
 30
0.0
 11
114.05
 21
101.675001907
 31
0.0
  0
LINE
  8
0
  6
CONTINUOUS
 62
     1
 10
114.05
 20
101.675001907
 30
0.0
 11
113.75
 21
100.875001907
 31
0.0
  0
LINE
  8
0
  6
CONTINUOUS
 62
     1
 10
113.75
 20
100.875001907
 30
0.0
 11
113.65
 21
100.475001907
 31
0.0
  0
LINE
  8
0
  6
CONTINUOUS
 62
     1
 10
116.45
 20
148.775001907
 30
0.0
 11
116.15
 21
148.175001907
 31
0.0
  0
LINE
  8
0
  6
CONTINUOUS
 62
     1
 10
116.15
 20
148.175001907
 30
0.0
 11
115.95
 21
147.575001907
 31
0.0
  0
LINE
  8
0
  6
CONTINUOUS
 62
     1
 10
115.95
 20
147.575001907
 30
0.0
 11
115.15
 21
146.575001907
 31
0.0
  0
LINE
  8
0
  6
CONTINUOUS
 62
     1
 10
115.15
 20
146.575001907
 30
0.0
 11
114.95
 21
145.575001907
 31
0.0
  0
LINE
  8
0
  6
CONTINUOUS
 62
     1
 10
114.95
 20
145.575001907
 30
0.0
 11
114.55
 21
143.975001907
 31
0.0
  0
LINE
  8
0
  6
CONTINUOUS
 62
     1
 10
114.55
 20
143.975001907
 30
0.0
 11
114.55
 21
142.575001907
 31
0.0
  0
LINE
  8
0
  6
CONTINUOUS
 62
     1
 10
114.55
 20
142.575001907
 30
0.0
 11
114.55
 21
141.675001907
 31
0.0
  0
LINE
  8
0
  6
CONTINUOUS
 62
     1
 10
114.55
 20
141.675001907
 30
0.0
 11
114.55
 21
141.275001907
 31
0.0
  0
LINE
  8
0
  6
CONTINUOUS
 62
     1
 10
114.55
 20
141.275001907
 30
0.0
 11
114.95
 21
139.875001907
 31
0.0
  0
LINE
  8
0
  6
CONTINUOUS
 62
     1
 10
114.95
 20
139.875001907
 30
0.0
 11
115.45
 21
138.075001907
 31
0.0
  0
LINE
  8
0
  6
CONTINUOUS
 62
     1
 10
115.45
 20
138.075001907
 30
0.0
 11
115.35
 21
137.175001907
 31
0.0
  0
LINE
  8
0
  6
CONTINUOUS
 62
     1
 10
115.35
 20
137.175001907
 30
0.0
 11
114.85
 21
136.175001907
 31
0.0
  0
LINE
  8
0
  6
CONTINUOUS
 62
     1
 10
114.85
 20
136.175001907
 30
0.0
 11
114.15
 21
135.575001907
 31
0.0
  0
LINE
  8
0
  6
CONTINUOUS
 62
     1
 10
114.15
 20
135.575001907
 30
0.0
 11
113.95
 21
135.275001907
 31
0.0
  0
LINE
  8
0
  6
CONTINUOUS
 62
     1
 10
113.95
 20
135.275001907
 30
0.0
 11
113.75
 21
133.575001907
 31
0.0
  0
LINE
  8
0
  6
CONTINUOUS
 62
     1
 10
113.75
 20
133.575001907
 30
0.0
 11
114.25
 21
132.075001907
 31
0.0
  0
LINE
  8
0
  6
CONTINUOUS
 62
     1
 10
114.25
 20
132.075001907
 30
0.0
 11
114.75
 21
131.575001907
 31
0.0
  0
LINE
  8
0
  6
CONTINUOUS
 62
     1
 10
114.75
 20
131.575001907
 30
0.0
 11
115.15
 21
129.875001907
 31
0.0
  0
LINE
  8
0
  6
CONTINUOUS
 62
     1
 10
115.15
 20
129.875001907
 30
0.0
 11
115.05
 21
128.875001907
 31
0.0
  0
LINE
  8
0
  6
CONTINUOUS
 62
     1
 10
115.05
 20
128.875001907
 30
0.0
 11
115.05
 21
127.975001907
 31
0.0
  0
LINE
  8
0
  6
CONTINUOUS
 62
     1
 10
115.05
 20
127.975001907
 30
0.0
 11
114.85
 21
127.175001907
 31
0.0
  0
LINE
  8
0
  6
CONTINUOUS
 62
     1
 10
114.85
 20
127.175001907
 30
0.0
 11
114.55
 21
125.375001907
 31
0.0
  0
LINE
  8
0
  6
CONTINUOUS
 62
     1
 10
114.55
 20
125.375001907
 30
0.0
 11
114.25
 21
125.175001907
 31
0.0
  0
LINE
  8
0
  6
CONTINUOUS
 62
     1
 10
114.25
 20
125.175001907
 30
0.0
 11
113.75
 21
123.775001907
 31
0.0
  0
LINE
  8
0
  6
CONTINUOUS
 62
     1
 10
113.75
 20
123.775001907
 30
0.0
 11
113.75
 21
123.275001907
 31
0.0
  0
LINE
  8
0
  6
CONTINUOUS
 62
     1
 10
113.75
 20
123.275001907
 30
0.0
 11
113.45
 21
122.575001907
 31
0.0
  0
LINE
  8
0
  6
CONTINUOUS
 62
     1
 10
113.45
 20
122.575001907
 30
0.0
 11
113.25
 21
121.875001907
 31
0.0
  0
LINE
  8
0
  6
CONTINUOUS
 62
     1
 10
113.25
 20
121.875001907
 30
0.0
 11
113.55
 21
121.875001907
 31
0.0
  0
LINE
  8
0
  6
CONTINUOUS
 62
     1
 10
113.55
 20
121.875001907
 30
0.0
 11
113.55
 21
121.075001907
 31
0.0
  0
LINE
  8
0
  6
CONTINUOUS
 62
     1
 10
113.55
 20
121.075001907
 30
0.0
 11
113.55
 21
120.375001907
 31
0.0
  0
LINE
  8
0
  6
CONTINUOUS
 62
     1
 10
113.55
 20
120.375001907
 30
0.0
 11
113.65
 21
119.475001907
 31
0.0
  0
LINE
  8
0
  6
CONTINUOUS
 62
     1
 10
113.65
 20
119.475001907
 30
0.0
 11
113.65
 21
119.075001907
 31
0.0
  0
LINE
  8
0
  6
CONTINUOUS
 62
     1
 10
113.65
 20
119.075001907
 30
0.0
 11
113.65
 21
118.075001907
 31
0.0
  0
LINE
  8
0
  6
CONTINUOUS
 62
     1
 10
113.65
 20
118.075001907
 30
0.0
 11
113.65
 21
117.275001907
 31
0.0
  0
LINE
  8
0
  6
CONTINUOUS
 62
     1
 10
113.65
 20
117.275001907
 30
0.0
 11
113.65
 21
116.575001907
 31
0.0
  0
LINE
  8
0
  6
CONTINUOUS
 62
     1
 10
113.65
 20
116.575001907
 30
0.0
 11
113.75
 21
115.875001907
 31
0.0
  0
LINE
  8
0
  6
CONTINUOUS
 62
     1
 10
113.75
 20
115.875001907
 30
0.0
 11
114.35
 21
115.175001907
 31
0.0
  0
LINE
  8
0
  6
CONTINUOUS
 62
     1
 10
114.35
 20
115.175001907
 30
0.0
 11
114.35
 21
114.275001907
 31
0.0
  0
LINE
  8
0
  6
CONTINUOUS
 62
     1
 10
114.35
 20
114.275001907
 30
0.0
 11
114.05
 21
113.875001907
 31
0.0
  0
LINE
  8
0
  6
CONTINUOUS
 62
     1
 10
114.05
 20
113.875001907
 30
0.0
 11
113.45
 21
112.575001907
 31
0.0
  0
LINE
  8
0
  6
CONTINUOUS
 62
     1
 10
113.45
 20
112.575001907
 30
0.0
 11
113.65
 21
111.475001907
 31
0.0
  0
LINE
  8
0
  6
CONTINUOUS
 62
     1
 10
113.65
 20
111.475001907
 30
0.0
 11
113.65
 21
110.375001907
 31
0.0
  0
LINE
  8
0
  6
CONTINUOUS
 62
     1
 10
113.65
 20
110.375001907
 30
0.0
 11
114.05
 21
109.475001907
 31
0.0
  0
LINE
  8
0
  6
CONTINUOUS
 62
     1
 10
114.05
 20
109.475001907
 30
0.0
 11
114.35
 21
108.575001907
 31
0.0
  0
LINE
  8
0
  6
CONTINUOUS
 62
     1
 10
114.35
 20
108.575001907
 30
0.0
 11
114.95
 21
107.675001907
 31
0.0
  0
LINE
  8
0
  6
CONTINUOUS
 62
     1
 10
114.95
 20
107.675001907
 30
0.0
 11
115.05
 21
106.475001907
 31
0.0
  0
LINE
  8
0
  6
CONTINUOUS
 62
     1
 10
115.05
 20
106.475001907
 30
0.0
 11
115.25
 21
105.575001907
 31
0.0
  0
LINE
  8
0
  6
CONTINUOUS
 62
     1
 10
115.25
 20
105.575001907
 30
0.0
 11
115.25
 21
104.675001907
 31
0.0
  0
LINE
  8
0
  6
CONTINUOUS
 62
     1
 10
115.25
 20
104.675001907
 30
0.0
 11
114.75
 21
103.675001907
 31
0.0
  0
LINE
  8
0
  6
CONTINUOUS
 62
     1
 10
114.75
 20
103.675001907
 30
0.0
 11
114.25
 21
103.075001907
 31
0.0
  0
LINE
  8
0
  6
CONTINUOUS
 62
     1
 10
114.25
 20
103.075001907
 30
0.0
 11
114.25
 21
102.375001907
 31
0.0
  0
LINE
  8
0
  6
CONTINUOUS
 62
     1
 10
114.25
 20
102.375001907
 30
0.0
 11
114.65
 21
101.675001907
 31
0.0
  0
LINE
  8
0
  6
CONTINUOUS
 62
     1
 10
114.65
 20
101.675001907
 30
0.0
 11
114.35
 21
100.875001907
 31
0.0
  0
LINE
  8
0
  6
CONTINUOUS
 62
     1
 10
114.35
 20
100.875001907
 30
0.0
 11
114.25
 21
100.475001907
 31
0.0
  0
LINE
  8
0
  6
CONTINUOUS
 62
     1
 10
116.0875
 20
149.725001907
 30
0.0
 11
115.85
 21
148.775001907
 31
0.0
  0
LINE
  8
0
  6
CONTINUOUS
 62
     1
 10
116.6875
 20
149.725001907
 30
0.0
 11
116.45
 21
148.775001907
 31
0.0
  0
LINE
  8
0
  6
CONTINUOUS
 62
     1
 10
141.75
 20
149.75
 30
0.0
 11
116.693749523
 21
149.75
 31
0.0
  0
LINE
  8
0
  6
CONTINUOUS
 62
     1
 10
113.65
 20
100.475001907
 30
0.0
 11
113.425
 21
100.250001907
 31
0.0
  0
LINE
  8
0
  6
CONTINUOUS
 62
     1
 10
114.25
 20
100.475001907
 30
0.0
 11
114.025
 21
100.250001907
 31
0.0
  0
LINE
  8
0
  6
CONTINUOUS
 62
     1
 10
141.75
 20
100.25
 30
0.0
 11
114.024998093
 21
100.25
 31
0.0
  0
ARC
  8
0
  6
LTYPE1
 62
     1
 10
137.75
 20
143.75
 30
0.0
 40
1.0
 50
180.0
 51
0.0
  0
ARC
  8
0
  6
LTYPE1
 62
     1
 10
133.75
 20
143.75
 30
0.0
 40
1.0
 50
180.0
 51
0.0
  0
ARC
  8
0
  6
LTYPE1
 62
     1
 10
129.75
 20
143.75
 30
0.0
 40
1.0
 50
180.0
 51
0.0
  0
ARC
  8
0
  6
LTYPE1
 62
     1
 10
125.75
 20
143.75
 30
0.0
 40
1.0
 50
180.0
 51
0.0
  0
LINE
  8
0
  6
LTYPE1
 62
     1
 10
136.75
 20
143.75
 30
0.0
 11
136.75
 21
149.7
 31
0.0
  0
LINE
  8
0
  6
LTYPE1
 62
     1
 10
138.75
 20
143.75
 30
0.0
 11
138.75
 21
149.7
 31
0.0
  0
LINE
  8
0
  6
LTYPE1
 62
     1
 10
134.75
 20
143.75
 30
0.0
 11
134.75
 21
149.6
 31
0.0
  0
LINE
  8
0
  6
LTYPE1
 62
     1
 10
132.75
 20
143.75
 30
0.0
 11
132.75
 21
149.6
 31
0.0
  0
LINE
  8
0
  6
LTYPE1
 62
     1
 10
130.75
 20
143.75
 30
0.0
 11
130.75
 21
149.7
 31
0.0
  0
LINE
  8
0
  6
LTYPE1
 62
     1
 10
128.75
 20
143.75
 30
0.0
 11
128.75
 21
149.7
 31
0.0
  0
LINE
  8
0
  6
LTYPE1
 62
     1
 10
126.75
 20
143.75
 30
0.0
 11
126.75
 21
149.6
 31
0.0
  0
LINE
  8
0
  6
LTYPE1
 62
     1
 10
124.75
 20
143.75
 30
0.0
 11
124.75
 21
149.6
 31
0.0
  0
ARC
  8
0
  6
LTYPE1
 62
     1
 10
137.75
 20
106.45
 30
0.0
 40
1.0
 50
0.0
 51
180.0
  0
ARC
  8
0
  6
LTYPE1
 62
     1
 10
133.75
 20
106.45
 30
0.0
 40
1.0
 50
0.0
 51
180.0
  0
ARC
  8
0
  6
LTYPE1
 62
     1
 10
129.75
 20
106.45
 30
0.0
 40
1.0
 50
0.0
 51
180.0
  0
ARC
  8
0
  6
LTYPE1
 62
     1
 10
125.75
 20
106.45
 30
0.0
 40
1.0
 50
0.0
 51
180.0
  0
LINE
  8
0
  6
LTYPE1
 62
     1
 10
124.75
 20
106.45
 30
0.0
 11
124.75
 21
100.3
 31
0.0
  0
LINE
  8
0
  6
LTYPE1
 62
     1
 10
126.75
 20
106.45
 30
0.0
 11
126.75
 21
100.3
 31
0.0
  0
LINE
  8
0
  6
LTYPE1
 62
     1
 10
130.75
 20
106.45
 30
0.0
 11
130.75
 21
100.3
 31
0.0
  0
LINE
  8
0
  6
LTYPE1
 62
     1
 10
128.75
 20
106.45
 30
0.0
 11
128.75
 21
100.3
 31
0.0
  0
LINE
  8
0
  6
LTYPE1
 62
     1
 10
132.75
 20
106.45
 30
0.0
 11
132.75
 21
100.3
 31
0.0
  0
LINE
  8
0
  6
LTYPE1
 62
     1
 10
134.75
 20
106.45
 30
0.0
 11
134.75
 21
100.3
 31
0.0
  0
LINE
  8
0
  6
LTYPE1
 62
     1
 10
136.75
 20
106.45
 30
0.0
 11
136.75
 21
100.3
 31
0.0
  0
LINE
  8
0
  6
LTYPE1
 62
     1
 10
138.75
 20
106.45
 30
0.0
 11
138.75
 21
100.3
 31
0.0
  0
LINE
  8
0
  6
LTYPE2
 62
     2
 10
54.4
 20
156.5
 30
0.0
 11
54.4
 21
90.0
 31
0.0
  0
CIRCLE
  8
0
  6
CONTINUOUS
 62
     2
 10
76.9
 20
147.5
 30
0.0
 40
1.5
  0
LINE
  8
0
  6
CONTINUOUS
 62
     2
 10
76.025
 20
147.7
 30
0.0
 11
76.5
 21
147.7
 31
0.0
  0
ARC
  8
0
  6
CONTINUOUS
 62
     2
 10
76.5
 20
147.9
 30
0.0
 40
0.2
 50
270.0
 51
0.0
  0
LINE
  8
0
  6
CONTINUOUS
 62
     2
 10
76.7
 20
147.9
 30
0.0
 11
76.7
 21
148.375
 31
0.0
  0
LINE
  8
0
  6
CONTINUOUS
 62
     2
 10
76.7
 20
148.375
 30
0.0
 11
77.1
 21
148.375
 31
0.0
  0
LINE
  8
0
  6
CONTINUOUS
 62
     2
 10
77.1
 20
148.375
 30
0.0
 11
77.1
 21
147.9
 31
0.0
  0
ARC
  8
0
  6
CONTINUOUS
 62
     2
 10
77.3
 20
147.9
 30
0.0
 40
0.2
 50
180.0
 51
270.0
  0
LINE
  8
0
  6
CONTINUOUS
 62
     2
 10
77.3
 20
147.7
 30
0.0
 11
77.775
 21
147.7
 31
0.0
  0
LINE
  8
0
  6
CONTINUOUS
 62
     2
 10
77.775
 20
147.7
 30
0.0
 11
77.775
 21
147.3
 31
0.0
  0
LINE
  8
0
  6
CONTINUOUS
 62
     2
 10
77.775
 20
147.3
 30
0.0
 11
77.3
 21
147.3
 31
0.0
  0
ARC
  8
0
  6
CONTINUOUS
 62
     2
 10
77.3
 20
147.1
 30
0.0
 40
0.2
 50
90.0
 51
180.0
  0
LINE
  8
0
  6
CONTINUOUS
 62
     2
 10
77.1
 20
147.1
 30
0.0
 11
77.1
 21
146.625
 31
0.0
  0
LINE
  8
0
  6
CONTINUOUS
 62
     2
 10
77.1
 20
146.625
 30
0.0
 11
76.7
 21
146.625
 31
0.0
  0
LINE
  8
0
  6
CONTINUOUS
 62
     2
 10
76.7
 20
146.625
 30
0.0
 11
76.7
 21
147.1
 31
0.0
  0
ARC
  8
0
  6
CONTINUOUS
 62
     2
 10
76.5
 20
147.1
 30
0.0
 40
0.2
 50
0.0
 51
90.0
  0
LINE
  8
0
  6
CONTINUOUS
 62
     2
 10
76.5
 20
147.3
 30
0.0
 11
76.025
 21
147.3
 31
0.0
  0
LINE
  8
0
  6
CONTINUOUS
 62
     2
 10
76.025
 20
147.3
 30
0.0
 11
76.025
 21
147.7
 31
0.0
  0
LINE
  8
0
  6
LTYPE2
 62
     2
 10
74.9
 20
147.5
 30
0.0
 11
78.9
 21
147.5
 31
0.0
  0
LINE
  8
0
  6
LTYPE2
 62
     2
 10
76.9
 20
149.5
 30
0.0
 11
76.9
 21
145.5
 31
0.0
  0
CIRCLE
  8
0
  6
CONTINUOUS
 62
     2
 10
31.9
 20
147.5
 30
0.0
 40
1.5
  0
LINE
  8
0
  6
CONTINUOUS
 62
     2
 10
31.025
 20
147.7
 30
0.0
 11
31.5
 21
147.7
 31
0.0
  0
ARC
  8
0
  6
CONTINUOUS
 62
     2
 10
31.5
 20
147.9
 30
0.0
 40
0.2
 50
270.0
 51
0.0
  0
LINE
  8
0
  6
CONTINUOUS
 62
     2
 10
31.7
 20
147.9
 30
0.0
 11
31.7
 21
148.375
 31
0.0
  0
LINE
  8
0
  6
CONTINUOUS
 62
     2
 10
31.7
 20
148.375
 30
0.0
 11
32.1
 21
148.375
 31
0.0
  0
LINE
  8
0
  6
CONTINUOUS
 62
     2
 10
32.1
 20
148.375
 30
0.0
 11
32.1
 21
147.9
 31
0.0
  0
ARC
  8
0
  6
CONTINUOUS
 62
     2
 10
32.3
 20
147.9
 30
0.0
 40
0.2
 50
180.0
 51
270.0
  0
LINE
  8
0
  6
CONTINUOUS
 62
     2
 10
32.3
 20
147.7
 30
0.0
 11
32.775
 21
147.7
 31
0.0
  0
LINE
  8
0
  6
CONTINUOUS
 62
     2
 10
32.775
 20
147.7
 30
0.0
 11
32.775
 21
147.3
 31
0.0
  0
LINE
  8
0
  6
CONTINUOUS
 62
     2
 10
32.775
 20
147.3
 30
0.0
 11
32.3
 21
147.3
 31
0.0
  0
ARC
  8
0
  6
CONTINUOUS
 62
     2
 10
32.3
 20
147.1
 30
0.0
 40
0.2
 50
90.0
 51
180.0
  0
LINE
  8
0
  6
CONTINUOUS
 62
     2
 10
32.1
 20
147.1
 30
0.0
 11
32.1
 21
146.625
 31
0.0
  0
LINE
  8
0
  6
CONTINUOUS
 62
     2
 10
32.1
 20
146.625
 30
0.0
 11
31.7
 21
146.625
 31
0.0
  0
LINE
  8
0
  6
CONTINUOUS
 62
     2
 10
31.7
 20
146.625
 30
0.0
 11
31.7
 21
147.1
 31
0.0
  0
ARC
  8
0
  6
CONTINUOUS
 62
     2
 10
31.5
 20
147.1
 30
0.0
 40
0.2
 50
0.0
 51
90.0
  0
LINE
  8
0
  6
CONTINUOUS
 62
     2
 10
31.5
 20
147.3
 30
0.0
 11
31.025
 21
147.3
 31
0.0
  0
LINE
  8
0
  6
CONTINUOUS
 62
     2
 10
31.025
 20
147.3
 30
0.0
 11
31.025
 21
147.7
 31
0.0
  0
LINE
  8
0
  6
LTYPE2
 62
     2
 10
29.9
 20
147.5
 30
0.0
 11
33.9
 21
147.5
 31
0.0
  0
LINE
  8
0
  6
LTYPE2
 62
     2
 10
31.9
 20
149.5
 30
0.0
 11
31.9
 21
145.5
 31
0.0
  0
CIRCLE
  8
0
  6
CONTINUOUS
 62
     2
 10
31.9
 20
102.5
 30
0.0
 40
1.5
  0
LINE
  8
0
  6
CONTINUOUS
 62
     2
 10
31.025
 20
102.7
 30
0.0
 11
31.5
 21
102.7
 31
0.0
  0
ARC
  8
0
  6
CONTINUOUS
 62
     2
 10
31.5
 20
102.9
 30
0.0
 40
0.2
 50
270.0
 51
0.0
  0
LINE
  8
0
  6
CONTINUOUS
 62
     2
 10
31.7
 20
102.9
 30
0.0
 11
31.7
 21
103.375
 31
0.0
  0
LINE
  8
0
  6
CONTINUOUS
 62
     2
 10
31.7
 20
103.375
 30
0.0
 11
32.1
 21
103.375
 31
0.0
  0
LINE
  8
0
  6
CONTINUOUS
 62
     2
 10
32.1
 20
103.375
 30
0.0
 11
32.1
 21
102.9
 31
0.0
  0
ARC
  8
0
  6
CONTINUOUS
 62
     2
 10
32.3
 20
102.9
 30
0.0
 40
0.2
 50
180.0
 51
270.0
  0
LINE
  8
0
  6
CONTINUOUS
 62
     2
 10
32.3
 20
102.7
 30
0.0
 11
32.775
 21
102.7
 31
0.0
  0
LINE
  8
0
  6
CONTINUOUS
 62
     2
 10
32.775
 20
102.7
 30
0.0
 11
32.775
 21
102.3
 31
0.0
  0
LINE
  8
0
  6
CONTINUOUS
 62
     2
 10
32.775
 20
102.3
 30
0.0
 11
32.3
 21
102.3
 31
0.0
  0
ARC
  8
0
  6
CONTINUOUS
 62
     2
 10
32.3
 20
102.1
 30
0.0
 40
0.2
 50
90.0
 51
180.0
  0
LINE
  8
0
  6
CONTINUOUS
 62
     2
 10
32.1
 20
102.1
 30
0.0
 11
32.1
 21
101.625
 31
0.0
  0
LINE
  8
0
  6
CONTINUOUS
 62
     2
 10
32.1
 20
101.625
 30
0.0
 11
31.7
 21
101.625
 31
0.0
  0
LINE
  8
0
  6
CONTINUOUS
 62
     2
 10
31.7
 20
101.625
 30
0.0
 11
31.7
 21
102.1
 31
0.0
  0
ARC
  8
0
  6
CONTINUOUS
 62
     2
 10
31.5
 20
102.1
 30
0.0
 40
0.2
 50
0.0
 51
90.0
  0
LINE
  8
0
  6
CONTINUOUS
 62
     2
 10
31.5
 20
102.3
 30
0.0
 11
31.025
 21
102.3
 31
0.0
  0
LINE
  8
0
  6
CONTINUOUS
 62
     2
 10
31.025
 20
102.3
 30
0.0
 11
31.025
 21
102.7
 31
0.0
  0
LINE
  8
0
  6
LTYPE2
 62
     2
 10
29.9
 20
102.5
 30
0.0
 11
33.9
 21
102.5
 31
0.0
  0
LINE
  8
0
  6
LTYPE2
 62
     2
 10
31.9
 20
104.5
 30
0.0
 11
31.9
 21
100.5
 31
0.0
  0
CIRCLE
  8
0
  6
CONTINUOUS
 62
     2
 10
76.9
 20
102.5
 30
0.0
 40
1.5
  0
LINE
  8
0
  6
CONTINUOUS
 62
     2
 10
76.025
 20
102.7
 30
0.0
 11
76.5
 21
102.7
 31
0.0
  0
ARC
  8
0
  6
CONTINUOUS
 62
     2
 10
76.5
 20
102.9
 30
0.0
 40
0.2
 50
270.0
 51
0.0
  0
LINE
  8
0
  6
CONTINUOUS
 62
     2
 10
76.7
 20
102.9
 30
0.0
 11
76.7
 21
103.375
 31
0.0
  0
LINE
  8
0
  6
CONTINUOUS
 62
     2
 10
76.7
 20
103.375
 30
0.0
 11
77.1
 21
103.375
 31
0.0
  0
LINE
  8
0
  6
CONTINUOUS
 62
     2
 10
77.1
 20
103.375
 30
0.0
 11
77.1
 21
102.9
 31
0.0
  0
ARC
  8
0
  6
CONTINUOUS
 62
     2
 10
77.3
 20
102.9
 30
0.0
 40
0.2
 50
180.0
 51
270.0
  0
LINE
  8
0
  6
CONTINUOUS
 62
     2
 10
77.3
 20
102.7
 30
0.0
 11
77.775
 21
102.7
 31
0.0
  0
LINE
  8
0
  6
CONTINUOUS
 62
     2
 10
77.775
 20
102.7
 30
0.0
 11
77.775
 21
102.3
 31
0.0
  0
LINE
  8
0
  6
CONTINUOUS
 62
     2
 10
77.775
 20
102.3
 30
0.0
 11
77.3
 21
102.3
 31
0.0
  0
ARC
  8
0
  6
CONTINUOUS
 62
     2
 10
77.3
 20
102.1
 30
0.0
 40
0.2
 50
90.0
 51
180.0
  0
LINE
  8
0
  6
CONTINUOUS
 62
     2
 10
77.1
 20
102.1
 30
0.0
 11
77.1
 21
101.625
 31
0.0
  0
LINE
  8
0
  6
CONTINUOUS
 62
     2
 10
77.1
 20
101.625
 30
0.0
 11
76.7
 21
101.625
 31
0.0
  0
LINE
  8
0
  6
CONTINUOUS
 62
     2
 10
76.7
 20
101.625
 30
0.0
 11
76.7
 21
102.1
 31
0.0
  0
ARC
  8
0
  6
CONTINUOUS
 62
     2
 10
76.5
 20
102.1
 30
0.0
 40
0.2
 50
0.0
 51
90.0
  0
LINE
  8
0
  6
CONTINUOUS
 62
     2
 10
76.5
 20
102.3
 30
0.0
 11
76.025
 21
102.3
 31
0.0
  0
LINE
  8
0
  6
CONTINUOUS
 62
     2
 10
76.025
 20
102.3
 30
0.0
 11
76.025
 21
102.7
 31
0.0
  0
LINE
  8
0
  6
LTYPE2
 62
     2
 10
74.9
 20
102.5
 30
0.0
 11
78.9
 21
102.5
 31
0.0
  0
LINE
  8
0
  6
LTYPE2
 62
     2
 10
76.9
 20
104.5
 30
0.0
 11
76.9
 21
100.5
 31
0.0
  0
LINE
  8
0
  6
CONTINUOUS
 62
     2
 10
54.85
 20
121.983379374
 30
0.0
 11
54.85
 21
128.016620626
 31
0.0
  0
LINE
  8
0
  6
CONTINUOUS
 62
     2
 10
53.95
 20
128.016620626
 30
0.0
 11
53.95
 21
121.983379374
 31
0.0
  0
CIRCLE
  8
0
  6
CONTINUOUS
 62
     2
 10
54.4
 20
125.0
 30
0.0
 40
8.5
  0
CIRCLE
  8
0
  6
CONTINUOUS
 62
     2
 10
54.4
 20
125.0
 30
0.0
 40
7.8
  0
CIRCLE
  8
0
  6
CONTINUOUS
 62
     2
 10
54.4
 20
125.0
 30
0.0
 40
7.1
  0
CIRCLE
  8
0
  6
CONTINUOUS
 62
     2
 10
54.4
 20
125.0
 30
0.0
 40
6.4
  0
CIRCLE
  8
0
  6
CONTINUOUS
 62
     2
 10
54.4
 20
125.0
 30
0.0
 40
5.7
  0
CIRCLE
  8
0
  6
CONTINUOUS
 62
     2
 10
54.4
 20
125.0
 30
0.0
 40
5.0
  0
CIRCLE
  8
0
  6
CONTINUOUS
 62
     2
 10
54.4
 20
125.0
 30
0.0
 40
4.3
  0
CIRCLE
  8
0
  6
CONTINUOUS
 62
     2
 10
54.4
 20
125.0
 30
0.0
 40
3.6
  0
CIRCLE
  8
0
  6
CONTINUOUS
 62
     2
 10
54.4
 20
125.0
 30
0.0
 40
24.25
  0
CIRCLE
  8
0
  6
CONTINUOUS
 62
     2
 10
54.4
 20
125.0
 30
0.0
 40
21.0
  0
LINE
  8
0
  6
CONTINUOUS
 62
     2
 10
39.102240015
 20
117.54741391
 30
0.0
 11
36.38424919
 21
115.218245415
 31
0.0
  0
LINE
  8
0
  6
CONTINUOUS
 62
     2
 10
36.38424919
 20
115.218245415
 30
0.0
 11
39.817978155
 21
116.229188241
 31
0.0
  0
LINE
  8
0
  6
CONTINUOUS
 62
     2
 10
39.817978155
 20
116.229188241
 30
0.0
 11
47.317058939
 21
120.300856895
 31
0.0
  0
LINE
  8
0
  6
CONTINUOUS
 62
     2
 10
38.581291972
 20
116.411142315
 30
0.0
 11
47.101656687
 21
120.642915552
 31
0.0
  0
LINE
  8
0
  6
CONTINUOUS
 62
     2
 10
46.770878852
 20
121.252132538
 30
0.0
 11
38.581291972
 21
116.411142315
 31
0.0
  0
LINE
  8
0
  6
CONTINUOUS
 62
     2
 10
46.601320798
 20
121.619082564
 30
0.0
 11
39.102240015
 21
117.54741391
 31
0.0
  0
LINE
  8
0
  6
CONTINUOUS
 62
     2
 10
26.913820798
 20
150.568245415
 30
0.0
 11
26.913820798
 21
172.218245415
 31
0.0
  0
LINE
  8
0
  6
CONTINUOUS
 62
     2
 10
26.913820798
 20
170.218245415
 30
0.0
 11
29.328635364
 21
169.571197802
 31
0.0
  0
LINE
  8
0
  6
CONTINUOUS
 62
     2
 10
26.913820798
 20
170.218245415
 30
0.0
 11
29.328635364
 21
170.865293027
 31
0.0
  0
LINE
  8
0
  6
CONTINUOUS
 62
     2
 10
26.913820798
 20
170.218245415
 30
0.0
 11
81.913820798
 21
170.218245415
 31
0.0
  0
LINE
  8
0
  6
CONTINUOUS
 62
     2
 10
81.913820798
 20
170.218245415
 30
0.0
 11
79.499006233
 21
170.865293027
 31
0.0
  0
LINE
  8
0
  6
CONTINUOUS
 62
     2
 10
81.913820798
 20
170.218245415
 30
0.0
 11
79.499006233
 21
169.571197802
 31
0.0
  0
LINE
  8
0
  6
CONTINUOUS
 62
     2
 10
81.913820798
 20
150.968245415
 30
0.0
 11
81.913820798
 21
172.218245415
 31
0.0
  0
TEXT
  8
0
  6
CONTINUOUS
 62
     2
 10
48.983820798
 20
171.218245415
 30
0.3
 40
3.0
  1
１１０
 50
0.0
 41
0.6
 51
0.0
  7
KANJI4
  0
TEXT
  8
0
  6
CONTINUOUS
 62
     2
 10
54.983820798
 20
171.218245415
 30
0.18
 40
1.8
  1
±１．５
 50
0.0
 41
0.6
 51
0.0
  7
KANJI5
  0
LINE
  8
0
  6
CONTINUOUS
 62
     2
 10
29.263820798
 20
152.518245415
 30
0.0
 11
14.363820798
 21
152.518245415
 31
0.0
  0
LINE
  8
0
  6
CONTINUOUS
 62
     2
 10
16.363820798
 20
152.518245415
 30
0.0
 11
15.716773186
 21
150.103430849
 31
0.0
  0
LINE
  8
0
  6
CONTINUOUS
 62
     2
 10
16.363820798
 20
152.518245415
 30
0.0
 11
17.010868411
 21
150.103430849
 31
0.0
  0
LINE
  8
0
  6
CONTINUOUS
 62
     2
 10
16.363820798
 20
152.518245415
 30
0.0
 11
16.363820798
 21
97.518245415
 31
0.0
  0
LINE
  8
0
  6
CONTINUOUS
 62
     2
 10
16.363820798
 20
97.518245415
 30
0.0
 11
17.010868411
 21
99.93305998
 31
0.0
  0
LINE
  8
0
  6
CONTINUOUS
 62
     2
 10
16.363820798
 20
97.518245415
 30
0.0
 11
15.716773186
 21
99.93305998
 31
0.0
  0
LINE
  8
0
  6
CONTINUOUS
 62
     2
 10
29.263820798
 20
97.518245415
 30
0.0
 11
14.363820798
 21
97.518245415
 31
0.0
  0
TEXT
  8
0
  6
CONTINUOUS
 62
     2
 10
15.363820798
 20
119.588245415
 30
0.3
 40
3.0
  1
１１０
 50
90.0
 41
0.6
 51
0.0
  7
KANJI4
  0
TEXT
  8
0
  6
CONTINUOUS
 62
     2
 10
15.363820798
 20
125.588245415
 30
0.18
 40
1.8
  1
±１．５
 50
90.0
 41
0.6
 51
0.0
  7
KANJI5
  0
LINE
  8
0
  6
CONTINUOUS
 62
     2
 10
98.25
 20
103.725
 30
0.0
 11
98.15
 21
103.725
 31
0.0
  0
LINE
  8
0
  6
CONTINUOUS
 62
     2
 10
98.15
 20
103.725
 30
0.0
 11
98.15
 21
101.225
 31
0.0
  0
LINE
  8
0
  6
CONTINUOUS
 62
     2
 10
98.15
 20
101.225
 30
0.0
 11
98.25
 21
101.225
 31
0.0
  0
LINE
  8
0
  6
CONTINUOUS
 62
     2
 10
98.15
 20
104.0
 30
0.0
 11
98.15
 21
101.0
 31
0.0
  0
LINE
  8
0
  6
CONTINUOUS
 62
     2
 10
97.8
 20
101.0
 30
0.0
 11
98.15
 21
101.0
 31
0.0
  0
ARC
  8
0
  6
CONTINUOUS
 62
     2
 10
97.8
 20
101.4
 30
0.0
 40
0.4
 50
180.0
 51
270.0
  0
LINE
  8
0
  6
CONTINUOUS
 62
     2
 10
97.8
 20
104.0
 30
0.0
 11
98.25
 21
104.0
 31
0.0
  0
LINE
  8
0
  6
CONTINUOUS
 62
     2
 10
97.4
 20
101.4
 30
0.0
 11
97.4
 21
103.6
 31
0.0
  0
ARC
  8
0
  6
CONTINUOUS
 62
     2
 10
97.8
 20
103.6
 30
0.0
 40
0.4
 50
90.0
 51
180.0
  0
LINE
  8
0
  6
CONTINUOUS
 62
     2
 10
97.4
 20
102.6
 30
0.0
 11
97.5
 21
102.6
 31
0.0
  0
LINE
  8
0
  6
CONTINUOUS
 62
     2
 10
97.5
 20
102.6
 30
0.0
 11
97.5
 21
102.4
 31
0.0
  0
LINE
  8
0
  6
CONTINUOUS
 62
     2
 10
97.5
 20
102.4
 30
0.0
 11
97.4
 21
102.4
 31
0.0
  0
LINE
  8
0
  6
CONTINUOUS
 62
     2
 10
98.25
 20
148.725
 30
0.0
 11
98.15
 21
148.725
 31
0.0
  0
LINE
  8
0
  6
CONTINUOUS
 62
     2
 10
98.15
 20
148.725
 30
0.0
 11
98.15
 21
146.225
 31
0.0
  0
LINE
  8
0
  6
CONTINUOUS
 62
     2
 10
98.15
 20
146.225
 30
0.0
 11
98.25
 21
146.225
 31
0.0
  0
LINE
  8
0
  6
CONTINUOUS
 62
     2
 10
98.15
 20
149.0
 30
0.0
 11
98.15
 21
146.0
 31
0.0
  0
LINE
  8
0
  6
CONTINUOUS
 62
     2
 10
97.8
 20
146.0
 30
0.0
 11
98.15
 21
146.0
 31
0.0
  0
ARC
  8
0
  6
CONTINUOUS
 62
     2
 10
97.8
 20
146.4
 30
0.0
 40
0.4
 50
180.0
 51
270.0
  0
LINE
  8
0
  6
CONTINUOUS
 62
     2
 10
97.8
 20
149.0
 30
0.0
 11
98.25
 21
149.0
 31
0.0
  0
LINE
  8
0
  6
CONTINUOUS
 62
     2
 10
97.4
 20
146.4
 30
0.0
 11
97.4
 21
148.6
 31
0.0
  0
ARC
  8
0
  6
CONTINUOUS
 62
     2
 10
97.8
 20
148.6
 30
0.0
 40
0.4
 50
90.0
 51
180.0
  0
LINE
  8
0
  6
CONTINUOUS
 62
     2
 10
97.4
 20
147.6
 30
0.0
 11
97.5
 21
147.6
 31
0.0
  0
LINE
  8
0
  6
CONTINUOUS
 62
     2
 10
97.5
 20
147.6
 30
0.0
 11
97.5
 21
147.4
 31
0.0
  0
LINE
  8
0
  6
CONTINUOUS
 62
     2
 10
97.5
 20
147.4
 30
0.0
 11
97.4
 21
147.4
 31
0.0
  0
LINE
  8
0
  6
CONTINUOUS
 62
     2
 10
93.5
 20
128.15
 30
0.0
 11
93.5
 21
122.25
 31
0.0
  0
LINE
  8
0
  6
CONTINUOUS
 62
     2
 10
93.5
 20
128.15
 30
0.0
 11
93.5
 21
128.15
 31
0.0
  0
ARC
  8
0
  6
CONTINUOUS
 62
     2
 10
93.5
 20
126.65
 30
0.0
 40
1.5
 50
90.0
 51
180.0
  0
LINE
  8
0
  6
CONTINUOUS
 62
     2
 10
93.5
 20
122.25
 30
0.0
 11
93.4
 21
122.25
 31
0.0
  0
LINE
  8
0
  6
CONTINUOUS
 62
     2
 10
92.0
 20
123.65
 30
0.0
 11
92.0
 21
126.65
 31
0.0
  0
ARC
  8
0
  6
CONTINUOUS
 62
     2
 10
93.4
 20
123.65
 30
0.0
 40
1.4
 50
180.0
 51
270.0
  0
LINE
  8
0
  6
CONTINUOUS
 62
     2
 10
94.55
 20
99.475
 30
0.0
 11
87.125
 21
99.475
 31
0.0
  0
LINE
  8
0
  6
CONTINUOUS
 62
     2
 10
89.125
 20
99.475
 30
0.0
 11
89.772047613
 21
101.889814566
 31
0.0
  0
LINE
  8
0
  6
CONTINUOUS
 62
     2
 10
89.125
 20
99.475
 30
0.0
 11
88.477952387
 21
101.889814566
 31
0.0
  0
LINE
  8
0
  6
CONTINUOUS
 62
     2
 10
89.125
 20
99.475
 30
0.0
 11
89.125
 21
150.475
 31
0.0
  0
LINE
  8
0
  6
CONTINUOUS
 62
     2
 10
89.125
 20
150.475
 30
0.0
 11
88.477952387
 21
148.060185434
 31
0.0
  0
LINE
  8
0
  6
CONTINUOUS
 62
     2
 10
89.125
 20
150.475
 30
0.0
 11
89.772047613
 21
148.060185434
 31
0.0
  0
LINE
  8
0
  6
CONTINUOUS
 62
     2
 10
94.55
 20
150.475
 30
0.0
 11
87.125
 21
150.475
 31
0.0
  0
LINE
  8
0
  6
CONTINUOUS
 62
     2
 10
92.0
 20
127.1
 30
0.0
 11
92.0
 21
172.425001907
 31
0.0
  0
LINE
  8
0
  6
CONTINUOUS
 62
     2
 10
104.25
 20
160.875001907
 30
0.0
 11
106.664814566
 21
160.227954295
 31
0.0
  0
LINE
  8
0
  6
CONTINUOUS
 62
     2
 10
104.25
 20
160.875001907
 30
0.0
 11
106.664814566
 21
161.52204952
 31
0.0
  0
LINE
  8
0
  6
CONTINUOUS
 62
     2
 10
104.25
 20
160.875001907
 30
0.0
 11
111.75
 21
160.875001907
 31
0.0
  0
LINE
  8
0
  6
CONTINUOUS
 62
     2
 10
111.75
 20
160.875001907
 30
0.0
 11
109.335185434
 21
161.52204952
 31
0.0
  0
LINE
  8
0
  6
CONTINUOUS
 62
     2
 10
111.75
 20
160.875001907
 30
0.0
 11
109.335185434
 21
160.227954295
 31
0.0
  0
TEXT
  8
0
  6
CONTINUOUS
 62
     2
 10
106.05
 20
161.875001907
 30
0.3
 40
3.0
  1
１５
 50
0.0
 41
0.6
 51
0.0
  7
KANJI4
  0
LINE
  8
0
  6
CONTINUOUS
 62
     2
 10
104.0
 20
160.875001907
 30
0.0
 11
101.585185434
 21
161.52204952
 31
0.0
  0
LINE
  8
0
  6
CONTINUOUS
 62
     2
 10
104.0
 20
160.875001907
 30
0.0
 11
101.585185434
 21
160.227954295
 31
0.0
  0
LINE
  8
0
  6
CONTINUOUS
 62
     2
 10
93.0
 20
160.875001907
 30
0.0
 11
109.25
 21
160.875001907
 31
0.0
  0
LINE
  8
0
  6
CONTINUOUS
 62
     2
 10
104.25
 20
160.875001907
 30
0.0
 11
106.664814566
 21
160.227954295
 31
0.0
  0
LINE
  8
0
  6
CONTINUOUS
 62
     2
 10
104.25
 20
160.875001907
 30
0.0
 11
106.664814566
 21
161.52204952
 31
0.0
  0
TEXT
  8
0
  6
CONTINUOUS
 62
     2
 10
94.15
 20
161.875001907
 30
0.3
 40
3.0
  1
０．５
 50
0.0
 41
0.6
 51
0.0
  7
KANJI4
  0
POINT
  8
0
  6
LTYPE2
 62
     2
 10
187.8
 20
24.5
 30
0.0
  0
POINT
  8
0
  6
LTYPE2
 62
     2
 10
187.8
 20
156.0
 30
0.0
  0
LINE
  8
0
  6
CONTINUOUS
 62
     2
 10
165.3
 20
151.6
 30
0.0
 11
165.3
 21
172.35
 31
0.0
  0
LINE
  8
0
  6
CONTINUOUS
 62
     2
 10
165.3
 20
170.35
 30
0.0
 11
167.714814566
 21
169.702952387
 31
0.0
  0
LINE
  8
0
  6
CONTINUOUS
 62
     2
 10
165.3
 20
170.35
 30
0.0
 11
167.714814566
 21
170.997047613
 31
0.0
  0
LINE
  8
0
  6
CONTINUOUS
 62
     2
 10
165.3
 20
170.35
 30
0.0
 11
187.8
 21
170.35
 31
0.0
  0
LINE
  8
0
  6
CONTINUOUS
 62
     2
 10
187.8
 20
170.35
 30
0.0
 11
185.385185434
 21
170.997047613
 31
0.0
  0
LINE
  8
0
  6
CONTINUOUS
 62
     2
 10
187.8
 20
170.35
 30
0.0
 11
185.385185434
 21
169.702952387
 31
0.0
  0
LINE
  8
0
  6
CONTINUOUS
 62
     2
 10
187.8
 20
156.2
 30
0.0
 11
187.8
 21
172.35
 31
0.0
  0
TEXT
  8
0
  6
CONTINUOUS
 62
     2
 10
172.17
 20
171.35
 30
0.3
 40
3.0
  1
４５
 50
0.0
 41
0.6
 51
0.0
  7
KANJI4
  0
LINE
  8
0
  6
CONTINUOUS
 62
     2
 10
187.8
 20
170.35
 30
0.0
 11
190.214814566
 21
169.702952387
 31
0.0
  0
LINE
  8
0
  6
CONTINUOUS
 62
     2
 10
187.8
 20
170.35
 30
0.0
 11
190.214814566
 21
170.997047613
 31
0.0
  0
LINE
  8
0
  6
CONTINUOUS
 62
     2
 10
187.8
 20
170.35
 30
0.0
 11
210.3
 21
170.35
 31
0.0
  0
LINE
  8
0
  6
CONTINUOUS
 62
     2
 10
210.3
 20
170.35
 30
0.0
 11
207.885185434
 21
170.997047613
 31
0.0
  0
LINE
  8
0
  6
CONTINUOUS
 62
     2
 10
210.3
 20
170.35
 30
0.0
 11
207.885185434
 21
169.702952387
 31
0.0
  0
LINE
  8
0
  6
CONTINUOUS
 62
     2
 10
210.3
 20
151.5
 30
0.0
 11
210.3
 21
172.35
 31
0.0
  0
TEXT
  8
0
  6
CONTINUOUS
 62
     2
 10
194.67
 20
171.35
 30
0.3
 40
3.0
  1
４５
 50
0.0
 41
0.6
 51
0.0
  7
KANJI4
  0
LINE
  8
0
  6
CONTINUOUS
 62
     2
 10
214.55
 20
102.5
 30
0.0
 11
224.4
 21
102.5
 31
0.0
  0
LINE
  8
0
  6
CONTINUOUS
 62
     2
 10
222.4
 20
102.5
 30
0.0
 11
223.047047613
 21
104.914814566
 31
0.0
  0
LINE
  8
0
  6
CONTINUOUS
 62
     2
 10
222.4
 20
102.5
 30
0.0
 11
221.752952387
 21
104.914814566
 31
0.0
  0
LINE
  8
0
  6
CONTINUOUS
 62
     2
 10
222.4
 20
102.5
 30
0.0
 11
222.4
 21
125.0
 31
0.0
  0
LINE
  8
0
  6
CONTINUOUS
 62
     2
 10
222.4
 20
125.0
 30
0.0
 11
221.752952387
 21
122.585185434
 31
0.0
  0
LINE
  8
0
  6
CONTINUOUS
 62
     2
 10
222.4
 20
125.0
 30
0.0
 11
223.047047613
 21
122.585185434
 31
0.0
  0
LINE
  8
0
  6
CONTINUOUS
 62
     2
 10
210.0
 20
125.0
 30
0.0
 11
224.4
 21
125.0
 31
0.0
  0
TEXT
  8
0
  6
CONTINUOUS
 62
     2
 10
221.4
 20
109.37
 30
0.3
 40
3.0
  1
４５
 50
90.0
 41
0.6
 51
0.0
  7
KANJI4
  0
LINE
  8
0
  6
CONTINUOUS
 62
     2
 10
222.4
 20
125.0
 30
0.0
 11
223.047047613
 21
127.414814566
 31
0.0
  0
LINE
  8
0
  6
CONTINUOUS
 62
     2
 10
222.4
 20
125.0
 30
0.0
 11
221.752952387
 21
127.414814566
 31
0.0
  0
LINE
  8
0
  6
CONTINUOUS
 62
     2
 10
222.4
 20
125.0
 30
0.0
 11
222.4
 21
147.5
 31
0.0
  0
LINE
  8
0
  6
CONTINUOUS
 62
     2
 10
222.4
 20
147.5
 30
0.0
 11
221.752952387
 21
145.085185434
 31
0.0
  0
LINE
  8
0
  6
CONTINUOUS
 62
     2
 10
222.4
 20
147.5
 30
0.0
 11
223.047047613
 21
145.085185434
 31
0.0
  0
LINE
  8
0
  6
CONTINUOUS
 62
     2
 10
214.5
 20
147.5
 30
0.0
 11
224.4
 21
147.5
 31
0.0
  0
TEXT
  8
0
  6
CONTINUOUS
 62
     2
 10
221.4
 20
131.87
 30
0.3
 40
3.0
  1
４５
 50
90.0
 41
0.6
 51
0.0
  7
KANJI4
  0
LINE
  8
0
  6
LTYPE2
 62
     2
 10
158.5
 20
54.15
 30
0.0
 11
217.2
 21
54.15
 31
0.0
  0
LINE
  8
0
  6
LTYPE2
 62
     2
 10
161.2
 20
31.65
 30
0.0
 11
168.35
 21
31.65
 31
0.0
  0
LINE
  8
0
  6
LTYPE2
 62
     2
 10
205.9
 20
31.65
 30
0.0
 11
215.2
 21
31.65
 31
0.0
  0
LINE
  8
0
  6
LTYPE2
 62
     2
 10
210.3
 20
27.3
 30
0.0
 11
210.3
 21
36.65
 31
0.0
  0
LINE
  8
0
  6
LTYPE2
 62
     2
 10
165.3
 20
83.0
 30
0.0
 11
165.3
 21
72.25
 31
0.0
  0
LINE
  8
0
  6
LTYPE2
 62
     2
 10
165.3
 20
36.85
 30
0.0
 11
165.3
 21
26.55
 31
0.0
  0
LINE
  8
0
  6
LTYPE2
 62
     2
 10
161.25
 20
76.65
 30
0.0
 11
171.9
 21
76.65
 31
0.0
  0
LINE
  8
0
  6
LTYPE2
 62
     2
 10
204.5
 20
76.65
 30
0.0
 11
217.55
 21
76.65
 31
0.0
  0
LINE
  8
0
  6
CONTINUOUS
 62
     2
 10
215.35
 20
31.65
 30
0.0
 11
223.8
 21
31.65
 31
0.0
  0
LINE
  8
0
  6
CONTINUOUS
 62
     2
 10
221.8
 20
31.65
 30
0.0
 11
222.447047613
 21
34.064814566
 31
0.0
  0
LINE
  8
0
  6
CONTINUOUS
 62
     2
 10
221.8
 20
31.65
 30
0.0
 11
221.152952387
 21
34.064814566
 31
0.0
  0
LINE
  8
0
  6
CONTINUOUS
 62
     2
 10
221.8
 20
54.15
 30
0.0
 11
221.152952387
 21
51.735185434
 31
0.0
  0
LINE
  8
0
  6
CONTINUOUS
 62
     2
 10
221.8
 20
54.15
 30
0.0
 11
222.447047613
 21
51.735185434
 31
0.0
  0
LINE
  8
0
  6
CONTINUOUS
 62
     2
 10
217.2
 20
54.15
 30
0.0
 11
223.8
 21
54.15
 31
0.0
  0
LINE
  8
0
  6
CONTINUOUS
 62
     2
 10
221.8
 20
54.15
 30
0.0
 11
222.447047613
 21
56.564814566
 31
0.0
  0
LINE
  8
0
  6
CONTINUOUS
 62
     2
 10
221.8
 20
54.15
 30
0.0
 11
221.152952387
 21
56.564814566
 31
0.0
  0
LINE
  8
0
  6
CONTINUOUS
 62
     2
 10
221.8
 20
54.15
 30
0.0
 11
221.8
 21
76.65
 31
0.0
  0
LINE
  8
0
  6
CONTINUOUS
 62
     2
 10
221.8
 20
76.65
 30
0.0
 11
221.152952387
 21
74.235185434
 31
0.0
  0
LINE
  8
0
  6
CONTINUOUS
 62
     2
 10
221.8
 20
76.65
 30
0.0
 11
222.447047613
 21
74.235185434
 31
0.0
  0
LINE
  8
0
  6
CONTINUOUS
 62
     2
 10
217.55
 20
76.65
 30
0.0
 11
223.8
 21
76.65
 31
0.0
  0
TEXT
  8
0
  6
CONTINUOUS
 62
     2
 10
220.8
 20
61.02
 30
0.3
 40
3.0
  1
４５
 50
90.0
 41
0.6
 51
0.0
  7
KANJI4
  0
LINE
  8
0
  6
CONTINUOUS
 62
     2
 10
221.8
 20
31.65
 30
0.0
 11
221.8
 21
54.15
 31
0.0
  0
TEXT
  8
0
  6
CONTINUOUS
 62
     2
 10
220.8
 20
38.52
 30
0.3
 40
3.0
  1
４５
 50
90.0
 41
0.6
 51
0.0
  7
KANJI4
  0
LINE
  8
0
  6
CONTINUOUS
 62
     2
 10
165.3
 20
83.0
 30
0.0
 11
165.3
 21
85.65
 31
0.0
  0
LINE
  8
0
  6
CONTINUOUS
 62
     2
 10
165.3
 20
83.65
 30
0.0
 11
167.714814566
 21
83.002952387
 31
0.0
  0
LINE
  8
0
  6
CONTINUOUS
 62
     2
 10
165.3
 20
83.65
 30
0.0
 11
167.714814566
 21
84.297047613
 31
0.0
  0
LINE
  8
0
  6
CONTINUOUS
 62
     2
 10
165.3
 20
83.65
 30
0.0
 11
187.8
 21
83.65
 31
0.0
  0
LINE
  8
0
  6
CONTINUOUS
 62
     2
 10
187.8
 20
83.65
 30
0.0
 11
185.385185434
 21
84.297047613
 31
0.0
  0
LINE
  8
0
  6
CONTINUOUS
 62
     2
 10
187.8
 20
83.65
 30
0.0
 11
185.385185434
 21
83.002952387
 31
0.0
  0
LINE
  8
0
  6
CONTINUOUS
 62
     2
 10
187.8
 20
83.0
 30
0.0
 11
187.8
 21
85.65
 31
0.0
  0
TEXT
  8
0
  6
CONTINUOUS
 62
     2
 10
172.17
 20
84.65
 30
0.3
 40
3.0
  1
４５
 50
0.0
 41
0.6
 51
0.0
  7
KANJI4
  0
LINE
  8
0
  6
CONTINUOUS
 62
     2
 10
187.8
 20
83.65
 30
0.0
 11
190.214814566
 21
83.002952387
 31
0.0
  0
LINE
  8
0
  6
CONTINUOUS
 62
     2
 10
187.8
 20
83.65
 30
0.0
 11
190.214814566
 21
84.297047613
 31
0.0
  0
LINE
  8
0
  6
CONTINUOUS
 62
     2
 10
187.8
 20
83.65
 30
0.0
 11
210.3
 21
83.65
 31
0.0
  0
LINE
  8
0
  6
CONTINUOUS
 62
     2
 10
210.3
 20
83.65
 30
0.0
 11
207.885185434
 21
84.297047613
 31
0.0
  0
LINE
  8
0
  6
CONTINUOUS
 62
     2
 10
210.3
 20
83.65
 30
0.0
 11
207.885185434
 21
83.002952387
 31
0.0
  0
TEXT
  8
0
  6
CONTINUOUS
 62
     2
 10
194.67
 20
84.65
 30
0.3
 40
3.0
  1
４５
 50
0.0
 41
0.6
 51
0.0
  7
KANJI4
  0
LINE
  8
0
  6
CONTINUOUS
 62
     2
 10
161.15
 20
21.35
 30
0.0
 11
152.45
 21
21.35
 31
0.0
  0
LINE
  8
0
  6
CONTINUOUS
 62
     2
 10
40.4
 20
116.6
 30
0.0
 11
39.36730914
 21
114.323258999
 31
0.0
  0
LINE
  8
0
  6
CONTINUOUS
 62
     2
 10
40.4
 20
116.6
 30
0.0
 11
40.644033981
 21
114.111939025
 31
0.0
  0
LINE
  8
0
  6
CONTINUOUS
 62
     2
 10
40.4
 20
116.6
 30
0.0
 11
35.6
 21
87.6
 31
0.0
  0
LINE
  8
0
  6
CONTINUOUS
 62
     2
 10
56.0
 20
122.6
 30
0.0
 11
56.045041865
 21
120.100405787
 31
0.0
  0
LINE
  8
0
  6
CONTINUOUS
 62
     2
 10
56.0
 20
122.6
 30
0.0
 11
57.288804506
 21
120.457808845
 31
0.0
  0
LINE
  8
0
  6
CONTINUOUS
 62
     2
 10
56.0
 20
122.6
 30
0.0
 11
66.0
 21
87.8
 31
0.0
  0
TEXT
  8
0
  6
CONTINUOUS
 62
     2
 10
220.8
 20
42.42
 30
0.18
 40
1.8
  1
±０．３
 50
90.0
 41
0.6
 51
0.0
  7
KANJI5
  0
TEXT
  8
0
  6
CONTINUOUS
 62
     2
 10
220.8
 20
64.92
 30
0.18
 40
1.8
  1
±０．３
 50
90.0
 41
0.6
 51
0.0
  7
KANJI5
  0
TEXT
  8
0
  6
CONTINUOUS
 62
     2
 10
198.57
 20
84.65
 30
0.18
 40
1.8
  1
±０．３
 50
0.0
 41
0.6
 51
0.0
  7
KANJI5
  0
TEXT
  8
0
  6
CONTINUOUS
 62
     2
 10
176.07
 20
84.65
 30
0.18
 40
1.8
  1
±０．３
 50
0.0
 41
0.6
 51
0.0
  7
KANJI5
  0
TEXT
  8
0
  6
CONTINUOUS
 62
     2
 10
173.576470351
 20
40.690293305
 30
0.3
 40
3.0
  1
φ１０１
 50
46.346669025
 41
0.6
 51
0.0
  7
KANJI4
  0
TEXT
  8
0
  6
CONTINUOUS
 62
     2
 10
152.45
 20
22.35
 30
0.5
 40
3.0
  1
４－φ６
 50
0.0
 41
0.6
 51
0.0
  7
KANJI6
  0
LINE
  8
0
  6
LTYPE2
 62
     2
 10
102.54235
 20
147.5
 30
0.0
 11
112.4134
 21
147.5
 31
0.0
  0
LINE
  8
0
  6
CONTINUOUS
 62
     2
 10
111.75
 20
162.9005
 30
0.0
 11
111.75
 21
148.9005
 31
0.0
  0
LINE
  8
0
  6
LTYPE2
 62
     2
 10
102.54235
 20
102.5
 30
0.0
 11
112.4134
 21
102.5
 31
0.0
  0
LINE
  8
0
  6
CONTINUOUS
 62
     2
 10
167.312643038
 20
103.662
 30
0.0
 11
165.3
 21
104.824
 31
0.0
  0
LINE
  8
0
  6
CONTINUOUS
 62
     2
 10
165.3
 20
104.824
 30
0.0
 11
163.287356962
 21
103.662
 31
0.0
  0
LINE
  8
0
  6
CONTINUOUS
 62
     2
 10
163.287356962
 20
103.662
 30
0.0
 11
163.287356962
 21
101.338
 31
0.0
  0
LINE
  8
0
  6
CONTINUOUS
 62
     2
 10
163.287356962
 20
101.338
 30
0.0
 11
165.3
 21
100.176
 31
0.0
  0
LINE
  8
0
  6
CONTINUOUS
 62
     2
 10
165.3
 20
100.176
 30
0.0
 11
167.312643038
 21
101.338
 31
0.0
  0
LINE
  8
0
  6
CONTINUOUS
 62
     2
 10
167.312643038
 20
101.338
 30
0.0
 11
167.312643038
 21
103.662
 31
0.0
  0
CIRCLE
  8
0
  6
CONTINUOUS
 62
     2
 10
165.3
 20
102.5
 30
0.0
 40
1.245
  0
CIRCLE
  8
0
  6
CONTINUOUS
 62
     2
 10
165.3
 20
102.5
 30
0.0
 40
1.162
  0
CIRCLE
  8
0
  6
CONTINUOUS
 62
     2
 10
165.3
 20
102.5
 30
0.0
 40
2.49
  0
CIRCLE
  8
0
  6
CONTINUOUS
 62
     2
 10
165.3
 20
102.5
 30
0.0
 40
2.075
  0
LINE
  8
0
  6
LTYPE2
 62
     2
 10
162.08375
 20
102.5
 30
0.0
 11
168.703
 21
102.5
 31
0.0
  0
LINE
  8
0
  6
LTYPE2
 62
     2
 10
165.3
 20
105.737
 30
0.0
 11
165.3
 21
99.32525
 31
0.0
  0
LINE
  8
0
  6
CONTINUOUS
 62
     2
 10
167.312643038
 20
148.662
 30
0.0
 11
165.3
 21
149.824
 31
0.0
  0
LINE
  8
0
  6
CONTINUOUS
 62
     2
 10
165.3
 20
149.824
 30
0.0
 11
163.287356962
 21
148.662
 31
0.0
  0
LINE
  8
0
  6
CONTINUOUS
 62
     2
 10
163.287356962
 20
148.662
 30
0.0
 11
163.287356962
 21
146.338
 31
0.0
  0
LINE
  8
0
  6
CONTINUOUS
 62
     2
 10
163.287356962
 20
146.338
 30
0.0
 11
165.3
 21
145.176
 31
0.0
  0
LINE
  8
0
  6
CONTINUOUS
 62
     2
 10
165.3
 20
145.176
 30
0.0
 11
167.312643038
 21
146.338
 31
0.0
  0
LINE
  8
0
  6
CONTINUOUS
 62
     2
 10
167.312643038
 20
146.338
 30
0.0
 11
167.312643038
 21
148.662
 31
0.0
  0
CIRCLE
  8
0
  6
CONTINUOUS
 62
     2
 10
165.3
 20
147.5
 30
0.0
 40
1.245
  0
CIRCLE
  8
0
  6
CONTINUOUS
 62
     2
 10
165.3
 20
147.5
 30
0.0
 40
1.162
  0
CIRCLE
  8
0
  6
CONTINUOUS
 62
     2
 10
165.3
 20
147.5
 30
0.0
 40
2.49
  0
CIRCLE
  8
0
  6
CONTINUOUS
 62
     2
 10
165.3
 20
147.5
 30
0.0
 40
2.075
  0
LINE
  8
0
  6
LTYPE2
 62
     2
 10
162.08375
 20
147.5
 30
0.0
 11
168.703
 21
147.5
 31
0.0
  0
LINE
  8
0
  6
LTYPE2
 62
     2
 10
165.3
 20
150.737
 30
0.0
 11
165.3
 21
144.32525
 31
0.0
  0
LINE
  8
0
  6
CONTINUOUS
 62
     2
 10
212.312643038
 20
148.662
 30
0.0
 11
210.3
 21
149.824
 31
0.0
  0
LINE
  8
0
  6
CONTINUOUS
 62
     2
 10
210.3
 20
149.824
 30
0.0
 11
208.287356962
 21
148.662
 31
0.0
  0
LINE
  8
0
  6
CONTINUOUS
 62
     2
 10
208.287356962
 20
148.662
 30
0.0
 11
208.287356962
 21
146.338
 31
0.0
  0
LINE
  8
0
  6
CONTINUOUS
 62
     2
 10
208.287356962
 20
146.338
 30
0.0
 11
210.3
 21
145.176
 31
0.0
  0
LINE
  8
0
  6
CONTINUOUS
 62
     2
 10
210.3
 20
145.176
 30
0.0
 11
212.312643038
 21
146.338
 31
0.0
  0
LINE
  8
0
  6
CONTINUOUS
 62
     2
 10
212.312643038
 20
146.338
 30
0.0
 11
212.312643038
 21
148.662
 31
0.0
  0
CIRCLE
  8
0
  6
CONTINUOUS
 62
     2
 10
210.3
 20
147.5
 30
0.0
 40
1.245
  0
CIRCLE
  8
0
  6
CONTINUOUS
 62
     2
 10
210.3
 20
147.5
 30
0.0
 40
1.162
  0
CIRCLE
  8
0
  6
CONTINUOUS
 62
     2
 10
210.3
 20
147.5
 30
0.0
 40
2.49
  0
CIRCLE
  8
0
  6
CONTINUOUS
 62
     2
 10
210.3
 20
147.5
 30
0.0
 40
2.075
  0
LINE
  8
0
  6
LTYPE2
 62
     2
 10
207.08375
 20
147.5
 30
0.0
 11
213.703
 21
147.5
 31
0.0
  0
LINE
  8
0
  6
LTYPE2
 62
     2
 10
210.3
 20
150.737
 30
0.0
 11
210.3
 21
144.32525
 31
0.0
  0
LINE
  8
0
  6
CONTINUOUS
 62
     2
 10
212.312643038
 20
103.662
 30
0.0
 11
210.3
 21
104.824
 31
0.0
  0
LINE
  8
0
  6
CONTINUOUS
 62
     2
 10
210.3
 20
104.824
 30
0.0
 11
208.287356962
 21
103.662
 31
0.0
  0
LINE
  8
0
  6
CONTINUOUS
 62
     2
 10
208.287356962
 20
103.662
 30
0.0
 11
208.287356962
 21
101.338
 31
0.0
  0
LINE
  8
0
  6
CONTINUOUS
 62
     2
 10
208.287356962
 20
101.338
 30
0.0
 11
210.3
 21
100.176
 31
0.0
  0
LINE
  8
0
  6
CONTINUOUS
 62
     2
 10
210.3
 20
100.176
 30
0.0
 11
212.312643038
 21
101.338
 31
0.0
  0
LINE
  8
0
  6
CONTINUOUS
 62
     2
 10
212.312643038
 20
101.338
 30
0.0
 11
212.312643038
 21
103.662
 31
0.0
  0
CIRCLE
  8
0
  6
CONTINUOUS
 62
     2
 10
210.3
 20
102.5
 30
0.0
 40
1.245
  0
CIRCLE
  8
0
  6
CONTINUOUS
 62
     2
 10
210.3
 20
102.5
 30
0.0
 40
1.162
  0
CIRCLE
  8
0
  6
CONTINUOUS
 62
     2
 10
210.3
 20
102.5
 30
0.0
 40
2.49
  0
CIRCLE
  8
0
  6
CONTINUOUS
 62
     2
 10
210.3
 20
102.5
 30
0.0
 40
2.075
  0
LINE
  8
0
  6
LTYPE2
 62
     2
 10
207.08375
 20
102.5
 30
0.0
 11
213.703
 21
102.5
 31
0.0
  0
LINE
  8
0
  6
LTYPE2
 62
     2
 10
210.3
 20
105.737
 30
0.0
 11
210.3
 21
99.32525
 31
0.0
  0
TEXT
  8
0
  6
CONTINUOUS
 62
     2
 10
221.4
 20
113.27
 30
0.18
 40
1.8
  1
±０．３
 50
90.0
 41
0.6
 51
0.0
  7
KANJI5
  0
TEXT
  8
0
  6
CONTINUOUS
 62
     2
 10
221.4
 20
135.77
 30
0.18
 40
1.8
  1
±０．３
 50
90.0
 41
0.6
 51
0.0
  7
KANJI5
  0
TEXT
  8
0
  6
CONTINUOUS
 62
     2
 10
198.57
 20
171.35
 30
0.18
 40
1.8
  1
±０．３
 50
0.0
 41
0.6
 51
0.0
  7
KANJI5
  0
TEXT
  8
0
  6
CONTINUOUS
 62
     2
 10
176.07
 20
171.35
 30
0.18
 40
1.8
  1
±０．３
 50
0.0
 41
0.6
 51
0.0
  7
KANJI5
  0
LINE
  8
0
  6
CONTINUOUS
 62
     2
 10
104.0
 20
152.7
 30
0.0
 11
104.0
 21
162.9
 31
0.0
  0
LINE
  8
0
  6
CONTINUOUS
 62
     2
 10
104.25
 20
150.75
 30
0.0
 11
104.25
 21
172.575001907
 31
0.0
  0
LINE
  8
0
  6
CONTINUOUS
 62
     2
 10
104.25
 20
170.525001907
 30
0.0
 11
101.835185434
 21
171.17204952
 31
0.0
  0
LINE
  8
0
  6
CONTINUOUS
 62
     2
 10
104.25
 20
170.525001907
 30
0.0
 11
101.835185434
 21
169.877954295
 31
0.0
  0
LINE
  8
0
  6
CONTINUOUS
 62
     2
 10
104.25
 20
170.525001907
 30
0.0
 11
92.0
 21
170.525001907
 31
0.0
  0
LINE
  8
0
  6
CONTINUOUS
 62
     2
 10
92.0
 20
170.525001907
 30
0.0
 11
94.414814566
 21
169.877954295
 31
0.0
  0
LINE
  8
0
  6
CONTINUOUS
 62
     2
 10
92.0
 20
170.525001907
 30
0.0
 11
94.414814566
 21
171.17204952
 31
0.0
  0
TEXT
  8
0
  6
CONTINUOUS
 62
     2
 10
88.125
 20
120.925
 30
0.3
 40
3.0
  1
φ１０３
 50
90.0
 41
0.6
 51
0.0
  7
KANJI4
  0
LINE
  8
0
  6
CONTINUOUS
 62
     2
 10
170.370094052
 20
35.880876358
 30
0.0
 11
172.505182511
 21
37.181413659
 31
0.0
  0
LINE
  8
0
  6
CONTINUOUS
 62
     2
 10
170.370094052
 20
35.880876358
 30
0.0
 11
171.568866247
 21
38.074718929
 31
0.0
  0
LINE
  8
0
  6
CONTINUOUS
 62
     2
 10
170.370094052
 20
35.880876358
 30
0.0
 11
205.229905948
 21
72.419123642
 31
0.0
  0
LINE
  8
0
  6
CONTINUOUS
 62
     2
 10
89.2
 20
80.45
 30
0.0
 11
112.74625
 21
80.45
 31
0.0
  0
LINE
  8
0
  6
CONTINUOUS
 62
     2
 10
89.2
 20
80.45
 30
0.0
 11
110.0
 21
101.9
 31
0.0
  0
LINE
  8
0
  6
CONTINUOUS
 62
     2
 10
205.229905948
 20
72.419123642
 30
0.0
 11
202.65
 21
70.944891672
 31
0.0
  0
LINE
  8
0
  6
CONTINUOUS
 62
     2
 10
205.229905948
 20
72.419123642
 30
0.0
 11
204.079905948
 21
70.019123642
 31
0.0
  0
LINE
  8
0
  6
LTYPE2
 62
     2
 10
210.3
 20
71.25
 30
0.0
 11
210.3
 21
85.1
 31
0.0
  0
LINE
  8
0
  6
CONTINUOUS
 62
     2
 10
120.9
 20
100.25
 30
0.0
 11
121.547047613
 21
102.664814566
 31
0.0
  0
LINE
  8
0
  6
CONTINUOUS
 62
     2
 10
120.9
 20
100.25
 30
0.0
 11
120.252952387
 21
102.664814566
 31
0.0
  0
LINE
  8
0
  6
CONTINUOUS
 62
     2
 10
120.9
 20
100.25
 30
0.0
 11
120.9
 21
149.8
 31
0.0
  0
LINE
  8
0
  6
CONTINUOUS
 62
     2
 10
120.9
 20
149.8
 30
0.0
 11
120.252952387
 21
147.385185434
 31
0.0
  0
LINE
  8
0
  6
CONTINUOUS
 62
     2
 10
120.9
 20
149.8
 30
0.0
 11
121.547047613
 21
147.385185434
 31
0.0
  0
LINE
  8
0
  6
CONTINUOUS
 62
     2
 10
164.759567948
 20
30.308686714
 30
0.0
 11
161.15
 21
21.35
 31
0.0
  0
LINE
  8
0
  6
CONTINUOUS
 62
     2
 10
164.739422317
 20
30.258686714
 30
0.0
 11
164.609422317
 21
28.958686714
 31
0.0
  0
LINE
  8
0
  6
CONTINUOUS
 62
     2
 10
164.739422317
 20
30.258686714
 30
0.0
 11
163.914422317
 21
29.208686714
 31
0.0
  0
LINE
  8
0
  6
CONTINUOUS
 62
     2
 10
128.439520078
 20
100.55
 30
0.0
 11
129.539520078
 21
101.55
 31
0.0
  0
LINE
  8
0
  6
CONTINUOUS
 62
     2
 10
129.539520078
 20
101.55
 30
0.0
 11
129.039520078
 21
100.15
 31
0.0
  0
TEXT
  8
0
  6
CONTINUOUS
 62
     2
 10
66.5
 20
61.0
 30
1.0
 40
3.0
  1
計器形名
 50
0.0
 41
0.9
 51
0.0
  7
KANJI7
  0
TEXT
  8
0
  6
CONTINUOUS
 62
     2
 10
96.5
 20
61.0
 30
1.0
 40
3.0
  1
動作原理
 50
0.0
 41
0.9
 51
0.0
  7
KANJI7
  0
LINE
  8
0
  6
CONTINUOUS
 62
     2
 10
67.914213562
 20
55.0
 30
0.0
 11
61.5
 21
55.0
 31
0.0
  0
TEXT
  8
0
  6
CONTINUOUS
 62
     2
 10
31.0
 20
61.0
 30
0.3
 40
3.0
  1
項
 50
0.0
 41
0.9
 51
0.0
  7
KANJI8
  0
TEXT
  8
0
  6
CONTINUOUS
 62
     2
 10
31.0
 20
56.0
 30
0.3
 40
3.0
  1
１
 50
0.0
 41
0.9
 51
0.0
  7
KANJI8
  0
TEXT
  8
0
  6
CONTINUOUS
 62
     2
 10
31.0
 20
51.0
 30
0.3
 40
3.0
  1
２
 50
0.0
 41
0.9
 51
0.0
  7
KANJI8
  0
LINE
  8
0
  6
CONTINUOUS
 62
     2
 10
30.0
 20
65.0
 30
0.0
 11
61.5
 21
65.0
 31
0.0
  0
LINE
  8
0
  6
CONTINUOUS
 62
     2
 10
30.0
 20
60.0
 30
0.0
 11
61.5
 21
60.0
 31
0.0
  0
LINE
  8
0
  6
CONTINUOUS
 62
     2
 10
61.5
 20
55.0
 30
0.0
 11
30.0
 21
55.0
 31
0.0
  0
LINE
  8
0
  6
CONTINUOUS
 62
     2
 10
30.0
 20
50.0
 30
0.0
 11
61.5
 21
50.0
 31
0.0
  0
TEXT
  8
0
  6
CONTINUOUS
 62
     2
 10
40.425
 20
61.25
 30
3.0
 40
3.0
  1
品名
 50
0.0
 41
0.9
 51
0.0
  7
KANJI9
  0
LINE
  8
0
  6
CONTINUOUS
 62
     2
 10
61.5
 20
50.0
 30
0.0
 11
121.5
 21
50.0
 31
0.0
  0
LINE
  8
0
  6
CONTINUOUS
 62
     2
 10
121.5
 20
55.0
 30
0.0
 11
67.914213562
 21
55.0
 31
0.0
  0
LINE
  8
0
  6
CONTINUOUS
 62
     2
 10
61.5
 20
60.0
 30
0.0
 11
121.5
 21
60.0
 31
0.0
  0
LINE
  8
0
  6
CONTINUOUS
 62
     2
 10
61.5
 20
65.0
 30
0.0
 11
121.5
 21
65.0
 31
0.0
  0
TEXT
  8
0
  6
CONTINUOUS
 62
     2
 10
39.425
 20
55.75
 30
1.0
 40
3.0
  1
交流電流計
 50
0.0
 41
0.9
 51
0.0
  7
KANJI7
  0
TEXT
  8
0
  6
CONTINUOUS
 62
     2
 10
39.425
 20
50.75
 30
1.0
 40
3.0
  1
交流電圧計
 50
0.0
 41
0.9
 51
0.0
  7
KANJI7
  0
LINE
  8
0
  6
CONTINUOUS
 62
     2
 10
30.0
 20
50.0
 30
0.0
 11
30.0
 21
65.0
 31
0.0
  0
LINE
  8
0
  6
CONTINUOUS
 62
     2
 10
35.0
 20
65.0
 30
0.0
 11
35.0
 21
50.0
 31
0.0
  0
LINE
  8
0
  6
CONTINUOUS
 62
     2
 10
61.5
 20
50.0
 30
0.0
 11
61.5
 21
65.0
 31
0.0
  0
LINE
  8
0
  6
CONTINUOUS
 62
     2
 10
91.5
 20
65.0
 30
0.0
 11
91.5
 21
50.0
 31
0.0
  0
LINE
  8
0
  6
CONTINUOUS
 62
     2
 10
121.5
 20
50.0
 30
0.0
 11
121.5
 21
65.0
 31
0.0
  0
TEXT
  8
0
  6
CONTINUOUS
 62
     2
 10
96.5
 20
56.0
 30
0.5
 40
3.0
  1
可動鉄片形
 50
0.0
 41
0.9
 51
0.0
  7
KANJI3
  0
TEXT
  8
0
  6
CONTINUOUS
 62
     2
 10
96.5
 20
51.0
 30
0.5
 40
3.0
  1
可動鉄片形
 50
0.0
 41
0.9
 51
0.0
  7
KANJI3
  0
TEXT
  8
0
  6
CONTINUOUS
 62
     2
 10
64.0
 20
56.0
 30
0.5
 40
3.0
  1
ＡＶＦ－１１Ｆ
 50
0.0
 41
0.9
 51
0.0
  7
KANJI3
  0
TEXT
  8
0
  6
CONTINUOUS
 62
     2
 10
64.3
 20
51.0
 30
0.5
 40
3.0
  1
ＡＶＦ－１１Ｆ
 50
0.0
 41
0.9
 51
0.0
  7
KANJI3
  0
ARC
  8
0
  6
CONTINUOUS
 62
     2
 10
166.3
 20
146.5
 30
0.0
 40
4.75
 50
90.000022605
 51
180.0
  0
LINE
  8
0
  6
CONTINUOUS
 62
     2
 10
209.3
 20
151.25
 30
0.0
 11
166.3
 21
151.25
 31
0.0
  0
ARC
  8
0
  6
CONTINUOUS
 62
     2
 10
209.3
 20
146.5
 30
0.0
 40
4.75
 50
0.0
 51
90.000051305
  0
LINE
  8
0
  6
CONTINUOUS
 62
     2
 10
214.05
 20
103.5
 30
0.0
 11
214.05
 21
146.5
 31
0.0
  0
ARC
  8
0
  6
CONTINUOUS
 62
     2
 10
209.3
 20
103.5
 30
0.0
 40
4.75
 50
269.999956802
 51
0.0
  0
LINE
  8
0
  6
CONTINUOUS
 62
     2
 10
166.3
 20
98.75
 30
0.0
 11
209.3
 21
98.75
 31
0.0
  0
ARC
  8
0
  6
CONTINUOUS
 62
     2
 10
166.3
 20
103.5
 30
0.0
 40
4.75
 50
180.0
 51
270.0
  0
TEXT
  8
0
  6
CONTINUOUS
 62
     2
 10
27.3
 20
88.4
 30
2.0
 40
3.0
  1
指針
 50
0.0
 41
0.9
 51
0.0
  7
KANJI10
  0
LINE
  8
0
  6
CONTINUOUS
 62
     2
 10
35.6
 20
87.6
 30
0.0
 11
26.8
 21
87.6
 31
0.0
  0
TEXT
  8
0
  6
CONTINUOUS
 62
     2
 10
93.54625
 20
81.45
 30
0.5
 40
3.0
  1
４－Ｍ５取付ボルト
 50
0.0
 41
0.6
 51
0.0
  7
KANJI6
  0
TEXT
  8
0
  6
CONTINUOUS
 62
     2
 10
94.75
 20
171.525001907
 30
0.3
 40
3.0
  1
２４．５
 50
0.0
 41
0.6
 51
0.0
  7
KANJI4
  0
ARC
  8
0
  6
CONTINUOUS
 62
     2
 10
105.0005
 20
147.5
 30
0.0
 40
4.165
 50
343.5
 51
16.5
  0
ARC
  8
0
  6
CONTINUOUS
 62
     2
 10
111.248
 20
147.5
 30
0.0
 40
4.165
 50
163.5
 51
196.3
  0
ARC
  8
0
  6
CONTINUOUS
 62
     2
 10
108.12425
 20
149.270125
 30
0.0
 40
1.04125
 50
325.0
 51
35.0
  0
ARC
  8
0
  6
CONTINUOUS
 62
     2
 10
108.12425
 20
149.270125
 30
0.0
 40
1.04125
 50
145.0
 51
215.0
  0
ARC
  8
0
  6
CONTINUOUS
 62
     2
 10
108.12425
 20
145.729875
 30
0.0
 40
1.04125
 50
145.0
 51
215.0
  0
ARC
  8
0
  6
CONTINUOUS
 62
     2
 10
108.12425
 20
145.729875
 30
0.0
 40
1.04125
 50
325.0
 51
35.0
  0
LINE
  8
0
  6
CONTINUOUS
 62
     2
 10
107.250410959
 20
146.331023157
 30
0.0
 11
108.978885959
 21
146.331023157
 31
0.0
  0
LINE
  8
0
  6
CONTINUOUS
 62
     2
 10
108.993984196
 20
148.682923911
 30
0.0
 11
107.254515804
 21
148.682923911
 31
0.0
  0
LINE
  8
0
  6
CONTINUOUS
 62
     2
 10
109.1655
 20
145.729875
 30
0.0
 11
109.1655
 21
149.270125
 31
0.0
  0
LINE
  8
0
  6
CONTINUOUS
 62
     2
 10
108.982990804
 20
149.87405
 30
0.0
 11
107.083
 21
149.87405
 31
0.0
  0
LINE
  8
0
  6
CONTINUOUS
 62
     2
 10
107.083
 20
145.12595
 30
0.0
 11
108.978075
 21
145.12595
 31
0.0
  0
LINE
  8
0
  6
CONTINUOUS
 62
     2
 10
107.083
 20
149.87405
 30
0.0
 11
107.083
 21
145.12595
 31
0.0
  0
LINE
  8
0
  6
CONTINUOUS
 62
     2
 10
106.25
 20
150.29055
 30
0.0
 11
107.083
 21
149.87405
 31
0.0
  0
LINE
  8
0
  6
CONTINUOUS
 62
     2
 10
106.25
 20
144.70945
 30
0.0
 11
107.083
 21
145.12595
 31
0.0
  0
LINE
  8
0
  6
CONTINUOUS
 62
     2
 10
106.25
 20
150.29055
 30
0.0
 11
106.25
 21
144.70945
 31
0.0
  0
LINE
  8
0
  6
CONTINUOUS
 62
     1
 10
106.25
 20
149.75
 30
0.0
 11
104.25
 21
149.75
 31
0.0
  0
LINE
  8
0
  6
CONTINUOUS
 62
     2
 10
104.25
 20
150.5
 30
0.0
 11
104.0
 21
150.5
 31
0.0
  0
LINE
  8
0
  6
CONTINUOUS
 62
     2
 10
104.25
 20
148.7495
 30
0.0
 11
106.25
 21
148.7495
 31
0.0
  0
LINE
  8
0
  6
CONTINUOUS
 62
     2
 10
106.25
 20
148.653705
 30
0.0
 11
104.25
 21
148.653705
 31
0.0
  0
LINE
  8
0
  6
CONTINUOUS
 62
     2
 10
111.75
 20
148.7495
 30
0.0
 11
111.75
 21
146.2505
 31
0.0
  0
LINE
  8
0
  6
CONTINUOUS
 62
     2
 10
104.25
 20
146.354625
 30
0.0
 11
106.25
 21
146.354625
 31
0.0
  0
LINE
  8
0
  6
CONTINUOUS
 62
     2
 10
106.25
 20
146.2505
 30
0.0
 11
104.25
 21
146.2505
 31
0.0
  0
LINE
  8
0
  6
CONTINUOUS
 62
     2
 10
104.0
 20
144.5
 30
0.0
 11
104.25
 21
144.5
 31
0.0
  0
LINE
  8
0
  6
CONTINUOUS
 62
     2
 10
104.25
 20
144.5
 30
0.0
 11
104.25
 21
150.5
 31
0.0
  0
LINE
  8
0
  6
CONTINUOUS
 62
     2
 10
109.1655
 20
148.7495
 30
0.0
 11
111.75
 21
148.7495
 31
0.0
  0
LINE
  8
0
  6
CONTINUOUS
 62
     2
 10
111.75
 20
148.653705
 30
0.0
 11
109.1655
 21
148.653705
 31
0.0
  0
LINE
  8
0
  6
CONTINUOUS
 62
     2
 10
109.1655
 20
146.354625
 30
0.0
 11
111.75
 21
146.354625
 31
0.0
  0
LINE
  8
0
  6
CONTINUOUS
 62
     2
 10
111.75
 20
146.2505
 30
0.0
 11
109.1655
 21
146.2505
 31
0.0
  0
LINE
  8
2
  6
CONTINUOUS
 62
     2
 10
109.0
 20
101.45
 30
0.0
 11
110.0
 21
101.9
 31
0.0
  0
LINE
  8
2
  6
CONTINUOUS
 62
     2
 10
110.0
 20
101.9
 30
0.0
 11
109.6
 21
100.9
 31
0.0
  0
ARC
  8
0
  6
CONTINUOUS
 62
     2
 10
105.0005
 20
102.5
 30
0.0
 40
4.165
 50
343.5
 51
16.5
  0
ARC
  8
0
  6
CONTINUOUS
 62
     2
 10
111.248
 20
102.5
 30
0.0
 40
4.165
 50
163.7
 51
196.5
  0
ARC
  8
0
  6
CONTINUOUS
 62
     2
 10
108.12425
 20
100.729875
 30
0.0
 40
1.04125
 50
325.0
 51
35.0
  0
ARC
  8
0
  6
CONTINUOUS
 62
     2
 10
108.12425
 20
100.729875
 30
0.0
 40
1.04125
 50
145.0
 51
215.0
  0
ARC
  8
0
  6
CONTINUOUS
 62
     2
 10
108.12425
 20
104.270125
 30
0.0
 40
1.04125
 50
145.0
 51
215.0
  0
ARC
  8
0
  6
CONTINUOUS
 62
     2
 10
108.12425
 20
104.270125
 30
0.0
 40
1.04125
 50
325.0
 51
35.0
  0
LINE
  8
0
  6
CONTINUOUS
 62
     2
 10
107.250410959
 20
103.668976843
 30
0.0
 11
108.978885959
 21
103.668976843
 31
0.0
  0
LINE
  8
0
  6
CONTINUOUS
 62
     2
 10
108.993984196
 20
101.317076089
 30
0.0
 11
107.254515804
 21
101.317076089
 31
0.0
  0
LINE
  8
0
  6
CONTINUOUS
 62
     2
 10
109.1655
 20
104.270125
 30
0.0
 11
109.1655
 21
100.729875
 31
0.0
  0
LINE
  8
0
  6
CONTINUOUS
 62
     2
 10
108.982990804
 20
100.12595
 30
0.0
 11
107.083
 21
100.12595
 31
0.0
  0
LINE
  8
0
  6
CONTINUOUS
 62
     2
 10
107.083
 20
104.87405
 30
0.0
 11
108.978075
 21
104.87405
 31
0.0
  0
LINE
  8
0
  6
CONTINUOUS
 62
     2
 10
107.083
 20
100.12595
 30
0.0
 11
107.083
 21
104.87405
 31
0.0
  0
LINE
  8
0
  6
CONTINUOUS
 62
     2
 10
106.25
 20
99.70945
 30
0.0
 11
107.083
 21
100.12595
 31
0.0
  0
LINE
  8
0
  6
CONTINUOUS
 62
     2
 10
106.25
 20
105.29055
 30
0.0
 11
107.083
 21
104.87405
 31
0.0
  0
LINE
  8
0
  6
CONTINUOUS
 62
     2
 10
106.25
 20
99.70945
 30
0.0
 11
106.25
 21
105.29055
 31
0.0
  0
LINE
  8
0
  6
CONTINUOUS
 62
     1
 10
106.25
 20
100.25
 30
0.0
 11
104.25
 21
100.25
 31
0.0
  0
LINE
  8
0
  6
CONTINUOUS
 62
     2
 10
104.25
 20
105.5
 30
0.0
 11
104.0
 21
105.5
 31
0.0
  0
LINE
  8
0
  6
CONTINUOUS
 62
     2
 10
104.25
 20
103.645375
 30
0.0
 11
106.25
 21
103.645375
 31
0.0
  0
LINE
  8
0
  6
CONTINUOUS
 62
     2
 10
106.25
 20
103.7495
 30
0.0
 11
104.25
 21
103.7495
 31
0.0
  0
LINE
  8
0
  6
CONTINUOUS
 62
     2
 10
104.25
 20
101.2505
 30
0.0
 11
106.25
 21
101.2505
 31
0.0
  0
LINE
  8
0
  6
CONTINUOUS
 62
     2
 10
106.25
 20
101.346295
 30
0.0
 11
104.25
 21
101.346295
 31
0.0
  0
LINE
  8
0
  6
CONTINUOUS
 62
     2
 10
104.0
 20
99.5
 30
0.0
 11
104.25
 21
99.5
 31
0.0
  0
LINE
  8
0
  6
CONTINUOUS
 62
     2
 10
104.25
 20
99.5
 30
0.0
 11
104.25
 21
105.5
 31
0.0
  0
LINE
  8
0
  6
CONTINUOUS
 62
     2
 10
111.75
 20
101.2505
 30
0.0
 11
111.75
 21
103.7495
 31
0.0
  0
LINE
  8
0
  6
CONTINUOUS
 62
     2
 10
109.1655
 20
103.645375
 30
0.0
 11
111.73084
 21
103.645375
 31
0.0
  0
LINE
  8
0
  6
CONTINUOUS
 62
     2
 10
111.6975
 20
103.7495
 30
0.0
 11
109.1655
 21
103.7495
 31
0.0
  0
LINE
  8
0
  6
CONTINUOUS
 62
     2
 10
109.1655
 20
101.2505
 30
0.0
 11
111.7475
 21
101.2505
 31
0.0
  0
LINE
  8
0
  6
CONTINUOUS
 62
     2
 10
111.6975
 20
101.346295
 30
0.0
 11
109.1655
 21
101.346295
 31
0.0
  0
LINE
  8
0
  6
CONTINUOUS
 62
     1
 10
116.093749523
 20
149.75
 30
0.0
 11
109.048328756
 21
149.75
 31
0.0
  0
LINE
  8
0
  6
CONTINUOUS
 62
     1
 10
113.424998093
 20
100.25
 30
0.0
 11
109.048328756
 21
100.25
 31
0.0
  0
TEXT
  8
0
  6
CONTINUOUS
 62
     2
 10
98.64625
 20
85.65
 30
0.5
 40
3.0
  1
フランジナット
 50
0.0
 41
0.6
 51
0.0
  7
KANJI6
  0
TEXT
  8
0
  6
CONTINUOUS
 62
     3
 10
235.0
 20
12.0
 30
0.6
 40
6.0
  1
ＭＳ－１２０２１Ａ
 50
0.0
 41
0.833333333
 51
0.0
  7
KANJI11
  0
ARC
  8
2
  6
CONTINUOUS
 62
     1
 10
187.8
 20
125.0
 30
0.0
 40
24.75
 50
335.92324158
 51
0.0
  0
ARC
  8
2
  6
CONTINUOUS
 62
     1
 10
187.8
 20
125.0
 30
0.0
 40
24.75
 50
324.036955888
 51
335.92324158
  0
CIRCLE
  8
2
  6
CONTINUOUS
 62
     1
 10
175.8
 20
110.0
 30
0.0
 40
2.25
  0
CIRCLE
  8
2
  6
CONTINUOUS
 62
     1
 10
181.8
 20
110.0
 30
0.0
 40
2.25
  0
CIRCLE
  8
2
  6
CONTINUOUS
 62
     1
 10
187.8
 20
110.0
 30
0.0
 40
2.25
  0
CIRCLE
  8
2
  6
CONTINUOUS
 62
     1
 10
193.8
 20
110.0
 30
0.0
 40
2.25
  0
CIRCLE
  8
2
  6
CONTINUOUS
 62
     1
 10
199.8
 20
110.0
 30
0.0
 40
2.25
  0
LINE
  8
2
  6
CONTINUOUS
 62
     1
 10
197.1
 20
108.25
 30
0.0
 11
197.1
 21
111.75
 31
0.0
  0
LINE
  8
2
  6
CONTINUOUS
 62
     1
 10
197.1
 20
111.75
 30
0.0
 11
197.3
 21
112.0
 31
0.0
  0
LINE
  8
2
  6
CONTINUOUS
 62
     1
 10
196.3
 20
112.0
 30
0.0
 11
196.5
 21
111.75
 31
0.0
  0
LINE
  8
2
  6
CONTINUOUS
 62
     1
 10
196.5
 20
111.75
 30
0.0
 11
196.5
 21
108.25
 31
0.0
  0
LINE
  8
2
  6
CONTINUOUS
 62
     1
 10
197.3
 20
108.0
 30
0.0
 11
197.1
 21
108.25
 31
0.0
  0
LINE
  8
2
  6
CONTINUOUS
 62
     1
 10
196.5
 20
108.25
 30
0.0
 11
196.3
 21
108.0
 31
0.0
  0
ARC
  8
2
  6
CONTINUOUS
 62
     1
 10
196.5
 20
113.8
 30
0.0
 40
0.2
 50
90.0
 51
180.0
  0
LINE
  8
2
  6
CONTINUOUS
 62
     1
 10
197.1
 20
114.0
 30
0.0
 11
196.5
 21
114.0
 31
0.0
  0
ARC
  8
2
  6
CONTINUOUS
 62
     1
 10
197.1
 20
113.8
 30
0.0
 40
0.2
 50
0.0
 51
90.0
  0
LINE
  8
2
  6
CONTINUOUS
 62
     1
 10
196.3
 20
113.8
 30
0.0
 11
196.3
 21
112.0
 31
0.0
  0
LINE
  8
2
  6
CONTINUOUS
 62
     1
 10
197.3
 20
112.0
 30
0.0
 11
197.3
 21
113.8
 31
0.0
  0
LINE
  8
2
  6
CONTINUOUS
 62
     1
 10
190.3
 20
113.8
 30
0.0
 11
190.3
 21
112.0
 31
0.0
  0
ARC
  8
2
  6
CONTINUOUS
 62
     1
 10
190.5
 20
113.8
 30
0.0
 40
0.2
 50
90.0
 51
180.0
  0
LINE
  8
2
  6
CONTINUOUS
 62
     1
 10
191.3
 20
112.0
 30
0.0
 11
191.3
 21
113.8
 31
0.0
  0
LINE
  8
2
  6
CONTINUOUS
 62
     1
 10
191.1
 20
114.0
 30
0.0
 11
190.5
 21
114.0
 31
0.0
  0
ARC
  8
2
  6
CONTINUOUS
 62
     1
 10
191.1
 20
113.8
 30
0.0
 40
0.2
 50
0.0
 51
90.0
  0
LINE
  8
2
  6
CONTINUOUS
 62
     1
 10
191.1
 20
108.25
 30
0.0
 11
191.1
 21
111.75
 31
0.0
  0
LINE
  8
2
  6
CONTINUOUS
 62
     1
 10
191.1
 20
111.75
 30
0.0
 11
191.3
 21
112.0
 31
0.0
  0
LINE
  8
2
  6
CONTINUOUS
 62
     1
 10
190.3
 20
112.0
 30
0.0
 11
190.5
 21
111.75
 31
0.0
  0
LINE
  8
2
  6
CONTINUOUS
 62
     1
 10
190.5
 20
111.75
 30
0.0
 11
190.5
 21
108.25
 31
0.0
  0
LINE
  8
2
  6
CONTINUOUS
 62
     1
 10
191.3
 20
108.0
 30
0.0
 11
191.1
 21
108.25
 31
0.0
  0
LINE
  8
2
  6
CONTINUOUS
 62
     1
 10
190.5
 20
108.25
 30
0.0
 11
190.3
 21
108.0
 31
0.0
  0
ARC
  8
2
  6
CONTINUOUS
 62
     1
 10
190.5
 20
106.2
 30
0.0
 40
0.2
 50
180.0
 51
270.0
  0
LINE
  8
2
  6
CONTINUOUS
 62
     1
 10
190.5
 20
106.0
 30
0.0
 11
191.1
 21
106.0
 31
0.0
  0
ARC
  8
2
  6
CONTINUOUS
 62
     1
 10
191.1
 20
106.2
 30
0.0
 40
0.2
 50
270.0
 51
0.0
  0
LINE
  8
2
  6
CONTINUOUS
 62
     1
 10
190.3
 20
108.0
 30
0.0
 11
190.3
 21
106.2
 31
0.0
  0
LINE
  8
2
  6
CONTINUOUS
 62
     1
 10
191.3
 20
106.2
 30
0.0
 11
191.3
 21
108.0
 31
0.0
  0
ARC
  8
2
  6
CONTINUOUS
 62
     1
 10
196.5
 20
106.2
 30
0.0
 40
0.2
 50
180.0
 51
270.0
  0
LINE
  8
2
  6
CONTINUOUS
 62
     1
 10
196.5
 20
106.0
 30
0.0
 11
197.1
 21
106.0
 31
0.0
  0
ARC
  8
2
  6
CONTINUOUS
 62
     1
 10
197.1
 20
106.2
 30
0.0
 40
0.2
 50
270.0
 51
0.0
  0
LINE
  8
2
  6
CONTINUOUS
 62
     1
 10
196.3
 20
108.0
 30
0.0
 11
196.3
 21
106.2
 31
0.0
  0
LINE
  8
2
  6
CONTINUOUS
 62
     1
 10
197.3
 20
106.2
 30
0.0
 11
197.3
 21
108.0
 31
0.0
  0
ARC
  8
2
  6
CONTINUOUS
 62
     1
 10
184.5
 20
106.2
 30
0.0
 40
0.2
 50
180.0
 51
270.0
  0
LINE
  8
2
  6
CONTINUOUS
 62
     1
 10
184.5
 20
106.0
 30
0.0
 11
185.1
 21
106.0
 31
0.0
  0
ARC
  8
2
  6
CONTINUOUS
 62
     1
 10
185.1
 20
106.2
 30
0.0
 40
0.2
 50
270.0
 51
0.0
  0
LINE
  8
2
  6
CONTINUOUS
 62
     1
 10
185.3
 20
108.0
 30
0.0
 11
185.1
 21
108.25
 31
0.0
  0
LINE
  8
2
  6
CONTINUOUS
 62
     1
 10
184.5
 20
108.25
 30
0.0
 11
184.3
 21
108.0
 31
0.0
  0
LINE
  8
2
  6
CONTINUOUS
 62
     1
 10
184.3
 20
108.0
 30
0.0
 11
184.3
 21
106.2
 31
0.0
  0
LINE
  8
2
  6
CONTINUOUS
 62
     1
 10
185.3
 20
106.2
 30
0.0
 11
185.3
 21
108.0
 31
0.0
  0
LINE
  8
2
  6
CONTINUOUS
 62
     1
 10
179.1
 20
111.75
 30
0.0
 11
179.3
 21
112.0
 31
0.0
  0
LINE
  8
2
  6
CONTINUOUS
 62
     1
 10
178.3
 20
112.0
 30
0.0
 11
178.5
 21
111.75
 31
0.0
  0
ARC
  8
2
  6
CONTINUOUS
 62
     1
 10
178.5
 20
113.8
 30
0.0
 40
0.2
 50
90.0
 51
180.0
  0
LINE
  8
2
  6
CONTINUOUS
 62
     1
 10
179.1
 20
114.0
 30
0.0
 11
178.5
 21
114.0
 31
0.0
  0
ARC
  8
2
  6
CONTINUOUS
 62
     1
 10
179.1
 20
113.8
 30
0.0
 40
0.2
 50
0.0
 51
90.0
  0
LINE
  8
2
  6
CONTINUOUS
 62
     1
 10
178.3
 20
113.8
 30
0.0
 11
178.3
 21
112.0
 31
0.0
  0
LINE
  8
2
  6
CONTINUOUS
 62
     1
 10
179.3
 20
112.0
 30
0.0
 11
179.3
 21
113.8
 31
0.0
  0
ARC
  8
2
  6
CONTINUOUS
 62
     1
 10
184.5
 20
113.8
 30
0.0
 40
0.2
 50
90.0
 51
180.0
  0
LINE
  8
2
  6
CONTINUOUS
 62
     1
 10
185.1
 20
114.0
 30
0.0
 11
184.5
 21
114.0
 31
0.0
  0
ARC
  8
2
  6
CONTINUOUS
 62
     1
 10
185.1
 20
113.8
 30
0.0
 40
0.2
 50
0.0
 51
90.0
  0
LINE
  8
2
  6
CONTINUOUS
 62
     1
 10
185.1
 20
111.75
 30
0.0
 11
185.3
 21
112.0
 31
0.0
  0
LINE
  8
2
  6
CONTINUOUS
 62
     1
 10
184.3
 20
112.0
 30
0.0
 11
184.5
 21
111.75
 31
0.0
  0
LINE
  8
2
  6
CONTINUOUS
 62
     1
 10
185.1
 20
108.25
 30
0.0
 11
185.1
 21
111.75
 31
0.0
  0
LINE
  8
2
  6
CONTINUOUS
 62
     1
 10
184.5
 20
111.75
 30
0.0
 11
184.5
 21
108.25
 31
0.0
  0
LINE
  8
2
  6
CONTINUOUS
 62
     1
 10
184.3
 20
113.8
 30
0.0
 11
184.3
 21
112.0
 31
0.0
  0
LINE
  8
2
  6
CONTINUOUS
 62
     1
 10
185.3
 20
112.0
 30
0.0
 11
185.3
 21
113.8
 31
0.0
  0
LINE
  8
2
  6
CONTINUOUS
 62
     1
 10
179.3
 20
108.0
 30
0.0
 11
179.1
 21
108.25
 31
0.0
  0
LINE
  8
2
  6
CONTINUOUS
 62
     1
 10
178.5
 20
108.25
 30
0.0
 11
178.3
 21
108.0
 31
0.0
  0
LINE
  8
2
  6
CONTINUOUS
 62
     1
 10
179.1
 20
108.25
 30
0.0
 11
179.1
 21
111.75
 31
0.0
  0
LINE
  8
2
  6
CONTINUOUS
 62
     1
 10
178.5
 20
111.75
 30
0.0
 11
178.5
 21
108.25
 31
0.0
  0
ARC
  8
2
  6
CONTINUOUS
 62
     1
 10
178.5
 20
106.2
 30
0.0
 40
0.2
 50
180.0
 51
270.0
  0
LINE
  8
2
  6
CONTINUOUS
 62
     1
 10
178.5
 20
106.0
 30
0.0
 11
179.1
 21
106.0
 31
0.0
  0
ARC
  8
2
  6
CONTINUOUS
 62
     1
 10
179.1
 20
106.2
 30
0.0
 40
0.2
 50
270.0
 51
0.0
  0
LINE
  8
2
  6
CONTINUOUS
 62
     1
 10
178.3
 20
108.0
 30
0.0
 11
178.3
 21
106.2
 31
0.0
  0
LINE
  8
2
  6
CONTINUOUS
 62
     1
 10
179.3
 20
106.2
 30
0.0
 11
179.3
 21
108.0
 31
0.0
  0
LINE
  8
2
  6
CONTINUOUS
 62
     1
 10
179.3
 20
106.75
 30
0.0
 11
184.3
 21
106.75
 31
0.0
  0
LINE
  8
2
  6
CONTINUOUS
 62
     1
 10
185.3
 20
106.75
 30
0.0
 11
190.3
 21
106.75
 31
0.0
  0
LINE
  8
2
  6
CONTINUOUS
 62
     1
 10
191.3
 20
106.75
 30
0.0
 11
196.3
 21
106.75
 31
0.0
  0
LINE
  8
2
  6
CONTINUOUS
 62
     1
 10
197.3
 20
106.75
 30
0.0
 11
202.3
 21
106.75
 31
0.0
  0
LINE
  8
2
  6
CONTINUOUS
 62
     1
 10
202.3
 20
106.75
 30
0.0
 11
200.8
 21
106.0
 31
0.0
  0
LINE
  8
2
  6
CONTINUOUS
 62
     1
 10
200.8
 20
106.0
 30
0.0
 11
174.8
 21
106.0
 31
0.0
  0
LINE
  8
2
  6
CONTINUOUS
 62
     1
 10
202.5
 20
111.75
 30
0.0
 11
202.5
 21
108.25
 31
0.0
  0
LINE
  8
2
  6
CONTINUOUS
 62
     1
 10
202.5
 20
108.25
 30
0.0
 11
202.3
 21
108.0
 31
0.0
  0
ARC
  8
2
  6
CONTINUOUS
 62
     1
 10
202.5
 20
106.2
 30
0.0
 40
0.2
 50
180.0
 51
270.0
  0
LINE
  8
2
  6
CONTINUOUS
 62
     1
 10
202.5
 20
106.0
 30
0.0
 11
203.660721926
 21
106.0
 31
0.0
  0
LINE
  8
2
  6
CONTINUOUS
 62
     1
 10
202.3
 20
108.0
 30
0.0
 11
202.3
 21
106.2
 31
0.0
  0
LINE
  8
2
  6
CONTINUOUS
 62
     1
 10
184.3
 20
113.25
 30
0.0
 11
179.3
 21
113.25
 31
0.0
  0
LINE
  8
2
  6
CONTINUOUS
 62
     1
 10
174.8
 20
114.0
 30
0.0
 11
200.8
 21
114.0
 31
0.0
  0
LINE
  8
2
  6
CONTINUOUS
 62
     1
 10
190.3
 20
113.25
 30
0.0
 11
185.3
 21
113.25
 31
0.0
  0
LINE
  8
2
  6
CONTINUOUS
 62
     1
 10
196.3
 20
113.25
 30
0.0
 11
191.3
 21
113.25
 31
0.0
  0
LINE
  8
2
  6
CONTINUOUS
 62
     1
 10
202.3
 20
113.25
 30
0.0
 11
197.3
 21
113.25
 31
0.0
  0
LINE
  8
2
  6
CONTINUOUS
 62
     1
 10
202.3
 20
113.25
 30
0.0
 11
200.8
 21
114.0
 31
0.0
  0
ARC
  8
2
  6
CONTINUOUS
 62
     1
 10
202.5
 20
113.8
 30
0.0
 40
0.2
 50
90.0
 51
180.0
  0
LINE
  8
2
  6
CONTINUOUS
 62
     1
 10
202.3
 20
112.0
 30
0.0
 11
202.5
 21
111.75
 31
0.0
  0
LINE
  8
2
  6
CONTINUOUS
 62
     1
 10
202.3
 20
113.8
 30
0.0
 11
202.3
 21
112.0
 31
0.0
  0
LINE
  8
2
  6
CONTINUOUS
 62
     1
 10
202.8
 20
114.0
 30
0.0
 11
202.8
 21
106.0
 31
0.0
  0
ARC
  8
2
  6
CONTINUOUS
 62
     1
 10
203.6
 20
113.8
 30
0.0
 40
0.2
 50
0.0
 51
90.0
  0
LINE
  8
2
  6
CONTINUOUS
 62
     1
 10
203.6
 20
114.0
 30
0.0
 11
202.5
 21
114.0
 31
0.0
  0
LINE
  8
2
  6
CONTINUOUS
 62
     1
 10
203.8
 20
109.0
 30
0.0
 11
204.6
 21
109.0
 31
0.0
  0
LINE
  8
2
  6
CONTINUOUS
 62
     1
 10
204.6
 20
109.0
 30
0.0
 11
204.6
 21
108.0
 31
0.0
  0
LINE
  8
2
  6
CONTINUOUS
 62
     1
 10
204.6
 20
108.0
 30
0.0
 11
203.8
 21
108.0
 31
0.0
  0
LINE
  8
2
  6
CONTINUOUS
 62
     1
 10
203.8
 20
106.117137399
 30
0.0
 11
203.8
 21
108.0
 31
0.0
  0
LINE
  8
2
  6
CONTINUOUS
 62
     1
 10
203.8
 20
112.0
 30
0.0
 11
204.6
 21
112.0
 31
0.0
  0
LINE
  8
2
  6
CONTINUOUS
 62
     1
 10
204.6
 20
112.0
 30
0.0
 11
204.6
 21
111.0
 31
0.0
  0
LINE
  8
2
  6
CONTINUOUS
 62
     1
 10
204.6
 20
111.0
 30
0.0
 11
203.8
 21
111.0
 31
0.0
  0
LINE
  8
2
  6
CONTINUOUS
 62
     1
 10
203.8
 20
112.0
 30
0.0
 11
203.8
 21
113.8
 31
0.0
  0
LINE
  8
2
  6
CONTINUOUS
 62
     1
 10
203.8
 20
109.0
 30
0.0
 11
203.8
 21
111.0
 31
0.0
  0
LINE
  8
2
  6
CONTINUOUS
 62
     1
 10
204.6
 20
111.0
 30
0.0
 11
204.6
 21
109.0
 31
0.0
  0
LINE
  8
2
  6
CONTINUOUS
 62
     1
 10
173.1
 20
108.25
 30
0.0
 11
173.1
 21
111.75
 31
0.0
  0
LINE
  8
2
  6
CONTINUOUS
 62
     1
 10
173.1
 20
111.75
 30
0.0
 11
173.3
 21
112.0
 31
0.0
  0
LINE
  8
2
  6
CONTINUOUS
 62
     1
 10
171.8
 20
112.0
 30
0.0
 11
171.0
 21
112.0
 31
0.0
  0
LINE
  8
2
  6
CONTINUOUS
 62
     1
 10
171.0
 20
112.0
 30
0.0
 11
171.0
 21
111.0
 31
0.0
  0
LINE
  8
2
  6
CONTINUOUS
 62
     1
 10
171.0
 20
111.0
 30
0.0
 11
171.8
 21
111.0
 31
0.0
  0
LINE
  8
2
  6
CONTINUOUS
 62
     1
 10
171.8
 20
111.0
 30
0.0
 11
171.8
 21
109.0
 31
0.0
  0
LINE
  8
2
  6
CONTINUOUS
 62
     1
 10
171.8
 20
109.0
 30
0.0
 11
171.0
 21
109.0
 31
0.0
  0
LINE
  8
2
  6
CONTINUOUS
 62
     1
 10
171.0
 20
109.0
 30
0.0
 11
171.0
 21
108.0
 31
0.0
  0
LINE
  8
2
  6
CONTINUOUS
 62
     1
 10
171.0
 20
111.0
 30
0.0
 11
171.0
 21
109.0
 31
0.0
  0
ARC
  8
2
  6
CONTINUOUS
 62
     1
 10
173.1
 20
113.8
 30
0.0
 40
0.2
 50
0.0
 51
90.0
  0
LINE
  8
2
  6
CONTINUOUS
 62
     1
 10
173.1
 20
114.0
 30
0.0
 11
172.8
 21
114.0
 31
0.0
  0
LINE
  8
2
  6
CONTINUOUS
 62
     1
 10
172.8
 20
114.0
 30
0.0
 11
172.0
 21
114.0
 31
0.0
  0
ARC
  8
2
  6
CONTINUOUS
 62
     1
 10
172.0
 20
113.8
 30
0.0
 40
0.2
 50
90.0
 51
180.0
  0
LINE
  8
2
  6
CONTINUOUS
 62
     1
 10
173.3
 20
113.25
 30
0.0
 11
174.8
 21
114.0
 31
0.0
  0
LINE
  8
2
  6
CONTINUOUS
 62
     1
 10
178.3
 20
113.25
 30
0.0
 11
173.3
 21
113.25
 31
0.0
  0
LINE
  8
2
  6
CONTINUOUS
 62
     1
 10
173.3
 20
112.0
 30
0.0
 11
173.3
 21
113.8
 31
0.0
  0
LINE
  8
2
  6
CONTINUOUS
 62
     1
 10
171.8
 20
113.8
 30
0.0
 11
171.8
 21
112.0
 31
0.0
  0
LINE
  8
2
  6
CONTINUOUS
 62
     1
 10
173.3
 20
108.0
 30
0.0
 11
173.1
 21
108.25
 31
0.0
  0
LINE
  8
2
  6
CONTINUOUS
 62
     1
 10
173.3
 20
106.2
 30
0.0
 11
173.3
 21
108.0
 31
0.0
  0
ARC
  8
2
  6
CONTINUOUS
 62
     1
 10
173.1
 20
106.2
 30
0.0
 40
0.2
 50
270.0
 51
0.0
  0
LINE
  8
2
  6
CONTINUOUS
 62
     1
 10
171.0
 20
108.0
 30
0.0
 11
171.8
 21
108.0
 31
0.0
  0
LINE
  8
2
  6
CONTINUOUS
 62
     1
 10
171.8
 20
108.0
 30
0.0
 11
171.8
 21
106.2
 31
0.0
  0
LINE
  8
2
  6
CONTINUOUS
 62
     1
 10
172.025
 20
106.0
 30
0.0
 11
173.1
 21
106.0
 31
0.0
  0
LINE
  8
2
  6
CONTINUOUS
 62
     1
 10
173.3
 20
106.75
 30
0.0
 11
178.3
 21
106.75
 31
0.0
  0
LINE
  8
2
  6
CONTINUOUS
 62
     1
 10
173.3
 20
106.75
 30
0.0
 11
174.8
 21
106.0
 31
0.0
  0
LINE
  8
2
  6
CONTINUOUS
 62
     1
 10
172.8
 20
114.0
 30
0.0
 11
172.8
 21
106.0
 31
0.0
  0
ARC
  8
2
  6
CONTINUOUS
 62
     1
 10
187.8
 20
125.0
 30
0.0
 40
24.75
 50
167.257403061
 51
324.036955888
  0
ARC
  8
2
  6
CONTINUOUS
 62
     1
 10
187.8
 20
125.0
 30
0.0
 40
24.75
 50
0.0
 51
154.48133073
  0
CIRCLE
  8
2
  6
CONTINUOUS
 62
     2
 10
187.804392537
 20
147.0
 30
0.0
 40
1.572025
  0
CIRCLE
  8
2
  6
CONTINUOUS
 62
     2
 10
187.804392537
 20
147.0
 30
0.0
 40
1.34745
  0
LINE
  8
2
  6
CONTINUOUS
 62
     2
 10
187.018380037
 20
147.17966
 30
0.0
 11
187.445072537
 21
147.17966
 31
0.0
  0
ARC
  8
2
  6
CONTINUOUS
 62
     2
 10
187.445072537
 20
147.35932
 30
0.0
 40
0.17966
 50
270.0
 51
0.0
  0
LINE
  8
2
  6
CONTINUOUS
 62
     2
 10
187.624732537
 20
147.35932
 30
0.0
 11
187.624732537
 21
147.7860125
 31
0.0
  0
LINE
  8
2
  6
CONTINUOUS
 62
     2
 10
187.624732537
 20
147.7860125
 30
0.0
 11
187.984052537
 21
147.7860125
 31
0.0
  0
LINE
  8
2
  6
CONTINUOUS
 62
     2
 10
187.984052537
 20
147.7860125
 30
0.0
 11
187.984052537
 21
147.35932
 31
0.0
  0
ARC
  8
2
  6
CONTINUOUS
 62
     2
 10
188.163712537
 20
147.35932
 30
0.0
 40
0.17966
 50
180.0
 51
270.0
  0
LINE
  8
2
  6
CONTINUOUS
 62
     2
 10
188.163712537
 20
147.17966
 30
0.0
 11
188.590405037
 21
147.17966
 31
0.0
  0
LINE
  8
2
  6
CONTINUOUS
 62
     2
 10
188.590405037
 20
147.17966
 30
0.0
 11
188.590405037
 21
146.82034
 31
0.0
  0
LINE
  8
2
  6
CONTINUOUS
 62
     2
 10
188.590405037
 20
146.82034
 30
0.0
 11
188.163712537
 21
146.82034
 31
0.0
  0
ARC
  8
2
  6
CONTINUOUS
 62
     2
 10
188.163712537
 20
146.64068
 30
0.0
 40
0.17966
 50
90.0
 51
180.0
  0
LINE
  8
2
  6
CONTINUOUS
 62
     2
 10
187.984052537
 20
146.64068
 30
0.0
 11
187.984052537
 21
146.2139875
 31
0.0
  0
LINE
  8
2
  6
CONTINUOUS
 62
     2
 10
187.984052537
 20
146.2139875
 30
0.0
 11
187.624732537
 21
146.2139875
 31
0.0
  0
LINE
  8
2
  6
CONTINUOUS
 62
     2
 10
187.624732537
 20
146.2139875
 30
0.0
 11
187.624732537
 21
146.64068
 31
0.0
  0
ARC
  8
2
  6
CONTINUOUS
 62
     2
 10
187.445072537
 20
146.64068
 30
0.0
 40
0.17966
 50
0.0
 51
90.0
  0
LINE
  8
2
  6
CONTINUOUS
 62
     2
 10
187.445072537
 20
146.82034
 30
0.0
 11
187.018380037
 21
146.82034
 31
0.0
  0
LINE
  8
2
  6
CONTINUOUS
 62
     2
 10
187.018380037
 20
146.82034
 30
0.0
 11
187.018380037
 21
147.17966
 31
0.0
  0
LINE
  8
2
  6
LTYPE2
 62
     2
 10
186.007792537
 20
147.0
 30
0.0
 11
189.600992537
 21
147.0
 31
0.0
  0
LINE
  8
2
  6
LTYPE2
 62
     2
 10
187.8
 20
148.975001907
 30
0.0
 11
187.8
 21
144.975001907
 31
0.0
  0
CIRCLE
  8
2
  6
CONTINUOUS
 62
     2
 10
206.852558883
 20
114.0
 30
0.0
 40
1.572025
  0
CIRCLE
  8
2
  6
CONTINUOUS
 62
     2
 10
206.852558883
 20
114.0
 30
0.0
 40
1.34745
  0
LINE
  8
2
  6
CONTINUOUS
 62
     2
 10
206.066546383
 20
114.17966
 30
0.0
 11
206.493238883
 21
114.17966
 31
0.0
  0
ARC
  8
2
  6
CONTINUOUS
 62
     2
 10
206.493238883
 20
114.35932
 30
0.0
 40
0.17966
 50
270.0
 51
0.0
  0
LINE
  8
2
  6
CONTINUOUS
 62
     2
 10
206.672898883
 20
114.35932
 30
0.0
 11
206.672898883
 21
114.7860125
 31
0.0
  0
LINE
  8
2
  6
CONTINUOUS
 62
     2
 10
206.672898883
 20
114.7860125
 30
0.0
 11
207.032218883
 21
114.7860125
 31
0.0
  0
LINE
  8
2
  6
CONTINUOUS
 62
     2
 10
207.032218883
 20
114.7860125
 30
0.0
 11
207.032218883
 21
114.35932
 31
0.0
  0
ARC
  8
2
  6
CONTINUOUS
 62
     2
 10
207.211878883
 20
114.35932
 30
0.0
 40
0.17966
 50
180.0
 51
270.0
  0
LINE
  8
2
  6
CONTINUOUS
 62
     2
 10
207.211878883
 20
114.17966
 30
0.0
 11
207.638571383
 21
114.17966
 31
0.0
  0
LINE
  8
2
  6
CONTINUOUS
 62
     2
 10
207.638571383
 20
114.17966
 30
0.0
 11
207.638571383
 21
113.82034
 31
0.0
  0
LINE
  8
2
  6
CONTINUOUS
 62
     2
 10
207.638571383
 20
113.82034
 30
0.0
 11
207.211878883
 21
113.82034
 31
0.0
  0
ARC
  8
2
  6
CONTINUOUS
 62
     2
 10
207.211878883
 20
113.64068
 30
0.0
 40
0.17966
 50
90.0
 51
180.0
  0
LINE
  8
2
  6
CONTINUOUS
 62
     2
 10
207.032218883
 20
113.64068
 30
0.0
 11
207.032218883
 21
113.2139875
 31
0.0
  0
LINE
  8
2
  6
CONTINUOUS
 62
     2
 10
207.032218883
 20
113.2139875
 30
0.0
 11
206.672898883
 21
113.2139875
 31
0.0
  0
LINE
  8
2
  6
CONTINUOUS
 62
     2
 10
206.672898883
 20
113.2139875
 30
0.0
 11
206.672898883
 21
113.64068
 31
0.0
  0
ARC
  8
2
  6
CONTINUOUS
 62
     2
 10
206.493238883
 20
113.64068
 30
0.0
 40
0.17966
 50
0.0
 51
90.0
  0
LINE
  8
2
  6
CONTINUOUS
 62
     2
 10
206.493238883
 20
113.82034
 30
0.0
 11
206.066546383
 21
113.82034
 31
0.0
  0
LINE
  8
2
  6
CONTINUOUS
 62
     2
 10
206.066546383
 20
113.82034
 30
0.0
 11
206.066546383
 21
114.17966
 31
0.0
  0
LINE
  8
2
  6
LTYPE2
 62
     2
 10
205.055958883
 20
114.0
 30
0.0
 11
208.649158883
 21
114.0
 31
0.0
  0
LINE
  8
2
  6
LTYPE2
 62
     2
 10
206.852558883
 20
115.7966
 30
0.0
 11
206.852558883
 21
112.2034
 31
0.0
  0
CIRCLE
  8
2
  6
CONTINUOUS
 62
     2
 10
168.747441117
 20
114.0
 30
0.0
 40
1.572025
  0
CIRCLE
  8
2
  6
CONTINUOUS
 62
     2
 10
168.747441117
 20
114.0
 30
0.0
 40
1.34745
  0
LINE
  8
2
  6
CONTINUOUS
 62
     2
 10
167.961428617
 20
114.17966
 30
0.0
 11
168.388121117
 21
114.17966
 31
0.0
  0
ARC
  8
2
  6
CONTINUOUS
 62
     2
 10
168.388121117
 20
114.35932
 30
0.0
 40
0.17966
 50
270.0
 51
0.0
  0
LINE
  8
2
  6
CONTINUOUS
 62
     2
 10
168.567781117
 20
114.35932
 30
0.0
 11
168.567781117
 21
114.7860125
 31
0.0
  0
LINE
  8
2
  6
CONTINUOUS
 62
     2
 10
168.567781117
 20
114.7860125
 30
0.0
 11
168.927101117
 21
114.7860125
 31
0.0
  0
LINE
  8
2
  6
CONTINUOUS
 62
     2
 10
168.927101117
 20
114.7860125
 30
0.0
 11
168.927101117
 21
114.35932
 31
0.0
  0
ARC
  8
2
  6
CONTINUOUS
 62
     2
 10
169.106761117
 20
114.35932
 30
0.0
 40
0.17966
 50
180.0
 51
270.0
  0
LINE
  8
2
  6
CONTINUOUS
 62
     2
 10
169.106761117
 20
114.17966
 30
0.0
 11
169.533453617
 21
114.17966
 31
0.0
  0
LINE
  8
2
  6
CONTINUOUS
 62
     2
 10
169.533453617
 20
114.17966
 30
0.0
 11
169.533453617
 21
113.82034
 31
0.0
  0
LINE
  8
2
  6
CONTINUOUS
 62
     2
 10
169.533453617
 20
113.82034
 30
0.0
 11
169.106761117
 21
113.82034
 31
0.0
  0
ARC
  8
2
  6
CONTINUOUS
 62
     2
 10
169.106761117
 20
113.64068
 30
0.0
 40
0.17966
 50
90.0
 51
180.0
  0
LINE
  8
2
  6
CONTINUOUS
 62
     2
 10
168.927101117
 20
113.64068
 30
0.0
 11
168.927101117
 21
113.2139875
 31
0.0
  0
LINE
  8
2
  6
CONTINUOUS
 62
     2
 10
168.927101117
 20
113.2139875
 30
0.0
 11
168.567781117
 21
113.2139875
 31
0.0
  0
LINE
  8
2
  6
CONTINUOUS
 62
     2
 10
168.567781117
 20
113.2139875
 30
0.0
 11
168.567781117
 21
113.64068
 31
0.0
  0
ARC
  8
2
  6
CONTINUOUS
 62
     2
 10
168.388121117
 20
113.64068
 30
0.0
 40
0.17966
 50
0.0
 51
90.0
  0
LINE
  8
2
  6
CONTINUOUS
 62
     2
 10
168.388121117
 20
113.82034
 30
0.0
 11
167.961428617
 21
113.82034
 31
0.0
  0
LINE
  8
2
  6
CONTINUOUS
 62
     2
 10
167.961428617
 20
113.82034
 30
0.0
 11
167.961428617
 21
114.17966
 31
0.0
  0
LINE
  8
2
  6
LTYPE2
 62
     2
 10
166.950841117
 20
114.0
 30
0.0
 11
170.544041117
 21
114.0
 31
0.0
  0
LINE
  8
2
  6
LTYPE2
 62
     2
 10
168.747441117
 20
115.7966
 30
0.0
 11
168.747441117
 21
112.2034
 31
0.0
  0
LINE
  8
2
  6
CONTINUOUS
 62
     2
 10
181.425
 20
108.7
 30
0.0
 11
179.244545255
 21
107.477045746
 31
0.0
  0
LINE
  8
2
  6
CONTINUOUS
 62
     2
 10
181.425
 20
108.7
 30
0.0
 11
180.148147926
 21
106.550663176
 31
0.0
  0
LINE
  8
2
  6
LTYPE2
 62
     2
 10
187.8
 20
155.0
 30
0.0
 11
187.8
 21
96.6
 31
0.0
  0
LINE
  8
2
  6
LTYPE2
 62
     2
 10
158.325
 20
125.0
 30
0.0
 11
209.0
 21
125.0
 31
0.0
  0
ARC
  8
2
  6
CONTINUOUS
 62
     2
 10
170.1
 20
125.5
 30
0.0
 40
1.0
 50
90.0
 51
180.0
  0
LINE
  8
2
  6
CONTINUOUS
 62
     2
 10
169.1
 20
125.5
 30
0.0
 11
169.1
 21
119.0
 31
0.0
  0
ARC
  8
2
  6
CONTINUOUS
 62
     2
 10
170.1
 20
119.0
 30
0.0
 40
1.0
 50
180.0
 51
270.0
  0
LINE
  8
2
  6
CONTINUOUS
 62
     2
 10
170.1
 20
118.0
 30
0.0
 11
205.5
 21
118.0
 31
0.0
  0
ARC
  8
2
  6
CONTINUOUS
 62
     2
 10
205.5
 20
119.0
 30
0.0
 40
1.0
 50
270.0
 51
0.0
  0
LINE
  8
2
  6
CONTINUOUS
 62
     2
 10
205.5
 20
126.5
 30
0.0
 11
170.1
 21
126.5
 31
0.0
  0
LINE
  8
2
  6
CONTINUOUS
 62
     2
 10
206.5
 20
119.0
 30
0.0
 11
206.5
 21
125.5
 31
0.0
  0
ARC
  8
2
  6
CONTINUOUS
 62
     2
 10
205.5
 20
125.5
 30
0.0
 40
1.0
 50
360.0
 51
90.0
  0
TEXT
  8
2
  6
CONTINUOUS
 62
     2
 10
181.7
 20
120.85
 30
2.0
 40
3.0
  1
銘　板
 50
0.0
 41
0.9
 51
0.0
  7
KANJI10
  0
LINE
  8
2
  6
LTYPE3
 62
     2
 10
171.8
 20
111.0
 30
0.0
 11
172.8
 21
111.0
 31
0.0
  0
LINE
  8
2
  6
LTYPE3
 62
     2
 10
171.8
 20
109.0
 30
0.0
 11
172.8
 21
109.0
 31
0.0
  0
LINE
  8
2
  6
LTYPE3
 62
     2
 10
203.8
 20
111.0
 30
0.0
 11
202.8
 21
111.0
 31
0.0
  0
LINE
  8
2
  6
LTYPE3
 62
     2
 10
203.8
 20
109.0
 30
0.0
 11
202.8
 21
109.0
 31
0.0
  0
LINE
  8
2
  6
CONTINUOUS
 62
     2
 10
180.625
 20
113.075
 30
0.0
 11
180.46202409
 21
115.068348653
 31
0.0
  0
LINE
  8
2
  6
CONTINUOUS
 62
     2
 10
180.625
 20
113.075
 30
0.0
 11
179.487184395
 21
114.719802617
 31
0.0
  0
LINE
  8
2
  6
CONTINUOUS
 62
     2
 10
180.625
 20
113.075
 30
0.0
 11
174.225
 21
130.975
 31
0.0
  0
CIRCLE
  8
2
  6
CONTINUOUS
 62
     2
 10
175.8
 20
110.0
 30
0.0
 40
1.0
  0
CIRCLE
  8
2
  6
CONTINUOUS
 62
     2
 10
199.8
 20
110.0
 30
0.0
 40
1.0
  0
CIRCLE
  8
2
  6
CONTINUOUS
 62
     2
 10
193.8
 20
110.0
 30
0.0
 40
1.6625
  0
LINE
  8
2
  6
CONTINUOUS
 62
     2
 10
193.56725
 20
109.085625
 30
0.0
 11
194.03275
 21
109.085625
 31
0.0
  0
LINE
  8
2
  6
CONTINUOUS
 62
     2
 10
194.03275
 20
110.914375
 30
0.0
 11
193.56725
 21
110.914375
 31
0.0
  0
LINE
  8
2
  6
CONTINUOUS
 62
     2
 10
194.03275
 20
109.085625
 30
0.0
 11
194.03275
 21
109.2685
 31
0.0
  0
LINE
  8
2
  6
CONTINUOUS
 62
     2
 10
194.5315
 20
109.76725
 30
0.0
 11
195.446126875
 21
109.76725
 31
0.0
  0
ARC
  8
2
  6
CONTINUOUS
 62
     2
 10
194.5315
 20
109.2685
 30
0.0
 40
0.49875
 50
90.0
 51
180.0
  0
LINE
  8
2
  6
CONTINUOUS
 62
     2
 10
193.56725
 20
109.2685
 30
0.0
 11
193.56725
 21
109.085625
 31
0.0
  0
LINE
  8
2
  6
CONTINUOUS
 62
     2
 10
192.17075
 20
109.76725
 30
0.0
 11
193.0685
 21
109.76725
 31
0.0
  0
ARC
  8
2
  6
CONTINUOUS
 62
     2
 10
193.0685
 20
109.2685
 30
0.0
 40
0.49875
 50
0.0
 51
90.0
  0
LINE
  8
2
  6
CONTINUOUS
 62
     2
 10
193.56725
 20
110.914375
 30
0.0
 11
193.56725
 21
110.7315
 31
0.0
  0
LINE
  8
2
  6
CONTINUOUS
 62
     2
 10
193.0685
 20
110.23275
 30
0.0
 11
192.153873125
 21
110.23275
 31
0.0
  0
ARC
  8
2
  6
CONTINUOUS
 62
     2
 10
193.0685
 20
110.7315
 30
0.0
 40
0.49875
 50
270.0
 51
0.0
  0
LINE
  8
2
  6
CONTINUOUS
 62
     2
 10
194.03275
 20
110.7315
 30
0.0
 11
194.03275
 21
110.914375
 31
0.0
  0
LINE
  8
2
  6
CONTINUOUS
 62
     2
 10
195.446126875
 20
110.23275
 30
0.0
 11
194.5315
 21
110.23275
 31
0.0
  0
ARC
  8
2
  6
CONTINUOUS
 62
     2
 10
194.5315
 20
110.7315
 30
0.0
 40
0.49875
 50
180.0
 51
270.0
  0
CIRCLE
  8
2
  6
CONTINUOUS
 62
     2
 10
181.8
 20
110.0
 30
0.0
 40
1.6625
  0
LINE
  8
2
  6
CONTINUOUS
 62
     2
 10
181.56725
 20
109.085625
 30
0.0
 11
182.03275
 21
109.085625
 31
0.0
  0
LINE
  8
2
  6
CONTINUOUS
 62
     2
 10
182.03275
 20
110.914375
 30
0.0
 11
181.56725
 21
110.914375
 31
0.0
  0
LINE
  8
2
  6
CONTINUOUS
 62
     2
 10
182.03275
 20
109.085625
 30
0.0
 11
182.03275
 21
109.2685
 31
0.0
  0
LINE
  8
2
  6
CONTINUOUS
 62
     2
 10
182.5315
 20
109.76725
 30
0.0
 11
183.446126875
 21
109.76725
 31
0.0
  0
ARC
  8
2
  6
CONTINUOUS
 62
     2
 10
182.5315
 20
109.2685
 30
0.0
 40
0.49875
 50
90.0
 51
180.0
  0
LINE
  8
2
  6
CONTINUOUS
 62
     2
 10
181.56725
 20
109.2685
 30
0.0
 11
181.56725
 21
109.085625
 31
0.0
  0
LINE
  8
2
  6
CONTINUOUS
 62
     2
 10
180.17075
 20
109.76725
 30
0.0
 11
181.0685
 21
109.76725
 31
0.0
  0
ARC
  8
2
  6
CONTINUOUS
 62
     2
 10
181.0685
 20
109.2685
 30
0.0
 40
0.49875
 50
0.0
 51
90.0
  0
LINE
  8
2
  6
CONTINUOUS
 62
     2
 10
181.56725
 20
110.914375
 30
0.0
 11
181.56725
 21
110.7315
 31
0.0
  0
LINE
  8
2
  6
CONTINUOUS
 62
     2
 10
181.0685
 20
110.23275
 30
0.0
 11
180.153873125
 21
110.23275
 31
0.0
  0
ARC
  8
2
  6
CONTINUOUS
 62
     2
 10
181.0685
 20
110.7315
 30
0.0
 40
0.49875
 50
270.0
 51
0.0
  0
LINE
  8
2
  6
CONTINUOUS
 62
     2
 10
182.03275
 20
110.7315
 30
0.0
 11
182.03275
 21
110.914375
 31
0.0
  0
LINE
  8
2
  6
CONTINUOUS
 62
     2
 10
183.446126875
 20
110.23275
 30
0.0
 11
182.5315
 21
110.23275
 31
0.0
  0
ARC
  8
2
  6
CONTINUOUS
 62
     2
 10
182.5315
 20
110.7315
 30
0.0
 40
0.49875
 50
180.0
 51
270.0
  0
LINE
  8
2
  6
LTYPE2
 62
     5
 10
174.8
 20
110.0
 30
0.0
 11
201.8
 21
110.0
 31
0.0
  0
LINE
  8
2
  6
LTYPE2
 62
     5
 10
193.8
 20
112.75
 30
0.0
 11
193.8
 21
107.25
 31
0.0
  0
LINE
  8
2
  6
LTYPE2
 62
     5
 10
199.8
 20
112.75
 30
0.0
 11
199.8
 21
107.25
 31
0.0
  0
LINE
  8
2
  6
LTYPE2
 62
     5
 10
181.8
 20
112.75
 30
0.0
 11
181.8
 21
107.25
 31
0.0
  0
LINE
  8
2
  6
LTYPE2
 62
     5
 10
175.8
 20
112.75
 30
0.0
 11
175.8
 21
107.25
 31
0.0
  0
CIRCLE
  8
2
  6
CONTINUOUS
 62
     5
 10
175.8
 20
110.0
 30
0.0
 40
1.3
  0
CIRCLE
  8
2
  6
CONTINUOUS
 62
     5
 10
199.8
 20
110.0
 30
0.0
 40
1.3
  0
LINE
  8
2
  6
CONTINUOUS
 62
     2
 10
181.8
 20
106.25
 30
0.0
 11
181.8
 21
90.25
 31
0.0
  0
LINE
  8
2
  6
CONTINUOUS
 62
     2
 10
181.8
 20
92.25
 30
0.0
 11
184.214814566
 21
91.602952387
 31
0.0
  0
LINE
  8
2
  6
CONTINUOUS
 62
     2
 10
181.8
 20
92.25
 30
0.0
 11
184.214814566
 21
92.897047613
 31
0.0
  0
LINE
  8
2
  6
CONTINUOUS
 62
     2
 10
181.8
 20
92.25
 30
0.0
 11
193.8
 21
92.25
 31
0.0
  0
LINE
  8
2
  6
CONTINUOUS
 62
     2
 10
193.8
 20
92.25
 30
0.0
 11
191.385185434
 21
92.897047613
 31
0.0
  0
LINE
  8
2
  6
CONTINUOUS
 62
     2
 10
193.8
 20
92.25
 30
0.0
 11
191.385185434
 21
91.602952387
 31
0.0
  0
LINE
  8
2
  6
CONTINUOUS
 62
     2
 10
193.8
 20
106.25
 30
0.0
 11
193.8
 21
90.25
 31
0.0
  0
TEXT
  8
2
  6
CONTINUOUS
 62
     2
 10
185.85
 20
93.25
 30
0.3
 40
3.0
  1
２４
 50
0.0
 41
0.6
 51
0.0
  7
KANJI4
  0
LINE
  8
0
  6
CONTINUOUS
 62
     1
 10
141.75
 20
149.75
 30
0.0
 11
141.75
 21
100.25
 31
0.0
  0
ARC
  8
0
  6
CONTINUOUS
 62
     1
 10
144.675
 20
149.25
 30
0.0
 40
0.5
 50
360.0
 51
90.0
  0
LINE
  8
0
  6
CONTINUOUS
 62
     1
 10
142.5
 20
149.75
 30
0.0
 11
141.75
 21
149.75
 31
0.0
  0
LINE
  8
0
  6
CONTINUOUS
 62
     1
 10
144.675
 20
149.75
 30
0.0
 11
142.5
 21
149.75
 31
0.0
  0
LINE
  8
0
  6
CONTINUOUS
 62
     1
 10
145.175
 20
149.25
 30
0.0
 11
145.175
 21
107.0
 31
0.0
  0
LINE
  8
0
  6
CONTINUOUS
 62
     1
 10
150.825
 20
106.0
 30
0.0
 11
151.225
 21
106.15
 31
0.0
  0
LINE
  8
0
  6
CONTINUOUS
 62
     1
 10
151.225
 20
106.15
 30
0.0
 11
152.225
 21
106.15
 31
0.0
  0
LINE
  8
0
  6
CONTINUOUS
 62
     1
 10
152.25
 20
113.7
 30
0.0
 11
152.25
 21
106.15
 31
0.0
  0
ARC
  8
0
  6
CONTINUOUS
 62
     1
 10
151.95
 20
113.7
 30
0.0
 40
0.3
 50
360.0
 51
90.0
  0
LINE
  8
0
  6
CONTINUOUS
 62
     1
 10
144.5
 20
106.0
 30
0.0
 11
150.825
 21
106.0
 31
0.0
  0
ARC
  8
0
  6
CONTINUOUS
 62
     1
 10
144.5
 20
105.5
 30
0.0
 40
0.5
 50
90.0
 51
180.0
  0
LINE
  8
0
  6
CONTINUOUS
 62
     1
 10
143.7
 20
100.25
 30
0.0
 11
141.75
 21
100.25
 31
0.0
  0
LINE
  8
0
  6
CONTINUOUS
 62
     1
 10
144.0
 20
100.55
 30
0.0
 11
144.0
 21
105.5
 31
0.0
  0
ARC
  8
0
  6
CONTINUOUS
 62
     1
 10
143.7
 20
100.55
 30
0.0
 40
0.3
 50
270.0
 51
0.0
  0
LINE
  8
0
  6
CONTINUOUS
 62
     1
 10
145.175
 20
107.0
 30
0.0
 11
152.225
 21
106.75
 31
0.0
  0
LINE
  8
0
  6
CONTINUOUS
 62
     1
 10
152.25
 20
111.0
 30
0.0
 11
151.05
 21
111.0
 31
0.0
  0
LINE
  8
0
  6
CONTINUOUS
 62
     1
 10
151.05
 20
111.0
 30
0.0
 11
151.05
 21
109.0
 31
0.0
  0
LINE
  8
0
  6
CONTINUOUS
 62
     1
 10
151.05
 20
109.0
 30
0.0
 11
152.25
 21
109.0
 31
0.0
  0
LINE
  8
0
  6
CONTINUOUS
 62
     1
 10
151.55
 20
111.0
 30
0.0
 11
151.55
 21
109.0
 31
0.0
  0
LINE
  8
0
  6
CONTINUOUS
 62
     1
 10
145.2
 20
114.0
 30
0.0
 11
151.95
 21
114.0
 31
0.0
  0
LINE
  8
0
  6
CONTINUOUS
 62
     1
 10
152.25
 20
112.0
 30
0.0
 11
145.2
 21
112.0
 31
0.0
  0
LINE
  8
0
  6
CONTINUOUS
 62
     1
 10
152.25
 20
108.0
 30
0.0
 11
145.2
 21
108.0
 31
0.0
  0
LINE
  8
0
  6
LTYPE2
 62
     2
 10
154.25
 20
110.0
 30
0.0
 11
139.25
 21
110.0
 31
0.0
  0
LINE
  8
0
  6
CONTINUOUS
 62
     2
 10
156.9
 20
110.0
 30
0.0
 11
157.547047613
 21
112.414814566
 31
0.0
  0
LINE
  8
0
  6
CONTINUOUS
 62
     2
 10
156.9
 20
110.0
 30
0.0
 11
156.252952387
 21
112.414814566
 31
0.0
  0
LINE
  8
0
  6
CONTINUOUS
 62
     2
 10
156.9
 20
110.0
 30
0.0
 11
156.9
 21
125.0
 31
0.0
  0
LINE
  8
0
  6
CONTINUOUS
 62
     2
 10
156.9
 20
125.0
 30
0.0
 11
156.252952387
 21
122.585185434
 31
0.0
  0
LINE
  8
0
  6
CONTINUOUS
 62
     2
 10
156.9
 20
125.0
 30
0.0
 11
157.547047613
 21
122.585185434
 31
0.0
  0
TEXT
  8
0
  6
CONTINUOUS
 62
     2
 10
155.9
 20
115.0
 30
0.2
 40
3.0
  1
３０
 50
90.0
 41
0.8
 51
0.0
  7
KANJI12
  0
TEXT
  8
0
  6
CONTINUOUS
 62
     2
 10
119.9
 20
128.025
 30
0.3
 40
3.0
  1
φ９９
 50
90.0
 41
0.6
 51
0.0
  7
KANJI4
  0
LINE
  8
0
  6
CONTINUOUS
 62
     2
 10
145.175
 20
150.25
 30
0.0
 11
145.175
 21
162.875001907
 31
0.0
  0
LINE
  8
0
  6
CONTINUOUS
 62
     2
 10
145.175
 20
160.875001907
 30
0.0
 11
147.589814566
 21
160.227954295
 31
0.0
  0
LINE
  8
0
  6
CONTINUOUS
 62
     2
 10
145.175
 20
160.875001907
 30
0.0
 11
147.589814566
 21
161.52204952
 31
0.0
  0
LINE
  8
0
  6
CONTINUOUS
 62
     2
 10
145.175
 20
160.875001907
 30
0.0
 11
152.25
 21
160.875001907
 31
0.0
  0
LINE
  8
0
  6
CONTINUOUS
 62
     2
 10
152.25
 20
160.875001907
 30
0.0
 11
149.835185434
 21
161.52204952
 31
0.0
  0
LINE
  8
0
  6
CONTINUOUS
 62
     2
 10
152.25
 20
160.875001907
 30
0.0
 11
149.835185434
 21
160.227954295
 31
0.0
  0
LINE
  8
0
  6
CONTINUOUS
 62
     2
 10
152.25
 20
114.7
 30
0.0
 11
152.25
 21
162.875001907
 31
0.0
  0
TEXT
  8
0
  6
CONTINUOUS
 62
     2
 10
144.6625
 20
161.875001907
 30
0.3
 40
3.0
  1
１３．５
 50
0.0
 41
0.6
 51
0.0
  7
KANJI4
  0
LINE
  8
0
  6
CONTINUOUS
 62
     2
 10
104.25
 20
170.525001907
 30
0.0
 11
106.664814566
 21
169.877954295
 31
0.0
  0
LINE
  8
0
  6
CONTINUOUS
 62
     2
 10
104.25
 20
170.525001907
 30
0.0
 11
106.664814566
 21
171.17204952
 31
0.0
  0
LINE
  8
0
  6
CONTINUOUS
 62
     2
 10
104.25
 20
170.525001907
 30
0.0
 11
152.25
 21
170.525001907
 31
0.0
  0
LINE
  8
0
  6
CONTINUOUS
 62
     2
 10
152.25
 20
170.525001907
 30
0.0
 11
149.835185434
 21
171.17204952
 31
0.0
  0
LINE
  8
0
  6
CONTINUOUS
 62
     2
 10
152.25
 20
170.525001907
 30
0.0
 11
149.835185434
 21
169.877954295
 31
0.0
  0
LINE
  8
0
  6
CONTINUOUS
 62
     2
 10
152.25
 20
161.875001907
 30
0.0
 11
152.25
 21
172.525001907
 31
0.0
  0
TEXT
  8
0
  6
CONTINUOUS
 62
     2
 10
125.25
 20
171.525001907
 30
0.3
 40
3.0
  1
１２２
 50
0.0
 41
0.6
 51
0.0
  7
KANJI4
  0
LINE
  8
0
  6
CONTINUOUS
 62
     2
 10
155.25
 20
110.0
 30
0.0
 11
159.15
 21
110.0
 31
0.0
  0
LINE
  8
0
  6
LTYPE4
 62
     2
 10
157.75
 20
125.0
 30
0.0
 11
90.175
 21
125.0
 31
0.0
  0
LINE
  8
0
  6
CONTINUOUS
 62
     2
 10
161.55
 20
130.459142431
 30
0.0
 11
161.55
 21
103.5
 31
0.0
  0
LINE
  8
0
  6
CONTINUOUS
 62
     2
 10
161.55
 20
146.5
 30
0.0
 11
161.55
 21
135.662428021
 31
0.0
  0
LINE
  8
0
  6
CONTINUOUS
 62
     1
 10
160.3
 20
130.459142431
 30
0.0
 11
160.3
 21
100.5
 31
0.0
  0
LINE
  8
0
  6
CONTINUOUS
 62
     1
 10
160.3
 20
149.5
 30
0.0
 11
160.3
 21
135.662428021
 31
0.0
  0
TEXT
  8
0
  6
CONTINUOUS
 62
     2
 10
153.525
 20
131.975
 30
0.2
 40
3.0
  1
端子カバー（透明樹脂）
 50
0.0
 41
0.666666667
 51
0.0
  7
KANJI13
  0
LINE
  8
2
  6
CONTINUOUS
 62
     2
 10
174.225
 20
130.975
 30
0.0
 11
152.8
 21
130.975
 31
0.0
  0
LINE
  8
0
  6
LTYPE4
 62
     2
 10
84.4
 20
125.0
 30
0.0
 11
23.4
 21
125.0
 31
0.0
  0
TEXT
  8
0
  6
CONTINUOUS
 62
     2
 10
135.725
 20
89.0
 30
0.3
 40
3.0
  1
Ｍ４ターミナルネジ
 50
0.0
 41
0.8
 51
0.0
  7
KANJI14
  0
TEXT
  8
0
  6
CONTINUOUS
 62
     2
 10
135.725
 20
89.0
 30
0.3
 40
3.0
  1
Ｍ４ターミナルネジ
 50
0.0
 41
0.8
 51
0.0
  7
KANJI14
  0
LINE
  8
0
  6
CONTINUOUS
 62
     2
 10
160.203151261
 20
88.0
 30
0.0
 11
135.725
 21
88.0
 31
0.0
  0
LINE
  8
2
  6
CONTINUOUS
 62
     2
 10
181.425
 20
108.7
 30
0.0
 11
160.203151261
 21
88.0
 31
0.0
  0
LINE
  8
0
  6
LTYPE4
 62
     2
 10
187.8
 20
82.15
 30
0.0
 11
187.8
 21
26.15
 31
0.0
  0
TEXT
  8
0
  6
CONTINUOUS
 62
     2
 10
123.164520078
 20
88.8
 30
0.3
 40
3.0
  1
放熱穴
 50
0.0
 41
0.9
 51
0.0
  7
KANJI8
  0
LINE
  8
0
  6
CONTINUOUS
 62
     2
 10
120.386539946
 20
88.0
 30
0.0
 11
132.725
 21
88.0
 31
0.0
  0
LINE
  8
0
  6
CONTINUOUS
 62
     2
 10
129.539520078
 20
101.55
 30
0.0
 11
120.386539946
 21
88.0
 31
0.0
  0
TEXT
  8
0
  6
CONTINUOUS
 62
     2
 10
67.0
 20
88.8
 30
0.3
 40
3.0
  1
機械的零位調整器
 50
0.0
 41
0.9
 51
0.0
  7
KANJI8
  0
LINE
  8
0
  6
CONTINUOUS
 62
     2
 10
66.0
 20
87.8
 30
0.0
 11
91.0
 21
87.8
 31
0.0
  0
TEXT
  8
0
  6
CONTINUOUS
 62
     1
 10
236.9
 20
23.9
 30
0.5
 40
5.0
  1
広角度計器　外形図
 50
0.0
 41
0.9
 51
0.0
  7
KANJI15
  0
TEXT
  8
0
  6
CONTINUOUS
 62
     1
 10
237.0
 20
33.425
 30
1.0
 40
5.0
  1
ＡＶＦ－１１Ｆ
 50
0.0
 41
0.9
 51
0.0
  7
KANJI16
  0
ENDSEC
  0
EOF
