  0
SECTION
  2
HEADER
  9
$ACADVER
  1
AC1009
  9
$DWGCODEPAGE
  3
dos932
  9
$EXTMIN
 10
0.0
 20
0.0
 30
0.0
  9
$EXTMAX
 10
297.0
 20
210.0
 30
0.0
  9
$LIMMIN
 10
0.0
 20
0.0
  9
$LIMMAX
 10
297.0
 20
210.0
  9
$LTSCALE
 40
1.0
  9
$PDMODE
 70
     0
  0
ENDSEC
  0
SECTION
  2
TABLES
  0
TABLE
  2
VPORT
 70
     1
  0
VPORT
  2
*ACTIVE
 70
     0
 10
0.0
 20
0.0
 11
1.0
 21
1.0
 12
148.5
 22
105.0
 13
0.0
 23
0.0
 14
10.0
 24
10.0
 15
10.0
 25
10.0
 16
0.0
 26
0.0
 36
1.0
 17
0.0
 27
0.0
 37
0.0
 40
297.0
 41
1.414285714
 42
50.0
 43
0.0
 44
0.0
 50
0.0
 51
0.0
 71
     0
 72
  1000
 73
     1
 74
     3
 75
     0
 76
     0
 77
     0
 78
     0
  0
ENDTAB
  0
TABLE
  2
LTYPE
 70
     3
  0
LTYPE
  2
LTYPE0
 70
    64
  3
HIDDEN
 72
    65
 73
     2
 40
2.0
 49
1.2
 49
-0.8
  0
LTYPE
  2
LTYPE1
 70
    64
  3
CENTER
 72
    65
 73
     4
 40
8.0
 49
5.6
 49
-0.8
 49
0.8
 49
-0.8
  0
LTYPE
  2
CONTINUOUS
 70
    64
  3
Solid line
 72
    65
 73
     0
 40
0.0
  0
ENDTAB
  0
TABLE
  2
LAYER
 70
   128
  0
LAYER
  2
0
 70
     0
 62
     7
  6
CONTINUOUS
  0
LAYER
  2
2
 70
     0
 62
     7
  6
CONTINUOUS
  0
LAYER
  2
3
 70
     0
 62
     7
  6
CONTINUOUS
  0
LAYER
  2
4
 70
     0
 62
     7
  6
CONTINUOUS
  0
LAYER
  2
5
 70
     0
 62
     7
  6
CONTINUOUS
  0
LAYER
  2
6
 70
     0
 62
     7
  6
CONTINUOUS
  0
LAYER
  2
7
 70
     0
 62
     7
  6
CONTINUOUS
  0
LAYER
  2
8
 70
     0
 62
     7
  6
CONTINUOUS
  0
LAYER
  2
9
 70
     0
 62
     7
  6
CONTINUOUS
  0
LAYER
  2
10
 70
     0
 62
     7
  6
CONTINUOUS
  0
LAYER
  2
11
 70
     0
 62
     7
  6
CONTINUOUS
  0
LAYER
  2
12
 70
     0
 62
     7
  6
CONTINUOUS
  0
LAYER
  2
13
 70
     0
 62
     7
  6
CONTINUOUS
  0
LAYER
  2
14
 70
     0
 62
     7
  6
CONTINUOUS
  0
LAYER
  2
15
 70
     0
 62
     7
  6
CONTINUOUS
  0
LAYER
  2
16
 70
     0
 62
     7
  6
CONTINUOUS
  0
LAYER
  2
17
 70
     0
 62
     7
  6
CONTINUOUS
  0
LAYER
  2
18
 70
     0
 62
     7
  6
CONTINUOUS
  0
LAYER
  2
19
 70
     0
 62
     7
  6
CONTINUOUS
  0
LAYER
  2
20
 70
     0
 62
     7
  6
CONTINUOUS
  0
LAYER
  2
21
 70
     0
 62
     7
  6
CONTINUOUS
  0
LAYER
  2
22
 70
     0
 62
     7
  6
CONTINUOUS
  0
LAYER
  2
23
 70
     0
 62
     7
  6
CONTINUOUS
  0
LAYER
  2
24
 70
     0
 62
     7
  6
CONTINUOUS
  0
LAYER
  2
25
 70
     0
 62
     7
  6
CONTINUOUS
  0
LAYER
  2
26
 70
     0
 62
     7
  6
CONTINUOUS
  0
LAYER
  2
27
 70
     0
 62
     7
  6
CONTINUOUS
  0
LAYER
  2
28
 70
     0
 62
     7
  6
CONTINUOUS
  0
LAYER
  2
29
 70
     0
 62
     7
  6
CONTINUOUS
  0
LAYER
  2
30
 70
     0
 62
     7
  6
CONTINUOUS
  0
LAYER
  2
31
 70
     0
 62
     7
  6
CONTINUOUS
  0
LAYER
  2
32
 70
     0
 62
     7
  6
CONTINUOUS
  0
LAYER
  2
33
 70
     0
 62
     7
  6
CONTINUOUS
  0
LAYER
  2
34
 70
     0
 62
     7
  6
CONTINUOUS
  0
LAYER
  2
35
 70
     0
 62
     7
  6
CONTINUOUS
  0
LAYER
  2
36
 70
     0
 62
     7
  6
CONTINUOUS
  0
LAYER
  2
37
 70
     0
 62
     7
  6
CONTINUOUS
  0
LAYER
  2
38
 70
     0
 62
     7
  6
CONTINUOUS
  0
LAYER
  2
39
 70
     0
 62
     7
  6
CONTINUOUS
  0
LAYER
  2
40
 70
     0
 62
     7
  6
CONTINUOUS
  0
LAYER
  2
41
 70
     0
 62
     7
  6
CONTINUOUS
  0
LAYER
  2
42
 70
     0
 62
     7
  6
CONTINUOUS
  0
LAYER
  2
43
 70
     0
 62
     7
  6
CONTINUOUS
  0
LAYER
  2
44
 70
     0
 62
     7
  6
CONTINUOUS
  0
LAYER
  2
45
 70
     0
 62
     7
  6
CONTINUOUS
  0
LAYER
  2
46
 70
     0
 62
     7
  6
CONTINUOUS
  0
LAYER
  2
47
 70
     0
 62
     7
  6
CONTINUOUS
  0
LAYER
  2
48
 70
     0
 62
     7
  6
CONTINUOUS
  0
LAYER
  2
49
 70
     0
 62
     7
  6
CONTINUOUS
  0
LAYER
  2
50
 70
     0
 62
     7
  6
CONTINUOUS
  0
LAYER
  2
51
 70
     0
 62
     7
  6
CONTINUOUS
  0
LAYER
  2
52
 70
     0
 62
     7
  6
CONTINUOUS
  0
LAYER
  2
53
 70
     0
 62
     7
  6
CONTINUOUS
  0
LAYER
  2
54
 70
     0
 62
     7
  6
CONTINUOUS
  0
LAYER
  2
55
 70
     0
 62
     7
  6
CONTINUOUS
  0
LAYER
  2
56
 70
     0
 62
     7
  6
CONTINUOUS
  0
LAYER
  2
57
 70
     0
 62
     7
  6
CONTINUOUS
  0
LAYER
  2
58
 70
     0
 62
     7
  6
CONTINUOUS
  0
LAYER
  2
59
 70
     0
 62
     7
  6
CONTINUOUS
  0
LAYER
  2
60
 70
     0
 62
     7
  6
CONTINUOUS
  0
LAYER
  2
61
 70
     0
 62
     7
  6
CONTINUOUS
  0
LAYER
  2
62
 70
     0
 62
     7
  6
CONTINUOUS
  0
LAYER
  2
63
 70
     0
 62
     7
  6
CONTINUOUS
  0
LAYER
  2
64
 70
     0
 62
     7
  6
CONTINUOUS
  0
LAYER
  2
65
 70
     0
 62
     7
  6
CONTINUOUS
  0
LAYER
  2
66
 70
     0
 62
     7
  6
CONTINUOUS
  0
LAYER
  2
67
 70
     0
 62
     7
  6
CONTINUOUS
  0
LAYER
  2
68
 70
     0
 62
     7
  6
CONTINUOUS
  0
LAYER
  2
69
 70
     0
 62
     7
  6
CONTINUOUS
  0
LAYER
  2
70
 70
     0
 62
     7
  6
CONTINUOUS
  0
LAYER
  2
71
 70
     0
 62
     7
  6
CONTINUOUS
  0
LAYER
  2
72
 70
     0
 62
     7
  6
CONTINUOUS
  0
LAYER
  2
73
 70
     0
 62
     7
  6
CONTINUOUS
  0
LAYER
  2
74
 70
     0
 62
     7
  6
CONTINUOUS
  0
LAYER
  2
75
 70
     0
 62
     7
  6
CONTINUOUS
  0
LAYER
  2
76
 70
     0
 62
     7
  6
CONTINUOUS
  0
LAYER
  2
77
 70
     0
 62
     7
  6
CONTINUOUS
  0
LAYER
  2
78
 70
     0
 62
     7
  6
CONTINUOUS
  0
LAYER
  2
79
 70
     0
 62
     7
  6
CONTINUOUS
  0
LAYER
  2
80
 70
     0
 62
     7
  6
CONTINUOUS
  0
LAYER
  2
81
 70
     0
 62
     7
  6
CONTINUOUS
  0
LAYER
  2
82
 70
     0
 62
     7
  6
CONTINUOUS
  0
LAYER
  2
83
 70
     0
 62
     7
  6
CONTINUOUS
  0
LAYER
  2
84
 70
     0
 62
     7
  6
CONTINUOUS
  0
LAYER
  2
85
 70
     0
 62
     7
  6
CONTINUOUS
  0
LAYER
  2
86
 70
     0
 62
     7
  6
CONTINUOUS
  0
LAYER
  2
87
 70
     0
 62
     7
  6
CONTINUOUS
  0
LAYER
  2
88
 70
     0
 62
     7
  6
CONTINUOUS
  0
LAYER
  2
89
 70
     0
 62
     7
  6
CONTINUOUS
  0
LAYER
  2
90
 70
     0
 62
     7
  6
CONTINUOUS
  0
LAYER
  2
91
 70
     0
 62
     7
  6
CONTINUOUS
  0
LAYER
  2
92
 70
     0
 62
     7
  6
CONTINUOUS
  0
LAYER
  2
93
 70
     0
 62
     7
  6
CONTINUOUS
  0
LAYER
  2
94
 70
     0
 62
     7
  6
CONTINUOUS
  0
LAYER
  2
95
 70
     0
 62
     7
  6
CONTINUOUS
  0
LAYER
  2
96
 70
     0
 62
     7
  6
CONTINUOUS
  0
LAYER
  2
97
 70
     0
 62
     7
  6
CONTINUOUS
  0
LAYER
  2
98
 70
     0
 62
     7
  6
CONTINUOUS
  0
LAYER
  2
99
 70
     0
 62
     7
  6
CONTINUOUS
  0
LAYER
  2
100
 70
     0
 62
     7
  6
CONTINUOUS
  0
LAYER
  2
101
 70
     0
 62
     7
  6
CONTINUOUS
  0
LAYER
  2
102
 70
     0
 62
     7
  6
CONTINUOUS
  0
LAYER
  2
103
 70
     0
 62
     7
  6
CONTINUOUS
  0
LAYER
  2
104
 70
     0
 62
     7
  6
CONTINUOUS
  0
LAYER
  2
105
 70
     0
 62
     7
  6
CONTINUOUS
  0
LAYER
  2
106
 70
     0
 62
     7
  6
CONTINUOUS
  0
LAYER
  2
107
 70
     0
 62
     7
  6
CONTINUOUS
  0
LAYER
  2
108
 70
     0
 62
     7
  6
CONTINUOUS
  0
LAYER
  2
109
 70
     0
 62
     7
  6
CONTINUOUS
  0
LAYER
  2
110
 70
     0
 62
     7
  6
CONTINUOUS
  0
LAYER
  2
111
 70
     0
 62
     7
  6
CONTINUOUS
  0
LAYER
  2
112
 70
     0
 62
     7
  6
CONTINUOUS
  0
LAYER
  2
113
 70
     0
 62
     7
  6
CONTINUOUS
  0
LAYER
  2
114
 70
     0
 62
     7
  6
CONTINUOUS
  0
LAYER
  2
115
 70
     0
 62
     7
  6
CONTINUOUS
  0
LAYER
  2
116
 70
     0
 62
     7
  6
CONTINUOUS
  0
LAYER
  2
117
 70
     0
 62
     7
  6
CONTINUOUS
  0
LAYER
  2
118
 70
     0
 62
     7
  6
CONTINUOUS
  0
LAYER
  2
119
 70
     0
 62
     7
  6
CONTINUOUS
  0
LAYER
  2
120
 70
     0
 62
     7
  6
CONTINUOUS
  0
LAYER
  2
121
 70
     0
 62
     7
  6
CONTINUOUS
  0
LAYER
  2
122
 70
     0
 62
     7
  6
CONTINUOUS
  0
LAYER
  2
123
 70
     0
 62
     7
  6
CONTINUOUS
  0
LAYER
  2
124
 70
     0
 62
     7
  6
CONTINUOUS
  0
LAYER
  2
125
 70
     0
 62
     7
  6
CONTINUOUS
  0
LAYER
  2
126
 70
     0
 62
     7
  6
CONTINUOUS
  0
LAYER
  2
127
 70
     0
 62
     7
  6
CONTINUOUS
  0
LAYER
  2
128
 70
     0
 62
     7
  6
CONTINUOUS
  0
ENDTAB
  0
TABLE
  2
STYLE
 70
     6
  0
STYLE
  2
STANDARD
 70
     0
 40
0.0
 41
1.0
 50
0.0
 71
     0
 42
0.2
  3
txt.shx
  4
extfont.shx
  0
STYLE
  2
KANJI0
 70
     0
 40
6.0
 41
0.9
 50
0.0
 71
     0
 42
6.0
  3
txt.shx
  4
extfont.shx
  0
STYLE
  2
KANJI1
 70
     0
 40
3.0
 41
0.6
 50
0.0
 71
     0
 42
3.0
  3
txt.shx
  4
extfont.shx
  0
STYLE
  2
KANJI2
 70
     0
 40
3.0
 41
0.6
 50
0.0
 71
     0
 42
3.0
  3
txt.shx
  4
extfont.shx
  0
STYLE
  2
KANJI3
 70
     0
 40
4.0
 41
0.9
 50
0.0
 71
     0
 42
4.0
  3
txt.shx
  4
extfont.shx
  0
STYLE
  2
KANJI4
 70
     0
 40
4.0
 41
0.9
 50
0.0
 71
     0
 42
4.0
  3
txt.shx
  4
extfont.shx
  0
ENDTAB
  0
TABLE
  2
VIEW
 70
     0
  0
ENDTAB
  0
ENDSEC
  0
SECTION
  2
BLOCKS
  0
ENDSEC
  0
SECTION
  2
ENTITIES
  0
TEXT
  8
0
  6
CONTINUOUS
 62
     3
 10
235.0
 20
12.0
 30
0.6
 40
6.0
  1
ＭＳ－１２３６９
 50
0.0
 41
0.9
 51
0.0
  7
KANJI0
  0
ARC
  8
0
  6
LTYPE0
 62
     2
 10
86.35000008
 20
102.94999994
 30
0.0
 40
4.257346597
 50
183.3664437
 51
273.366475733
  0
LINE
  8
0
  6
LTYPE0
 62
     2
 10
70.1
 20
105.2
 30
0.0
 11
70.1
 21
88.700001522
 31
0.0
  0
LINE
  8
0
  6
LTYPE0
 62
     2
 10
82.1
 20
102.700001198
 30
0.0
 11
82.1
 21
105.2
 31
0.0
  0
LINE
  8
0
  6
LTYPE0
 62
     2
 10
86.140001864
 20
89.7
 30
0.0
 11
103.6
 21
89.7
 31
0.0
  0
ARC
  8
0
  6
LTYPE0
 62
     2
 10
86.148853602
 20
84.98646366
 30
0.0
 40
4.713544651
 50
90.107597904
 51
159.108060614
  0
LINE
  8
0
  6
LTYPE0
 62
     2
 10
103.6
 20
98.7
 30
0.0
 11
86.600001198
 21
98.7
 31
0.0
  0
LINE
  8
0
  6
LTYPE0
 62
     2
 10
157.6
 20
105.2
 30
0.0
 11
157.6
 21
88.700001522
 31
0.0
  0
LINE
  8
0
  6
LTYPE0
 62
     2
 10
144.6
 20
88.699999414
 30
0.0
 11
144.6
 21
105.2
 31
0.0
  0
ARC
  8
0
  6
LTYPE0
 62
     2
 10
151.099999916
 20
89.220833293
 30
0.0
 40
6.520833293
 50
184.581224924
 51
355.41879366
  0
LINE
  8
0
  6
LTYPE1
 62
     2
 10
138.6
 20
94.2
 30
0.0
 11
163.6
 21
94.2
 31
0.0
  0
LINE
  8
0
  6
LTYPE1
 62
     2
 10
151.1
 20
110.2
 30
0.0
 11
151.1
 21
76.2
 31
0.0
  0
LINE
  8
0
  6
CONTINUOUS
 62
     2
 10
104.6
 20
98.7
 30
0.0
 11
111.6
 21
98.7
 31
0.0
  0
LINE
  8
0
  6
CONTINUOUS
 62
     2
 10
109.6
 20
98.7
 30
0.0
 11
108.952952387
 21
96.285185434
 31
0.0
  0
LINE
  8
0
  6
CONTINUOUS
 62
     2
 10
109.6
 20
98.7
 30
0.0
 11
110.247047613
 21
96.285185434
 31
0.0
  0
LINE
  8
0
  6
CONTINUOUS
 62
     2
 10
109.6
 20
98.7
 30
0.0
 11
109.6
 21
89.7
 31
0.0
  0
LINE
  8
0
  6
CONTINUOUS
 62
     2
 10
109.6
 20
89.7
 30
0.0
 11
110.247047613
 21
92.114814566
 31
0.0
  0
LINE
  8
0
  6
CONTINUOUS
 62
     2
 10
109.6
 20
89.7
 30
0.0
 11
108.952952387
 21
92.114814566
 31
0.0
  0
LINE
  8
0
  6
CONTINUOUS
 62
     2
 10
104.6
 20
89.7
 30
0.0
 11
111.6
 21
89.7
 31
0.0
  0
TEXT
  8
0
  6
CONTINUOUS
 62
     2
 10
108.6
 20
92.25
 30
0.3
 40
3.0
  1
φ９
 50
90.0
 41
0.6
 51
0.0
  7
KANJI1
  0
LINE
  8
0
  6
CONTINUOUS
 62
     2
 10
104.6
 20
99.7
 30
0.0
 11
119.6
 21
99.7
 31
0.0
  0
LINE
  8
0
  6
CONTINUOUS
 62
     2
 10
117.6
 20
99.7
 30
0.0
 11
116.952952387
 21
97.285185434
 31
0.0
  0
LINE
  8
0
  6
CONTINUOUS
 62
     2
 10
117.6
 20
99.7
 30
0.0
 11
118.247047613
 21
97.285185434
 31
0.0
  0
LINE
  8
0
  6
CONTINUOUS
 62
     2
 10
117.6
 20
99.7
 30
0.0
 11
117.6
 21
88.7
 31
0.0
  0
LINE
  8
0
  6
CONTINUOUS
 62
     2
 10
117.6
 20
88.7
 30
0.0
 11
118.247047613
 21
91.114814566
 31
0.0
  0
LINE
  8
0
  6
CONTINUOUS
 62
     2
 10
117.6
 20
88.7
 30
0.0
 11
116.952952387
 21
91.114814566
 31
0.0
  0
LINE
  8
0
  6
CONTINUOUS
 62
     2
 10
104.6
 20
88.7
 30
0.0
 11
119.6
 21
88.7
 31
0.0
  0
TEXT
  8
0
  6
CONTINUOUS
 62
     2
 10
116.6
 20
91.2
 30
0.3
 40
3.0
  1
φ１１
 50
90.0
 41
0.6
 51
0.0
  7
KANJI1
  0
LINE
  8
0
  6
CONTINUOUS
 62
     2
 10
84.4
 20
88.1
 30
0.0
 11
85.623826076
 21
85.920034465
 31
0.0
  0
LINE
  8
0
  6
CONTINUOUS
 62
     2
 10
84.4
 20
88.1
 30
0.0
 11
86.549847239
 21
86.824007505
 31
0.0
  0
LINE
  8
0
  6
CONTINUOUS
 62
     2
 10
84.4
 20
88.1
 30
0.0
 11
88.5
 21
83.9
 31
0.0
  0
LINE
  8
0
  6
CONTINUOUS
 62
     2
 10
88.5
 20
83.9
 30
0.0
 11
94.2
 21
83.9
 31
0.0
  0
TEXT
  8
0
  6
CONTINUOUS
 62
     2
 10
88.5
 20
84.9
 30
0.1
 40
3.0
  1
Ｒ３
 50
0.0
 41
0.6
 51
0.0
  7
KANJI2
  0
LINE
  8
0
  6
CONTINUOUS
 62
     2
 10
71.9
 20
82.4
 30
0.0
 11
69.875053033
 21
80.933852061
 31
0.0
  0
LINE
  8
0
  6
CONTINUOUS
 62
     2
 10
71.9
 20
82.4
 30
0.0
 11
70.879418455
 21
80.117805155
 31
0.0
  0
LINE
  8
0
  6
CONTINUOUS
 62
     2
 10
71.9
 20
82.4
 30
0.0
 11
65.4
 21
74.4
 31
0.0
  0
LINE
  8
0
  6
CONTINUOUS
 62
     2
 10
65.4
 20
74.4
 30
0.0
 11
61.7
 21
74.4
 31
0.0
  0
TEXT
  8
0
  6
CONTINUOUS
 62
     2
 10
61.7
 20
75.4
 30
0.1
 40
3.0
  1
Ｒ６
 50
0.0
 41
0.6
 51
0.0
  7
KANJI2
  0
LINE
  8
0
  6
CONTINUOUS
 62
     2
 10
64.6
 20
94.2
 30
0.0
 11
57.6
 21
94.2
 31
0.0
  0
LINE
  8
0
  6
CONTINUOUS
 62
     2
 10
59.6
 20
94.2
 30
0.0
 11
60.247047613
 21
96.614814566
 31
0.0
  0
LINE
  8
0
  6
CONTINUOUS
 62
     2
 10
59.6
 20
94.2
 30
0.0
 11
58.952952387
 21
96.614814566
 31
0.0
  0
LINE
  8
0
  6
CONTINUOUS
 62
     2
 10
59.6
 20
94.2
 30
0.0
 11
59.6
 21
105.2
 31
0.0
  0
LINE
  8
0
  6
CONTINUOUS
 62
     2
 10
59.6
 20
105.2
 30
0.0
 11
58.952952387
 21
102.785185434
 31
0.0
  0
LINE
  8
0
  6
CONTINUOUS
 62
     2
 10
59.6
 20
105.2
 30
0.0
 11
60.247047613
 21
102.785185434
 31
0.0
  0
LINE
  8
0
  6
CONTINUOUS
 62
     2
 10
67.6
 20
105.2
 30
0.0
 11
57.6
 21
105.2
 31
0.0
  0
TEXT
  8
0
  6
CONTINUOUS
 62
     2
 10
58.6
 20
97.75
 30
0.3
 40
3.0
  1
１１
 50
90.0
 41
0.6
 51
0.0
  7
KANJI1
  0
LINE
  8
0
  6
CONTINUOUS
 62
     2
 10
57.6
 20
105.2
 30
0.0
 11
50.6
 21
105.2
 31
0.0
  0
LINE
  8
0
  6
CONTINUOUS
 62
     2
 10
52.6
 20
105.2
 30
0.0
 11
51.952952387
 21
102.785185434
 31
0.0
  0
LINE
  8
0
  6
CONTINUOUS
 62
     2
 10
52.6
 20
105.2
 30
0.0
 11
53.247047613
 21
102.785185434
 31
0.0
  0
LINE
  8
0
  6
CONTINUOUS
 62
     2
 10
52.6
 20
105.2
 30
0.0
 11
52.6
 21
81.2
 31
0.0
  0
LINE
  8
0
  6
CONTINUOUS
 62
     2
 10
52.6
 20
81.2
 30
0.0
 11
53.247047613
 21
83.614814566
 31
0.0
  0
LINE
  8
0
  6
CONTINUOUS
 62
     2
 10
52.6
 20
81.2
 30
0.0
 11
51.952952387
 21
83.614814566
 31
0.0
  0
LINE
  8
0
  6
CONTINUOUS
 62
     2
 10
75.100001223
 20
81.2
 30
0.0
 11
50.6
 21
81.2
 31
0.0
  0
TEXT
  8
0
  6
CONTINUOUS
 62
     2
 10
51.6
 20
91.25
 30
0.3
 40
3.0
  1
２４
 50
90.0
 41
0.6
 51
0.0
  7
KANJI1
  0
LINE
  8
0
  6
CONTINUOUS
 62
     2
 10
70.1
 20
106.2
 30
0.0
 11
70.1
 21
113.2
 31
0.0
  0
LINE
  8
0
  6
CONTINUOUS
 62
     2
 10
70.1
 20
111.2
 30
0.0
 11
72.514814566
 21
110.552952387
 31
0.0
  0
LINE
  8
0
  6
CONTINUOUS
 62
     2
 10
70.1
 20
111.2
 30
0.0
 11
72.514814566
 21
111.847047613
 31
0.0
  0
LINE
  8
0
  6
CONTINUOUS
 62
     2
 10
70.1
 20
111.2
 30
0.0
 11
82.1
 21
111.2
 31
0.0
  0
LINE
  8
0
  6
CONTINUOUS
 62
     2
 10
82.1
 20
111.2
 30
0.0
 11
79.685185434
 21
111.847047613
 31
0.0
  0
LINE
  8
0
  6
CONTINUOUS
 62
     2
 10
82.1
 20
111.2
 30
0.0
 11
79.685185434
 21
110.552952387
 31
0.0
  0
LINE
  8
0
  6
CONTINUOUS
 62
     2
 10
82.1
 20
106.2
 30
0.0
 11
82.1
 21
113.2
 31
0.0
  0
LINE
  8
0
  6
CONTINUOUS
 62
     2
 10
68.6
 20
106.2
 30
0.0
 11
68.6
 21
122.2
 31
0.0
  0
LINE
  8
0
  6
CONTINUOUS
 62
     2
 10
68.6
 20
120.2
 30
0.0
 11
71.014814566
 21
119.552952387
 31
0.0
  0
LINE
  8
0
  6
CONTINUOUS
 62
     2
 10
68.6
 20
120.2
 30
0.0
 11
71.014814566
 21
120.847047613
 31
0.0
  0
LINE
  8
0
  6
CONTINUOUS
 62
     2
 10
68.6
 20
120.2
 30
0.0
 11
83.6
 21
120.2
 31
0.0
  0
LINE
  8
0
  6
CONTINUOUS
 62
     2
 10
83.6
 20
120.2
 30
0.0
 11
81.185185434
 21
120.847047613
 31
0.0
  0
LINE
  8
0
  6
CONTINUOUS
 62
     2
 10
83.6
 20
120.2
 30
0.0
 11
81.185185434
 21
119.552952387
 31
0.0
  0
LINE
  8
0
  6
CONTINUOUS
 62
     2
 10
83.6
 20
106.2
 30
0.0
 11
83.6
 21
122.2
 31
0.0
  0
TEXT
  8
0
  6
CONTINUOUS
 62
     2
 10
73.1
 20
121.2
 30
0.3
 40
3.0
  1
φ１５
 50
0.0
 41
0.6
 51
0.0
  7
KANJI1
  0
TEXT
  8
0
  6
CONTINUOUS
 62
     2
 10
73.25
 20
112.2
 30
0.3
 40
3.0
  1
φ１２
 50
0.0
 41
0.6
 51
0.0
  7
KANJI1
  0
LINE
  8
0
  6
CONTINUOUS
 62
     2
 10
84.4
 20
100.7
 30
0.0
 11
86.470502621
 21
102.101077763
 31
0.0
  0
LINE
  8
0
  6
CONTINUOUS
 62
     2
 10
84.4
 20
100.7
 30
0.0
 11
85.492568987
 21
102.948620246
 31
0.0
  0
LINE
  8
0
  6
CONTINUOUS
 62
     2
 10
84.4
 20
100.7
 30
0.0
 11
88.3
 21
105.2
 31
0.0
  0
LINE
  8
0
  6
CONTINUOUS
 62
     2
 10
88.3
 20
105.2
 30
0.0
 11
92.0
 21
105.2
 31
0.0
  0
TEXT
  8
0
  6
CONTINUOUS
 62
     2
 10
88.3
 20
106.2
 30
0.1
 40
3.0
  1
Ｒ３
 50
0.0
 41
0.6
 51
0.0
  7
KANJI2
  0
LINE
  8
0
  6
CONTINUOUS
 62
     2
 10
68.6
 20
122.2
 30
0.0
 11
68.6
 21
131.2
 31
0.0
  0
LINE
  8
0
  6
CONTINUOUS
 62
     2
 10
68.6
 20
129.2
 30
0.0
 11
71.014814566
 21
128.552952387
 31
0.0
  0
LINE
  8
0
  6
CONTINUOUS
 62
     2
 10
68.6
 20
129.2
 30
0.0
 11
71.014814566
 21
129.847047613
 31
0.0
  0
LINE
  8
0
  6
CONTINUOUS
 62
     2
 10
68.6
 20
129.2
 30
0.0
 11
103.6
 21
129.2
 31
0.0
  0
LINE
  8
0
  6
CONTINUOUS
 62
     2
 10
103.6
 20
129.2
 30
0.0
 11
101.185185434
 21
129.847047613
 31
0.0
  0
LINE
  8
0
  6
CONTINUOUS
 62
     2
 10
103.6
 20
129.2
 30
0.0
 11
101.185185434
 21
128.552952387
 31
0.0
  0
LINE
  8
0
  6
CONTINUOUS
 62
     2
 10
103.6
 20
100.7
 30
0.0
 11
103.6
 21
131.2
 31
0.0
  0
TEXT
  8
0
  6
CONTINUOUS
 62
     2
 10
84.15
 20
130.2
 30
0.3
 40
3.0
  1
３５
 50
0.0
 41
0.6
 51
0.0
  7
KANJI1
  0
LINE
  8
0
  6
LTYPE0
 62
     2
 10
103.6
 20
147.7
 30
0.0
 11
82.1
 21
147.7
 31
0.0
  0
LINE
  8
0
  6
LTYPE0
 62
     2
 10
82.1
 20
156.7
 30
0.0
 11
103.6
 21
156.7
 31
0.0
  0
LINE
  8
0
  6
LTYPE1
 62
     2
 10
108.6
 20
152.2
 30
0.0
 11
63.6
 21
152.2
 31
0.0
  0
TEXT
  8
0
  6
CONTINUOUS
 62
     2
 10
69.9
 20
63.5
 30
0.4
 40
4.0
  1
ｔ＝１
 50
0.0
 41
0.9
 51
0.0
  7
KANJI3
  0
CIRCLE
  8
0
  6
CONTINUOUS
 62
     1
 10
76.1
 20
152.2
 30
0.0
 40
7.5
  0
LINE
  8
0
  6
CONTINUOUS
 62
     1
 10
81.199019514
 20
157.7
 30
0.0
 11
103.6
 21
157.7
 31
0.0
  0
LINE
  8
0
  6
CONTINUOUS
 62
     1
 10
103.6
 20
157.7
 30
0.0
 11
103.6
 21
146.7
 31
0.0
  0
LINE
  8
0
  6
CONTINUOUS
 62
     1
 10
103.6
 20
146.7
 30
0.0
 11
81.199019514
 21
146.7
 31
0.0
  0
LINE
  8
0
  6
CONTINUOUS
 62
     1
 10
83.6
 20
102.700002802
 30
0.0
 11
83.6
 21
105.2
 31
0.0
  0
LINE
  8
0
  6
CONTINUOUS
 62
     1
 10
83.6
 20
105.2
 30
0.0
 11
68.6
 21
105.2
 31
0.0
  0
LINE
  8
0
  6
CONTINUOUS
 62
     1
 10
103.6
 20
99.7
 30
0.0
 11
86.600002833
 21
99.7
 31
0.0
  0
ARC
  8
0
  6
CONTINUOUS
 62
     1
 10
86.6
 20
102.7
 30
0.0
 40
3.0
 50
179.999946485
 51
270.000079263
  0
LINE
  8
0
  6
CONTINUOUS
 62
     1
 10
68.6
 20
105.2
 30
0.0
 11
68.6
 21
88.7
 31
0.0
  0
ARC
  8
0
  6
CONTINUOUS
 62
     1
 10
86.14
 20
85.7
 30
0.0
 40
3.0
 50
89.999920737
 51
169.148219537
  0
ARC
  8
0
  6
CONTINUOUS
 62
     1
 10
76.1
 20
88.7
 30
0.0
 40
7.5
 50
180.0
 51
341.053059085
  0
LINE
  8
0
  6
CONTINUOUS
 62
     1
 10
86.14000415
 20
88.7
 30
0.0
 11
103.6
 21
88.7
 31
0.0
  0
LINE
  8
0
  6
CONTINUOUS
 62
     1
 10
103.6
 20
88.7
 30
0.0
 11
103.6
 21
99.7
 31
0.0
  0
ARC
  8
0
  6
LTYPE0
 62
     2
 10
76.1
 20
88.7
 30
0.0
 40
6.0
 50
179.999985466
 51
340.197687588
  0
ARC
  8
0
  6
CONTINUOUS
 62
     1
 10
151.1
 20
88.7
 30
0.0
 40
7.5
 50
198.946940915
 51
0.0
  0
ARC
  8
0
  6
CONTINUOUS
 62
     1
 10
151.1
 20
88.7
 30
0.0
 40
7.5
 50
180.0
 51
0.0
  0
LINE
  8
0
  6
CONTINUOUS
 62
     1
 10
158.6
 20
105.2
 30
0.0
 11
158.6
 21
88.7
 31
0.0
  0
LINE
  8
0
  6
CONTINUOUS
 62
     1
 10
143.6
 20
105.2
 30
0.0
 11
158.6
 21
105.2
 31
0.0
  0
LINE
  8
0
  6
CONTINUOUS
 62
     1
 10
143.6
 20
88.7
 30
0.0
 11
143.6
 21
105.2
 31
0.0
  0
CIRCLE
  8
0
  6
CONTINUOUS
 62
     1
 10
151.1
 20
94.2
 30
0.0
 40
5.5
  0
CIRCLE
  8
0
  6
CONTINUOUS
 62
     1
 10
151.1
 20
94.2
 30
0.0
 40
4.5
  0
CIRCLE
  8
0
  6
CONTINUOUS
 62
     1
 10
76.1
 20
152.2
 30
0.0
 40
6.0
  0
LINE
  8
0
  6
LTYPE1
 62
     2
 10
76.1
 20
164.7
 30
0.0
 11
76.1
 21
139.7
 31
0.0
  0
LINE
  8
0
  6
LTYPE1
 62
     2
 10
76.1
 20
110.2
 30
0.0
 11
76.1
 21
76.2
 31
0.0
  0
LINE
  8
0
  6
CONTINUOUS
 62
     1
 10
170.3
 20
57.0
 30
0.0
 11
130.3
 21
57.0
 31
0.0
  0
LINE
  8
0
  6
CONTINUOUS
 62
     1
 10
170.3
 20
65.0
 30
0.0
 11
130.3
 21
65.0
 31
0.0
  0
LINE
  8
0
  6
CONTINUOUS
 62
     1
 10
145.3
 20
65.0
 30
0.0
 11
145.3
 21
41.0
 31
0.0
  0
LINE
  8
0
  6
CONTINUOUS
 62
     1
 10
170.3
 20
41.0
 30
0.0
 11
170.3
 21
65.0
 31
0.0
  0
LINE
  8
0
  6
CONTINUOUS
 62
     1
 10
130.3
 20
65.0
 30
0.0
 11
130.3
 21
41.0
 31
0.0
  0
LINE
  8
0
  6
CONTINUOUS
 62
     1
 10
170.3
 20
49.0
 30
0.0
 11
130.3
 21
49.0
 31
0.0
  0
LINE
  8
0
  6
CONTINUOUS
 62
     1
 10
130.3
 20
41.0
 30
0.0
 11
170.3
 21
41.0
 31
0.0
  0
TEXT
  8
0
  6
CONTINUOUS
 62
     2
 10
136.3
 20
51.0
 30
0.4
 40
4.0
  1
１
 50
0.0
 41
0.9
 51
0.0
  7
KANJI3
  0
TEXT
  8
0
  6
CONTINUOUS
 62
     2
 10
136.3
 20
43.0
 30
0.4
 40
4.0
  1
２
 50
0.0
 41
0.9
 51
0.0
  7
KANJI3
  0
TEXT
  8
0
  6
CONTINUOUS
 62
     2
 10
132.0
 20
59.0
 30
0.4
 40
4.0
  1
種　類
 50
0.0
 41
0.9
 51
0.0
  7
KANJI3
  0
TEXT
  8
0
  6
CONTINUOUS
 62
     2
 10
155.8
 20
59.0
 30
0.4
 40
4.0
  1
色
 50
0.0
 41
0.9
 51
0.0
  7
KANJI3
  0
TEXT
  8
0
  6
CONTINUOUS
 62
     2
 10
155.8
 20
51.0
 30
0.4
 40
4.0
  1
赤
 50
0.0
 41
0.9
 51
0.0
  7
KANJI3
  0
TEXT
  8
0
  6
CONTINUOUS
 62
     2
 10
155.8
 20
43.0
 30
0.4
 40
4.0
  1
黒
 50
0.0
 41
0.9
 51
0.0
  7
KANJI3
  0
TEXT
  8
0
  6
CONTINUOUS
 62
     2
 10
236.5
 20
38.5
 30
0.4
 40
4.0
  1
Ｍ－５（Ｌ型キャップ）
 50
0.0
 41
0.9
 51
0.0
  7
KANJI4
  0
TEXT
  8
0
  6
CONTINUOUS
 62
     2
 10
236.5
 20
28.5
 30
0.4
 40
4.0
  1
ビニールキャップ
 50
0.0
 41
0.9
 51
0.0
  7
KANJI4
  0
LINE
  8
0
  6
LTYPE1
 62
     2
 10
63.6
 20
94.2
 30
0.0
 11
105.0
 21
94.2
 31
0.0
  0
ENDSEC
  0
EOF
