  0
SECTION
  2
HEADER
  9
$ACADVER
  1
AC1009
  9
$DWGCODEPAGE
  3
dos932
  9
$EXTMIN
 10
0.0
 20
0.0
 30
0.0
  9
$EXTMAX
 10
297.0
 20
210.0
 30
0.0
  9
$LIMMIN
 10
0.0
 20
0.0
  9
$LIMMAX
 10
297.0
 20
210.0
  9
$LTSCALE
 40
1.0
  9
$PDMODE
 70
     0
  0
ENDSEC
  0
SECTION
  2
TABLES
  0
TABLE
  2
VPORT
 70
     1
  0
VPORT
  2
*ACTIVE
 70
     0
 10
0.0
 20
0.0
 11
1.0
 21
1.0
 12
148.5
 22
105.0
 13
0.0
 23
0.0
 14
10.0
 24
10.0
 15
10.0
 25
10.0
 16
0.0
 26
0.0
 36
1.0
 17
0.0
 27
0.0
 37
0.0
 40
297.0
 41
1.414285714
 42
50.0
 43
0.0
 44
0.0
 50
0.0
 51
0.0
 71
     0
 72
  1000
 73
     1
 74
     3
 75
     0
 76
     0
 77
     0
 78
     0
  0
ENDTAB
  0
TABLE
  2
LTYPE
 70
     4
  0
LTYPE
  2
CONTINUOUS
 70
    64
  3
Solid line
 72
    65
 73
     0
 40
0.0
  0
LTYPE
  2
LTYPE1
 70
    64
  3
CENTER
 72
    65
 73
     4
 40
15.0
 49
10.5
 49
-1.5
 49
1.5
 49
-1.5
  0
LTYPE
  2
LTYPE2
 70
    64
  3
HIDDEN
 72
    65
 73
     2
 40
3.0
 49
1.8
 49
-1.2
  0
LTYPE
  2
LTYPE3
 70
    64
  3
CENTER
 72
    65
 73
     4
 40
0.5
 49
0.35
 49
-0.05
 49
0.05
 49
-0.05
  0
ENDTAB
  0
TABLE
  2
LAYER
 70
   128
  0
LAYER
  2
0
 70
     0
 62
     7
  6
CONTINUOUS
  0
LAYER
  2
2
 70
     0
 62
     7
  6
CONTINUOUS
  0
LAYER
  2
3
 70
     0
 62
     7
  6
CONTINUOUS
  0
LAYER
  2
4
 70
     0
 62
     7
  6
CONTINUOUS
  0
LAYER
  2
5
 70
     0
 62
     7
  6
CONTINUOUS
  0
LAYER
  2
6
 70
     0
 62
     7
  6
CONTINUOUS
  0
LAYER
  2
7
 70
     0
 62
     7
  6
CONTINUOUS
  0
LAYER
  2
8
 70
     0
 62
     7
  6
CONTINUOUS
  0
LAYER
  2
9
 70
     0
 62
     7
  6
CONTINUOUS
  0
LAYER
  2
10
 70
     0
 62
     7
  6
CONTINUOUS
  0
LAYER
  2
11
 70
     0
 62
     7
  6
CONTINUOUS
  0
LAYER
  2
12
 70
     0
 62
     7
  6
CONTINUOUS
  0
LAYER
  2
13
 70
     0
 62
     7
  6
CONTINUOUS
  0
LAYER
  2
14
 70
     0
 62
     7
  6
CONTINUOUS
  0
LAYER
  2
15
 70
     0
 62
     7
  6
CONTINUOUS
  0
LAYER
  2
16
 70
     0
 62
     7
  6
CONTINUOUS
  0
LAYER
  2
17
 70
     0
 62
     7
  6
CONTINUOUS
  0
LAYER
  2
18
 70
     0
 62
     7
  6
CONTINUOUS
  0
LAYER
  2
19
 70
     0
 62
     7
  6
CONTINUOUS
  0
LAYER
  2
20
 70
     0
 62
     7
  6
CONTINUOUS
  0
LAYER
  2
21
 70
     0
 62
     7
  6
CONTINUOUS
  0
LAYER
  2
22
 70
     0
 62
     7
  6
CONTINUOUS
  0
LAYER
  2
23
 70
     0
 62
     7
  6
CONTINUOUS
  0
LAYER
  2
24
 70
     0
 62
     7
  6
CONTINUOUS
  0
LAYER
  2
25
 70
     0
 62
     7
  6
CONTINUOUS
  0
LAYER
  2
26
 70
     0
 62
     7
  6
CONTINUOUS
  0
LAYER
  2
27
 70
     0
 62
     7
  6
CONTINUOUS
  0
LAYER
  2
28
 70
     0
 62
     7
  6
CONTINUOUS
  0
LAYER
  2
29
 70
     0
 62
     7
  6
CONTINUOUS
  0
LAYER
  2
30
 70
     0
 62
     7
  6
CONTINUOUS
  0
LAYER
  2
31
 70
     0
 62
     7
  6
CONTINUOUS
  0
LAYER
  2
32
 70
     0
 62
     7
  6
CONTINUOUS
  0
LAYER
  2
33
 70
     0
 62
     7
  6
CONTINUOUS
  0
LAYER
  2
34
 70
     0
 62
     7
  6
CONTINUOUS
  0
LAYER
  2
35
 70
     0
 62
     7
  6
CONTINUOUS
  0
LAYER
  2
36
 70
     0
 62
     7
  6
CONTINUOUS
  0
LAYER
  2
37
 70
     0
 62
     7
  6
CONTINUOUS
  0
LAYER
  2
38
 70
     0
 62
     7
  6
CONTINUOUS
  0
LAYER
  2
39
 70
     0
 62
     7
  6
CONTINUOUS
  0
LAYER
  2
40
 70
     0
 62
     7
  6
CONTINUOUS
  0
LAYER
  2
41
 70
     0
 62
     7
  6
CONTINUOUS
  0
LAYER
  2
42
 70
     0
 62
     7
  6
CONTINUOUS
  0
LAYER
  2
43
 70
     0
 62
     7
  6
CONTINUOUS
  0
LAYER
  2
44
 70
     0
 62
     7
  6
CONTINUOUS
  0
LAYER
  2
45
 70
     0
 62
     7
  6
CONTINUOUS
  0
LAYER
  2
46
 70
     0
 62
     7
  6
CONTINUOUS
  0
LAYER
  2
47
 70
     0
 62
     7
  6
CONTINUOUS
  0
LAYER
  2
48
 70
     0
 62
     7
  6
CONTINUOUS
  0
LAYER
  2
49
 70
     0
 62
     7
  6
CONTINUOUS
  0
LAYER
  2
50
 70
     0
 62
     7
  6
CONTINUOUS
  0
LAYER
  2
51
 70
     0
 62
     7
  6
CONTINUOUS
  0
LAYER
  2
52
 70
     0
 62
     7
  6
CONTINUOUS
  0
LAYER
  2
53
 70
     0
 62
     7
  6
CONTINUOUS
  0
LAYER
  2
54
 70
     0
 62
     7
  6
CONTINUOUS
  0
LAYER
  2
55
 70
     0
 62
     7
  6
CONTINUOUS
  0
LAYER
  2
56
 70
     0
 62
     7
  6
CONTINUOUS
  0
LAYER
  2
57
 70
     0
 62
     7
  6
CONTINUOUS
  0
LAYER
  2
58
 70
     0
 62
     7
  6
CONTINUOUS
  0
LAYER
  2
59
 70
     0
 62
     7
  6
CONTINUOUS
  0
LAYER
  2
60
 70
     0
 62
     7
  6
CONTINUOUS
  0
LAYER
  2
61
 70
     0
 62
     7
  6
CONTINUOUS
  0
LAYER
  2
62
 70
     0
 62
     7
  6
CONTINUOUS
  0
LAYER
  2
63
 70
     0
 62
     7
  6
CONTINUOUS
  0
LAYER
  2
64
 70
     0
 62
     7
  6
CONTINUOUS
  0
LAYER
  2
65
 70
     0
 62
     7
  6
CONTINUOUS
  0
LAYER
  2
66
 70
     0
 62
     7
  6
CONTINUOUS
  0
LAYER
  2
67
 70
     0
 62
     7
  6
CONTINUOUS
  0
LAYER
  2
68
 70
     0
 62
     7
  6
CONTINUOUS
  0
LAYER
  2
69
 70
     0
 62
     7
  6
CONTINUOUS
  0
LAYER
  2
70
 70
     0
 62
     7
  6
CONTINUOUS
  0
LAYER
  2
71
 70
     0
 62
     7
  6
CONTINUOUS
  0
LAYER
  2
72
 70
     0
 62
     7
  6
CONTINUOUS
  0
LAYER
  2
73
 70
     0
 62
     7
  6
CONTINUOUS
  0
LAYER
  2
74
 70
     0
 62
     7
  6
CONTINUOUS
  0
LAYER
  2
75
 70
     0
 62
     7
  6
CONTINUOUS
  0
LAYER
  2
76
 70
     0
 62
     7
  6
CONTINUOUS
  0
LAYER
  2
77
 70
     0
 62
     7
  6
CONTINUOUS
  0
LAYER
  2
78
 70
     0
 62
     7
  6
CONTINUOUS
  0
LAYER
  2
79
 70
     0
 62
     7
  6
CONTINUOUS
  0
LAYER
  2
80
 70
     0
 62
     7
  6
CONTINUOUS
  0
LAYER
  2
81
 70
     0
 62
     7
  6
CONTINUOUS
  0
LAYER
  2
82
 70
     0
 62
     7
  6
CONTINUOUS
  0
LAYER
  2
83
 70
     0
 62
     7
  6
CONTINUOUS
  0
LAYER
  2
84
 70
     0
 62
     7
  6
CONTINUOUS
  0
LAYER
  2
85
 70
     0
 62
     7
  6
CONTINUOUS
  0
LAYER
  2
86
 70
     0
 62
     7
  6
CONTINUOUS
  0
LAYER
  2
87
 70
     0
 62
     7
  6
CONTINUOUS
  0
LAYER
  2
88
 70
     0
 62
     7
  6
CONTINUOUS
  0
LAYER
  2
89
 70
     0
 62
     7
  6
CONTINUOUS
  0
LAYER
  2
90
 70
     0
 62
     7
  6
CONTINUOUS
  0
LAYER
  2
91
 70
     0
 62
     7
  6
CONTINUOUS
  0
LAYER
  2
92
 70
     0
 62
     7
  6
CONTINUOUS
  0
LAYER
  2
93
 70
     0
 62
     7
  6
CONTINUOUS
  0
LAYER
  2
94
 70
     0
 62
     7
  6
CONTINUOUS
  0
LAYER
  2
95
 70
     0
 62
     7
  6
CONTINUOUS
  0
LAYER
  2
96
 70
     0
 62
     7
  6
CONTINUOUS
  0
LAYER
  2
97
 70
     0
 62
     7
  6
CONTINUOUS
  0
LAYER
  2
98
 70
     0
 62
     7
  6
CONTINUOUS
  0
LAYER
  2
99
 70
     0
 62
     7
  6
CONTINUOUS
  0
LAYER
  2
100
 70
     0
 62
     7
  6
CONTINUOUS
  0
LAYER
  2
101
 70
     0
 62
     7
  6
CONTINUOUS
  0
LAYER
  2
102
 70
     0
 62
     7
  6
CONTINUOUS
  0
LAYER
  2
103
 70
     0
 62
     7
  6
CONTINUOUS
  0
LAYER
  2
104
 70
     0
 62
     7
  6
CONTINUOUS
  0
LAYER
  2
105
 70
     0
 62
     7
  6
CONTINUOUS
  0
LAYER
  2
106
 70
     0
 62
     7
  6
CONTINUOUS
  0
LAYER
  2
107
 70
     0
 62
     7
  6
CONTINUOUS
  0
LAYER
  2
108
 70
     0
 62
     7
  6
CONTINUOUS
  0
LAYER
  2
109
 70
     0
 62
     7
  6
CONTINUOUS
  0
LAYER
  2
110
 70
     0
 62
     7
  6
CONTINUOUS
  0
LAYER
  2
111
 70
     0
 62
     7
  6
CONTINUOUS
  0
LAYER
  2
112
 70
     0
 62
     7
  6
CONTINUOUS
  0
LAYER
  2
113
 70
     0
 62
     7
  6
CONTINUOUS
  0
LAYER
  2
114
 70
     0
 62
     7
  6
CONTINUOUS
  0
LAYER
  2
115
 70
     0
 62
     7
  6
CONTINUOUS
  0
LAYER
  2
116
 70
     0
 62
     7
  6
CONTINUOUS
  0
LAYER
  2
117
 70
     0
 62
     7
  6
CONTINUOUS
  0
LAYER
  2
118
 70
     0
 62
     7
  6
CONTINUOUS
  0
LAYER
  2
119
 70
     0
 62
     7
  6
CONTINUOUS
  0
LAYER
  2
120
 70
     0
 62
     7
  6
CONTINUOUS
  0
LAYER
  2
121
 70
     0
 62
     7
  6
CONTINUOUS
  0
LAYER
  2
122
 70
     0
 62
     7
  6
CONTINUOUS
  0
LAYER
  2
123
 70
     0
 62
     7
  6
CONTINUOUS
  0
LAYER
  2
124
 70
     0
 62
     7
  6
CONTINUOUS
  0
LAYER
  2
125
 70
     0
 62
     7
  6
CONTINUOUS
  0
LAYER
  2
126
 70
     0
 62
     7
  6
CONTINUOUS
  0
LAYER
  2
127
 70
     0
 62
     7
  6
CONTINUOUS
  0
LAYER
  2
128
 70
     0
 62
     7
  6
CONTINUOUS
  0
ENDTAB
  0
TABLE
  2
STYLE
 70
    19
  0
STYLE
  2
STANDARD
 70
     0
 40
0.0
 41
1.0
 50
0.0
 71
     0
 42
0.2
  3
txt.shx
  4
extfont.shx
  0
STYLE
  2
KANJI0
 70
     0
 40
2.5
 41
0.6
 50
0.0
 71
     0
 42
2.5
  3
txt.shx
  4
extfont.shx
  0
STYLE
  2
KANJI1
 70
     0
 40
2.0
 41
0.5
 50
0.0
 71
     0
 42
2.0
  3
txt.shx
  4
extfont.shx
  0
STYLE
  2
KANJI2
 70
     0
 40
1.5
 41
0.666666667
 50
0.0
 71
     0
 42
1.5
  3
txt.shx
  4
extfont.shx
  0
STYLE
  2
KANJI3
 70
     0
 40
3.0
 41
0.9
 50
0.0
 71
     0
 42
3.0
  3
txt.shx
  4
extfont.shx
  0
STYLE
  2
KANJI4
 70
     0
 40
4.5
 41
0.9
 50
0.0
 71
     0
 42
4.5
  3
txt.shx
  4
extfont.shx
  0
STYLE
  2
KANJI5
 70
     0
 40
1.8
 41
0.6
 50
0.0
 71
     0
 42
1.8
  3
txt.shx
  4
extfont.shx
  0
STYLE
  2
KANJI6
 70
     0
 40
3.0
 41
0.6
 50
0.0
 71
     0
 42
3.0
  3
txt.shx
  4
extfont.shx
  0
STYLE
  2
KANJI7
 70
     0
 40
3.0
 41
0.6
 50
0.0
 71
     0
 42
3.0
  3
txt.shx
  4
extfont.shx
  0
STYLE
  2
KANJI8
 70
     0
 40
3.0
 41
0.9
 50
0.0
 71
     0
 42
3.0
  3
txt.shx
  4
extfont.shx
  0
STYLE
  2
KANJI9
 70
     0
 40
3.0
 41
0.9
 50
0.0
 71
     0
 42
3.0
  3
txt.shx
  4
extfont.shx
  0
STYLE
  2
KANJI10
 70
     0
 40
3.0
 41
0.8
 50
0.0
 71
     0
 42
3.0
  3
txt.shx
  4
extfont.shx
  0
STYLE
  2
KANJI11
 70
     0
 40
1.25
 41
0.64
 50
0.0
 71
     0
 42
1.25
  3
txt.shx
  4
extfont.shx
  0
STYLE
  2
KANJI12
 70
     0
 40
2.8
 41
0.785714286
 50
0.0
 71
     0
 42
2.8
  3
txt.shx
  4
extfont.shx
  0
STYLE
  2
KANJI13
 70
     0
 40
2.1
 41
0.9
 50
0.0
 71
     0
 42
2.1
  3
txt.shx
  4
extfont.shx
  0
STYLE
  2
KANJI14
 70
     0
 40
6.0
 41
0.9
 50
0.0
 71
     0
 42
6.0
  3
txt.shx
  4
extfont.shx
  0
STYLE
  2
KANJI15
 70
     0
 40
4.8
 41
0.9
 50
0.0
 71
     0
 42
4.8
  3
txt.shx
  4
extfont.shx
  0
STYLE
  2
KANJI16
 70
     0
 40
3.0
 41
0.9
 50
0.0
 71
     0
 42
3.0
  3
txt.shx
  4
extfont.shx
  0
STYLE
  2
KANJI17
 70
     0
 40
3.84
 41
0.9
 50
0.0
 71
     0
 42
3.84
  3
txt.shx
  4
extfont.shx
  0
ENDTAB
  0
TABLE
  2
VIEW
 70
     0
  0
ENDTAB
  0
ENDSEC
  0
SECTION
  2
BLOCKS
  0
ENDSEC
  0
SECTION
  2
ENTITIES
  0
ARC
  8
0
  6
CONTINUOUS
 62
     1
 10
246.7
 20
223.3
 30
0.0
 40
1.7
 50
90.0
 51
180.0
  0
LINE
  8
0
  6
CONTINUOUS
 62
     1
 10
246.7
 20
225.0
 30
0.0
 11
293.3
 21
225.0
 31
0.0
  0
ARC
  8
0
  6
CONTINUOUS
 62
     1
 10
293.3
 20
223.3
 30
0.0
 40
1.7
 50
0.0
 51
90.0
  0
ARC
  8
0
  6
CONTINUOUS
 62
     1
 10
246.7
 20
223.3
 30
0.0
 40
0.9
 50
90.0
 51
180.0
  0
LINE
  8
0
  6
CONTINUOUS
 62
     1
 10
246.7
 20
224.2
 30
0.0
 11
293.3
 21
224.2
 31
0.0
  0
ARC
  8
0
  6
CONTINUOUS
 62
     1
 10
293.3
 20
223.3
 30
0.0
 40
0.9
 50
0.0
 51
90.0
  0
TEXT
  8
0
  6
CONTINUOUS
 62
     1
 10
247.5
 20
220.5
 30
0.3
 40
2.5
  1
ＣＯＮＮＥＣＴＩＯＮＳ　ＯＦ　ＴＡＣＨＯ－ＭＥＴＥＲ
 50
0.0
 41
0.6
 51
0.0
  7
KANJI0
  0
CIRCLE
  8
0
  6
CONTINUOUS
 62
     1
 10
273.3
 20
214.0
 30
0.0
 40
1.5
  0
CIRCLE
  8
0
  6
CONTINUOUS
 62
     1
 10
269.9
 20
214.0
 30
0.0
 40
1.5
  0
CIRCLE
  8
0
  6
CONTINUOUS
 62
     1
 10
276.7
 20
214.0
 30
0.0
 40
1.5
  0
CIRCLE
  8
0
  6
CONTINUOUS
 62
     1
 10
280.1
 20
214.0
 30
0.0
 40
1.5
  0
LINE
  8
0
  6
CONTINUOUS
 62
     1
 10
255.0
 20
214.0
 30
0.0
 11
255.0
 21
217.6
 31
0.0
  0
LINE
  8
0
  6
CONTINUOUS
 62
     1
 10
255.0
 20
217.6
 30
0.0
 11
256.5
 21
217.6
 31
0.0
  0
LINE
  8
0
  6
CONTINUOUS
 62
     1
 10
256.5
 20
217.6
 30
0.0
 11
256.5
 21
214.0
 31
0.0
  0
LINE
  8
0
  6
CONTINUOUS
 62
     1
 10
256.5
 20
214.0
 30
0.0
 11
255.0
 21
214.0
 31
0.0
  0
LINE
  8
0
  6
CONTINUOUS
 62
     1
 10
255.0
 20
217.0
 30
0.0
 11
252.0
 21
217.0
 31
0.0
  0
LINE
  8
0
  6
CONTINUOUS
 62
     1
 10
252.0
 20
217.0
 30
0.0
 11
252.0
 21
214.6
 31
0.0
  0
LINE
  8
0
  6
CONTINUOUS
 62
     1
 10
252.0
 20
214.6
 30
0.0
 11
255.0
 21
214.6
 31
0.0
  0
LINE
  8
0
  6
CONTINUOUS
 62
     1
 10
256.5
 20
214.6
 30
0.0
 11
259.5
 21
214.6
 31
0.0
  0
LINE
  8
0
  6
CONTINUOUS
 62
     1
 10
259.5
 20
214.6
 30
0.0
 11
259.5
 21
217.0
 31
0.0
  0
LINE
  8
0
  6
CONTINUOUS
 62
     1
 10
259.5
 20
217.0
 30
0.0
 11
256.5
 21
217.0
 31
0.0
  0
LINE
  8
0
  6
CONTINUOUS
 62
     1
 10
259.5
 20
217.0
 30
0.0
 11
259.8
 21
216.7
 31
0.0
  0
LINE
  8
0
  6
CONTINUOUS
 62
     1
 10
259.8
 20
216.7
 30
0.0
 11
259.8
 21
214.9
 31
0.0
  0
LINE
  8
0
  6
CONTINUOUS
 62
     1
 10
259.8
 20
214.9
 30
0.0
 11
259.5
 21
214.6
 31
0.0
  0
LINE
  8
0
  6
CONTINUOUS
 62
     1
 10
252.0
 20
214.6
 30
0.0
 11
251.7
 21
214.9
 31
0.0
  0
LINE
  8
0
  6
CONTINUOUS
 62
     1
 10
251.7
 20
214.9
 30
0.0
 11
251.7
 21
216.7
 31
0.0
  0
LINE
  8
0
  6
CONTINUOUS
 62
     1
 10
251.7
 20
216.7
 30
0.0
 11
252.0
 21
217.0
 31
0.0
  0
LINE
  8
0
  6
CONTINUOUS
 62
     1
 10
259.8
 20
216.2
 30
0.0
 11
273.3
 21
216.2
 31
0.0
  0
LINE
  8
0
  6
CONTINUOUS
 62
     1
 10
273.3
 20
216.2
 30
0.0
 11
273.3
 21
215.5
 31
0.0
  0
LINE
  8
0
  6
CONTINUOUS
 62
     1
 10
269.9
 20
215.5
 30
0.0
 11
269.9
 21
215.6
 31
0.0
  0
LINE
  8
0
  6
CONTINUOUS
 62
     1
 10
269.9
 20
215.6
 30
0.0
 11
259.8
 21
215.6
 31
0.0
  0
TEXT
  8
0
  6
CONTINUOUS
 62
     1
 10
247.5
 20
212.0
 30
0.2
 40
2.0
  1
ＴＹＰＥ　ＴＮ－１／ＴＮ－２　　　　　　　　　　　　
 50
0.0
 41
0.5
 51
0.0
  7
KANJI1
  0
TEXT
  8
0
  6
CONTINUOUS
 62
     1
 10
269.5
 20
213.2
 30
0.2
 40
2.0
  1
１　　　　　　　　　　　　　　　　　　　　　　　　　
 50
0.0
 41
0.5
 51
0.0
  7
KANJI1
  0
TEXT
  8
0
  6
CONTINUOUS
 62
     1
 10
272.9
 20
213.2
 30
0.2
 40
2.0
  1
２　　　　　　　　　　　　　　　　　　　　　　　　　
 50
0.0
 41
0.5
 51
0.0
  7
KANJI1
  0
TEXT
  8
0
  6
CONTINUOUS
 62
     1
 10
276.2
 20
213.2
 30
0.2
 40
2.0
  1
３　　　　　　　　　　　　　　　　　　　　　　　　　
 50
0.0
 41
0.5
 51
0.0
  7
KANJI1
  0
TEXT
  8
0
  6
CONTINUOUS
 62
     1
 10
279.6
 20
213.2
 30
0.2
 40
2.0
  1
４　　　　　　　　　　　　　　　　　　　　　　　　　
 50
0.0
 41
0.5
 51
0.0
  7
KANJI1
  0
TEXT
  8
0
  6
CONTINUOUS
 62
     1
 10
271.1
 20
210.2
 30
0.2
 40
2.0
  1
５　　　　　　　　　　　　　　　　　　　　　　　　　
 50
0.0
 41
0.5
 51
0.0
  7
KANJI1
  0
TEXT
  8
0
  6
CONTINUOUS
 62
     1
 10
274.5
 20
210.2
 30
0.2
 40
2.0
  1
６　　　　　　　　　　　　　　　　　　　　　　　　　
 50
0.0
 41
0.5
 51
0.0
  7
KANJI1
  0
TEXT
  8
0
  6
CONTINUOUS
 62
     1
 10
277.9
 20
210.2
 30
0.2
 40
2.0
  1
７　　　　　　　　　　　　　　　　　　　　　　　　　
 50
0.0
 41
0.5
 51
0.0
  7
KANJI1
  0
TEXT
  8
0
  6
CONTINUOUS
 62
     1
 10
284.5
 20
210.8
 30
0.15
 40
1.5
  1
ＳＯＵＲＣＥ　　　
 50
0.0
 41
0.666666667
 51
0.0
  7
KANJI2
  0
ARC
  8
0
  6
CONTINUOUS
 62
     1
 10
246.7
 20
223.3
 30
0.0
 40
1.7
 50
90.0
 51
180.0
  0
LINE
  8
0
  6
CONTINUOUS
 62
     1
 10
246.7
 20
225.0
 30
0.0
 11
293.3
 21
225.0
 31
0.0
  0
ARC
  8
0
  6
CONTINUOUS
 62
     1
 10
293.3
 20
223.3
 30
0.0
 40
1.7
 50
0.0
 51
90.0
  0
ARC
  8
0
  6
CONTINUOUS
 62
     1
 10
246.7
 20
223.3
 30
0.0
 40
0.9
 50
90.0
 51
180.0
  0
LINE
  8
0
  6
CONTINUOUS
 62
     1
 10
246.7
 20
224.2
 30
0.0
 11
293.3
 21
224.2
 31
0.0
  0
ARC
  8
0
  6
CONTINUOUS
 62
     1
 10
293.3
 20
223.3
 30
0.0
 40
0.9
 50
0.0
 51
90.0
  0
TEXT
  8
0
  6
CONTINUOUS
 62
     1
 10
247.5
 20
220.5
 30
0.3
 40
2.5
  1
ＣＯＮＮＥＣＴＩＯＮＳ　ＯＦ　ＴＡＣＨＯ－ＭＥＴＥＲ
 50
0.0
 41
0.6
 51
0.0
  7
KANJI0
  0
CIRCLE
  8
0
  6
CONTINUOUS
 62
     1
 10
273.3
 20
214.0
 30
0.0
 40
1.5
  0
CIRCLE
  8
0
  6
CONTINUOUS
 62
     1
 10
269.9
 20
214.0
 30
0.0
 40
1.5
  0
CIRCLE
  8
0
  6
CONTINUOUS
 62
     1
 10
276.7
 20
214.0
 30
0.0
 40
1.5
  0
CIRCLE
  8
0
  6
CONTINUOUS
 62
     1
 10
280.1
 20
214.0
 30
0.0
 40
1.5
  0
LINE
  8
0
  6
CONTINUOUS
 62
     1
 10
255.0
 20
214.0
 30
0.0
 11
255.0
 21
217.6
 31
0.0
  0
LINE
  8
0
  6
CONTINUOUS
 62
     1
 10
255.0
 20
217.6
 30
0.0
 11
256.5
 21
217.6
 31
0.0
  0
LINE
  8
0
  6
CONTINUOUS
 62
     1
 10
256.5
 20
217.6
 30
0.0
 11
256.5
 21
214.0
 31
0.0
  0
LINE
  8
0
  6
CONTINUOUS
 62
     1
 10
256.5
 20
214.0
 30
0.0
 11
255.0
 21
214.0
 31
0.0
  0
LINE
  8
0
  6
CONTINUOUS
 62
     1
 10
255.0
 20
217.0
 30
0.0
 11
252.0
 21
217.0
 31
0.0
  0
LINE
  8
0
  6
CONTINUOUS
 62
     1
 10
252.0
 20
217.0
 30
0.0
 11
252.0
 21
214.6
 31
0.0
  0
LINE
  8
0
  6
CONTINUOUS
 62
     1
 10
252.0
 20
214.6
 30
0.0
 11
255.0
 21
214.6
 31
0.0
  0
LINE
  8
0
  6
CONTINUOUS
 62
     1
 10
256.5
 20
214.6
 30
0.0
 11
259.5
 21
214.6
 31
0.0
  0
LINE
  8
0
  6
CONTINUOUS
 62
     1
 10
259.5
 20
214.6
 30
0.0
 11
259.5
 21
217.0
 31
0.0
  0
LINE
  8
0
  6
CONTINUOUS
 62
     1
 10
259.5
 20
217.0
 30
0.0
 11
256.5
 21
217.0
 31
0.0
  0
LINE
  8
0
  6
CONTINUOUS
 62
     1
 10
259.5
 20
217.0
 30
0.0
 11
259.8
 21
216.7
 31
0.0
  0
LINE
  8
0
  6
CONTINUOUS
 62
     1
 10
259.8
 20
216.7
 30
0.0
 11
259.8
 21
214.9
 31
0.0
  0
LINE
  8
0
  6
CONTINUOUS
 62
     1
 10
259.8
 20
214.9
 30
0.0
 11
259.5
 21
214.6
 31
0.0
  0
LINE
  8
0
  6
CONTINUOUS
 62
     1
 10
252.0
 20
214.6
 30
0.0
 11
251.7
 21
214.9
 31
0.0
  0
LINE
  8
0
  6
CONTINUOUS
 62
     1
 10
251.7
 20
214.9
 30
0.0
 11
251.7
 21
216.7
 31
0.0
  0
LINE
  8
0
  6
CONTINUOUS
 62
     1
 10
251.7
 20
216.7
 30
0.0
 11
252.0
 21
217.0
 31
0.0
  0
LINE
  8
0
  6
CONTINUOUS
 62
     1
 10
259.8
 20
216.2
 30
0.0
 11
273.3
 21
216.2
 31
0.0
  0
LINE
  8
0
  6
CONTINUOUS
 62
     1
 10
273.3
 20
216.2
 30
0.0
 11
273.3
 21
215.5
 31
0.0
  0
LINE
  8
0
  6
CONTINUOUS
 62
     1
 10
269.9
 20
215.5
 30
0.0
 11
269.9
 21
215.6
 31
0.0
  0
LINE
  8
0
  6
CONTINUOUS
 62
     1
 10
269.9
 20
215.6
 30
0.0
 11
259.8
 21
215.6
 31
0.0
  0
TEXT
  8
0
  6
CONTINUOUS
 62
     1
 10
247.5
 20
212.0
 30
0.2
 40
2.0
  1
ＴＹＰＥ　ＴＮ－１／ＴＮ－２　　　　　　　　　　　　
 50
0.0
 41
0.5
 51
0.0
  7
KANJI1
  0
TEXT
  8
0
  6
CONTINUOUS
 62
     1
 10
269.5
 20
213.2
 30
0.2
 40
2.0
  1
１　　　　　　　　　　　　　　　　　　　　　　　　　
 50
0.0
 41
0.5
 51
0.0
  7
KANJI1
  0
TEXT
  8
0
  6
CONTINUOUS
 62
     1
 10
272.9
 20
213.2
 30
0.2
 40
2.0
  1
２　　　　　　　　　　　　　　　　　　　　　　　　　
 50
0.0
 41
0.5
 51
0.0
  7
KANJI1
  0
TEXT
  8
0
  6
CONTINUOUS
 62
     1
 10
276.2
 20
213.2
 30
0.2
 40
2.0
  1
３　　　　　　　　　　　　　　　　　　　　　　　　　
 50
0.0
 41
0.5
 51
0.0
  7
KANJI1
  0
TEXT
  8
0
  6
CONTINUOUS
 62
     1
 10
279.6
 20
213.2
 30
0.2
 40
2.0
  1
４　　　　　　　　　　　　　　　　　　　　　　　　　
 50
0.0
 41
0.5
 51
0.0
  7
KANJI1
  0
TEXT
  8
0
  6
CONTINUOUS
 62
     1
 10
271.1
 20
210.2
 30
0.2
 40
2.0
  1
５　　　　　　　　　　　　　　　　　　　　　　　　　
 50
0.0
 41
0.5
 51
0.0
  7
KANJI1
  0
TEXT
  8
0
  6
CONTINUOUS
 62
     1
 10
274.5
 20
210.2
 30
0.2
 40
2.0
  1
６　　　　　　　　　　　　　　　　　　　　　　　　　
 50
0.0
 41
0.5
 51
0.0
  7
KANJI1
  0
TEXT
  8
0
  6
CONTINUOUS
 62
     1
 10
277.9
 20
210.2
 30
0.2
 40
2.0
  1
７　　　　　　　　　　　　　　　　　　　　　　　　　
 50
0.0
 41
0.5
 51
0.0
  7
KANJI1
  0
TEXT
  8
0
  6
CONTINUOUS
 62
     1
 10
284.5
 20
210.8
 30
0.15
 40
1.5
  1
ＳＯＵＲＣＥ　　　
 50
0.0
 41
0.666666667
 51
0.0
  7
KANJI2
  0
ARC
  8
0
  6
CONTINUOUS
 62
     1
 10
246.7
 20
223.3
 30
0.0
 40
1.7
 50
90.0
 51
180.0
  0
LINE
  8
0
  6
CONTINUOUS
 62
     1
 10
246.7
 20
225.0
 30
0.0
 11
293.3
 21
225.0
 31
0.0
  0
ARC
  8
0
  6
CONTINUOUS
 62
     1
 10
293.3
 20
223.3
 30
0.0
 40
1.7
 50
0.0
 51
90.0
  0
ARC
  8
0
  6
CONTINUOUS
 62
     1
 10
246.7
 20
223.3
 30
0.0
 40
0.9
 50
90.0
 51
180.0
  0
LINE
  8
0
  6
CONTINUOUS
 62
     1
 10
246.7
 20
224.2
 30
0.0
 11
293.3
 21
224.2
 31
0.0
  0
ARC
  8
0
  6
CONTINUOUS
 62
     1
 10
293.3
 20
223.3
 30
0.0
 40
0.9
 50
0.0
 51
90.0
  0
TEXT
  8
0
  6
CONTINUOUS
 62
     1
 10
247.5
 20
220.5
 30
0.3
 40
2.5
  1
ＣＯＮＮＥＣＴＩＯＮＳ　ＯＦ　ＴＡＣＨＯ－ＭＥＴＥＲ
 50
0.0
 41
0.6
 51
0.0
  7
KANJI0
  0
CIRCLE
  8
0
  6
CONTINUOUS
 62
     1
 10
273.3
 20
214.0
 30
0.0
 40
1.5
  0
CIRCLE
  8
0
  6
CONTINUOUS
 62
     1
 10
269.9
 20
214.0
 30
0.0
 40
1.5
  0
CIRCLE
  8
0
  6
CONTINUOUS
 62
     1
 10
276.7
 20
214.0
 30
0.0
 40
1.5
  0
CIRCLE
  8
0
  6
CONTINUOUS
 62
     1
 10
280.1
 20
214.0
 30
0.0
 40
1.5
  0
LINE
  8
0
  6
CONTINUOUS
 62
     1
 10
255.0
 20
214.0
 30
0.0
 11
255.0
 21
217.6
 31
0.0
  0
LINE
  8
0
  6
CONTINUOUS
 62
     1
 10
255.0
 20
217.6
 30
0.0
 11
256.5
 21
217.6
 31
0.0
  0
LINE
  8
0
  6
CONTINUOUS
 62
     1
 10
256.5
 20
217.6
 30
0.0
 11
256.5
 21
214.0
 31
0.0
  0
LINE
  8
0
  6
CONTINUOUS
 62
     1
 10
256.5
 20
214.0
 30
0.0
 11
255.0
 21
214.0
 31
0.0
  0
LINE
  8
0
  6
CONTINUOUS
 62
     1
 10
255.0
 20
217.0
 30
0.0
 11
252.0
 21
217.0
 31
0.0
  0
LINE
  8
0
  6
CONTINUOUS
 62
     1
 10
252.0
 20
217.0
 30
0.0
 11
252.0
 21
214.6
 31
0.0
  0
LINE
  8
0
  6
CONTINUOUS
 62
     1
 10
252.0
 20
214.6
 30
0.0
 11
255.0
 21
214.6
 31
0.0
  0
LINE
  8
0
  6
CONTINUOUS
 62
     1
 10
256.5
 20
214.6
 30
0.0
 11
259.5
 21
214.6
 31
0.0
  0
LINE
  8
0
  6
CONTINUOUS
 62
     1
 10
259.5
 20
214.6
 30
0.0
 11
259.5
 21
217.0
 31
0.0
  0
LINE
  8
0
  6
CONTINUOUS
 62
     1
 10
259.5
 20
217.0
 30
0.0
 11
256.5
 21
217.0
 31
0.0
  0
LINE
  8
0
  6
CONTINUOUS
 62
     1
 10
259.5
 20
217.0
 30
0.0
 11
259.8
 21
216.7
 31
0.0
  0
LINE
  8
0
  6
CONTINUOUS
 62
     1
 10
259.8
 20
216.7
 30
0.0
 11
259.8
 21
214.9
 31
0.0
  0
LINE
  8
0
  6
CONTINUOUS
 62
     1
 10
259.8
 20
214.9
 30
0.0
 11
259.5
 21
214.6
 31
0.0
  0
LINE
  8
0
  6
CONTINUOUS
 62
     1
 10
252.0
 20
214.6
 30
0.0
 11
251.7
 21
214.9
 31
0.0
  0
LINE
  8
0
  6
CONTINUOUS
 62
     1
 10
251.7
 20
214.9
 30
0.0
 11
251.7
 21
216.7
 31
0.0
  0
LINE
  8
0
  6
CONTINUOUS
 62
     1
 10
251.7
 20
216.7
 30
0.0
 11
252.0
 21
217.0
 31
0.0
  0
LINE
  8
0
  6
CONTINUOUS
 62
     1
 10
259.8
 20
216.2
 30
0.0
 11
273.3
 21
216.2
 31
0.0
  0
LINE
  8
0
  6
CONTINUOUS
 62
     1
 10
273.3
 20
216.2
 30
0.0
 11
273.3
 21
215.5
 31
0.0
  0
LINE
  8
0
  6
CONTINUOUS
 62
     1
 10
269.9
 20
215.5
 30
0.0
 11
269.9
 21
215.6
 31
0.0
  0
LINE
  8
0
  6
CONTINUOUS
 62
     1
 10
269.9
 20
215.6
 30
0.0
 11
259.8
 21
215.6
 31
0.0
  0
TEXT
  8
0
  6
CONTINUOUS
 62
     1
 10
247.5
 20
212.0
 30
0.2
 40
2.0
  1
ＴＹＰＥ　ＴＮ－１／ＴＮ－２　　　　　　　　　　　　
 50
0.0
 41
0.5
 51
0.0
  7
KANJI1
  0
TEXT
  8
0
  6
CONTINUOUS
 62
     1
 10
269.5
 20
213.2
 30
0.2
 40
2.0
  1
１　　　　　　　　　　　　　　　　　　　　　　　　　
 50
0.0
 41
0.5
 51
0.0
  7
KANJI1
  0
TEXT
  8
0
  6
CONTINUOUS
 62
     1
 10
272.9
 20
213.2
 30
0.2
 40
2.0
  1
２　　　　　　　　　　　　　　　　　　　　　　　　　
 50
0.0
 41
0.5
 51
0.0
  7
KANJI1
  0
TEXT
  8
0
  6
CONTINUOUS
 62
     1
 10
276.2
 20
213.2
 30
0.2
 40
2.0
  1
３　　　　　　　　　　　　　　　　　　　　　　　　　
 50
0.0
 41
0.5
 51
0.0
  7
KANJI1
  0
TEXT
  8
0
  6
CONTINUOUS
 62
     1
 10
279.6
 20
213.2
 30
0.2
 40
2.0
  1
４　　　　　　　　　　　　　　　　　　　　　　　　　
 50
0.0
 41
0.5
 51
0.0
  7
KANJI1
  0
TEXT
  8
0
  6
CONTINUOUS
 62
     1
 10
271.1
 20
210.2
 30
0.2
 40
2.0
  1
５　　　　　　　　　　　　　　　　　　　　　　　　　
 50
0.0
 41
0.5
 51
0.0
  7
KANJI1
  0
TEXT
  8
0
  6
CONTINUOUS
 62
     1
 10
274.5
 20
210.2
 30
0.2
 40
2.0
  1
６　　　　　　　　　　　　　　　　　　　　　　　　　
 50
0.0
 41
0.5
 51
0.0
  7
KANJI1
  0
TEXT
  8
0
  6
CONTINUOUS
 62
     1
 10
277.9
 20
210.2
 30
0.2
 40
2.0
  1
７　　　　　　　　　　　　　　　　　　　　　　　　　
 50
0.0
 41
0.5
 51
0.0
  7
KANJI1
  0
TEXT
  8
0
  6
CONTINUOUS
 62
     1
 10
284.5
 20
210.8
 30
0.15
 40
1.5
  1
ＳＯＵＲＣＥ　　　
 50
0.0
 41
0.666666667
 51
0.0
  7
KANJI2
  0
ARC
  8
0
  6
CONTINUOUS
 62
     1
 10
76.9
 20
101.5
 30
0.0
 40
3.0
 50
270.0
 51
0.0
  0
LINE
  8
0
  6
CONTINUOUS
 62
     1
 10
79.9
 20
101.5
 30
0.0
 11
79.9
 21
150.5
 31
0.0
  0
ARC
  8
0
  6
CONTINUOUS
 62
     1
 10
76.9
 20
150.5
 30
0.0
 40
3.0
 50
0.0
 51
90.0
  0
LINE
  8
0
  6
CONTINUOUS
 62
     1
 10
76.9
 20
153.5
 30
0.0
 11
27.9
 21
153.5
 31
0.0
  0
ARC
  8
0
  6
CONTINUOUS
 62
     1
 10
27.9
 20
150.5
 30
0.0
 40
3.0
 50
90.0
 51
180.0
  0
LINE
  8
0
  6
CONTINUOUS
 62
     1
 10
27.9
 20
98.5
 30
0.0
 11
76.9
 21
98.5
 31
0.0
  0
LINE
  8
0
  6
CONTINUOUS
 62
     1
 10
24.9
 20
150.5
 30
0.0
 11
24.9
 21
101.5
 31
0.0
  0
ARC
  8
0
  6
CONTINUOUS
 62
     1
 10
27.9
 20
101.5
 30
0.0
 40
3.0
 50
180.0
 51
270.0
  0
CIRCLE
  8
0
  6
CONTINUOUS
 62
     1
 10
52.4
 20
126.0
 30
0.0
 40
25.5
  0
CIRCLE
  8
0
  6
CONTINUOUS
 62
     1
 10
52.4
 20
126.0
 30
0.0
 40
3.05
  0
LINE
  8
0
  6
CONTINUOUS
 62
     1
 10
102.0
 20
153.475
 30
0.0
 11
96.75
 21
153.475
 31
0.0
  0
ARC
  8
0
  6
CONTINUOUS
 62
     1
 10
96.75
 20
152.975
 30
0.0
 40
0.5
 50
90.0
 51
180.0
  0
LINE
  8
0
  6
CONTINUOUS
 62
     1
 10
96.25
 20
151.475
 30
0.0
 11
92.75
 21
151.475
 31
0.0
  0
ARC
  8
0
  6
CONTINUOUS
 62
     1
 10
92.75
 20
151.225
 30
0.0
 40
0.25
 50
90.0
 51
180.0
  0
LINE
  8
0
  6
CONTINUOUS
 62
     1
 10
91.5
 20
123.725
 30
0.0
 11
91.7
 21
123.725
 31
0.0
  0
LINE
  8
0
  6
CONTINUOUS
 62
     1
 10
102.0
 20
98.475
 30
0.0
 11
96.75
 21
98.475
 31
0.0
  0
ARC
  8
0
  6
CONTINUOUS
 62
     1
 10
96.75
 20
98.975
 30
0.0
 40
0.5
 50
180.0
 51
270.0
  0
LINE
  8
0
  6
CONTINUOUS
 62
     1
 10
96.25
 20
100.475
 30
0.0
 11
92.75
 21
100.475
 31
0.0
  0
ARC
  8
0
  6
CONTINUOUS
 62
     1
 10
92.75
 20
100.725
 30
0.0
 40
0.25
 50
180.0
 51
270.0
  0
LINE
  8
0
  6
CONTINUOUS
 62
     1
 10
91.677077922
 20
127.565990258
 30
0.0
 11
92.5
 21
151.225
 31
0.0
  0
LINE
  8
0
  6
CONTINUOUS
 62
     1
 10
96.25
 20
152.975
 30
0.0
 11
96.25
 21
151.625
 31
0.0
  0
LINE
  8
0
  6
CONTINUOUS
 62
     1
 10
102.0
 20
153.475
 30
0.0
 11
102.0
 21
152.825
 31
0.0
  0
LINE
  8
0
  6
CONTINUOUS
 62
     1
 10
96.25
 20
151.625
 30
0.0
 11
96.25
 21
151.475
 31
0.0
  0
LINE
  8
0
  6
CONTINUOUS
 62
     1
 10
102.0
 20
152.825
 30
0.0
 11
102.0
 21
126.225
 31
0.0
  0
LINE
  8
0
  6
CONTINUOUS
 62
     1
 10
102.0
 20
126.225
 30
0.0
 11
102.0
 21
98.475
 31
0.0
  0
LINE
  8
0
  6
CONTINUOUS
 62
     1
 10
91.5
 20
127.565990258
 30
0.0
 11
91.5
 21
123.725
 31
0.0
  0
LINE
  8
0
  6
CONTINUOUS
 62
     1
 10
142.0
 20
150.75
 30
0.0
 11
142.0
 21
101.25
 31
0.0
  0
LINE
  8
0
  6
CONTINUOUS
 62
     1
 10
144.0
 20
101.25
 30
0.0
 11
107.8
 21
101.25
 31
0.0
  0
ARC
  8
0
  6
CONTINUOUS
 62
     1
 10
144.0
 20
101.75
 30
0.0
 40
0.5
 50
270.0
 51
0.0
  0
LINE
  8
0
  6
CONTINUOUS
 62
     1
 10
144.5
 20
150.25
 30
0.0
 11
144.5
 21
101.75
 31
0.0
  0
ARC
  8
0
  6
CONTINUOUS
 62
     1
 10
144.0
 20
150.25
 30
0.0
 40
0.5
 50
360.0
 51
90.0
  0
ARC
  8
0
  6
CONTINUOUS
 62
     1
 10
210.3
 20
101.5
 30
0.0
 40
3.0
 50
270.0
 51
0.0
  0
LINE
  8
0
  6
CONTINUOUS
 62
     1
 10
161.3
 20
98.5
 30
0.0
 11
210.3
 21
98.5
 31
0.0
  0
ARC
  8
0
  6
CONTINUOUS
 62
     1
 10
161.3
 20
101.5
 30
0.0
 40
3.0
 50
180.0
 51
270.0
  0
LINE
  8
0
  6
CONTINUOUS
 62
     1
 10
158.3
 20
150.5
 30
0.0
 11
158.3
 21
101.5
 31
0.0
  0
ARC
  8
0
  6
CONTINUOUS
 62
     1
 10
161.3
 20
150.5
 30
0.0
 40
3.0
 50
90.0
 51
180.0
  0
LINE
  8
0
  6
CONTINUOUS
 62
     1
 10
213.3
 20
101.5
 30
0.0
 11
213.3
 21
150.5
 31
0.0
  0
LINE
  8
0
  6
CONTINUOUS
 62
     1
 10
210.3
 20
153.5
 30
0.0
 11
161.3
 21
153.5
 31
0.0
  0
ARC
  8
0
  6
CONTINUOUS
 62
     1
 10
210.3
 20
150.5
 30
0.0
 40
3.0
 50
360.0
 51
90.0
  0
CIRCLE
  8
0
  6
CONTINUOUS
 62
     1
 10
185.8
 20
126.0
 30
0.0
 40
24.75
  0
CIRCLE
  8
0
  6
CONTINUOUS
 62
     1
 10
185.8
 20
55.15
 30
0.0
 40
25.5
  0
CIRCLE
  8
0
  6
CONTINUOUS
 62
     1
 10
163.3
 20
77.65
 30
0.0
 40
1.75
  0
CIRCLE
  8
0
  6
CONTINUOUS
 62
     1
 10
163.3
 20
32.65
 30
0.0
 40
1.75
  0
CIRCLE
  8
0
  6
CONTINUOUS
 62
     1
 10
208.3
 20
32.65
 30
0.0
 40
1.75
  0
CIRCLE
  8
0
  6
CONTINUOUS
 62
     1
 10
208.3
 20
77.65
 30
0.0
 40
1.75
  0
TEXT
  8
0
  6
CONTINUOUS
 62
     1
 10
169.6
 20
125.0
 30
0.3
 40
3.0
  1
Ｌ
 50
0.0
 41
0.9
 51
0.0
  7
KANJI3
  0
TEXT
  8
0
  6
CONTINUOUS
 62
     1
 10
199.2
 20
125.3
 30
0.3
 40
3.0
  1
Ｌ
 50
0.0
 41
0.9
 51
0.0
  7
KANJI3
  0
TEXT
  8
0
  6
CONTINUOUS
 62
     1
 10
176.9
 20
135.3
 30
0.3
 40
3.0
  1
＋
 50
0.0
 41
0.9
 51
0.0
  7
KANJI3
  0
LINE
  8
0
  6
CONTINUOUS
 62
     1
 10
104.75
 20
150.75
 30
0.0
 11
102.25
 21
150.75
 31
0.0
  0
LINE
  8
0
  6
CONTINUOUS
 62
     1
 10
104.75
 20
101.25
 30
0.0
 11
102.25
 21
101.25
 31
0.0
  0
ARC
  8
0
  6
CONTINUOUS
 62
     1
 10
106.5
 20
105.625
 30
0.0
 40
1.25
 50
325.0
 51
35.0
  0
LINE
  8
0
  6
CONTINUOUS
 62
     1
 10
107.530901326
 20
106.35
 30
0.0
 11
105.25
 21
106.35
 31
0.0
  0
LINE
  8
0
  6
CONTINUOUS
 62
     1
 10
105.25
 20
106.35
 30
0.0
 11
104.84472136
 21
107.160557281
 31
0.0
  0
ARC
  8
0
  6
CONTINUOUS
 62
     1
 10
104.8
 20
107.138196601
 30
0.0
 40
0.05
 50
26.565051177
 51
180.0
  0
LINE
  8
0
  6
CONTINUOUS
 62
     1
 10
105.25
 20
100.65
 30
0.0
 11
107.525
 21
100.65
 31
0.0
  0
ARC
  8
0
  6
CONTINUOUS
 62
     1
 10
106.5
 20
101.375
 30
0.0
 40
1.25
 50
325.0
 51
35.0
  0
LINE
  8
0
  6
CONTINUOUS
 62
     1
 10
105.25
 20
100.65
 30
0.0
 11
104.84472136
 21
99.839442719
 31
0.0
  0
ARC
  8
0
  6
CONTINUOUS
 62
     1
 10
104.8
 20
99.861803399
 30
0.0
 40
0.05
 50
180.0
 51
333.434948823
  0
LINE
  8
0
  6
CONTINUOUS
 62
     1
 10
104.75
 20
99.861803399
 30
0.0
 11
104.75
 21
107.138196601
 31
0.0
  0
ARC
  8
0
  6
CONTINUOUS
 62
     1
 10
106.5
 20
105.625
 30
0.0
 40
1.25
 50
145.0
 51
215.0
  0
ARC
  8
0
  6
CONTINUOUS
 62
     1
 10
110.25
 20
103.5
 30
0.0
 40
5.0
 50
163.5
 51
196.3
  0
ARC
  8
0
  6
CONTINUOUS
 62
     1
 10
102.75
 20
103.5
 30
0.0
 40
5.0
 50
343.5
 51
16.5
  0
LINE
  8
0
  6
CONTINUOUS
 62
     1
 10
107.75
 20
101.375
 30
0.0
 11
107.75
 21
105.625
 31
0.0
  0
ARC
  8
0
  6
CONTINUOUS
 62
     1
 10
106.5
 20
101.375
 30
0.0
 40
1.25
 50
145.0
 51
215.0
  0
LINE
  8
0
  6
CONTINUOUS
 62
     1
 10
105.25
 20
106.35
 30
0.0
 11
105.25
 21
100.65
 31
0.0
  0
LINE
  8
0
  6
CONTINUOUS
 62
     1
 10
109.75
 20
105.0
 30
0.0
 11
109.75
 21
102.0
 31
0.0
  0
LINE
  8
0
  6
CONTINUOUS
 62
     1
 10
107.75
 20
105.0
 30
0.0
 11
109.75
 21
105.0
 31
0.0
  0
LINE
  8
0
  6
CONTINUOUS
 62
     1
 10
109.75
 20
102.0
 30
0.0
 11
107.75
 21
102.0
 31
0.0
  0
LINE
  8
0
  6
CONTINUOUS
 62
     1
 10
102.25
 20
102.005
 30
0.0
 11
104.75
 21
102.005
 31
0.0
  0
LINE
  8
0
  6
CONTINUOUS
 62
     1
 10
102.0
 20
100.5
 30
0.0
 11
102.25
 21
100.5
 31
0.0
  0
LINE
  8
0
  6
CONTINUOUS
 62
     1
 10
102.25
 20
106.5
 30
0.0
 11
102.0
 21
106.5
 31
0.0
  0
LINE
  8
0
  6
CONTINUOUS
 62
     1
 10
102.25
 20
100.5
 30
0.0
 11
102.25
 21
106.5
 31
0.0
  0
LINE
  8
0
  6
CONTINUOUS
 62
     1
 10
104.75
 20
105.0
 30
0.0
 11
102.25
 21
105.0
 31
0.0
  0
LINE
  8
0
  6
CONTINUOUS
 62
     1
 10
96.25
 20
98.975
 30
0.0
 11
96.25
 21
125.975
 31
0.0
  0
LINE
  8
0
  6
CONTINUOUS
 62
     1
 10
96.25
 20
104.725
 30
0.0
 11
96.15
 21
104.725
 31
0.0
  0
LINE
  8
0
  6
CONTINUOUS
 62
     1
 10
96.15
 20
104.725
 30
0.0
 11
96.15
 21
102.225
 31
0.0
  0
LINE
  8
0
  6
CONTINUOUS
 62
     1
 10
96.15
 20
102.225
 30
0.0
 11
96.25
 21
102.225
 31
0.0
  0
LINE
  8
0
  6
CONTINUOUS
 62
     1
 10
96.15
 20
105.0
 30
0.0
 11
96.15
 21
102.0
 31
0.0
  0
LINE
  8
0
  6
CONTINUOUS
 62
     1
 10
95.8
 20
102.0
 30
0.0
 11
96.15
 21
102.0
 31
0.0
  0
ARC
  8
0
  6
CONTINUOUS
 62
     1
 10
95.8
 20
102.4
 30
0.0
 40
0.4
 50
180.0
 51
270.0
  0
LINE
  8
0
  6
CONTINUOUS
 62
     1
 10
95.8
 20
105.0
 30
0.0
 11
96.25
 21
105.0
 31
0.0
  0
LINE
  8
0
  6
CONTINUOUS
 62
     1
 10
95.4
 20
102.4
 30
0.0
 11
95.4
 21
104.6
 31
0.0
  0
ARC
  8
0
  6
CONTINUOUS
 62
     1
 10
95.8
 20
104.6
 30
0.0
 40
0.4
 50
90.0
 51
180.0
  0
LINE
  8
0
  6
CONTINUOUS
 62
     1
 10
95.4
 20
103.6
 30
0.0
 11
95.5
 21
103.6
 31
0.0
  0
LINE
  8
0
  6
CONTINUOUS
 62
     1
 10
95.5
 20
103.6
 30
0.0
 11
95.5
 21
103.4
 31
0.0
  0
LINE
  8
0
  6
CONTINUOUS
 62
     1
 10
95.5
 20
103.4
 30
0.0
 11
95.4
 21
103.4
 31
0.0
  0
LINE
  8
0
  6
CONTINUOUS
 62
     1
 10
96.25
 20
126.0
 30
0.0
 11
96.25
 21
151.475
 31
0.0
  0
LINE
  8
0
  6
CONTINUOUS
 62
     1
 10
96.25
 20
143.975
 30
0.0
 11
96.25
 21
152.975001907
 31
0.0
  0
LINE
  8
0
  6
CONTINUOUS
 62
     1
 10
96.25
 20
149.725
 30
0.0
 11
96.15
 21
149.725
 31
0.0
  0
LINE
  8
0
  6
CONTINUOUS
 62
     1
 10
96.15
 20
149.725
 30
0.0
 11
96.15
 21
147.225
 31
0.0
  0
LINE
  8
0
  6
CONTINUOUS
 62
     1
 10
96.15
 20
147.225
 30
0.0
 11
96.25
 21
147.225
 31
0.0
  0
LINE
  8
0
  6
CONTINUOUS
 62
     1
 10
96.15
 20
150.0
 30
0.0
 11
96.15
 21
147.0
 31
0.0
  0
LINE
  8
0
  6
CONTINUOUS
 62
     1
 10
95.8
 20
147.0
 30
0.0
 11
96.15
 21
147.0
 31
0.0
  0
ARC
  8
0
  6
CONTINUOUS
 62
     1
 10
95.8
 20
147.4
 30
0.0
 40
0.4
 50
180.0
 51
270.0
  0
LINE
  8
0
  6
CONTINUOUS
 62
     1
 10
95.8
 20
150.0
 30
0.0
 11
96.25
 21
150.0
 31
0.0
  0
LINE
  8
0
  6
CONTINUOUS
 62
     1
 10
95.4
 20
147.4
 30
0.0
 11
95.4
 21
149.6
 31
0.0
  0
ARC
  8
0
  6
CONTINUOUS
 62
     1
 10
95.8
 20
149.6
 30
0.0
 40
0.4
 50
90.0
 51
180.0
  0
LINE
  8
0
  6
CONTINUOUS
 62
     1
 10
95.4
 20
148.6
 30
0.0
 11
95.5
 21
148.6
 31
0.0
  0
LINE
  8
0
  6
CONTINUOUS
 62
     1
 10
95.5
 20
148.6
 30
0.0
 11
95.5
 21
148.4
 31
0.0
  0
LINE
  8
0
  6
CONTINUOUS
 62
     1
 10
95.5
 20
148.4
 30
0.0
 11
95.4
 21
148.4
 31
0.0
  0
LINE
  8
0
  6
CONTINUOUS
 62
     1
 10
102.25
 20
151.5
 30
0.0
 11
102.0
 21
151.5
 31
0.0
  0
LINE
  8
0
  6
CONTINUOUS
 62
     1
 10
102.0
 20
145.5
 30
0.0
 11
102.25
 21
145.5
 31
0.0
  0
LINE
  8
0
  6
CONTINUOUS
 62
     1
 10
102.25
 20
145.5
 30
0.0
 11
102.25
 21
151.5
 31
0.0
  0
ARC
  8
0
  6
CONTINUOUS
 62
     1
 10
106.5
 20
146.375
 30
0.0
 40
1.25
 50
145.0
 51
215.0
  0
ARC
  8
0
  6
CONTINUOUS
 62
     1
 10
106.5
 20
146.375
 30
0.0
 40
1.25
 50
325.0
 51
35.0
  0
LINE
  8
0
  6
CONTINUOUS
 62
     1
 10
105.25
 20
145.65
 30
0.0
 11
107.525
 21
145.65
 31
0.0
  0
LINE
  8
0
  6
CONTINUOUS
 62
     1
 10
104.84472136
 20
144.839442719
 30
0.0
 11
105.25
 21
145.65
 31
0.0
  0
ARC
  8
0
  6
CONTINUOUS
 62
     1
 10
104.8
 20
144.861803399
 30
0.0
 40
0.05
 50
180.0
 51
333.434948823
  0
ARC
  8
0
  6
CONTINUOUS
 62
     1
 10
102.75
 20
148.5
 30
0.0
 40
5.0
 50
343.5
 51
16.5
  0
ARC
  8
0
  6
CONTINUOUS
 62
     1
 10
110.25
 20
148.5
 30
0.0
 40
5.0
 50
163.5
 51
196.3
  0
LINE
  8
0
  6
CONTINUOUS
 62
     1
 10
109.75
 20
147.0
 30
0.0
 11
107.75
 21
147.0
 31
0.0
  0
LINE
  8
0
  6
CONTINUOUS
 62
     1
 10
109.75
 20
150.0
 30
0.0
 11
109.75
 21
147.0
 31
0.0
  0
LINE
  8
0
  6
CONTINUOUS
 62
     1
 10
102.25
 20
147.005
 30
0.0
 11
104.75
 21
147.005
 31
0.0
  0
LINE
  8
0
  6
CONTINUOUS
 62
     1
 10
104.75
 20
150.0
 30
0.0
 11
102.25
 21
150.0
 31
0.0
  0
LINE
  8
0
  6
CONTINUOUS
 62
     1
 10
107.75
 20
150.75
 30
0.0
 11
144.0
 21
150.75
 31
0.0
  0
ARC
  8
0
  6
CONTINUOUS
 62
     1
 10
106.5
 20
150.625
 30
0.0
 40
1.25
 50
325.0
 51
35.0
  0
LINE
  8
0
  6
CONTINUOUS
 62
     1
 10
107.75
 20
146.375
 30
0.0
 11
107.75
 21
150.625
 31
0.0
  0
ARC
  8
0
  6
CONTINUOUS
 62
     1
 10
106.5
 20
150.625
 30
0.0
 40
1.25
 50
145.0
 51
215.0
  0
LINE
  8
0
  6
CONTINUOUS
 62
     1
 10
107.530901326
 20
151.35
 30
0.0
 11
105.25
 21
151.35
 31
0.0
  0
LINE
  8
0
  6
CONTINUOUS
 62
     1
 10
105.25
 20
151.35
 30
0.0
 11
105.25
 21
146.375
 31
0.0
  0
ARC
  8
0
  6
CONTINUOUS
 62
     1
 10
104.8
 20
152.138196601
 30
0.0
 40
0.05
 50
26.565051177
 51
180.0
  0
LINE
  8
0
  6
CONTINUOUS
 62
     1
 10
104.75
 20
144.861803399
 30
0.0
 11
104.75
 21
152.138196601
 31
0.0
  0
LINE
  8
0
  6
CONTINUOUS
 62
     1
 10
104.84472136
 20
152.160557281
 30
0.0
 11
105.25
 21
151.35
 31
0.0
  0
LINE
  8
0
  6
CONTINUOUS
 62
     1
 10
107.75
 20
150.0
 30
0.0
 11
109.75
 21
150.0
 31
0.0
  0
ARC
  8
0
  6
CONTINUOUS
 62
     1
 10
150.675
 20
129.925
 30
0.0
 40
1.475
 50
270.0
 51
0.0
  0
LINE
  8
0
  6
CONTINUOUS
 62
     1
 10
150.675
 20
128.45
 30
0.0
 11
150.175
 21
128.45
 31
0.0
  0
LINE
  8
0
  6
CONTINUOUS
 62
     1
 10
150.15
 20
128.2475
 30
0.0
 11
149.475
 21
128.2475
 31
0.0
  0
LINE
  8
0
  6
CONTINUOUS
 62
     1
 10
149.0
 20
127.825
 30
0.0
 11
149.475
 21
127.825
 31
0.0
  0
LINE
  8
0
  6
CONTINUOUS
 62
     1
 10
149.0
 20
129.0
 30
0.0
 11
144.5
 21
129.0
 31
0.0
  0
POINT
  8
0
  6
CONTINUOUS
 62
     1
 10
151.8
 20
130.55
 30
0.0
  0
LINE
  8
0
  6
CONTINUOUS
 62
     1
 10
151.8
 20
130.65
 30
0.0
 11
151.8
 21
130.45
 31
0.0
  0
LINE
  8
0
  6
CONTINUOUS
 62
     1
 10
151.8
 20
130.45
 30
0.0
 11
151.9
 21
130.45
 31
0.0
  0
LINE
  8
0
  6
CONTINUOUS
 62
     1
 10
151.9
 20
130.45
 30
0.0
 11
152.1
 21
130.45
 31
0.0
  0
ARC
  8
0
  6
CONTINUOUS
 62
     1
 10
150.675
 20
132.075
 30
0.0
 40
1.475
 50
0.0
 51
90.0
  0
LINE
  8
0
  6
CONTINUOUS
 62
     1
 10
150.175
 20
133.55
 30
0.0
 11
150.675000132
 21
133.55
 31
0.0
  0
LINE
  8
0
  6
CONTINUOUS
 62
     1
 10
144.5
 20
133.0
 30
0.0
 11
149.0
 21
133.0
 31
0.0
  0
LINE
  8
0
  6
CONTINUOUS
 62
     1
 10
150.175
 20
128.45
 30
0.0
 11
150.175
 21
133.55
 31
0.0
  0
LINE
  8
0
  6
CONTINUOUS
 62
     1
 10
150.15
 20
133.75
 30
0.0
 11
150.15
 21
128.2475
 31
0.0
  0
LINE
  8
0
  6
CONTINUOUS
 62
     1
 10
149.475
 20
134.175
 30
0.0
 11
149.0
 21
134.175
 31
0.0
  0
LINE
  8
0
  6
CONTINUOUS
 62
     1
 10
149.475
 20
133.75
 30
0.0
 11
150.15
 21
133.75
 31
0.0
  0
LINE
  8
0
  6
CONTINUOUS
 62
     1
 10
149.475
 20
128.2475
 30
0.0
 11
149.475
 21
133.75
 31
0.0
  0
LINE
  8
0
  6
CONTINUOUS
 62
     1
 10
149.475
 20
127.825
 30
0.0
 11
149.475
 21
134.175
 31
0.0
  0
LINE
  8
0
  6
CONTINUOUS
 62
     1
 10
149.0
 20
134.175
 30
0.0
 11
149.0
 21
127.825
 31
0.0
  0
LINE
  8
0
  6
CONTINUOUS
 62
     1
 10
152.0
 20
131.75
 30
0.0
 11
151.8
 21
131.75
 31
0.0
  0
POINT
  8
0
  6
CONTINUOUS
 62
     1
 10
151.8
 20
131.75
 30
0.0
  0
LINE
  8
0
  6
CONTINUOUS
 62
     1
 10
152.15
 20
132.075
 30
0.0
 11
152.15
 21
129.925
 31
0.0
  0
LINE
  8
0
  6
CONTINUOUS
 62
     1
 10
151.8
 20
131.75
 30
0.0
 11
151.8
 21
130.55
 31
0.0
  0
LINE
  8
0
  6
CONTINUOUS
 62
     1
 10
149.475
 20
131.06
 30
0.0
 11
150.15
 21
131.06
 31
0.0
  0
LINE
  8
0
  6
CONTINUOUS
 62
     1
 10
150.15
 20
130.96
 30
0.0
 11
149.475
 21
130.96
 31
0.0
  0
LINE
  8
0
  6
CONTINUOUS
 62
     1
 10
150.15
 20
118.2475
 30
0.0
 11
149.475
 21
118.2475
 31
0.0
  0
LINE
  8
0
  6
CONTINUOUS
 62
     1
 10
150.175
 20
118.45
 30
0.0
 11
150.175
 21
123.55
 31
0.0
  0
LINE
  8
0
  6
CONTINUOUS
 62
     1
 10
150.175
 20
123.55
 30
0.0
 11
150.675000132
 21
123.55
 31
0.0
  0
LINE
  8
0
  6
CONTINUOUS
 62
     1
 10
149.475
 20
123.75
 30
0.0
 11
150.15
 21
123.75
 31
0.0
  0
LINE
  8
0
  6
CONTINUOUS
 62
     1
 10
150.15
 20
123.75
 30
0.0
 11
150.15
 21
118.2475
 31
0.0
  0
LINE
  8
0
  6
CONTINUOUS
 62
     1
 10
149.475
 20
118.2475
 30
0.0
 11
149.475
 21
123.75
 31
0.0
  0
LINE
  8
0
  6
CONTINUOUS
 62
     1
 10
144.5
 20
123.0
 30
0.0
 11
149.45
 21
123.0
 31
0.0
  0
LINE
  8
0
  6
CONTINUOUS
 62
     1
 10
149.45
 20
119.0
 30
0.0
 11
144.5
 21
119.0
 31
0.0
  0
ARC
  8
0
  6
CONTINUOUS
 62
     1
 10
150.675
 20
119.925
 30
0.0
 40
1.475
 50
270.0
 51
0.0
  0
POINT
  8
0
  6
CONTINUOUS
 62
     1
 10
151.9
 20
120.4
 30
0.0
  0
LINE
  8
0
  6
CONTINUOUS
 62
     1
 10
151.9
 20
120.4
 30
0.0
 11
152.1
 21
120.4
 31
0.0
  0
LINE
  8
0
  6
CONTINUOUS
 62
     1
 10
152.2
 20
121.7
 30
0.0
 11
151.9
 21
121.7
 31
0.0
  0
POINT
  8
0
  6
CONTINUOUS
 62
     1
 10
151.9
 20
121.7
 30
0.0
  0
ARC
  8
0
  6
CONTINUOUS
 62
     1
 10
150.675
 20
122.075
 30
0.0
 40
1.475
 50
0.0
 51
90.0
  0
LINE
  8
0
  6
CONTINUOUS
 62
     1
 10
152.15
 20
122.075
 30
0.0
 11
152.15
 21
119.925
 31
0.0
  0
LINE
  8
0
  6
CONTINUOUS
 62
     1
 10
151.9
 20
121.7
 30
0.0
 11
151.9
 21
120.4
 31
0.0
  0
LINE
  8
0
  6
CONTINUOUS
 62
     1
 10
149.475
 20
121.06
 30
0.0
 11
150.15
 21
121.06
 31
0.0
  0
LINE
  8
0
  6
CONTINUOUS
 62
     1
 10
150.15
 20
120.96
 30
0.0
 11
149.475
 21
120.96
 31
0.0
  0
CIRCLE
  8
0
  6
CONTINUOUS
 62
     1
 10
178.3
 20
130.95
 30
0.0
 40
3.175
  0
CIRCLE
  8
0
  6
CONTINUOUS
 62
     1
 10
178.3
 20
130.95
 30
0.0
 40
2.5
  0
LINE
  8
0
  6
CONTINUOUS
 62
     1
 10
179.675
 20
130.6
 30
0.0
 11
179.675
 21
131.3
 31
0.0
  0
LINE
  8
0
  6
CONTINUOUS
 62
     1
 10
176.925
 20
131.3
 30
0.0
 11
176.925
 21
130.6
 31
0.0
  0
LINE
  8
0
  6
CONTINUOUS
 62
     1
 10
179.675
 20
131.3
 30
0.0
 11
179.4
 21
131.3
 31
0.0
  0
LINE
  8
0
  6
CONTINUOUS
 62
     1
 10
178.65
 20
132.05
 30
0.0
 11
178.65
 21
133.425378759
 31
0.0
  0
ARC
  8
0
  6
CONTINUOUS
 62
     1
 10
179.4
 20
132.05
 30
0.0
 40
0.75
 50
180.0
 51
270.0
  0
LINE
  8
0
  6
CONTINUOUS
 62
     1
 10
179.4
 20
130.6
 30
0.0
 11
179.675
 21
130.6
 31
0.0
  0
LINE
  8
0
  6
CONTINUOUS
 62
     1
 10
178.65
 20
128.5
 30
0.0
 11
178.65
 21
129.85
 31
0.0
  0
ARC
  8
0
  6
CONTINUOUS
 62
     1
 10
179.4
 20
129.85
 30
0.0
 40
0.75
 50
90.0
 51
180.0
  0
LINE
  8
0
  6
CONTINUOUS
 62
     1
 10
176.925
 20
130.6
 30
0.0
 11
177.2
 21
130.6
 31
0.0
  0
LINE
  8
0
  6
CONTINUOUS
 62
     1
 10
177.95
 20
129.85
 30
0.0
 11
177.95
 21
128.474621241
 31
0.0
  0
ARC
  8
0
  6
CONTINUOUS
 62
     1
 10
177.2
 20
129.85
 30
0.0
 40
0.75
 50
0.0
 51
90.0
  0
LINE
  8
0
  6
CONTINUOUS
 62
     1
 10
177.2
 20
131.3
 30
0.0
 11
176.925
 21
131.3
 31
0.0
  0
LINE
  8
0
  6
CONTINUOUS
 62
     1
 10
177.95
 20
133.425378759
 30
0.0
 11
177.95
 21
132.05
 31
0.0
  0
ARC
  8
0
  6
CONTINUOUS
 62
     1
 10
177.2
 20
132.05
 30
0.0
 40
0.75
 50
270.0
 51
0.0
  0
CIRCLE
  8
0
  6
CONTINUOUS
 62
     1
 10
193.3
 20
130.95
 30
0.0
 40
3.175
  0
CIRCLE
  8
0
  6
CONTINUOUS
 62
     1
 10
193.3
 20
130.95
 30
0.0
 40
2.5
  0
LINE
  8
0
  6
CONTINUOUS
 62
     1
 10
194.675
 20
130.6
 30
0.0
 11
194.675
 21
131.3
 31
0.0
  0
LINE
  8
0
  6
CONTINUOUS
 62
     1
 10
191.925
 20
131.3
 30
0.0
 11
191.925
 21
130.6
 31
0.0
  0
LINE
  8
0
  6
CONTINUOUS
 62
     1
 10
194.675
 20
131.3
 30
0.0
 11
194.4
 21
131.3
 31
0.0
  0
LINE
  8
0
  6
CONTINUOUS
 62
     1
 10
193.65
 20
132.05
 30
0.0
 11
193.65
 21
133.425378759
 31
0.0
  0
ARC
  8
0
  6
CONTINUOUS
 62
     1
 10
194.4
 20
132.05
 30
0.0
 40
0.75
 50
180.0
 51
270.0
  0
LINE
  8
0
  6
CONTINUOUS
 62
     1
 10
194.4
 20
130.6
 30
0.0
 11
194.675
 21
130.6
 31
0.0
  0
LINE
  8
0
  6
CONTINUOUS
 62
     1
 10
193.65
 20
128.5
 30
0.0
 11
193.65
 21
129.85
 31
0.0
  0
ARC
  8
0
  6
CONTINUOUS
 62
     1
 10
194.4
 20
129.85
 30
0.0
 40
0.75
 50
90.0
 51
180.0
  0
LINE
  8
0
  6
CONTINUOUS
 62
     1
 10
191.925
 20
130.6
 30
0.0
 11
192.2
 21
130.6
 31
0.0
  0
LINE
  8
0
  6
CONTINUOUS
 62
     1
 10
192.95
 20
129.85
 30
0.0
 11
192.95
 21
128.474621241
 31
0.0
  0
ARC
  8
0
  6
CONTINUOUS
 62
     1
 10
192.2
 20
129.85
 30
0.0
 40
0.75
 50
0.0
 51
90.0
  0
LINE
  8
0
  6
CONTINUOUS
 62
     1
 10
192.2
 20
131.3
 30
0.0
 11
191.925
 21
131.3
 31
0.0
  0
LINE
  8
0
  6
CONTINUOUS
 62
     1
 10
192.95
 20
133.425378759
 30
0.0
 11
192.95
 21
132.05
 31
0.0
  0
ARC
  8
0
  6
CONTINUOUS
 62
     1
 10
192.2
 20
132.05
 30
0.0
 40
0.75
 50
270.0
 51
0.0
  0
CIRCLE
  8
0
  6
CONTINUOUS
 62
     1
 10
200.8
 20
120.95
 30
0.0
 40
3.175
  0
CIRCLE
  8
0
  6
CONTINUOUS
 62
     1
 10
200.8
 20
120.95
 30
0.0
 40
2.5
  0
LINE
  8
0
  6
CONTINUOUS
 62
     1
 10
202.175
 20
120.6
 30
0.0
 11
202.175
 21
121.3
 31
0.0
  0
LINE
  8
0
  6
CONTINUOUS
 62
     1
 10
199.425
 20
121.3
 30
0.0
 11
199.425
 21
120.6
 31
0.0
  0
LINE
  8
0
  6
CONTINUOUS
 62
     1
 10
202.175
 20
121.3
 30
0.0
 11
201.9
 21
121.3
 31
0.0
  0
LINE
  8
0
  6
CONTINUOUS
 62
     1
 10
201.15
 20
122.05
 30
0.0
 11
201.15
 21
123.425378759
 31
0.0
  0
ARC
  8
0
  6
CONTINUOUS
 62
     1
 10
201.9
 20
122.05
 30
0.0
 40
0.75
 50
180.0
 51
270.0
  0
LINE
  8
0
  6
CONTINUOUS
 62
     1
 10
201.9
 20
120.6
 30
0.0
 11
202.175
 21
120.6
 31
0.0
  0
LINE
  8
0
  6
CONTINUOUS
 62
     1
 10
201.15
 20
118.5
 30
0.0
 11
201.15
 21
119.85
 31
0.0
  0
ARC
  8
0
  6
CONTINUOUS
 62
     1
 10
201.9
 20
119.85
 30
0.0
 40
0.75
 50
90.0
 51
180.0
  0
LINE
  8
0
  6
CONTINUOUS
 62
     1
 10
199.425
 20
120.6
 30
0.0
 11
199.7
 21
120.6
 31
0.0
  0
LINE
  8
0
  6
CONTINUOUS
 62
     1
 10
200.45
 20
119.85
 30
0.0
 11
200.45
 21
118.474621241
 31
0.0
  0
ARC
  8
0
  6
CONTINUOUS
 62
     1
 10
199.7
 20
119.85
 30
0.0
 40
0.75
 50
0.0
 51
90.0
  0
LINE
  8
0
  6
CONTINUOUS
 62
     1
 10
199.7
 20
121.3
 30
0.0
 11
199.425
 21
121.3
 31
0.0
  0
LINE
  8
0
  6
CONTINUOUS
 62
     1
 10
200.45
 20
123.425378759
 30
0.0
 11
200.45
 21
122.05
 31
0.0
  0
ARC
  8
0
  6
CONTINUOUS
 62
     1
 10
199.7
 20
122.05
 30
0.0
 40
0.75
 50
270.0
 51
0.0
  0
CIRCLE
  8
0
  6
CONTINUOUS
 62
     1
 10
170.8
 20
120.95
 30
0.0
 40
3.175
  0
CIRCLE
  8
0
  6
CONTINUOUS
 62
     1
 10
170.8
 20
120.95
 30
0.0
 40
2.5
  0
LINE
  8
0
  6
CONTINUOUS
 62
     1
 10
172.175
 20
120.6
 30
0.0
 11
172.175
 21
121.3
 31
0.0
  0
LINE
  8
0
  6
CONTINUOUS
 62
     1
 10
169.425
 20
121.3
 30
0.0
 11
169.425
 21
120.6
 31
0.0
  0
LINE
  8
0
  6
CONTINUOUS
 62
     1
 10
172.175
 20
121.3
 30
0.0
 11
171.9
 21
121.3
 31
0.0
  0
LINE
  8
0
  6
CONTINUOUS
 62
     1
 10
171.15
 20
122.05
 30
0.0
 11
171.15
 21
123.425378759
 31
0.0
  0
ARC
  8
0
  6
CONTINUOUS
 62
     1
 10
171.9
 20
122.05
 30
0.0
 40
0.75
 50
180.0
 51
270.0
  0
LINE
  8
0
  6
CONTINUOUS
 62
     1
 10
171.9
 20
120.6
 30
0.0
 11
172.175
 21
120.6
 31
0.0
  0
LINE
  8
0
  6
CONTINUOUS
 62
     1
 10
171.15
 20
118.5
 30
0.0
 11
171.15
 21
119.85
 31
0.0
  0
ARC
  8
0
  6
CONTINUOUS
 62
     1
 10
171.9
 20
119.85
 30
0.0
 40
0.75
 50
90.0
 51
180.0
  0
LINE
  8
0
  6
CONTINUOUS
 62
     1
 10
169.425
 20
120.6
 30
0.0
 11
169.7
 21
120.6
 31
0.0
  0
LINE
  8
0
  6
CONTINUOUS
 62
     1
 10
170.45
 20
119.85
 30
0.0
 11
170.45
 21
118.474621241
 31
0.0
  0
ARC
  8
0
  6
CONTINUOUS
 62
     1
 10
169.7
 20
119.85
 30
0.0
 40
0.75
 50
0.0
 51
90.0
  0
LINE
  8
0
  6
CONTINUOUS
 62
     1
 10
169.7
 20
121.3
 30
0.0
 11
169.425
 21
121.3
 31
0.0
  0
LINE
  8
0
  6
CONTINUOUS
 62
     1
 10
170.45
 20
123.425378759
 30
0.0
 11
170.45
 21
122.05
 31
0.0
  0
ARC
  8
0
  6
CONTINUOUS
 62
     1
 10
169.7
 20
122.05
 30
0.0
 40
0.75
 50
270.0
 51
0.0
  0
TEXT
  8
0
  6
CONTINUOUS
 62
     1
 10
172.075
 20
20.6
 30
0.75
 40
4.5
  1
パネルカット
 50
0.0
 41
0.9
 51
0.0
  7
KANJI4
  0
LINE
  8
0
  6
CONTINUOUS
 62
     1
 10
171.7
 20
19.75
 30
0.0
 11
199.1
 21
19.75
 31
0.0
  0
LINE
  8
0
  6
CONTINUOUS
 62
     1
 10
91.5
 20
129.15
 30
0.0
 11
91.5
 21
123.25
 31
0.0
  0
LINE
  8
0
  6
CONTINUOUS
 62
     1
 10
91.5
 20
123.25
 30
0.0
 11
91.4
 21
123.25
 31
0.0
  0
ARC
  8
0
  6
CONTINUOUS
 62
     1
 10
91.4
 20
124.65
 30
0.0
 40
1.4
 50
180.0
 51
270.0
  0
LINE
  8
0
  6
CONTINUOUS
 62
     1
 10
90.0
 20
124.65
 30
0.0
 11
90.0
 21
127.65
 31
0.0
  0
ARC
  8
0
  6
CONTINUOUS
 62
     1
 10
91.5
 20
127.65
 30
0.0
 40
1.5
 50
90.0
 51
180.0
  0
LINE
  8
0
  6
CONTINUOUS
 62
     1
 10
95.4
 20
111.4
 30
0.0
 11
95.4
 21
106.4
 31
0.0
  0
LINE
  8
0
  6
CONTINUOUS
 62
     1
 10
95.4
 20
106.4
 30
0.0
 11
91.85
 21
106.7
 31
0.0
  0
LINE
  8
0
  6
CONTINUOUS
 62
     1
 10
91.85
 20
106.7
 30
0.0
 11
91.85
 21
111.1
 31
0.0
  0
LINE
  8
0
  6
CONTINUOUS
 62
     1
 10
91.85
 20
111.1
 30
0.0
 11
95.4
 21
111.4
 31
0.0
  0
LINE
  8
0
  6
CONTINUOUS
 62
     1
 10
92.292173913
 20
106.7
 30
0.0
 11
92.5
 21
100.725
 31
0.0
  0
LINE
  8
0
  6
CONTINUOUS
 62
     1
 10
91.7
 20
123.725
 30
0.0
 11
92.139130435
 21
111.1
 31
0.0
  0
LINE
  8
0
  6
CONTINUOUS
 62
     1
 10
95.4
 20
107.65
 30
0.0
 11
96.25
 21
107.65
 31
0.0
  0
LINE
  8
0
  6
CONTINUOUS
 62
     1
 10
95.4
 20
110.15
 30
0.0
 11
96.25
 21
110.15
 31
0.0
  0
POINT
  8
0
  6
CONTINUOUS
 62
     1
 10
94.4
 20
106.75
 30
0.0
  0
LINE
  8
0
  6
CONTINUOUS
 62
     1
 10
178.3
 20
120.425378759
 30
0.0
 11
193.3
 21
120.425378759
 31
0.0
  0
LINE
  8
0
  6
CONTINUOUS
 62
     1
 10
193.3
 20
120.425378759
 30
0.0
 11
193.3
 21
123.425378759
 31
0.0
  0
LINE
  8
0
  6
CONTINUOUS
 62
     1
 10
193.3
 20
123.425378759
 30
0.0
 11
178.3
 21
123.425378759
 31
0.0
  0
LINE
  8
0
  6
CONTINUOUS
 62
     1
 10
178.3
 20
123.425378759
 30
0.0
 11
178.3
 21
120.425378759
 31
0.0
  0
CIRCLE
  8
0
  6
CONTINUOUS
 62
     2
 10
74.9
 20
148.5
 30
0.0
 40
1.5
  0
LINE
  8
0
  6
CONTINUOUS
 62
     2
 10
74.025
 20
148.7
 30
0.0
 11
74.5
 21
148.7
 31
0.0
  0
ARC
  8
0
  6
CONTINUOUS
 62
     2
 10
74.5
 20
148.9
 30
0.0
 40
0.2
 50
270.0
 51
0.0
  0
LINE
  8
0
  6
CONTINUOUS
 62
     2
 10
74.7
 20
148.9
 30
0.0
 11
74.7
 21
149.375
 31
0.0
  0
LINE
  8
0
  6
CONTINUOUS
 62
     2
 10
74.7
 20
149.375
 30
0.0
 11
75.1
 21
149.375
 31
0.0
  0
LINE
  8
0
  6
CONTINUOUS
 62
     2
 10
75.1
 20
149.375
 30
0.0
 11
75.1
 21
148.9
 31
0.0
  0
ARC
  8
0
  6
CONTINUOUS
 62
     2
 10
75.3
 20
148.9
 30
0.0
 40
0.2
 50
180.0
 51
270.0
  0
LINE
  8
0
  6
CONTINUOUS
 62
     2
 10
75.3
 20
148.7
 30
0.0
 11
75.775
 21
148.7
 31
0.0
  0
LINE
  8
0
  6
CONTINUOUS
 62
     2
 10
75.775
 20
148.7
 30
0.0
 11
75.775
 21
148.3
 31
0.0
  0
LINE
  8
0
  6
CONTINUOUS
 62
     2
 10
75.775
 20
148.3
 30
0.0
 11
75.3
 21
148.3
 31
0.0
  0
ARC
  8
0
  6
CONTINUOUS
 62
     2
 10
75.3
 20
148.1
 30
0.0
 40
0.2
 50
90.0
 51
180.0
  0
LINE
  8
0
  6
CONTINUOUS
 62
     2
 10
75.1
 20
148.1
 30
0.0
 11
75.1
 21
147.625
 31
0.0
  0
LINE
  8
0
  6
CONTINUOUS
 62
     2
 10
75.1
 20
147.625
 30
0.0
 11
74.7
 21
147.625
 31
0.0
  0
LINE
  8
0
  6
CONTINUOUS
 62
     2
 10
74.7
 20
147.625
 30
0.0
 11
74.7
 21
148.1
 31
0.0
  0
ARC
  8
0
  6
CONTINUOUS
 62
     2
 10
74.5
 20
148.1
 30
0.0
 40
0.2
 50
0.0
 51
90.0
  0
LINE
  8
0
  6
CONTINUOUS
 62
     2
 10
74.5
 20
148.3
 30
0.0
 11
74.025
 21
148.3
 31
0.0
  0
LINE
  8
0
  6
CONTINUOUS
 62
     2
 10
74.025
 20
148.3
 30
0.0
 11
74.025
 21
148.7
 31
0.0
  0
CIRCLE
  8
0
  6
CONTINUOUS
 62
     2
 10
29.9
 20
148.5
 30
0.0
 40
1.5
  0
LINE
  8
0
  6
CONTINUOUS
 62
     2
 10
29.025
 20
148.7
 30
0.0
 11
29.5
 21
148.7
 31
0.0
  0
ARC
  8
0
  6
CONTINUOUS
 62
     2
 10
29.5
 20
148.9
 30
0.0
 40
0.2
 50
270.0
 51
0.0
  0
LINE
  8
0
  6
CONTINUOUS
 62
     2
 10
29.7
 20
148.9
 30
0.0
 11
29.7
 21
149.375
 31
0.0
  0
LINE
  8
0
  6
CONTINUOUS
 62
     2
 10
29.7
 20
149.375
 30
0.0
 11
30.1
 21
149.375
 31
0.0
  0
LINE
  8
0
  6
CONTINUOUS
 62
     2
 10
30.1
 20
149.375
 30
0.0
 11
30.1
 21
148.9
 31
0.0
  0
ARC
  8
0
  6
CONTINUOUS
 62
     2
 10
30.3
 20
148.9
 30
0.0
 40
0.2
 50
180.0
 51
270.0
  0
LINE
  8
0
  6
CONTINUOUS
 62
     2
 10
30.3
 20
148.7
 30
0.0
 11
30.775
 21
148.7
 31
0.0
  0
LINE
  8
0
  6
CONTINUOUS
 62
     2
 10
30.775
 20
148.7
 30
0.0
 11
30.775
 21
148.3
 31
0.0
  0
LINE
  8
0
  6
CONTINUOUS
 62
     2
 10
30.775
 20
148.3
 30
0.0
 11
30.3
 21
148.3
 31
0.0
  0
ARC
  8
0
  6
CONTINUOUS
 62
     2
 10
30.3
 20
148.1
 30
0.0
 40
0.2
 50
90.0
 51
180.0
  0
LINE
  8
0
  6
CONTINUOUS
 62
     2
 10
30.1
 20
148.1
 30
0.0
 11
30.1
 21
147.625
 31
0.0
  0
LINE
  8
0
  6
CONTINUOUS
 62
     2
 10
30.1
 20
147.625
 30
0.0
 11
29.7
 21
147.625
 31
0.0
  0
LINE
  8
0
  6
CONTINUOUS
 62
     2
 10
29.7
 20
147.625
 30
0.0
 11
29.7
 21
148.1
 31
0.0
  0
ARC
  8
0
  6
CONTINUOUS
 62
     2
 10
29.5
 20
148.1
 30
0.0
 40
0.2
 50
0.0
 51
90.0
  0
LINE
  8
0
  6
CONTINUOUS
 62
     2
 10
29.5
 20
148.3
 30
0.0
 11
29.025
 21
148.3
 31
0.0
  0
LINE
  8
0
  6
CONTINUOUS
 62
     2
 10
29.025
 20
148.3
 30
0.0
 11
29.025
 21
148.7
 31
0.0
  0
CIRCLE
  8
0
  6
CONTINUOUS
 62
     2
 10
29.9
 20
103.5
 30
0.0
 40
1.5
  0
LINE
  8
0
  6
CONTINUOUS
 62
     2
 10
29.025
 20
103.7
 30
0.0
 11
29.5
 21
103.7
 31
0.0
  0
ARC
  8
0
  6
CONTINUOUS
 62
     2
 10
29.5
 20
103.9
 30
0.0
 40
0.2
 50
270.0
 51
0.0
  0
LINE
  8
0
  6
CONTINUOUS
 62
     2
 10
29.7
 20
103.9
 30
0.0
 11
29.7
 21
104.375
 31
0.0
  0
LINE
  8
0
  6
CONTINUOUS
 62
     2
 10
29.7
 20
104.375
 30
0.0
 11
30.1
 21
104.375
 31
0.0
  0
LINE
  8
0
  6
CONTINUOUS
 62
     2
 10
30.1
 20
104.375
 30
0.0
 11
30.1
 21
103.9
 31
0.0
  0
ARC
  8
0
  6
CONTINUOUS
 62
     2
 10
30.3
 20
103.9
 30
0.0
 40
0.2
 50
180.0
 51
270.0
  0
LINE
  8
0
  6
CONTINUOUS
 62
     2
 10
30.3
 20
103.7
 30
0.0
 11
30.775
 21
103.7
 31
0.0
  0
LINE
  8
0
  6
CONTINUOUS
 62
     2
 10
30.775
 20
103.7
 30
0.0
 11
30.775
 21
103.3
 31
0.0
  0
LINE
  8
0
  6
CONTINUOUS
 62
     2
 10
30.775
 20
103.3
 30
0.0
 11
30.3
 21
103.3
 31
0.0
  0
ARC
  8
0
  6
CONTINUOUS
 62
     2
 10
30.3
 20
103.1
 30
0.0
 40
0.2
 50
90.0
 51
180.0
  0
LINE
  8
0
  6
CONTINUOUS
 62
     2
 10
30.1
 20
103.1
 30
0.0
 11
30.1
 21
102.625
 31
0.0
  0
LINE
  8
0
  6
CONTINUOUS
 62
     2
 10
30.1
 20
102.625
 30
0.0
 11
29.7
 21
102.625
 31
0.0
  0
LINE
  8
0
  6
CONTINUOUS
 62
     2
 10
29.7
 20
102.625
 30
0.0
 11
29.7
 21
103.1
 31
0.0
  0
ARC
  8
0
  6
CONTINUOUS
 62
     2
 10
29.5
 20
103.1
 30
0.0
 40
0.2
 50
0.0
 51
90.0
  0
LINE
  8
0
  6
CONTINUOUS
 62
     2
 10
29.5
 20
103.3
 30
0.0
 11
29.025
 21
103.3
 31
0.0
  0
LINE
  8
0
  6
CONTINUOUS
 62
     2
 10
29.025
 20
103.3
 30
0.0
 11
29.025
 21
103.7
 31
0.0
  0
CIRCLE
  8
0
  6
CONTINUOUS
 62
     2
 10
74.9
 20
103.5
 30
0.0
 40
1.5
  0
LINE
  8
0
  6
CONTINUOUS
 62
     2
 10
74.025
 20
103.7
 30
0.0
 11
74.5
 21
103.7
 31
0.0
  0
ARC
  8
0
  6
CONTINUOUS
 62
     2
 10
74.5
 20
103.9
 30
0.0
 40
0.2
 50
270.0
 51
0.0
  0
LINE
  8
0
  6
CONTINUOUS
 62
     2
 10
74.7
 20
103.9
 30
0.0
 11
74.7
 21
104.375
 31
0.0
  0
LINE
  8
0
  6
CONTINUOUS
 62
     2
 10
74.7
 20
104.375
 30
0.0
 11
75.1
 21
104.375
 31
0.0
  0
LINE
  8
0
  6
CONTINUOUS
 62
     2
 10
75.1
 20
104.375
 30
0.0
 11
75.1
 21
103.9
 31
0.0
  0
ARC
  8
0
  6
CONTINUOUS
 62
     2
 10
75.3
 20
103.9
 30
0.0
 40
0.2
 50
180.0
 51
270.0
  0
LINE
  8
0
  6
CONTINUOUS
 62
     2
 10
75.3
 20
103.7
 30
0.0
 11
75.775
 21
103.7
 31
0.0
  0
LINE
  8
0
  6
CONTINUOUS
 62
     2
 10
75.775
 20
103.7
 30
0.0
 11
75.775
 21
103.3
 31
0.0
  0
LINE
  8
0
  6
CONTINUOUS
 62
     2
 10
75.775
 20
103.3
 30
0.0
 11
75.3
 21
103.3
 31
0.0
  0
ARC
  8
0
  6
CONTINUOUS
 62
     2
 10
75.3
 20
103.1
 30
0.0
 40
0.2
 50
90.0
 51
180.0
  0
LINE
  8
0
  6
CONTINUOUS
 62
     2
 10
75.1
 20
103.1
 30
0.0
 11
75.1
 21
102.625
 31
0.0
  0
LINE
  8
0
  6
CONTINUOUS
 62
     2
 10
75.1
 20
102.625
 30
0.0
 11
74.7
 21
102.625
 31
0.0
  0
LINE
  8
0
  6
CONTINUOUS
 62
     2
 10
74.7
 20
102.625
 30
0.0
 11
74.7
 21
103.1
 31
0.0
  0
ARC
  8
0
  6
CONTINUOUS
 62
     2
 10
74.5
 20
103.1
 30
0.0
 40
0.2
 50
0.0
 51
90.0
  0
LINE
  8
0
  6
CONTINUOUS
 62
     2
 10
74.5
 20
103.3
 30
0.0
 11
74.025
 21
103.3
 31
0.0
  0
LINE
  8
0
  6
CONTINUOUS
 62
     2
 10
74.025
 20
103.3
 30
0.0
 11
74.025
 21
103.7
 31
0.0
  0
LINE
  8
0
  6
CONTINUOUS
 62
     2
 10
52.85
 20
122.983379374
 30
0.0
 11
52.85
 21
129.016620626
 31
0.0
  0
LINE
  8
0
  6
CONTINUOUS
 62
     2
 10
51.95
 20
129.016620626
 30
0.0
 11
51.95
 21
122.983379374
 31
0.0
  0
CIRCLE
  8
0
  6
CONTINUOUS
 62
     2
 10
52.4
 20
126.0
 30
0.0
 40
8.5
  0
CIRCLE
  8
0
  6
CONTINUOUS
 62
     2
 10
52.4
 20
126.0
 30
0.0
 40
7.8
  0
CIRCLE
  8
0
  6
CONTINUOUS
 62
     2
 10
52.4
 20
126.0
 30
0.0
 40
7.1
  0
CIRCLE
  8
0
  6
CONTINUOUS
 62
     2
 10
52.4
 20
126.0
 30
0.0
 40
6.4
  0
CIRCLE
  8
0
  6
CONTINUOUS
 62
     2
 10
52.4
 20
126.0
 30
0.0
 40
5.7
  0
CIRCLE
  8
0
  6
CONTINUOUS
 62
     2
 10
52.4
 20
126.0
 30
0.0
 40
5.0
  0
CIRCLE
  8
0
  6
CONTINUOUS
 62
     2
 10
52.4
 20
126.0
 30
0.0
 40
4.3
  0
CIRCLE
  8
0
  6
CONTINUOUS
 62
     2
 10
52.4
 20
126.0
 30
0.0
 40
3.6
  0
CIRCLE
  8
0
  6
CONTINUOUS
 62
     2
 10
52.4
 20
126.0
 30
0.0
 40
24.25
  0
CIRCLE
  8
0
  6
CONTINUOUS
 62
     2
 10
52.4
 20
126.0
 30
0.0
 40
21.0
  0
CIRCLE
  8
0
  6
CONTINUOUS
 62
     2
 10
43.9
 20
110.5
 30
0.0
 40
1.5
  0
LINE
  8
0
  6
CONTINUOUS
 62
     2
 10
43.13986021
 20
110.022702923
 30
0.0
 11
43.475735931
 21
110.358578644
 31
0.0
  0
ARC
  8
0
  6
CONTINUOUS
 62
     2
 10
43.334314575
 20
110.5
 30
0.0
 40
0.2
 50
315.0
 51
45.0
  0
LINE
  8
0
  6
CONTINUOUS
 62
     2
 10
43.475735931
 20
110.641421356
 30
0.0
 11
43.13986021
 21
110.977297077
 31
0.0
  0
LINE
  8
0
  6
CONTINUOUS
 62
     2
 10
43.13986021
 20
110.977297077
 30
0.0
 11
43.422702923
 21
111.26013979
 31
0.0
  0
LINE
  8
0
  6
CONTINUOUS
 62
     2
 10
43.422702923
 20
111.26013979
 30
0.0
 11
43.758578644
 21
110.924264069
 31
0.0
  0
ARC
  8
0
  6
CONTINUOUS
 62
     2
 10
43.9
 20
111.065685425
 30
0.0
 40
0.2
 50
225.0
 51
315.0
  0
LINE
  8
0
  6
CONTINUOUS
 62
     2
 10
44.041421356
 20
110.924264069
 30
0.0
 11
44.377297077
 21
111.26013979
 31
0.0
  0
LINE
  8
0
  6
CONTINUOUS
 62
     2
 10
44.377297077
 20
111.26013979
 30
0.0
 11
44.66013979
 21
110.977297077
 31
0.0
  0
LINE
  8
0
  6
CONTINUOUS
 62
     2
 10
44.66013979
 20
110.977297077
 30
0.0
 11
44.324264069
 21
110.641421356
 31
0.0
  0
ARC
  8
0
  6
CONTINUOUS
 62
     2
 10
44.465685425
 20
110.5
 30
0.0
 40
0.2
 50
135.0
 51
225.0
  0
LINE
  8
0
  6
CONTINUOUS
 62
     2
 10
44.324264069
 20
110.358578644
 30
0.0
 11
44.66013979
 21
110.022702923
 31
0.0
  0
LINE
  8
0
  6
CONTINUOUS
 62
     2
 10
44.66013979
 20
110.022702923
 30
0.0
 11
44.377297077
 21
109.73986021
 31
0.0
  0
LINE
  8
0
  6
CONTINUOUS
 62
     2
 10
44.377297077
 20
109.73986021
 30
0.0
 11
44.041421356
 21
110.075735931
 31
0.0
  0
ARC
  8
0
  6
CONTINUOUS
 62
     2
 10
43.9
 20
109.934314575
 30
0.0
 40
0.2
 50
45.0
 51
135.0
  0
LINE
  8
0
  6
CONTINUOUS
 62
     2
 10
43.758578644
 20
110.075735931
 30
0.0
 11
43.422702923
 21
109.73986021
 31
0.0
  0
LINE
  8
0
  6
CONTINUOUS
 62
     2
 10
43.422702923
 20
109.73986021
 30
0.0
 11
43.13986021
 21
110.022702923
 31
0.0
  0
CIRCLE
  8
0
  6
CONTINUOUS
 62
     2
 10
60.9
 20
110.5
 30
0.0
 40
1.5
  0
LINE
  8
0
  6
CONTINUOUS
 62
     2
 10
60.13986021
 20
110.022702923
 30
0.0
 11
60.475735931
 21
110.358578644
 31
0.0
  0
ARC
  8
0
  6
CONTINUOUS
 62
     2
 10
60.334314575
 20
110.5
 30
0.0
 40
0.2
 50
315.0
 51
45.0
  0
LINE
  8
0
  6
CONTINUOUS
 62
     2
 10
60.475735931
 20
110.641421356
 30
0.0
 11
60.13986021
 21
110.977297077
 31
0.0
  0
LINE
  8
0
  6
CONTINUOUS
 62
     2
 10
60.13986021
 20
110.977297077
 30
0.0
 11
60.422702923
 21
111.26013979
 31
0.0
  0
LINE
  8
0
  6
CONTINUOUS
 62
     2
 10
60.422702923
 20
111.26013979
 30
0.0
 11
60.758578644
 21
110.924264069
 31
0.0
  0
ARC
  8
0
  6
CONTINUOUS
 62
     2
 10
60.9
 20
111.065685425
 30
0.0
 40
0.2
 50
225.0
 51
315.0
  0
LINE
  8
0
  6
CONTINUOUS
 62
     2
 10
61.041421356
 20
110.924264069
 30
0.0
 11
61.377297077
 21
111.26013979
 31
0.0
  0
LINE
  8
0
  6
CONTINUOUS
 62
     2
 10
61.377297077
 20
111.26013979
 30
0.0
 11
61.66013979
 21
110.977297077
 31
0.0
  0
LINE
  8
0
  6
CONTINUOUS
 62
     2
 10
61.66013979
 20
110.977297077
 30
0.0
 11
61.324264069
 21
110.641421356
 31
0.0
  0
ARC
  8
0
  6
CONTINUOUS
 62
     2
 10
61.465685425
 20
110.5
 30
0.0
 40
0.2
 50
135.0
 51
225.0
  0
LINE
  8
0
  6
CONTINUOUS
 62
     2
 10
61.324264069
 20
110.358578644
 30
0.0
 11
61.66013979
 21
110.022702923
 31
0.0
  0
LINE
  8
0
  6
CONTINUOUS
 62
     2
 10
61.66013979
 20
110.022702923
 30
0.0
 11
61.377297077
 21
109.73986021
 31
0.0
  0
LINE
  8
0
  6
CONTINUOUS
 62
     2
 10
61.377297077
 20
109.73986021
 30
0.0
 11
61.041421356
 21
110.075735931
 31
0.0
  0
ARC
  8
0
  6
CONTINUOUS
 62
     2
 10
60.9
 20
109.934314575
 30
0.0
 40
0.2
 50
45.0
 51
135.0
  0
LINE
  8
0
  6
CONTINUOUS
 62
     2
 10
60.758578644
 20
110.075735931
 30
0.0
 11
60.422702923
 21
109.73986021
 31
0.0
  0
LINE
  8
0
  6
CONTINUOUS
 62
     2
 10
60.422702923
 20
109.73986021
 30
0.0
 11
60.13986021
 21
110.022702923
 31
0.0
  0
LINE
  8
0
  6
CONTINUOUS
 62
     2
 10
37.102240015
 20
118.54741391
 30
0.0
 11
34.38424919
 21
116.218245415
 31
0.0
  0
LINE
  8
0
  6
CONTINUOUS
 62
     2
 10
34.38424919
 20
116.218245415
 30
0.0
 11
37.817978155
 21
117.229188241
 31
0.0
  0
LINE
  8
0
  6
CONTINUOUS
 62
     2
 10
37.817978155
 20
117.229188241
 30
0.0
 11
45.317058939
 21
121.300856895
 31
0.0
  0
LINE
  8
0
  6
CONTINUOUS
 62
     2
 10
36.581291972
 20
117.411142315
 30
0.0
 11
45.101656687
 21
121.642915552
 31
0.0
  0
LINE
  8
0
  6
CONTINUOUS
 62
     2
 10
44.770878852
 20
122.252132538
 30
0.0
 11
36.581291972
 21
117.411142315
 31
0.0
  0
LINE
  8
0
  6
CONTINUOUS
 62
     2
 10
44.601320798
 20
122.619082564
 30
0.0
 11
37.102240015
 21
118.54741391
 31
0.0
  0
TEXT
  8
0
  6
CONTINUOUS
 62
     2
 10
13.363820798
 20
126.588245415
 30
0.18
 40
1.8
  1
±１．５
 50
90.0
 41
0.6
 51
0.0
  7
KANJI5
  0
LINE
  8
0
  6
CONTINUOUS
 62
     2
 10
107.755
 20
147.125
 30
0.0
 11
109.73
 21
147.125
 31
0.0
  0
LINE
  8
0
  6
CONTINUOUS
 62
     2
 10
109.75
 20
149.885
 30
0.0
 11
107.76
 21
149.885
 31
0.0
  0
LINE
  8
0
  6
CONTINUOUS
 62
     2
 10
107.755
 20
102.125
 30
0.0
 11
109.73
 21
102.125
 31
0.0
  0
LINE
  8
0
  6
CONTINUOUS
 62
     2
 10
109.75
 20
104.885
 30
0.0
 11
107.76
 21
104.885
 31
0.0
  0
LINE
  8
0
  6
CONTINUOUS
 62
     2
 10
144.5
 20
133.0
 30
0.0
 11
144.5
 21
129.0
 31
0.0
  0
LINE
  8
0
  6
CONTINUOUS
 62
     2
 10
91.5
 20
129.15
 30
0.0
 11
91.5
 21
129.15
 31
0.0
  0
TEXT
  8
0
  6
CONTINUOUS
 62
     2
 10
94.05
 20
172.425001907
 30
0.3
 40
3.0
  1
２４
 50
0.0
 41
0.6
 51
0.0
  7
KANJI6
  0
TEXT
  8
0
  6
CONTINUOUS
 62
     2
 10
146.375
 20
162.875001907
 30
0.3
 40
3.0
  1
１７
 50
0.0
 41
0.6
 51
0.0
  7
KANJI6
  0
TEXT
  8
0
  6
CONTINUOUS
 62
     2
 10
104.05
 20
162.875001907
 30
0.3
 40
3.0
  1
１５
 50
0.0
 41
0.6
 51
0.0
  7
KANJI6
  0
POINT
  8
0
  6
LTYPE1
 62
     2
 10
185.8
 20
25.5
 30
0.0
  0
POINT
  8
0
  6
LTYPE1
 62
     2
 10
185.8
 20
157.0
 30
0.0
  0
ARC
  8
0
  6
CONTINUOUS
 62
     2
 10
161.05
 20
101.25
 30
0.0
 40
1.5
 50
180.0
 51
270.0
  0
LINE
  8
0
  6
CONTINUOUS
 62
     2
 10
159.55
 20
150.75
 30
0.0
 11
159.55
 21
101.25
 31
0.0
  0
ARC
  8
0
  6
CONTINUOUS
 62
     2
 10
161.05
 20
150.75
 30
0.0
 40
1.5
 50
90.0
 51
180.0
  0
LINE
  8
0
  6
CONTINUOUS
 62
     2
 10
210.55
 20
152.25
 30
0.0
 11
161.05
 21
152.25
 31
0.0
  0
ARC
  8
0
  6
CONTINUOUS
 62
     2
 10
210.55
 20
150.75
 30
0.0
 40
1.5
 50
0.0
 51
90.0
  0
LINE
  8
0
  6
CONTINUOUS
 62
     2
 10
161.05
 20
99.75
 30
0.0
 11
210.55
 21
99.75
 31
0.0
  0
LINE
  8
0
  6
CONTINUOUS
 62
     2
 10
212.05
 20
101.25
 30
0.0
 11
212.05
 21
150.75
 31
0.0
  0
ARC
  8
0
  6
CONTINUOUS
 62
     2
 10
210.55
 20
101.25
 30
0.0
 40
1.5
 50
270.0
 51
360.0
  0
LINE
  8
0
  6
CONTINUOUS
 62
     2
 10
210.724871131
 20
149.9
 30
0.0
 11
208.3
 21
151.3
 31
0.0
  0
LINE
  8
0
  6
CONTINUOUS
 62
     2
 10
208.3
 20
151.3
 30
0.0
 11
205.875128869
 21
149.9
 31
0.0
  0
LINE
  8
0
  6
CONTINUOUS
 62
     2
 10
205.875128869
 20
149.9
 30
0.0
 11
205.875128869
 21
147.1
 31
0.0
  0
LINE
  8
0
  6
CONTINUOUS
 62
     2
 10
205.875128869
 20
147.1
 30
0.0
 11
208.3
 21
145.7
 31
0.0
  0
LINE
  8
0
  6
CONTINUOUS
 62
     2
 10
208.3
 20
145.7
 30
0.0
 11
210.724871131
 21
147.1
 31
0.0
  0
LINE
  8
0
  6
CONTINUOUS
 62
     2
 10
210.724871131
 20
147.1
 30
0.0
 11
210.724871131
 21
149.9
 31
0.0
  0
CIRCLE
  8
0
  6
CONTINUOUS
 62
     2
 10
208.3
 20
148.5
 30
0.0
 40
1.5
  0
CIRCLE
  8
0
  6
CONTINUOUS
 62
     2
 10
208.3
 20
148.5
 30
0.0
 40
1.4
  0
CIRCLE
  8
0
  6
CONTINUOUS
 62
     2
 10
208.3
 20
148.5
 30
0.0
 40
3.0
  0
CIRCLE
  8
0
  6
CONTINUOUS
 62
     2
 10
208.3
 20
148.5
 30
0.0
 40
2.5
  0
LINE
  8
0
  6
CONTINUOUS
 62
     2
 10
165.724871131
 20
149.9
 30
0.0
 11
163.3
 21
151.3
 31
0.0
  0
LINE
  8
0
  6
CONTINUOUS
 62
     2
 10
163.3
 20
151.3
 30
0.0
 11
160.875128869
 21
149.9
 31
0.0
  0
LINE
  8
0
  6
CONTINUOUS
 62
     2
 10
160.875128869
 20
149.9
 30
0.0
 11
160.875128869
 21
147.1
 31
0.0
  0
LINE
  8
0
  6
CONTINUOUS
 62
     2
 10
160.875128869
 20
147.1
 30
0.0
 11
163.3
 21
145.7
 31
0.0
  0
LINE
  8
0
  6
CONTINUOUS
 62
     2
 10
163.3
 20
145.7
 30
0.0
 11
165.724871131
 21
147.1
 31
0.0
  0
LINE
  8
0
  6
CONTINUOUS
 62
     2
 10
165.724871131
 20
147.1
 30
0.0
 11
165.724871131
 21
149.9
 31
0.0
  0
CIRCLE
  8
0
  6
CONTINUOUS
 62
     2
 10
163.3
 20
148.5
 30
0.0
 40
1.5
  0
CIRCLE
  8
0
  6
CONTINUOUS
 62
     2
 10
163.3
 20
148.5
 30
0.0
 40
1.4
  0
CIRCLE
  8
0
  6
CONTINUOUS
 62
     2
 10
163.3
 20
148.5
 30
0.0
 40
3.0
  0
CIRCLE
  8
0
  6
CONTINUOUS
 62
     2
 10
163.3
 20
148.5
 30
0.0
 40
2.5
  0
LINE
  8
0
  6
CONTINUOUS
 62
     2
 10
165.724871131
 20
104.9
 30
0.0
 11
163.3
 21
106.3
 31
0.0
  0
LINE
  8
0
  6
CONTINUOUS
 62
     2
 10
163.3
 20
106.3
 30
0.0
 11
160.875128869
 21
104.9
 31
0.0
  0
LINE
  8
0
  6
CONTINUOUS
 62
     2
 10
160.875128869
 20
104.9
 30
0.0
 11
160.875128869
 21
102.1
 31
0.0
  0
LINE
  8
0
  6
CONTINUOUS
 62
     2
 10
160.875128869
 20
102.1
 30
0.0
 11
163.3
 21
100.7
 31
0.0
  0
LINE
  8
0
  6
CONTINUOUS
 62
     2
 10
163.3
 20
100.7
 30
0.0
 11
165.724871131
 21
102.1
 31
0.0
  0
LINE
  8
0
  6
CONTINUOUS
 62
     2
 10
165.724871131
 20
102.1
 30
0.0
 11
165.724871131
 21
104.9
 31
0.0
  0
CIRCLE
  8
0
  6
CONTINUOUS
 62
     2
 10
163.3
 20
103.5
 30
0.0
 40
1.5
  0
CIRCLE
  8
0
  6
CONTINUOUS
 62
     2
 10
163.3
 20
103.5
 30
0.0
 40
1.4
  0
CIRCLE
  8
0
  6
CONTINUOUS
 62
     2
 10
163.3
 20
103.5
 30
0.0
 40
3.0
  0
CIRCLE
  8
0
  6
CONTINUOUS
 62
     2
 10
163.3
 20
103.5
 30
0.0
 40
2.5
  0
LINE
  8
0
  6
CONTINUOUS
 62
     2
 10
210.724871131
 20
104.9
 30
0.0
 11
208.3
 21
106.3
 31
0.0
  0
LINE
  8
0
  6
CONTINUOUS
 62
     2
 10
208.3
 20
106.3
 30
0.0
 11
205.875128869
 21
104.9
 31
0.0
  0
LINE
  8
0
  6
CONTINUOUS
 62
     2
 10
205.875128869
 20
104.9
 30
0.0
 11
205.875128869
 21
102.1
 31
0.0
  0
LINE
  8
0
  6
CONTINUOUS
 62
     2
 10
205.875128869
 20
102.1
 30
0.0
 11
208.3
 21
100.7
 31
0.0
  0
LINE
  8
0
  6
CONTINUOUS
 62
     2
 10
208.3
 20
100.7
 30
0.0
 11
210.724871131
 21
102.1
 31
0.0
  0
LINE
  8
0
  6
CONTINUOUS
 62
     2
 10
210.724871131
 20
102.1
 30
0.0
 11
210.724871131
 21
104.9
 31
0.0
  0
CIRCLE
  8
0
  6
CONTINUOUS
 62
     2
 10
208.3
 20
103.5
 30
0.0
 40
1.5
  0
CIRCLE
  8
0
  6
CONTINUOUS
 62
     2
 10
208.3
 20
103.5
 30
0.0
 40
1.4
  0
CIRCLE
  8
0
  6
CONTINUOUS
 62
     2
 10
208.3
 20
103.5
 30
0.0
 40
3.0
  0
CIRCLE
  8
0
  6
CONTINUOUS
 62
     2
 10
208.3
 20
103.5
 30
0.0
 40
2.5
  0
CIRCLE
  8
0
  6
CONTINUOUS
 62
     2
 10
204.852558883
 20
115.0
 30
0.0
 40
1.75
  0
CIRCLE
  8
0
  6
CONTINUOUS
 62
     2
 10
185.8
 20
148.0
 30
0.0
 40
1.75
  0
CIRCLE
  8
0
  6
CONTINUOUS
 62
     2
 10
166.747441117
 20
115.0
 30
0.0
 40
1.75
  0
CIRCLE
  8
0
  6
CONTINUOUS
 62
     2
 10
166.747441117
 20
115.0
 30
0.0
 40
1.5
  0
LINE
  8
0
  6
CONTINUOUS
 62
     2
 10
165.872441117
 20
115.2
 30
0.0
 11
166.347441117
 21
115.2
 31
0.0
  0
ARC
  8
0
  6
CONTINUOUS
 62
     2
 10
166.347441117
 20
115.4
 30
0.0
 40
0.2
 50
270.0
 51
0.0
  0
LINE
  8
0
  6
CONTINUOUS
 62
     2
 10
166.547441117
 20
115.4
 30
0.0
 11
166.547441117
 21
115.875
 31
0.0
  0
LINE
  8
0
  6
CONTINUOUS
 62
     2
 10
166.547441117
 20
115.875
 30
0.0
 11
166.947441117
 21
115.875
 31
0.0
  0
LINE
  8
0
  6
CONTINUOUS
 62
     2
 10
166.947441117
 20
115.875
 30
0.0
 11
166.947441117
 21
115.4
 31
0.0
  0
ARC
  8
0
  6
CONTINUOUS
 62
     2
 10
167.147441117
 20
115.4
 30
0.0
 40
0.2
 50
180.0
 51
270.0
  0
LINE
  8
0
  6
CONTINUOUS
 62
     2
 10
167.147441117
 20
115.2
 30
0.0
 11
167.622441117
 21
115.2
 31
0.0
  0
LINE
  8
0
  6
CONTINUOUS
 62
     2
 10
167.622441117
 20
115.2
 30
0.0
 11
167.622441117
 21
114.8
 31
0.0
  0
LINE
  8
0
  6
CONTINUOUS
 62
     2
 10
167.622441117
 20
114.8
 30
0.0
 11
167.147441117
 21
114.8
 31
0.0
  0
ARC
  8
0
  6
CONTINUOUS
 62
     2
 10
167.147441117
 20
114.6
 30
0.0
 40
0.2
 50
90.0
 51
180.0
  0
LINE
  8
0
  6
CONTINUOUS
 62
     2
 10
166.947441117
 20
114.6
 30
0.0
 11
166.947441117
 21
114.125
 31
0.0
  0
LINE
  8
0
  6
CONTINUOUS
 62
     2
 10
166.947441117
 20
114.125
 30
0.0
 11
166.547441117
 21
114.125
 31
0.0
  0
LINE
  8
0
  6
CONTINUOUS
 62
     2
 10
166.547441117
 20
114.125
 30
0.0
 11
166.547441117
 21
114.6
 31
0.0
  0
ARC
  8
0
  6
CONTINUOUS
 62
     2
 10
166.347441117
 20
114.6
 30
0.0
 40
0.2
 50
0.0
 51
90.0
  0
LINE
  8
0
  6
CONTINUOUS
 62
     2
 10
166.347441117
 20
114.8
 30
0.0
 11
165.872441117
 21
114.8
 31
0.0
  0
LINE
  8
0
  6
CONTINUOUS
 62
     2
 10
165.872441117
 20
114.8
 30
0.0
 11
165.872441117
 21
115.2
 31
0.0
  0
CIRCLE
  8
0
  6
CONTINUOUS
 62
     2
 10
185.8
 20
148.0
 30
0.0
 40
1.5
  0
LINE
  8
0
  6
CONTINUOUS
 62
     2
 10
184.925
 20
148.2
 30
0.0
 11
185.4
 21
148.2
 31
0.0
  0
ARC
  8
0
  6
CONTINUOUS
 62
     2
 10
185.4
 20
148.4
 30
0.0
 40
0.2
 50
270.0
 51
0.0
  0
LINE
  8
0
  6
CONTINUOUS
 62
     2
 10
185.6
 20
148.4
 30
0.0
 11
185.6
 21
148.875
 31
0.0
  0
LINE
  8
0
  6
CONTINUOUS
 62
     2
 10
185.6
 20
148.875
 30
0.0
 11
186.0
 21
148.875
 31
0.0
  0
LINE
  8
0
  6
CONTINUOUS
 62
     2
 10
186.0
 20
148.875
 30
0.0
 11
186.0
 21
148.4
 31
0.0
  0
ARC
  8
0
  6
CONTINUOUS
 62
     2
 10
186.2
 20
148.4
 30
0.0
 40
0.2
 50
180.0
 51
270.0
  0
LINE
  8
0
  6
CONTINUOUS
 62
     2
 10
186.2
 20
148.2
 30
0.0
 11
186.675
 21
148.2
 31
0.0
  0
LINE
  8
0
  6
CONTINUOUS
 62
     2
 10
186.675
 20
148.2
 30
0.0
 11
186.675
 21
147.8
 31
0.0
  0
LINE
  8
0
  6
CONTINUOUS
 62
     2
 10
186.675
 20
147.8
 30
0.0
 11
186.2
 21
147.8
 31
0.0
  0
ARC
  8
0
  6
CONTINUOUS
 62
     2
 10
186.2
 20
147.6
 30
0.0
 40
0.2
 50
90.0
 51
180.0
  0
LINE
  8
0
  6
CONTINUOUS
 62
     2
 10
186.0
 20
147.6
 30
0.0
 11
186.0
 21
147.125
 31
0.0
  0
LINE
  8
0
  6
CONTINUOUS
 62
     2
 10
186.0
 20
147.125
 30
0.0
 11
185.6
 21
147.125
 31
0.0
  0
LINE
  8
0
  6
CONTINUOUS
 62
     2
 10
185.6
 20
147.125
 30
0.0
 11
185.6
 21
147.6
 31
0.0
  0
ARC
  8
0
  6
CONTINUOUS
 62
     2
 10
185.4
 20
147.6
 30
0.0
 40
0.2
 50
0.0
 51
90.0
  0
LINE
  8
0
  6
CONTINUOUS
 62
     2
 10
185.4
 20
147.8
 30
0.0
 11
184.925
 21
147.8
 31
0.0
  0
LINE
  8
0
  6
CONTINUOUS
 62
     2
 10
184.925
 20
147.8
 30
0.0
 11
184.925
 21
148.2
 31
0.0
  0
CIRCLE
  8
0
  6
CONTINUOUS
 62
     2
 10
204.852558883
 20
115.0
 30
0.0
 40
1.5
  0
LINE
  8
0
  6
CONTINUOUS
 62
     2
 10
203.977558883
 20
115.2
 30
0.0
 11
204.452558883
 21
115.2
 31
0.0
  0
ARC
  8
0
  6
CONTINUOUS
 62
     2
 10
204.452558883
 20
115.4
 30
0.0
 40
0.2
 50
270.0
 51
0.0
  0
LINE
  8
0
  6
CONTINUOUS
 62
     2
 10
204.652558883
 20
115.4
 30
0.0
 11
204.652558883
 21
115.875
 31
0.0
  0
LINE
  8
0
  6
CONTINUOUS
 62
     2
 10
204.652558883
 20
115.875
 30
0.0
 11
205.052558883
 21
115.875
 31
0.0
  0
LINE
  8
0
  6
CONTINUOUS
 62
     2
 10
205.052558883
 20
115.875
 30
0.0
 11
205.052558883
 21
115.4
 31
0.0
  0
ARC
  8
0
  6
CONTINUOUS
 62
     2
 10
205.252558883
 20
115.4
 30
0.0
 40
0.2
 50
180.0
 51
270.0
  0
LINE
  8
0
  6
CONTINUOUS
 62
     2
 10
205.252558883
 20
115.2
 30
0.0
 11
205.727558883
 21
115.2
 31
0.0
  0
LINE
  8
0
  6
CONTINUOUS
 62
     2
 10
205.727558883
 20
115.2
 30
0.0
 11
205.727558883
 21
114.8
 31
0.0
  0
LINE
  8
0
  6
CONTINUOUS
 62
     2
 10
205.727558883
 20
114.8
 30
0.0
 11
205.252558883
 21
114.8
 31
0.0
  0
ARC
  8
0
  6
CONTINUOUS
 62
     2
 10
205.252558883
 20
114.6
 30
0.0
 40
0.2
 50
90.0
 51
180.0
  0
LINE
  8
0
  6
CONTINUOUS
 62
     2
 10
205.052558883
 20
114.6
 30
0.0
 11
205.052558883
 21
114.125
 31
0.0
  0
LINE
  8
0
  6
CONTINUOUS
 62
     2
 10
205.052558883
 20
114.125
 30
0.0
 11
204.652558883
 21
114.125
 31
0.0
  0
LINE
  8
0
  6
CONTINUOUS
 62
     2
 10
204.652558883
 20
114.125
 30
0.0
 11
204.652558883
 21
114.6
 31
0.0
  0
ARC
  8
0
  6
CONTINUOUS
 62
     2
 10
204.452558883
 20
114.6
 30
0.0
 40
0.2
 50
0.0
 51
90.0
  0
LINE
  8
0
  6
CONTINUOUS
 62
     2
 10
204.452558883
 20
114.8
 30
0.0
 11
203.977558883
 21
114.8
 31
0.0
  0
LINE
  8
0
  6
CONTINUOUS
 62
     2
 10
203.977558883
 20
114.8
 30
0.0
 11
203.977558883
 21
115.2
 31
0.0
  0
TEXT
  8
0
  6
CONTINUOUS
 62
     2
 10
219.4
 20
114.27
 30
0.18
 40
1.8
  1
±０．５
 50
90.0
 41
0.6
 51
0.0
  7
KANJI5
  0
TEXT
  8
0
  6
CONTINUOUS
 62
     2
 10
219.4
 20
136.77
 30
0.18
 40
1.8
  1
±０．５
 50
90.0
 41
0.6
 51
0.0
  7
KANJI5
  0
TEXT
  8
0
  6
CONTINUOUS
 62
     2
 10
116.0
 20
89.55
 30
0.5
 40
3.0
  1
４－Ｍ６取付ボルト
 50
0.0
 41
0.6
 51
0.0
  7
KANJI7
  0
TEXT
  8
0
  6
CONTINUOUS
 62
     2
 10
218.8
 20
43.42
 30
0.18
 40
1.8
  1
±０．５
 50
90.0
 41
0.6
 51
0.0
  7
KANJI5
  0
LINE
  8
0
  6
CONTINUOUS
 62
     2
 10
147.192057942
 20
93.15
 30
0.0
 11
147.169080919
 21
92.9
 31
0.0
  0
TEXT
  8
0
  6
CONTINUOUS
 62
     2
 10
174.07
 20
85.65
 30
0.18
 40
1.8
  1
±０．５
 50
0.0
 41
0.6
 51
0.0
  7
KANJI5
  0
TEXT
  8
0
  6
CONTINUOUS
 62
     2
 10
150.45
 20
23.35
 30
0.5
 40
3.0
  1
４－φ７
 50
0.0
 41
0.6
 51
0.0
  7
KANJI7
  0
ARC
  8
0
  6
LTYPE2
 62
     2
 10
128.0
 20
105.85
 30
0.0
 40
1.0
 50
0.0
 51
180.0
  0
ARC
  8
0
  6
LTYPE2
 62
     2
 10
131.5
 20
105.85
 30
0.0
 40
1.0
 50
0.0
 51
180.0
  0
ARC
  8
0
  6
LTYPE2
 62
     2
 10
135.0
 20
105.85
 30
0.0
 40
1.0
 50
0.0
 51
180.0
  0
ARC
  8
0
  6
LTYPE2
 62
     2
 10
138.5
 20
105.85
 30
0.0
 40
1.0
 50
0.0
 51
180.0
  0
ARC
  8
0
  6
LTYPE2
 62
     2
 10
138.5
 20
103.25
 30
0.0
 40
1.0
 50
180.0
 51
0.0
  0
ARC
  8
0
  6
LTYPE2
 62
     2
 10
135.0
 20
103.25
 30
0.0
 40
1.0
 50
180.0
 51
0.0
  0
ARC
  8
0
  6
LTYPE2
 62
     2
 10
131.5
 20
103.25
 30
0.0
 40
1.0
 50
180.0
 51
0.0
  0
ARC
  8
0
  6
LTYPE2
 62
     2
 10
128.0
 20
103.25
 30
0.0
 40
1.0
 50
180.0
 51
0.0
  0
ARC
  8
0
  6
LTYPE2
 62
     2
 10
128.0
 20
148.75
 30
0.0
 40
1.0
 50
0.0
 51
180.0
  0
ARC
  8
0
  6
LTYPE2
 62
     2
 10
131.5
 20
148.75
 30
0.0
 40
1.0
 50
0.0
 51
180.0
  0
ARC
  8
0
  6
LTYPE2
 62
     2
 10
135.0
 20
148.75
 30
0.0
 40
1.0
 50
0.0
 51
180.0
  0
ARC
  8
0
  6
LTYPE2
 62
     2
 10
138.5
 20
148.75
 30
0.0
 40
1.0
 50
0.0
 51
180.0
  0
ARC
  8
0
  6
LTYPE2
 62
     2
 10
138.5
 20
146.25
 30
0.0
 40
1.0
 50
180.0
 51
0.0
  0
ARC
  8
0
  6
LTYPE2
 62
     2
 10
135.0
 20
146.25
 30
0.0
 40
1.0
 50
180.0
 51
0.0
  0
ARC
  8
0
  6
LTYPE2
 62
     2
 10
131.5
 20
146.25
 30
0.0
 40
1.0
 50
180.0
 51
0.0
  0
ARC
  8
0
  6
LTYPE2
 62
     2
 10
128.0
 20
146.25
 30
0.0
 40
1.0
 50
180.0
 51
0.0
  0
LINE
  8
0
  6
LTYPE2
 62
     2
 10
127.0
 20
148.75
 30
0.0
 11
127.0
 21
146.25
 31
0.0
  0
LINE
  8
0
  6
LTYPE2
 62
     2
 10
129.0
 20
146.25
 30
0.0
 11
129.0
 21
148.75
 31
0.0
  0
LINE
  8
0
  6
LTYPE2
 62
     2
 10
130.5
 20
148.75
 30
0.0
 11
130.5
 21
146.25
 31
0.0
  0
POINT
  8
0
  6
LTYPE2
 62
     2
 10
132.5
 20
146.25
 30
0.0
  0
POINT
  8
0
  6
LTYPE2
 62
     2
 10
132.5
 20
146.25
 30
0.0
  0
POINT
  8
0
  6
LTYPE2
 62
     2
 10
132.5
 20
146.25
 30
0.0
  0
POINT
  8
0
  6
LTYPE2
 62
     2
 10
132.5
 20
146.25
 30
0.0
  0
POINT
  8
0
  6
LTYPE2
 62
     2
 10
132.5
 20
146.25
 30
0.0
  0
LINE
  8
0
  6
LTYPE2
 62
     2
 10
132.5
 20
146.25
 30
0.0
 11
132.5
 21
148.75
 31
0.0
  0
LINE
  8
0
  6
LTYPE2
 62
     2
 10
134.0
 20
148.75
 30
0.0
 11
134.0
 21
146.25
 31
0.0
  0
LINE
  8
0
  6
LTYPE2
 62
     2
 10
136.0
 20
146.25
 30
0.0
 11
136.0
 21
148.75
 31
0.0
  0
LINE
  8
0
  6
LTYPE2
 62
     2
 10
137.5
 20
148.75
 30
0.0
 11
137.5
 21
146.25
 31
0.0
  0
LINE
  8
0
  6
LTYPE2
 62
     2
 10
139.5
 20
146.25
 30
0.0
 11
139.5
 21
148.75
 31
0.0
  0
LINE
  8
0
  6
LTYPE2
 62
     2
 10
139.5
 20
103.25
 30
0.0
 11
139.5
 21
105.85
 31
0.0
  0
LINE
  8
0
  6
LTYPE2
 62
     2
 10
137.5
 20
105.85
 30
0.0
 11
137.5
 21
103.25
 31
0.0
  0
POINT
  8
0
  6
LTYPE2
 62
     2
 10
136.0
 20
103.25
 30
0.0
  0
POINT
  8
0
  6
LTYPE2
 62
     2
 10
136.0
 20
103.25
 30
0.0
  0
POINT
  8
0
  6
LTYPE2
 62
     2
 10
136.0
 20
103.25
 30
0.0
  0
POINT
  8
0
  6
LTYPE2
 62
     2
 10
136.0
 20
103.25
 30
0.0
  0
POINT
  8
0
  6
LTYPE2
 62
     2
 10
136.0
 20
103.25
 30
0.0
  0
LINE
  8
0
  6
LTYPE2
 62
     2
 10
136.0
 20
103.25
 30
0.0
 11
136.0
 21
105.85
 31
0.0
  0
LINE
  8
0
  6
LTYPE2
 62
     2
 10
134.0
 20
105.85
 30
0.0
 11
134.0
 21
103.25
 31
0.0
  0
POINT
  8
0
  6
LTYPE2
 62
     2
 10
132.5
 20
103.25
 30
0.0
  0
POINT
  8
0
  6
LTYPE2
 62
     2
 10
132.5
 20
103.25
 30
0.0
  0
LINE
  8
0
  6
LTYPE2
 62
     2
 10
132.5
 20
103.25
 30
0.0
 11
132.5
 21
105.85
 31
0.0
  0
LINE
  8
0
  6
LTYPE2
 62
     2
 10
130.5
 20
105.85
 30
0.0
 11
130.5
 21
103.25
 31
0.0
  0
LINE
  8
0
  6
LTYPE2
 62
     2
 10
129.0
 20
103.25
 30
0.0
 11
129.0
 21
105.85
 31
0.0
  0
LINE
  8
0
  6
LTYPE2
 62
     2
 10
127.0
 20
105.85
 30
0.0
 11
127.0
 21
103.25
 31
0.0
  0
TEXT
  8
0
  6
CONTINUOUS
 62
     2
 10
116.5
 20
126.78
 30
0.18
 40
1.8
  1
±１
 50
90.0
 41
0.6
 51
0.0
  7
KANJI5
  0
CIRCLE
  8
0
  6
CONTINUOUS
 62
     2
 10
52.4
 20
139.0
 30
0.0
 40
1.5
  0
LINE
  8
0
  6
CONTINUOUS
 62
     2
 10
51.63986021
 20
138.522702923
 30
0.0
 11
51.975735931
 21
138.858578644
 31
0.0
  0
ARC
  8
0
  6
CONTINUOUS
 62
     2
 10
51.834314575
 20
139.0
 30
0.0
 40
0.2
 50
315.0
 51
45.0
  0
LINE
  8
0
  6
CONTINUOUS
 62
     2
 10
51.975735931
 20
139.141421356
 30
0.0
 11
51.63986021
 21
139.477297077
 31
0.0
  0
LINE
  8
0
  6
CONTINUOUS
 62
     2
 10
51.63986021
 20
139.477297077
 30
0.0
 11
51.922702923
 21
139.76013979
 31
0.0
  0
LINE
  8
0
  6
CONTINUOUS
 62
     2
 10
51.922702923
 20
139.76013979
 30
0.0
 11
52.258578644
 21
139.424264069
 31
0.0
  0
ARC
  8
0
  6
CONTINUOUS
 62
     2
 10
52.4
 20
139.565685425
 30
0.0
 40
0.2
 50
225.0
 51
315.0
  0
LINE
  8
0
  6
CONTINUOUS
 62
     2
 10
52.541421356
 20
139.424264069
 30
0.0
 11
52.877297077
 21
139.76013979
 31
0.0
  0
LINE
  8
0
  6
CONTINUOUS
 62
     2
 10
52.877297077
 20
139.76013979
 30
0.0
 11
53.16013979
 21
139.477297077
 31
0.0
  0
LINE
  8
0
  6
CONTINUOUS
 62
     2
 10
53.16013979
 20
139.477297077
 30
0.0
 11
52.824264069
 21
139.141421356
 31
0.0
  0
ARC
  8
0
  6
CONTINUOUS
 62
     2
 10
52.965685425
 20
139.0
 30
0.0
 40
0.2
 50
135.0
 51
225.0
  0
LINE
  8
0
  6
CONTINUOUS
 62
     2
 10
52.824264069
 20
138.858578644
 30
0.0
 11
53.16013979
 21
138.522702923
 31
0.0
  0
LINE
  8
0
  6
CONTINUOUS
 62
     2
 10
53.16013979
 20
138.522702923
 30
0.0
 11
52.877297077
 21
138.23986021
 31
0.0
  0
LINE
  8
0
  6
CONTINUOUS
 62
     2
 10
52.877297077
 20
138.23986021
 30
0.0
 11
52.541421356
 21
138.575735931
 31
0.0
  0
ARC
  8
0
  6
CONTINUOUS
 62
     2
 10
52.4
 20
138.434314575
 30
0.0
 40
0.2
 50
45.0
 51
135.0
  0
LINE
  8
0
  6
CONTINUOUS
 62
     2
 10
52.258578644
 20
138.575735931
 30
0.0
 11
51.922702923
 21
138.23986021
 31
0.0
  0
LINE
  8
0
  6
CONTINUOUS
 62
     2
 10
51.922702923
 20
138.23986021
 30
0.0
 11
51.63986021
 21
138.522702923
 31
0.0
  0
TEXT
  8
0
  6
CONTINUOUS
 62
     2
 10
20.614213562
 20
56.1
 30
0.2
 40
3.0
  1
注）１，ＥＬ板の電源は、Ｌ－Ｌ端子間に印加して下さい。
 50
0.0
 41
0.9
 51
0.0
  7
KANJI8
  0
LINE
  8
0
  6
CONTINUOUS
 62
     2
 10
150.675
 20
118.45
 30
0.0
 11
150.175
 21
118.45
 31
0.0
  0
LINE
  8
0
  6
CONTINUOUS
 62
     2
 10
144.5
 20
123.0
 30
0.0
 11
144.5
 21
119.0
 31
0.0
  0
TEXT
  8
0
  6
CONTINUOUS
 62
     2
 10
148.169080919
 20
93.9
 30
0.5
 40
3.0
  1
４－Ｍ６ターミナルネジ
 50
0.0
 41
0.6
 51
0.0
  7
KANJI7
  0
TEXT
  8
0
  6
CONTINUOUS
 62
     2
 10
25.5
 20
89.6
 30
2.0
 40
3.0
  1
指針
 50
0.0
 41
0.9
 51
0.0
  7
KANJI9
  0
TEXT
  8
0
  6
CONTINUOUS
 62
     2
 10
13.363820798
 20
119.588245415
 30
0.3
 40
3.0
  1
１１０
 50
90.0
 41
0.6
 51
0.0
  7
KANJI6
  0
LINE
  8
0
  6
CONTINUOUS
 62
     2
 10
104.75
 20
147.125
 30
0.0
 11
102.25
 21
147.125
 31
0.0
  0
LINE
  8
0
  6
CONTINUOUS
 62
     2
 10
104.75
 20
149.885
 30
0.0
 11
102.25
 21
149.885
 31
0.0
  0
LINE
  8
0
  6
CONTINUOUS
 62
     2
 10
104.75
 20
102.125
 30
0.0
 11
102.25
 21
102.125
 31
0.0
  0
LINE
  8
0
  6
CONTINUOUS
 62
     2
 10
104.75
 20
104.885
 30
0.0
 11
102.25
 21
104.885
 31
0.0
  0
TEXT
  8
0
  6
CONTINUOUS
 62
     2
 10
123.0
 20
159.15
 30
0.3
 40
3.0
  1
可動鉄片形用胴
 50
0.0
 41
0.6
 51
0.0
  7
KANJI6
  0
TEXT
  8
0
  6
CONTINUOUS
 62
     2
 10
219.4
 20
132.87
 30
0.3
 40
3.0
  1
４５
 50
90.0
 41
0.6
 51
0.0
  7
KANJI6
  0
TEXT
  8
0
  6
CONTINUOUS
 62
     2
 10
219.4
 20
110.37
 30
0.3
 40
3.0
  1
４５
 50
90.0
 41
0.6
 51
0.0
  7
KANJI6
  0
TEXT
  8
0
  6
CONTINUOUS
 62
     2
 10
170.17
 20
85.65
 30
0.3
 40
3.0
  1
４５
 50
0.0
 41
0.6
 51
0.0
  7
KANJI6
  0
TEXT
  8
0
  6
CONTINUOUS
 62
     2
 10
218.8
 20
65.92
 30
0.18
 40
1.8
  1
４５．５
 50
90.0
 41
0.6
 51
0.0
  7
KANJI5
  0
TEXT
  8
0
  6
CONTINUOUS
 62
     2
 10
218.8
 20
62.02
 30
0.3
 40
3.0
  1
４５
 50
90.0
 41
0.6
 51
0.0
  7
KANJI6
  0
TEXT
  8
0
  6
CONTINUOUS
 62
     2
 10
218.8
 20
39.52
 30
0.3
 40
3.0
  1
４５
 50
90.0
 41
0.6
 51
0.0
  7
KANJI6
  0
TEXT
  8
0
  6
CONTINUOUS
 62
     2
 10
26.614213562
 20
51.1
 30
0.2
 40
3.0
  1
２，ＥＬ板の発光色は、グリーン　か　オレンジ　のいずれかをご指示下さい。
 50
0.0
 41
0.9
 51
0.0
  7
KANJI8
  0
TEXT
  8
0
  6
CONTINUOUS
 62
     2
 10
86.125
 20
121.925
 30
0.3
 40
3.0
  1
φ１０２
 50
90.0
 41
0.6
 51
0.0
  7
KANJI6
  0
TEXT
  8
0
  6
CONTINUOUS
 62
     2
 10
52.983820798
 20
162.818245415
 30
0.18
 40
1.8
  1
±１．５
 50
0.0
 41
0.6
 51
0.0
  7
KANJI5
  0
TEXT
  8
0
  6
CONTINUOUS
 62
     2
 10
45.983820798
 20
162.818245415
 30
0.3
 40
3.0
  1
１１０
 50
0.0
 41
0.6
 51
0.0
  7
KANJI6
  0
TEXT
  8
0
  6
CONTINUOUS
 62
     2
 10
94.45
 20
163.375001907
 30
0.3
 40
3.0
  1
０．５
 50
0.0
 41
0.6
 51
0.0
  7
KANJI6
  0
TEXT
  8
0
  6
CONTINUOUS
 62
     2
 10
174.07
 20
162.818245415
 30
0.18
 40
1.8
  1
±０．５
 50
0.0
 41
0.6
 51
0.0
  7
KANJI5
  0
TEXT
  8
0
  6
CONTINUOUS
 62
     2
 10
196.57
 20
162.818245415
 30
0.18
 40
1.8
  1
±０．５
 50
0.0
 41
0.6
 51
0.0
  7
KANJI5
  0
TEXT
  8
0
  6
CONTINUOUS
 62
     2
 10
170.17
 20
162.818245415
 30
0.3
 40
3.0
  1
４５
 50
0.0
 41
0.6
 51
0.0
  7
KANJI6
  0
TEXT
  8
0
  6
CONTINUOUS
 62
     2
 10
192.67
 20
162.818245415
 30
0.3
 40
3.0
  1
４５
 50
0.0
 41
0.6
 51
0.0
  7
KANJI6
  0
TEXT
  8
0
  6
CONTINUOUS
 62
     2
 10
189.176470351
 20
60.290293305
 30
0.3
 40
3.0
  1
φ　１０２
 50
46.346669025
 41
0.6
 51
0.0
  7
KANJI6
  0
TEXT
  8
0
  6
CONTINUOUS
 62
     2
 10
116.5
 20
119.88
 30
0.3
 40
3.0
  1
φ９９
 50
90.0
 41
0.6
 51
0.0
  7
KANJI6
  0
TEXT
  8
0
  6
CONTINUOUS
 62
     2
 10
188.525
 20
141.65
 30
0.2
 40
3.0
  1
計器入力端子
 50
0.0
 41
0.8
 51
0.0
  7
KANJI10
  0
TEXT
  8
0
  6
CONTINUOUS
 62
     2
 10
196.57
 20
85.65
 30
0.18
 40
1.8
  1
±０．５
 50
0.0
 41
0.6
 51
0.0
  7
KANJI5
  0
TEXT
  8
0
  6
CONTINUOUS
 62
     2
 10
192.67
 20
85.65
 30
0.3
 40
3.0
  1
４５
 50
0.0
 41
0.6
 51
0.0
  7
KANJI6
  0
CIRCLE
  8
0
  6
CONTINUOUS
 62
     2
 10
75.4
 20
108.9
 30
0.0
 40
0.65
  0
POLYLINE
  8
0
  6
CONTINUOUS
 62
     2
 66
     1
  0
VERTEX
  8
0
  6
CONTINUOUS
 62
     2
 10
94.65
 20
107.65
 30
0.0
 42
0.024239119
  0
VERTEX
  8
0
  6
CONTINUOUS
 62
     2
 10
94.649048675
 20
107.669610042
 30
0.0
 42
0.024163968
  0
VERTEX
  8
0
  6
CONTINUOUS
 62
     2
 10
94.646201938
 20
107.68907084
 30
0.0
 42
0.024006695
  0
VERTEX
  8
0
  6
CONTINUOUS
 62
     2
 10
94.641481457
 20
107.708234285
 30
0.0
 42
0.023775145
  0
VERTEX
  8
0
  6
CONTINUOUS
 62
     2
 10
94.634923155
 20
107.726954532
 30
0.0
 42
0.023480429
  0
VERTEX
  8
0
  6
CONTINUOUS
 62
     2
 10
94.626576947
 20
107.745089109
 30
0.0
 42
0.023135942
  0
VERTEX
  8
0
  6
CONTINUOUS
 62
     2
 10
94.616506351
 20
107.7625
 30
0.0
 42
0.022756308
  0
VERTEX
  8
0
  6
CONTINUOUS
 62
     2
 10
94.604788011
 20
107.779054698
 30
0.0
 42
0.022356385
  0
VERTEX
  8
0
  6
CONTINUOUS
 62
     2
 10
94.591511111
 20
107.794627212
 30
0.0
 42
0.021950434
  0
VERTEX
  8
0
  6
CONTINUOUS
 62
     2
 10
94.576776695
 20
107.809099026
 30
0.0
 42
0.021551527
  0
VERTEX
  8
0
  6
CONTINUOUS
 62
     2
 10
94.560696902
 20
107.82236
 30
0.0
 42
0.021171169
  0
VERTEX
  8
0
  6
CONTINUOUS
 62
     2
 10
94.543394109
 20
107.83430921
 30
0.0
 42
0.020819139
  0
VERTEX
  8
0
  6
CONTINUOUS
 62
     2
 10
94.525
 20
107.844855716
 30
0.0
 42
0.020503486
  0
VERTEX
  8
0
  6
CONTINUOUS
 62
     2
 10
94.505654565
 20
107.853919252
 30
0.0
 42
0.020230638
  0
VERTEX
  8
0
  6
CONTINUOUS
 62
     2
 10
94.485505036
 20
107.86143084
 30
0.0
 42
0.020005563
  0
VERTEX
  8
0
  6
CONTINUOUS
 62
     2
 10
94.464704761
 20
107.867333311
 30
0.0
 42
0.019831963
  0
VERTEX
  8
0
  6
CONTINUOUS
 62
     2
 10
94.443412044
 20
107.871581744
 30
0.0
 42
0.019712456
  0
VERTEX
  8
0
  6
CONTINUOUS
 62
     2
 10
94.421788936
 20
107.874143807
 30
0.0
 42
0.019648723
  0
VERTEX
  8
0
  6
CONTINUOUS
 62
     2
 10
94.4
 20
107.875
 30
0.0
  0
SEQEND
  8
0
  6
CONTINUOUS
 62
     2
  0
POLYLINE
  8
0
  6
CONTINUOUS
 62
     2
 66
     1
  0
VERTEX
  8
0
  6
CONTINUOUS
 62
     2
 10
94.4
 20
107.425
 30
0.0
 42
0.019641622
  0
VERTEX
  8
0
  6
CONTINUOUS
 62
     2
 10
94.421788936
 20
107.425856193
 30
0.0
 42
0.019691247
  0
VERTEX
  8
0
  6
CONTINUOUS
 62
     2
 10
94.443412044
 20
107.428418256
 30
0.0
 42
0.019796935
  0
VERTEX
  8
0
  6
CONTINUOUS
 62
     2
 10
94.464704761
 20
107.432666689
 30
0.0
 42
0.019957217
  0
VERTEX
  8
0
  6
CONTINUOUS
 62
     2
 10
94.485505036
 20
107.43856916
 30
0.0
 42
0.020169725
  0
VERTEX
  8
0
  6
CONTINUOUS
 62
     2
 10
94.505654565
 20
107.446080748
 30
0.0
 42
0.020431044
  0
VERTEX
  8
0
  6
CONTINUOUS
 62
     2
 10
94.525
 20
107.455144284
 30
0.0
 42
0.020736538
  0
VERTEX
  8
0
  6
CONTINUOUS
 62
     2
 10
94.543394109
 20
107.46569079
 30
0.0
 42
0.021080162
  0
VERTEX
  8
0
  6
CONTINUOUS
 62
     2
 10
94.560696902
 20
107.47764
 30
0.0
 42
0.021454286
  0
VERTEX
  8
0
  6
CONTINUOUS
 62
     2
 10
94.576776695
 20
107.490900974
 30
0.0
 42
0.021849569
  0
VERTEX
  8
0
  6
CONTINUOUS
 62
     2
 10
94.591511111
 20
107.505372788
 30
0.0
 42
0.022254927
  0
VERTEX
  8
0
  6
CONTINUOUS
 62
     2
 10
94.604788011
 20
107.520945302
 30
0.0
 42
0.022657657
  0
VERTEX
  8
0
  6
CONTINUOUS
 62
     2
 10
94.616506351
 20
107.5375
 30
0.0
 42
0.023043745
  0
VERTEX
  8
0
  6
CONTINUOUS
 62
     2
 10
94.626576947
 20
107.554910891
 30
0.0
 42
0.023398414
  0
VERTEX
  8
0
  6
CONTINUOUS
 62
     2
 10
94.634923155
 20
107.573045468
 30
0.0
 42
0.023706896
  0
VERTEX
  8
0
  6
CONTINUOUS
 62
     2
 10
94.641481457
 20
107.591765715
 30
0.0
 42
0.023955386
  0
VERTEX
  8
0
  6
CONTINUOUS
 62
     2
 10
94.646201938
 20
107.61092916
 30
0.0
 42
0.024132106
  0
VERTEX
  8
0
  6
CONTINUOUS
 62
     2
 10
94.649048675
 20
107.630389958
 30
0.0
 42
0.024228314
  0
VERTEX
  8
0
  6
CONTINUOUS
 62
     2
 10
94.65
 20
107.65
 30
0.0
  0
SEQEND
  8
0
  6
CONTINUOUS
 62
     2
  0
POLYLINE
  8
0
  6
CONTINUOUS
 62
     2
 66
     1
  0
VERTEX
  8
0
  6
CONTINUOUS
 62
     2
 10
94.65
 20
106.75
 30
0.0
 42
0.038883586
  0
VERTEX
  8
0
  6
CONTINUOUS
 62
     2
 10
94.649048666
 20
106.762201856
 30
0.0
 42
0.037788971
  0
VERTEX
  8
0
  6
CONTINUOUS
 62
     2
 10
94.646201906
 20
106.774310847
 30
0.0
 42
0.035667343
  0
VERTEX
  8
0
  6
CONTINUOUS
 62
     2
 10
94.641481385
 20
106.786234817
 30
0.0
 42
0.032903098
  0
VERTEX
  8
0
  6
CONTINUOUS
 62
     2
 10
94.634923028
 20
106.797883015
 30
0.0
 42
0.029888711
  0
VERTEX
  8
0
  6
CONTINUOUS
 62
     2
 10
94.626576751
 20
106.809166792
 30
0.0
 42
0.0269257
  0
VERTEX
  8
0
  6
CONTINUOUS
 62
     2
 10
94.616506073
 20
106.82000027
 30
0.0
 42
0.024197974
  0
VERTEX
  8
0
  6
CONTINUOUS
 62
     2
 10
94.604787638
 20
106.830300999
 30
0.0
 42
0.021791311
  0
VERTEX
  8
0
  6
CONTINUOUS
 62
     2
 10
94.591510634
 20
106.839990584
 30
0.0
 42
0.019726673
  0
VERTEX
  8
0
  6
CONTINUOUS
 62
     2
 10
94.576776105
 20
106.84899528
 30
0.0
 42
0.017989285
  0
VERTEX
  8
0
  6
CONTINUOUS
 62
     2
 10
94.560696191
 20
106.857246556
 30
0.0
 42
0.016548436
  0
VERTEX
  8
0
  6
CONTINUOUS
 62
     2
 10
94.543393273
 20
106.864681614
 30
0.0
 42
0.015369057
  0
VERTEX
  8
0
  6
CONTINUOUS
 62
     2
 10
94.524999035
 20
106.871243868
 30
0.0
 42
0.014417712
  0
VERTEX
  8
0
  6
CONTINUOUS
 62
     2
 10
94.505653472
 20
106.876883376
 30
0.0
 42
0.013665269
  0
VERTEX
  8
0
  6
CONTINUOUS
 62
     2
 10
94.485503815
 20
106.881557216
 30
0.0
 42
0.013087804
  0
VERTEX
  8
0
  6
CONTINUOUS
 62
     2
 10
94.464703417
 20
106.885229817
 30
0.0
 42
0.01266666
  0
VERTEX
  8
0
  6
CONTINUOUS
 62
     2
 10
94.443410582
 20
106.88787323
 30
0.0
 42
0.012388162
  0
VERTEX
  8
0
  6
CONTINUOUS
 62
     2
 10
94.421787364
 20
106.889467335
 30
0.0
 42
0.01224327
  0
VERTEX
  8
0
  6
CONTINUOUS
 62
     2
 10
94.399998329
 20
106.89
 30
0.0
  0
SEQEND
  8
0
  6
CONTINUOUS
 62
     2
  0
POLYLINE
  8
0
  6
CONTINUOUS
 62
     2
 66
     1
  0
VERTEX
  8
0
  6
CONTINUOUS
 62
     2
 10
94.399998329
 20
106.61
 30
0.0
 42
0.01222728
  0
VERTEX
  8
0
  6
CONTINUOUS
 62
     2
 10
94.421787364
 20
106.610532665
 30
0.0
 42
0.012339669
  0
VERTEX
  8
0
  6
CONTINUOUS
 62
     2
 10
94.443410582
 20
106.61212677
 30
0.0
 42
0.012584092
  0
VERTEX
  8
0
  6
CONTINUOUS
 62
     2
 10
94.464703417
 20
106.614770183
 30
0.0
 42
0.01296848
  0
VERTEX
  8
0
  6
CONTINUOUS
 62
     2
 10
94.485503815
 20
106.618442784
 30
0.0
 42
0.013505316
  0
VERTEX
  8
0
  6
CONTINUOUS
 62
     2
 10
94.505653472
 20
106.623116624
 30
0.0
 42
0.01421198
  0
VERTEX
  8
0
  6
CONTINUOUS
 62
     2
 10
94.524999035
 20
106.628756132
 30
0.0
 42
0.015111066
  0
VERTEX
  8
0
  6
CONTINUOUS
 62
     2
 10
94.543393273
 20
106.635318386
 30
0.0
 42
0.016230442
  0
VERTEX
  8
0
  6
CONTINUOUS
 62
     2
 10
94.560696191
 20
106.642753444
 30
0.0
 42
0.017602629
  0
VERTEX
  8
0
  6
CONTINUOUS
 62
     2
 10
94.576776105
 20
106.65100472
 30
0.0
 42
0.019262688
  0
VERTEX
  8
0
  6
CONTINUOUS
 62
     2
 10
94.591510634
 20
106.660009416
 30
0.0
 42
0.021243239
  0
VERTEX
  8
0
  6
CONTINUOUS
 62
     2
 10
94.604787638
 20
106.669699001
 30
0.0
 42
0.023564536
  0
VERTEX
  8
0
  6
CONTINUOUS
 62
     2
 10
94.616506073
 20
106.67999973
 30
0.0
 42
0.026216933
  0
VERTEX
  8
0
  6
CONTINUOUS
 62
     2
 10
94.626576751
 20
106.690833208
 30
0.0
 42
0.029133996
  0
VERTEX
  8
0
  6
CONTINUOUS
 62
     2
 10
94.634923028
 20
106.702116985
 30
0.0
 42
0.032159182
  0
VERTEX
  8
0
  6
CONTINUOUS
 62
     2
 10
94.641481385
 20
106.713765183
 30
0.0
 42
0.035020305
  0
VERTEX
  8
0
  6
CONTINUOUS
 62
     2
 10
94.646201906
 20
106.725689153
 30
0.0
 42
0.037341317
  0
VERTEX
  8
0
  6
CONTINUOUS
 62
     2
 10
94.649048666
 20
106.737798144
 30
0.0
 42
0.038722737
  0
VERTEX
  8
0
  6
CONTINUOUS
 62
     2
 10
94.65
 20
106.75
 30
0.0
 42
-25.664327443
  0
VERTEX
  8
0
  6
CONTINUOUS
 62
     2
 10
94.65
 20
106.75
 30
0.0
  0
SEQEND
  8
0
  6
CONTINUOUS
 62
     2
  0
LINE
  8
0
  6
CONTINUOUS
 62
     2
 10
94.4
 20
107.872772055
 30
0.0
 11
91.85
 21
107.872772055
 31
0.0
  0
LINE
  8
0
  6
CONTINUOUS
 62
     2
 10
94.4
 20
107.439759353
 30
0.0
 11
91.85
 21
107.439759353
 31
0.0
  0
LINE
  8
0
  6
CONTINUOUS
 62
     2
 10
94.4
 20
106.870789008
 30
0.0
 11
91.85
 21
106.870789008
 31
0.0
  0
LINE
  8
0
  6
CONTINUOUS
 62
     2
 10
94.4
 20
106.620789008
 30
0.0
 11
91.89
 21
106.720789008
 31
0.0
  0
LINE
  8
0
  6
CONTINUOUS
 62
     2
 10
94.4
 20
108.65
 30
0.0
 11
91.85
 21
108.65
 31
0.0
  0
ARC
  8
0
  6
CONTINUOUS
 62
     2
 10
94.4
 20
108.9
 30
0.0
 40
0.25
 50
270.0
 51
0.0
  0
LINE
  8
0
  6
CONTINUOUS
 62
     2
 10
94.4
 20
109.927227945
 30
0.0
 11
91.85
 21
109.927227945
 31
0.0
  0
LINE
  8
0
  6
CONTINUOUS
 62
     2
 10
94.4
 20
110.360240647
 30
0.0
 11
91.85
 21
110.360240647
 31
0.0
  0
LINE
  8
0
  6
CONTINUOUS
 62
     2
 10
94.4
 20
109.15
 30
0.0
 11
91.85
 21
109.15
 31
0.0
  0
POINT
  8
0
  6
CONTINUOUS
 62
     2
 10
94.416487557
 20
111.06
 30
0.0
  0
LINE
  8
0
  6
CONTINUOUS
 62
     2
 10
94.4
 20
110.929210992
 30
0.0
 11
91.85
 21
110.929210992
 31
0.0
  0
LINE
  8
0
  6
CONTINUOUS
 62
     2
 10
94.4
 20
111.179210992
 30
0.0
 11
92.787330077
 21
111.179210992
 31
0.0
  0
POLYLINE
  8
0
  6
CONTINUOUS
 62
     2
 66
     1
  0
VERTEX
  8
0
  6
CONTINUOUS
 62
     2
 10
94.65
 20
110.15
 30
0.0
 42
0.024239119
  0
VERTEX
  8
0
  6
CONTINUOUS
 62
     2
 10
94.649048675
 20
110.169610042
 30
0.0
 42
0.024163968
  0
VERTEX
  8
0
  6
CONTINUOUS
 62
     2
 10
94.646201938
 20
110.18907084
 30
0.0
 42
0.024006695
  0
VERTEX
  8
0
  6
CONTINUOUS
 62
     2
 10
94.641481457
 20
110.208234285
 30
0.0
 42
0.023775145
  0
VERTEX
  8
0
  6
CONTINUOUS
 62
     2
 10
94.634923155
 20
110.226954532
 30
0.0
 42
0.023480429
  0
VERTEX
  8
0
  6
CONTINUOUS
 62
     2
 10
94.626576947
 20
110.245089109
 30
0.0
 42
0.023135942
  0
VERTEX
  8
0
  6
CONTINUOUS
 62
     2
 10
94.616506351
 20
110.2625
 30
0.0
 42
0.022756308
  0
VERTEX
  8
0
  6
CONTINUOUS
 62
     2
 10
94.604788011
 20
110.279054698
 30
0.0
 42
0.022356385
  0
VERTEX
  8
0
  6
CONTINUOUS
 62
     2
 10
94.591511111
 20
110.294627212
 30
0.0
 42
0.021950434
  0
VERTEX
  8
0
  6
CONTINUOUS
 62
     2
 10
94.576776695
 20
110.309099026
 30
0.0
 42
0.021551527
  0
VERTEX
  8
0
  6
CONTINUOUS
 62
     2
 10
94.560696902
 20
110.32236
 30
0.0
 42
0.021171169
  0
VERTEX
  8
0
  6
CONTINUOUS
 62
     2
 10
94.543394109
 20
110.33430921
 30
0.0
 42
0.020819139
  0
VERTEX
  8
0
  6
CONTINUOUS
 62
     2
 10
94.525
 20
110.344855716
 30
0.0
 42
0.020503486
  0
VERTEX
  8
0
  6
CONTINUOUS
 62
     2
 10
94.505654565
 20
110.353919252
 30
0.0
 42
0.020230638
  0
VERTEX
  8
0
  6
CONTINUOUS
 62
     2
 10
94.485505036
 20
110.36143084
 30
0.0
 42
0.020005563
  0
VERTEX
  8
0
  6
CONTINUOUS
 62
     2
 10
94.464704761
 20
110.367333311
 30
0.0
 42
0.019831963
  0
VERTEX
  8
0
  6
CONTINUOUS
 62
     2
 10
94.443412044
 20
110.371581744
 30
0.0
 42
0.019712456
  0
VERTEX
  8
0
  6
CONTINUOUS
 62
     2
 10
94.421788936
 20
110.374143807
 30
0.0
 42
0.019648723
  0
VERTEX
  8
0
  6
CONTINUOUS
 62
     2
 10
94.4
 20
110.375
 30
0.0
  0
SEQEND
  8
0
  6
CONTINUOUS
 62
     2
  0
POLYLINE
  8
0
  6
CONTINUOUS
 62
     2
 66
     1
  0
VERTEX
  8
0
  6
CONTINUOUS
 62
     2
 10
94.4
 20
109.925
 30
0.0
 42
0.019641622
  0
VERTEX
  8
0
  6
CONTINUOUS
 62
     2
 10
94.421788936
 20
109.925856193
 30
0.0
 42
0.019691247
  0
VERTEX
  8
0
  6
CONTINUOUS
 62
     2
 10
94.443412044
 20
109.928418256
 30
0.0
 42
0.019796935
  0
VERTEX
  8
0
  6
CONTINUOUS
 62
     2
 10
94.464704761
 20
109.932666689
 30
0.0
 42
0.019957217
  0
VERTEX
  8
0
  6
CONTINUOUS
 62
     2
 10
94.485505036
 20
109.93856916
 30
0.0
 42
0.020169725
  0
VERTEX
  8
0
  6
CONTINUOUS
 62
     2
 10
94.505654565
 20
109.946080748
 30
0.0
 42
0.020431044
  0
VERTEX
  8
0
  6
CONTINUOUS
 62
     2
 10
94.525
 20
109.955144284
 30
0.0
 42
0.020736538
  0
VERTEX
  8
0
  6
CONTINUOUS
 62
     2
 10
94.543394109
 20
109.96569079
 30
0.0
 42
0.021080162
  0
VERTEX
  8
0
  6
CONTINUOUS
 62
     2
 10
94.560696902
 20
109.97764
 30
0.0
 42
0.021454286
  0
VERTEX
  8
0
  6
CONTINUOUS
 62
     2
 10
94.576776695
 20
109.990900974
 30
0.0
 42
0.021849569
  0
VERTEX
  8
0
  6
CONTINUOUS
 62
     2
 10
94.591511111
 20
110.005372788
 30
0.0
 42
0.022254927
  0
VERTEX
  8
0
  6
CONTINUOUS
 62
     2
 10
94.604788011
 20
110.020945302
 30
0.0
 42
0.022657657
  0
VERTEX
  8
0
  6
CONTINUOUS
 62
     2
 10
94.616506351
 20
110.0375
 30
0.0
 42
0.023043745
  0
VERTEX
  8
0
  6
CONTINUOUS
 62
     2
 10
94.626576947
 20
110.054910891
 30
0.0
 42
0.023398414
  0
VERTEX
  8
0
  6
CONTINUOUS
 62
     2
 10
94.634923155
 20
110.073045468
 30
0.0
 42
0.023706896
  0
VERTEX
  8
0
  6
CONTINUOUS
 62
     2
 10
94.641481457
 20
110.091765715
 30
0.0
 42
0.023955386
  0
VERTEX
  8
0
  6
CONTINUOUS
 62
     2
 10
94.646201938
 20
110.11092916
 30
0.0
 42
0.024132106
  0
VERTEX
  8
0
  6
CONTINUOUS
 62
     2
 10
94.649048675
 20
110.130389958
 30
0.0
 42
0.024228314
  0
VERTEX
  8
0
  6
CONTINUOUS
 62
     2
 10
94.65
 20
110.15
 30
0.0
  0
SEQEND
  8
0
  6
CONTINUOUS
 62
     2
  0
POLYLINE
  8
0
  6
CONTINUOUS
 62
     2
 66
     1
  0
VERTEX
  8
0
  6
CONTINUOUS
 62
     2
 10
94.398882656
 20
110.920347556
 30
0.0
 42
0.012106561
  0
VERTEX
  8
0
  6
CONTINUOUS
 62
     2
 10
94.420463619
 20
110.920017707
 30
0.0
 42
0.012113897
  0
VERTEX
  8
0
  6
CONTINUOUS
 62
     2
 10
94.442014932
 20
110.920731757
 30
0.0
 42
0.012246087
  0
VERTEX
  8
0
  6
CONTINUOUS
 62
     2
 10
94.463375878
 20
110.92248438
 30
0.0
 42
0.012507331
  0
VERTEX
  8
0
  6
CONTINUOUS
 62
     2
 10
94.48438716
 20
110.925262506
 30
0.0
 42
0.012905934
  0
VERTEX
  8
0
  6
CONTINUOUS
 62
     2
 10
94.504892091
 20
110.929045418
 30
0.0
 42
0.013454581
  0
VERTEX
  8
0
  6
CONTINUOUS
 62
     2
 10
94.524737758
 20
110.933804905
 30
0.0
 42
0.014170655
  0
VERTEX
  8
0
  6
CONTINUOUS
 62
     2
 10
94.543776164
 20
110.939505475
 30
0.0
 42
0.015076528
  0
VERTEX
  8
0
  6
CONTINUOUS
 62
     2
 10
94.561865334
 20
110.946104615
 30
0.0
 42
0.016199557
  0
VERTEX
  8
0
  6
CONTINUOUS
 62
     2
 10
94.578870369
 20
110.953553114
 30
0.0
 42
0.017571384
  0
VERTEX
  8
0
  6
CONTINUOUS
 62
     2
 10
94.594664457
 20
110.961795426
 30
0.0
 42
0.019225722
  0
VERTEX
  8
0
  6
CONTINUOUS
 62
     2
 10
94.609129816
 20
110.970770085
 30
0.0
 42
0.021193311
  0
VERTEX
  8
0
  6
CONTINUOUS
 62
     2
 10
94.622158573
 20
110.980410162
 30
0.0
 42
0.023492027
  0
VERTEX
  8
0
  6
CONTINUOUS
 62
     2
 10
94.633653567
 20
110.99064377
 30
0.0
 42
0.026109712
  0
VERTEX
  8
0
  6
CONTINUOUS
 62
     2
 10
94.643529076
 20
111.001394593
 30
0.0
 42
0.028978252
  0
VERTEX
  8
0
  6
CONTINUOUS
 62
     2
 10
94.651711455
 20
111.012582457
 30
0.0
 42
0.031942093
  0
VERTEX
  8
0
  6
CONTINUOUS
 62
     2
 10
94.658139685
 20
111.02412393
 30
0.0
 42
0.034735121
  0
VERTEX
  8
0
  6
CONTINUOUS
 62
     2
 10
94.662765829
 20
111.035932944
 30
0.0
 42
0.036993813
  0
VERTEX
  8
0
  6
CONTINUOUS
 62
     2
 10
94.665555387
 20
111.047921435
 30
0.0
 42
0.038335161
  0
VERTEX
  8
0
  6
CONTINUOUS
 62
     2
 10
94.666487557
 20
111.06
 30
0.0
  0
SEQEND
  8
0
  6
CONTINUOUS
 62
     2
  0
POLYLINE
  8
0
  6
CONTINUOUS
 62
     2
 66
     1
  0
VERTEX
  8
0
  6
CONTINUOUS
 62
     2
 10
94.666487557
 20
111.06
 30
0.0
 42
0.038650513
  0
VERTEX
  8
0
  6
CONTINUOUS
 62
     2
 10
94.66554763
 20
111.072128622
 30
0.0
 42
0.037575062
  0
VERTEX
  8
0
  6
CONTINUOUS
 62
     2
 10
94.662734917
 20
111.084166043
 30
0.0
 42
0.035488191
  0
VERTEX
  8
0
  6
CONTINUOUS
 62
     2
 10
94.658070569
 20
111.09602175
 30
0.0
 42
0.032764464
  0
VERTEX
  8
0
  6
CONTINUOUS
 62
     2
 10
94.651589658
 20
111.107606595
 30
0.0
 42
0.029788039
  0
VERTEX
  8
0
  6
CONTINUOUS
 62
     2
 10
94.643340916
 20
111.118833466
 30
0.0
 42
0.026855886
  0
VERTEX
  8
0
  6
CONTINUOUS
 62
     2
 10
94.633386371
 20
111.129617943
 30
0.0
 42
0.024150723
  0
VERTEX
  8
0
  6
CONTINUOUS
 62
     2
 10
94.621800873
 20
111.139878935
 30
0.0
 42
0.021759076
  0
VERTEX
  8
0
  6
CONTINUOUS
 62
     2
 10
94.60867154
 20
111.149539284
 30
0.0
 42
0.019703357
  0
VERTEX
  8
0
  6
CONTINUOUS
 62
     2
 10
94.594097095
 20
111.158526349
 30
0.0
 42
0.01797026
  0
VERTEX
  8
0
  6
CONTINUOUS
 62
     2
 10
94.578187131
 20
111.166772555
 30
0.0
 42
0.016530276
  0
VERTEX
  8
0
  6
CONTINUOUS
 62
     2
 10
94.561061281
 20
111.174215893
 30
0.0
 42
0.015349212
  0
VERTEX
  8
0
  6
CONTINUOUS
 62
     2
 10
94.542848321
 20
111.180800395
 30
0.0
 42
0.014394214
  0
VERTEX
  8
0
  6
CONTINUOUS
 62
     2
 10
94.523685202
 20
111.186476548
 30
0.0
 42
0.013636501
  0
VERTEX
  8
0
  6
CONTINUOUS
 62
     2
 10
94.50371602
 20
111.191201672
 30
0.0
 42
0.013052319
  0
VERTEX
  8
0
  6
CONTINUOUS
 62
     2
 10
94.483090931
 20
111.194940237
 30
0.0
 42
0.012623033
  0
VERTEX
  8
0
  6
CONTINUOUS
 62
     2
 10
94.461965023
 20
111.197664129
 30
0.0
 42
0.012334876
  0
VERTEX
  8
0
  6
CONTINUOUS
 62
     2
 10
94.440497152
 20
111.199352868
 30
0.0
 42
0.012178603
  0
VERTEX
  8
0
  6
CONTINUOUS
 62
     2
 10
94.418848742
 20
111.199993756
 30
0.0
 42
0.012149212
  0
VERTEX
  8
0
  6
CONTINUOUS
 62
     2
 10
94.397182578
 20
111.199581972
 30
0.0
 42
-0.031174543
  0
VERTEX
  8
0
  6
CONTINUOUS
 62
     2
 10
94.397182578
 20
111.199581972
 30
0.0
  0
SEQEND
  8
0
  6
CONTINUOUS
 62
     2
  0
ARC
  8
0
  6
CONTINUOUS
 62
     2
 10
94.4
 20
108.9
 30
0.0
 40
0.25
 50
0.0
 51
90.0
  0
TEXT
  8
0
  6
CONTINUOUS
 62
     2
 10
92.85
 20
92.784227534
 30
0.2
 40
3.0
  1
９
 50
0.0
 41
0.8
 51
0.0
  7
KANJI10
  0
TEXT
  8
0
  6
CONTINUOUS
 62
     2
 10
86.075777922
 20
81.0
 30
0.2
 40
3.0
  1
照度調整用ツマミ（黒色）
 50
0.0
 41
0.8
 51
0.0
  7
KANJI10
  0
TEXT
  8
0
  6
CONTINUOUS
 62
     2
 10
26.614213562
 20
41.1
 30
0.2
 40
3.0
  1
４，交流入力の場合、端子記号の＋は関係ありません。
 50
0.0
 41
0.9
 51
0.0
  7
KANJI8
  0
TEXT
  8
0
  6
CONTINUOUS
 62
     2
 10
179.6625
 20
121.300378759
 30
0.0
 40
1.25
  1
ＥＬ　ＡＣ０００Ｖ～０００Ｖ　□
 50
0.0
 41
0.64
 51
0.0
  7
KANJI11
  0
LINE
  8
0
  6
CONTINUOUS
 62
     2
 10
183.6625
 20
120.350378759
 30
0.0
 11
183.915632214
 21
117.863226958
 31
0.0
  0
LINE
  8
0
  6
CONTINUOUS
 62
     2
 10
183.6625
 20
120.350378759
 30
0.0
 11
185.125294828
 21
118.323008223
 31
0.0
  0
LINE
  8
0
  6
CONTINUOUS
 62
     2
 10
183.6625
 20
120.350378759
 30
0.0
 11
187.8625
 21
109.300378759
 31
0.0
  0
LINE
  8
0
  6
CONTINUOUS
 62
     2
 10
187.8625
 20
109.300378759
 30
0.0
 11
203.8625
 21
109.300378759
 31
0.0
  0
TEXT
  8
0
  6
CONTINUOUS
 62
     2
 10
187.8625
 20
110.300378759
 30
0.1
 40
2.8
  1
表示貼りラベル
 50
0.0
 41
0.785714286
 51
0.0
  7
KANJI12
  0
CIRCLE
  8
0
  6
CONTINUOUS
 62
     2
 10
75.4
 20
108.9
 30
0.0
 40
1.7
  0
CIRCLE
  8
0
  6
CONTINUOUS
 62
     2
 10
75.4
 20
108.9
 30
0.0
 40
2.5
  0
TEXT
  8
0
  6
CONTINUOUS
 62
     2
 10
26.614213562
 20
46.1
 30
0.2
 40
3.0
  1
３，ＥＬ板の照度は、照度調整用ツマミによりゼロから約３ルックスの調整が可能です
 50
0.0
 41
0.9
 51
0.0
  7
KANJI8
  0
TEXT
  8
0
  6
CONTINUOUS
 62
     2
 10
106.7
 20
172.25
 30
0.3
 40
3.0
  1
１２９
 50
0.0
 41
0.9
 51
0.0
  7
KANJI3
  0
TEXT
  8
0
  6
CONTINUOUS
 62
     2
 10
115.79
 20
172.365
 30
0.21
 40
2.1
  1
（可動鉄片形：ＡＶＦ－１１ＥＺ）
 50
0.0
 41
0.9
 51
0.0
  7
KANJI13
  0
TEXT
  8
0
  6
CONTINUOUS
 62
     2
 10
106.7
 20
175.75
 30
0.3
 40
3.0
  1
１０２
 50
0.0
 41
0.9
 51
0.0
  7
KANJI3
  0
TEXT
  8
0
  6
CONTINUOUS
 62
     2
 10
115.79
 20
175.865
 30
0.21
 40
2.1
  1
（可動コイル形：ＤＶＦ－１１ＥＺ）
 50
0.0
 41
0.9
 51
0.0
  7
KANJI13
  0
TEXT
  8
0
  6
CONTINUOUS
 62
     2
 10
106.7
 20
179.25
 30
0.3
 40
3.0
  1
１０２
 50
0.0
 41
0.9
 51
0.0
  7
KANJI3
  0
TEXT
  8
0
  6
CONTINUOUS
 62
     2
 10
115.79
 20
179.365
 30
0.21
 40
2.1
  1
（整流形：ＳＶＦ－１１ＥＺ）
 50
0.0
 41
0.9
 51
0.0
  7
KANJI13
  0
TEXT
  8
0
  6
CONTINUOUS
 62
     2
 10
139.314213562
 20
46.05
 30
0.2
 40
3.0
  1
。
 50
0.0
 41
0.9
 51
0.0
  7
KANJI8
  0
LINE
  8
0
  6
CONTINUOUS
 62
     2
 10
105.45097354
 20
102.096666455
 30
0.0
 11
107.52597354
 21
102.096666455
 31
0.0
  0
LINE
  8
0
  6
CONTINUOUS
 62
     2
 10
107.544098674
 20
104.920076724
 30
0.0
 11
105.455901326
 21
104.920076724
 31
0.0
  0
LINE
  8
0
  6
CONTINUOUS
 62
     2
 10
105.45097354
 20
147.096666455
 30
0.0
 11
107.52597354
 21
147.096666455
 31
0.0
  0
LINE
  8
0
  6
CONTINUOUS
 62
     2
 10
107.544098674
 20
149.920076724
 30
0.0
 11
105.455901326
 21
149.920076724
 31
0.0
  0
TEXT
  8
0
  6
CONTINUOUS
 62
     2
 10
22.575777922
 20
80.95
 30
0.2
 40
3.0
  1
機械的零位調整器
 50
0.0
 41
0.8
 51
0.0
  7
KANJI10
  0
TEXT
  8
0
  6
CONTINUOUS
 62
     3
 10
233.0
 20
13.0
 30
0.6
 40
6.0
  1
ＭＳ－１２５５２
 50
0.0
 41
0.9
 51
0.0
  7
KANJI14
  0
LINE
  8
0
  6
CONTINUOUS
 62
     5
 10
24.913820798
 20
161.818245415
 30
0.0
 11
27.328635364
 21
161.171197802
 31
0.0
  0
LINE
  8
0
  6
CONTINUOUS
 62
     5
 10
24.913820798
 20
161.818245415
 30
0.0
 11
27.328635364
 21
162.465293027
 31
0.0
  0
LINE
  8
0
  6
CONTINUOUS
 62
     5
 10
24.913820798
 20
151.568245415
 30
0.0
 11
24.913820798
 21
162.818245415
 31
0.0
  0
LINE
  8
0
  6
CONTINUOUS
 62
     5
 10
27.263820798
 20
153.518245415
 30
0.0
 11
12.363820798
 21
153.518245415
 31
0.0
  0
LINE
  8
0
  6
CONTINUOUS
 62
     5
 10
14.363820798
 20
153.518245415
 30
0.0
 11
13.716773186
 21
151.103430849
 31
0.0
  0
LINE
  8
0
  6
CONTINUOUS
 62
     5
 10
14.363820798
 20
153.518245415
 30
0.0
 11
15.010868411
 21
151.103430849
 31
0.0
  0
LINE
  8
0
  6
CONTINUOUS
 62
     5
 10
79.913820798
 20
161.818245415
 30
0.0
 11
77.499006233
 21
162.465293027
 31
0.0
  0
LINE
  8
0
  6
CONTINUOUS
 62
     5
 10
79.913820798
 20
161.818245415
 30
0.0
 11
77.499006233
 21
161.171197802
 31
0.0
  0
LINE
  8
0
  6
CONTINUOUS
 62
     5
 10
79.913820798
 20
151.968245415
 30
0.0
 11
79.913820798
 21
162.918245415
 31
0.0
  0
LINE
  8
0
  6
CONTINUOUS
 62
     5
 10
24.913820798
 20
161.818245415
 30
0.0
 11
79.913820798
 21
161.818245415
 31
0.0
  0
LINE
  8
0
  6
CONTINUOUS
 62
     5
 10
14.363820798
 20
98.518245415
 30
0.0
 11
15.010868411
 21
100.93305998
 31
0.0
  0
LINE
  8
0
  6
CONTINUOUS
 62
     5
 10
14.363820798
 20
98.518245415
 30
0.0
 11
13.716773186
 21
100.93305998
 31
0.0
  0
LINE
  8
0
  6
CONTINUOUS
 62
     5
 10
27.263820798
 20
98.518245415
 30
0.0
 11
12.363820798
 21
98.518245415
 31
0.0
  0
LINE
  8
0
  6
CONTINUOUS
 62
     5
 10
14.363820798
 20
153.518245415
 30
0.0
 11
14.363820798
 21
98.518245415
 31
0.0
  0
LINE
  8
0
  6
CONTINUOUS
 62
     5
 10
33.6
 20
88.6
 30
0.0
 11
25.5
 21
88.6
 31
0.0
  0
LINE
  8
0
  6
CONTINUOUS
 62
     5
 10
38.4
 20
117.6
 30
0.0
 11
37.36730914
 21
115.323258999
 31
0.0
  0
LINE
  8
0
  6
CONTINUOUS
 62
     5
 10
38.4
 20
117.6
 30
0.0
 11
38.644033981
 21
115.111939025
 31
0.0
  0
LINE
  8
0
  6
CONTINUOUS
 62
     5
 10
38.4
 20
117.6
 30
0.0
 11
33.6
 21
88.6
 31
0.0
  0
LINE
  8
0
  6
CONTINUOUS
 62
     5
 10
92.55
 20
100.475
 30
0.0
 11
85.125
 21
100.475
 31
0.0
  0
LINE
  8
0
  6
CONTINUOUS
 62
     5
 10
87.125
 20
100.475
 30
0.0
 11
87.772047613
 21
102.889814566
 31
0.0
  0
LINE
  8
0
  6
CONTINUOUS
 62
     5
 10
87.125
 20
100.475
 30
0.0
 11
86.477952387
 21
102.889814566
 31
0.0
  0
LINE
  8
0
  6
CONTINUOUS
 62
     5
 10
87.125
 20
151.475
 30
0.0
 11
86.477952387
 21
149.060185434
 31
0.0
  0
LINE
  8
0
  6
CONTINUOUS
 62
     5
 10
87.125
 20
151.475
 30
0.0
 11
87.772047613
 21
149.060185434
 31
0.0
  0
LINE
  8
0
  6
CONTINUOUS
 62
     5
 10
92.55
 20
151.475
 30
0.0
 11
85.125
 21
151.475
 31
0.0
  0
LINE
  8
0
  6
CONTINUOUS
 62
     5
 10
90.0
 20
128.1
 30
0.0
 11
90.0
 21
173.425001907
 31
0.0
  0
LINE
  8
0
  6
CONTINUOUS
 62
     5
 10
87.125
 20
100.475
 30
0.0
 11
87.125
 21
151.475
 31
0.0
  0
LINE
  8
0
  6
CONTINUOUS
 62
     5
 10
90.0
 20
171.425001907
 30
0.0
 11
92.414814566
 21
170.777954295
 31
0.0
  0
LINE
  8
0
  6
CONTINUOUS
 62
     5
 10
90.0
 20
171.425001907
 30
0.0
 11
92.414814566
 21
172.07204952
 31
0.0
  0
LINE
  8
0
  6
CONTINUOUS
 62
     5
 10
102.0
 20
153.7
 30
0.0
 11
102.0
 21
173.425001907
 31
0.0
  0
LINE
  8
0
  6
CONTINUOUS
 62
     5
 10
102.25
 20
151.75
 30
0.0
 11
102.25
 21
163.875001907
 31
0.0
  0
LINE
  8
0
  6
CONTINUOUS
 62
     5
 10
102.25
 20
161.875001907
 30
0.0
 11
104.664814566
 21
161.227954295
 31
0.0
  0
LINE
  8
0
  6
CONTINUOUS
 62
     5
 10
102.25
 20
161.875001907
 30
0.0
 11
104.664814566
 21
162.52204952
 31
0.0
  0
LINE
  8
0
  6
CONTINUOUS
 62
     5
 10
102.0
 20
161.875001907
 30
0.0
 11
99.585185434
 21
162.52204952
 31
0.0
  0
LINE
  8
0
  6
CONTINUOUS
 62
     5
 10
102.0
 20
161.875001907
 30
0.0
 11
99.585185434
 21
161.227954295
 31
0.0
  0
LINE
  8
0
  6
CONTINUOUS
 62
     5
 10
102.25
 20
161.875001907
 30
0.0
 11
104.664814566
 21
161.227954295
 31
0.0
  0
LINE
  8
0
  6
CONTINUOUS
 62
     5
 10
102.25
 20
161.875001907
 30
0.0
 11
104.664814566
 21
162.52204952
 31
0.0
  0
LINE
  8
0
  6
CONTINUOUS
 62
     5
 10
93.9375
 20
161.875001907
 30
0.0
 11
107.25
 21
161.875001907
 31
0.0
  0
LINE
  8
0
  6
CONTINUOUS
 62
     5
 10
109.75
 20
161.875001907
 30
0.0
 11
107.335185434
 21
162.52204952
 31
0.0
  0
LINE
  8
0
  6
CONTINUOUS
 62
     5
 10
109.75
 20
161.875001907
 30
0.0
 11
107.335185434
 21
161.227954295
 31
0.0
  0
LINE
  8
0
  6
CONTINUOUS
 62
     5
 10
109.75
 20
150.25
 30
0.0
 11
109.75
 21
163.875001907
 31
0.0
  0
LINE
  8
0
  6
CONTINUOUS
 62
     5
 10
102.25
 20
161.875001907
 30
0.0
 11
109.75
 21
161.875001907
 31
0.0
  0
LINE
  8
0
  6
CONTINUOUS
 62
     5
 10
102.0
 20
171.425001907
 30
0.0
 11
104.414814566
 21
170.777954295
 31
0.0
  0
LINE
  8
0
  6
CONTINUOUS
 62
     5
 10
102.0
 20
171.425001907
 30
0.0
 11
104.414814566
 21
172.07204952
 31
0.0
  0
LINE
  8
0
  6
CONTINUOUS
 62
     5
 10
102.0
 20
171.425001907
 30
0.0
 11
99.585185434
 21
172.07204952
 31
0.0
  0
LINE
  8
0
  6
CONTINUOUS
 62
     5
 10
102.0
 20
171.425001907
 30
0.0
 11
99.585185434
 21
170.777954295
 31
0.0
  0
LINE
  8
0
  6
CONTINUOUS
 62
     5
 10
90.0
 20
171.425001907
 30
0.0
 11
102.0
 21
171.425001907
 31
0.0
  0
LINE
  8
0
  6
CONTINUOUS
 62
     5
 10
117.5
 20
150.7
 30
0.0
 11
116.852952387
 21
148.285185434
 31
0.0
  0
LINE
  8
0
  6
CONTINUOUS
 62
     5
 10
117.5
 20
150.7
 30
0.0
 11
118.147047613
 21
148.285185434
 31
0.0
  0
LINE
  8
0
  6
CONTINUOUS
 62
     5
 10
117.5
 20
101.3
 30
0.0
 11
118.147047613
 21
103.714814566
 31
0.0
  0
LINE
  8
0
  6
CONTINUOUS
 62
     5
 10
117.5
 20
101.3
 30
0.0
 11
116.852952387
 21
103.714814566
 31
0.0
  0
LINE
  8
0
  6
CONTINUOUS
 62
     5
 10
117.5
 20
150.7
 30
0.0
 11
117.5
 21
101.3
 31
0.0
  0
LINE
  8
0
  6
CONTINUOUS
 62
     5
 10
108.15
 20
102.15
 30
0.0
 11
108.796786092
 21
99.735115375
 31
0.0
  0
LINE
  8
0
  6
CONTINUOUS
 62
     5
 10
108.15
 20
102.15
 30
0.0
 11
109.917575499
 21
100.382041614
 31
0.0
  0
LINE
  8
0
  6
CONTINUOUS
 62
     5
 10
108.15
 20
102.15
 30
0.0
 11
116.0
 21
88.55
 31
0.0
  0
LINE
  8
0
  6
CONTINUOUS
 62
     5
 10
116.0
 20
88.55
 30
0.0
 11
136.2
 21
88.55
 31
0.0
  0
LINE
  8
0
  6
CONTINUOUS
 62
     5
 10
150.8
 20
119.0
 30
0.0
 11
149.826389907
 21
116.697374675
 31
0.0
  0
LINE
  8
0
  6
CONTINUOUS
 62
     5
 10
150.8
 20
119.0
 30
0.0
 11
151.108141588
 21
116.519062927
 31
0.0
  0
LINE
  8
0
  6
CONTINUOUS
 62
     5
 10
150.8
 20
119.0
 30
0.0
 11
147.169080919
 21
92.9
 31
0.0
  0
LINE
  8
0
  6
CONTINUOUS
 62
     5
 10
171.969080919
 20
92.9
 30
0.0
 11
147.169080919
 21
92.9
 31
0.0
  0
LINE
  8
0
  6
CONTINUOUS
 62
     5
 10
185.8
 20
161.818245415
 30
0.0
 11
183.385185434
 21
162.465293027
 31
0.0
  0
LINE
  8
0
  6
CONTINUOUS
 62
     5
 10
185.8
 20
161.818245415
 30
0.0
 11
183.385185434
 21
161.171197802
 31
0.0
  0
LINE
  8
0
  6
CONTINUOUS
 62
     5
 10
185.8
 20
161.818245415
 30
0.0
 11
188.214814566
 21
161.171197802
 31
0.0
  0
LINE
  8
0
  6
CONTINUOUS
 62
     5
 10
185.8
 20
161.818245415
 30
0.0
 11
188.214814566
 21
162.465293027
 31
0.0
  0
LINE
  8
0
  6
CONTINUOUS
 62
     5
 10
185.8
 20
157.2
 30
0.0
 11
185.8
 21
162.818245415
 31
0.0
  0
LINE
  8
0
  6
CONTINUOUS
 62
     5
 10
163.3
 20
161.818245415
 30
0.0
 11
165.714814566
 21
161.171197802
 31
0.0
  0
LINE
  8
0
  6
CONTINUOUS
 62
     5
 10
163.3
 20
161.818245415
 30
0.0
 11
165.714814566
 21
162.465293027
 31
0.0
  0
LINE
  8
0
  6
CONTINUOUS
 62
     5
 10
163.3
 20
152.6
 30
0.0
 11
163.3
 21
162.818245415
 31
0.0
  0
LINE
  8
0
  6
CONTINUOUS
 62
     5
 10
163.3
 20
161.818245415
 30
0.0
 11
185.8
 21
161.818245415
 31
0.0
  0
LINE
  8
0
  6
CONTINUOUS
 62
     5
 10
208.3
 20
161.818245415
 30
0.0
 11
205.885185434
 21
162.465293027
 31
0.0
  0
LINE
  8
0
  6
CONTINUOUS
 62
     5
 10
208.3
 20
161.818245415
 30
0.0
 11
205.885185434
 21
161.171197802
 31
0.0
  0
LINE
  8
0
  6
CONTINUOUS
 62
     5
 10
208.3
 20
152.5
 30
0.0
 11
208.3
 21
162.818245415
 31
0.0
  0
LINE
  8
0
  6
CONTINUOUS
 62
     5
 10
185.8
 20
161.818245415
 30
0.0
 11
208.3
 21
161.818245415
 31
0.0
  0
LINE
  8
0
  6
CONTINUOUS
 62
     5
 10
220.4
 20
148.5
 30
0.0
 11
219.752952387
 21
146.085185434
 31
0.0
  0
LINE
  8
0
  6
CONTINUOUS
 62
     5
 10
220.4
 20
148.5
 30
0.0
 11
221.047047613
 21
146.085185434
 31
0.0
  0
LINE
  8
0
  6
CONTINUOUS
 62
     5
 10
212.5
 20
148.5
 30
0.0
 11
222.4
 21
148.5
 31
0.0
  0
LINE
  8
0
  6
CONTINUOUS
 62
     5
 10
220.4
 20
126.0
 30
0.0
 11
219.752952387
 21
123.585185434
 31
0.0
  0
LINE
  8
0
  6
CONTINUOUS
 62
     5
 10
220.4
 20
126.0
 30
0.0
 11
221.047047613
 21
123.585185434
 31
0.0
  0
LINE
  8
0
  6
CONTINUOUS
 62
     5
 10
208.0
 20
126.0
 30
0.0
 11
222.4
 21
126.0
 31
0.0
  0
LINE
  8
0
  6
CONTINUOUS
 62
     5
 10
220.4
 20
126.0
 30
0.0
 11
221.047047613
 21
128.414814566
 31
0.0
  0
LINE
  8
0
  6
CONTINUOUS
 62
     5
 10
220.4
 20
126.0
 30
0.0
 11
219.752952387
 21
128.414814566
 31
0.0
  0
LINE
  8
0
  6
CONTINUOUS
 62
     5
 10
220.4
 20
126.0
 30
0.0
 11
220.4
 21
148.5
 31
0.0
  0
LINE
  8
0
  6
CONTINUOUS
 62
     5
 10
212.55
 20
103.5
 30
0.0
 11
222.4
 21
103.5
 31
0.0
  0
LINE
  8
0
  6
CONTINUOUS
 62
     5
 10
220.4
 20
103.5
 30
0.0
 11
221.047047613
 21
105.914814566
 31
0.0
  0
LINE
  8
0
  6
CONTINUOUS
 62
     5
 10
220.4
 20
103.5
 30
0.0
 11
219.752952387
 21
105.914814566
 31
0.0
  0
LINE
  8
0
  6
CONTINUOUS
 62
     5
 10
220.4
 20
103.5
 30
0.0
 11
220.4
 21
126.0
 31
0.0
  0
LINE
  8
0
  6
CONTINUOUS
 62
     5
 10
185.8
 20
84.65
 30
0.0
 11
188.214814566
 21
84.002952387
 31
0.0
  0
LINE
  8
0
  6
CONTINUOUS
 62
     5
 10
185.8
 20
84.65
 30
0.0
 11
188.214814566
 21
85.297047613
 31
0.0
  0
LINE
  8
0
  6
CONTINUOUS
 62
     5
 10
185.8
 20
84.65
 30
0.0
 11
208.3
 21
84.65
 31
0.0
  0
LINE
  8
0
  6
CONTINUOUS
 62
     5
 10
208.3
 20
84.65
 30
0.0
 11
205.885185434
 21
85.297047613
 31
0.0
  0
LINE
  8
0
  6
CONTINUOUS
 62
     5
 10
208.3
 20
84.65
 30
0.0
 11
205.885185434
 21
84.002952387
 31
0.0
  0
LINE
  8
0
  6
CONTINUOUS
 62
     5
 10
219.8
 20
77.65
 30
0.0
 11
219.152952387
 21
75.235185434
 31
0.0
  0
LINE
  8
0
  6
CONTINUOUS
 62
     5
 10
219.8
 20
77.65
 30
0.0
 11
220.447047613
 21
75.235185434
 31
0.0
  0
LINE
  8
0
  6
CONTINUOUS
 62
     5
 10
215.55
 20
77.65
 30
0.0
 11
221.8
 21
77.65
 31
0.0
  0
LINE
  8
0
  6
CONTINUOUS
 62
     5
 10
185.8
 20
84.65
 30
0.0
 11
183.385185434
 21
85.297047613
 31
0.0
  0
LINE
  8
0
  6
CONTINUOUS
 62
     5
 10
185.8
 20
84.65
 30
0.0
 11
183.385185434
 21
84.002952387
 31
0.0
  0
LINE
  8
0
  6
CONTINUOUS
 62
     5
 10
163.3
 20
84.65
 30
0.0
 11
165.714814566
 21
84.002952387
 31
0.0
  0
LINE
  8
0
  6
CONTINUOUS
 62
     5
 10
163.3
 20
84.65
 30
0.0
 11
165.714814566
 21
85.297047613
 31
0.0
  0
LINE
  8
0
  6
CONTINUOUS
 62
     5
 10
163.3
 20
84.65
 30
0.0
 11
185.8
 21
84.65
 31
0.0
  0
LINE
  8
0
  6
CONTINUOUS
 62
     5
 10
163.3
 20
84.0
 30
0.0
 11
163.3
 21
86.65
 31
0.0
  0
LINE
  8
0
  6
CONTINUOUS
 62
     5
 10
208.3
 20
84.0
 30
0.0
 11
208.3
 21
86.0
 31
0.0
  0
LINE
  8
0
  6
CONTINUOUS
 62
     5
 10
213.35
 20
32.65
 30
0.0
 11
221.8
 21
32.65
 31
0.0
  0
LINE
  8
0
  6
CONTINUOUS
 62
     5
 10
219.8
 20
32.65
 30
0.0
 11
220.447047613
 21
35.064814566
 31
0.0
  0
LINE
  8
0
  6
CONTINUOUS
 62
     5
 10
219.8
 20
32.65
 30
0.0
 11
219.152952387
 21
35.064814566
 31
0.0
  0
LINE
  8
0
  6
CONTINUOUS
 62
     5
 10
219.8
 20
55.15
 30
0.0
 11
219.152952387
 21
52.735185434
 31
0.0
  0
LINE
  8
0
  6
CONTINUOUS
 62
     5
 10
219.8
 20
55.15
 30
0.0
 11
220.447047613
 21
52.735185434
 31
0.0
  0
LINE
  8
0
  6
CONTINUOUS
 62
     5
 10
215.2
 20
55.15
 30
0.0
 11
221.8
 21
55.15
 31
0.0
  0
LINE
  8
0
  6
CONTINUOUS
 62
     5
 10
219.8
 20
55.15
 30
0.0
 11
220.447047613
 21
57.564814566
 31
0.0
  0
LINE
  8
0
  6
CONTINUOUS
 62
     5
 10
219.8
 20
55.15
 30
0.0
 11
219.152952387
 21
57.564814566
 31
0.0
  0
LINE
  8
0
  6
CONTINUOUS
 62
     5
 10
219.8
 20
55.15
 30
0.0
 11
219.8
 21
77.65
 31
0.0
  0
LINE
  8
0
  6
CONTINUOUS
 62
     5
 10
219.8
 20
32.65
 30
0.0
 11
219.8
 21
55.15
 31
0.0
  0
LINE
  8
0
  6
CONTINUOUS
 62
     5
 10
168.197520726
 20
36.699993946
 30
0.0
 11
170.332609185
 21
38.000531246
 31
0.0
  0
LINE
  8
0
  6
CONTINUOUS
 62
     5
 10
168.197520726
 20
36.699993946
 30
0.0
 11
169.396292921
 21
38.893836516
 31
0.0
  0
LINE
  8
0
  6
CONTINUOUS
 62
     5
 10
203.402479274
 20
73.600006054
 30
0.0
 11
201.267390815
 21
72.299468754
 31
0.0
  0
LINE
  8
0
  6
CONTINUOUS
 62
     5
 10
203.402479274
 20
73.600006054
 30
0.0
 11
202.203707079
 21
71.406163484
 31
0.0
  0
LINE
  8
0
  6
CONTINUOUS
 62
     5
 10
168.197520726
 20
36.699993946
 30
0.0
 11
203.402479274
 21
73.600006054
 31
0.0
  0
LINE
  8
0
  6
CONTINUOUS
 62
     5
 10
138.6
 20
149.75
 30
0.0
 11
138.986107626
 21
152.220004231
 31
0.0
  0
LINE
  8
0
  6
CONTINUOUS
 62
     5
 10
138.6
 20
149.75
 30
0.0
 11
137.699376897
 21
152.082140224
 31
0.0
  0
LINE
  8
0
  6
CONTINUOUS
 62
     5
 10
138.6
 20
149.75
 30
0.0
 11
137.7
 21
158.15
 31
0.0
  0
LINE
  8
0
  6
CONTINUOUS
 62
     5
 10
137.7
 20
158.15
 30
0.0
 11
122.7
 21
158.15
 31
0.0
  0
LINE
  8
0
  6
CONTINUOUS
 62
     5
 10
144.5
 20
150.600001907
 30
0.0
 11
144.5
 21
163.875001907
 31
0.0
  0
LINE
  8
0
  6
CONTINUOUS
 62
     5
 10
144.5
 20
161.875001907
 30
0.0
 11
146.914814566
 21
161.227954295
 31
0.0
  0
LINE
  8
0
  6
CONTINUOUS
 62
     5
 10
144.5
 20
161.875001907
 30
0.0
 11
146.914814566
 21
162.52204952
 31
0.0
  0
LINE
  8
0
  6
CONTINUOUS
 62
     5
 10
152.15
 20
132.9
 30
0.0
 11
152.15
 21
173.425001907
 31
0.0
  0
LINE
  8
0
  6
CONTINUOUS
 62
     5
 10
152.15
 20
161.875001907
 30
0.0
 11
149.735185434
 21
162.52204952
 31
0.0
  0
LINE
  8
0
  6
CONTINUOUS
 62
     5
 10
152.15
 20
161.875001907
 30
0.0
 11
149.735185434
 21
161.227954295
 31
0.0
  0
LINE
  8
0
  6
CONTINUOUS
 62
     5
 10
152.15
 20
162.150001907
 30
0.0
 11
152.15
 21
159.875001907
 31
0.0
  0
LINE
  8
0
  6
CONTINUOUS
 62
     5
 10
144.5
 20
161.875001907
 30
0.0
 11
152.15
 21
161.875001907
 31
0.0
  0
LINE
  8
0
  6
CONTINUOUS
 62
     5
 10
152.15
 20
171.425001907
 30
0.0
 11
149.735185434
 21
172.07204952
 31
0.0
  0
LINE
  8
0
  6
CONTINUOUS
 62
     5
 10
152.15
 20
171.425001907
 30
0.0
 11
149.735185434
 21
170.777954295
 31
0.0
  0
LINE
  8
0
  6
CONTINUOUS
 62
     5
 10
102.0
 20
171.425001907
 30
0.0
 11
152.15
 21
171.425001907
 31
0.0
  0
LINE
  8
0
  6
CONTINUOUS
 62
     5
 10
181.225
 20
133.85
 30
0.0
 11
183.433001925
 21
135.022487739
 31
0.0
  0
LINE
  8
0
  6
CONTINUOUS
 62
     5
 10
181.225
 20
133.85
 30
0.0
 11
182.55094189
 21
135.96940513
 31
0.0
  0
LINE
  8
0
  6
CONTINUOUS
 62
     5
 10
181.225
 20
133.85
 30
0.0
 11
188.525
 21
140.65
 31
0.0
  0
LINE
  8
0
  6
CONTINUOUS
 62
     5
 10
192.454061024
 20
134.680095795
 30
0.0
 11
191.682801519
 21
137.058153569
 31
0.0
  0
LINE
  8
0
  6
CONTINUOUS
 62
     5
 10
192.454061024
 20
134.680095795
 30
0.0
 11
190.597101812
 21
136.353924486
 31
0.0
  0
LINE
  8
0
  6
CONTINUOUS
 62
     5
 10
192.416844559
 20
134.65
 30
0.0
 11
188.525
 21
140.65
 31
0.0
  0
LINE
  8
0
  6
CONTINUOUS
 62
     5
 10
188.525
 20
140.65
 30
0.0
 11
203.925
 21
140.65
 31
0.0
  0
LINE
  8
0
  6
CONTINUOUS
 62
     5
 10
159.15
 20
22.35
 30
0.0
 11
150.45
 21
22.35
 31
0.0
  0
LINE
  8
0
  6
CONTINUOUS
 62
     5
 10
162.4
 20
31.1
 30
0.0
 11
160.952635312
 21
29.061585062
 31
0.0
  0
LINE
  8
0
  6
CONTINUOUS
 62
     5
 10
162.4
 20
31.1
 30
0.0
 11
162.165752881
 21
28.610998536
 31
0.0
  0
LINE
  8
0
  6
CONTINUOUS
 62
     5
 10
162.4
 20
31.1
 30
0.0
 11
159.15
 21
22.35
 31
0.0
  0
LINE
  8
0
  6
LTYPE3
 62
     5
 10
159.2
 20
32.65
 30
0.0
 11
166.35
 21
32.65
 31
0.0
  0
LINE
  8
0
  6
LTYPE3
 62
     5
 10
163.3
 20
37.85
 30
0.0
 11
163.3
 21
27.55
 31
0.0
  0
LINE
  8
0
  6
LTYPE3
 62
     5
 10
203.9
 20
32.65
 30
0.0
 11
213.2
 21
32.65
 31
0.0
  0
LINE
  8
0
  6
LTYPE3
 62
     5
 10
208.3
 20
28.3
 30
0.0
 11
208.3
 21
37.65
 31
0.0
  0
LINE
  8
0
  6
LTYPE3
 62
     5
 10
156.5
 20
55.15
 30
0.0
 11
215.2
 21
55.15
 31
0.0
  0
LINE
  8
0
  6
LTYPE3
 62
     5
 10
208.3
 20
72.25
 30
0.0
 11
208.3
 21
84.0
 31
0.0
  0
LINE
  8
0
  6
LTYPE3
 62
     5
 10
202.5
 20
77.65
 30
0.0
 11
215.55
 21
77.65
 31
0.0
  0
LINE
  8
0
  6
LTYPE3
 62
     5
 10
159.25
 20
77.65
 30
0.0
 11
169.9
 21
77.65
 31
0.0
  0
LINE
  8
0
  6
LTYPE3
 62
     5
 10
163.3
 20
84.0
 30
0.0
 11
163.3
 21
73.25
 31
0.0
  0
LINE
  8
0
  6
LTYPE3
 62
     5
 10
204.425
 20
103.5
 30
0.0
 11
212.4
 21
103.5
 31
0.0
  0
LINE
  8
0
  6
LTYPE3
 62
     5
 10
208.3
 20
107.4
 30
0.0
 11
208.3
 21
99.675
 31
0.0
  0
LINE
  8
0
  6
LTYPE3
 62
     5
 10
159.425
 20
103.5
 30
0.0
 11
167.4
 21
103.5
 31
0.0
  0
LINE
  8
0
  6
LTYPE3
 62
     5
 10
163.3
 20
107.4
 30
0.0
 11
163.3
 21
99.675
 31
0.0
  0
LINE
  8
0
  6
LTYPE3
 62
     5
 10
166.3
 20
121.0
 30
0.0
 11
175.3
 21
121.0
 31
0.0
  0
LINE
  8
0
  6
LTYPE3
 62
     5
 10
170.8
 20
124.5
 30
0.0
 11
170.8
 21
116.95
 31
0.0
  0
LINE
  8
0
  6
LTYPE3
 62
     5
 10
196.3
 20
121.0
 30
0.0
 11
206.0
 21
121.0
 31
0.0
  0
LINE
  8
0
  6
LTYPE3
 62
     5
 10
200.8
 20
124.7
 30
0.0
 11
200.8
 21
116.95
 31
0.0
  0
LINE
  8
0
  6
LTYPE3
 62
     5
 10
173.269080919
 20
126.0
 30
0.0
 11
198.269080919
 21
126.0
 31
0.0
  0
LINE
  8
0
  6
LTYPE3
 62
     5
 10
188.8
 20
131.0
 30
0.0
 11
198.5
 21
131.0
 31
0.0
  0
LINE
  8
0
  6
LTYPE3
 62
     5
 10
193.3
 20
135.95
 30
0.0
 11
193.3
 21
126.95
 31
0.0
  0
LINE
  8
0
  6
LTYPE3
 62
     5
 10
173.8
 20
131.0
 30
0.0
 11
182.8
 21
131.0
 31
0.0
  0
LINE
  8
0
  6
LTYPE3
 62
     5
 10
178.3
 20
134.9
 30
0.0
 11
178.3
 21
126.95
 31
0.0
  0
LINE
  8
0
  6
LTYPE3
 62
     5
 10
183.8
 20
148.0
 30
0.0
 11
187.8
 21
148.0
 31
0.0
  0
LINE
  8
0
  6
LTYPE3
 62
     5
 10
185.8
 20
150.0
 30
0.0
 11
185.8
 21
146.0
 31
0.0
  0
LINE
  8
0
  6
LTYPE3
 62
     5
 10
204.425
 20
148.5
 30
0.0
 11
212.4
 21
148.5
 31
0.0
  0
LINE
  8
0
  6
LTYPE3
 62
     5
 10
208.3
 20
152.4
 30
0.0
 11
208.3
 21
144.675
 31
0.0
  0
LINE
  8
0
  6
LTYPE3
 62
     5
 10
159.425
 20
148.5
 30
0.0
 11
167.4
 21
148.5
 31
0.0
  0
LINE
  8
0
  6
LTYPE3
 62
     5
 10
163.3
 20
152.4
 30
0.0
 11
163.3
 21
144.675
 31
0.0
  0
LINE
  8
0
  6
LTYPE3
 62
     5
 10
203.269080919
 20
126.0
 30
0.0
 11
207.7
 21
126.0
 31
0.0
  0
LINE
  8
0
  6
LTYPE3
 62
     5
 10
141.725
 20
121.0
 30
0.0
 11
154.45
 21
121.0
 31
0.0
  0
LINE
  8
0
  6
LTYPE3
 62
     5
 10
141.725
 20
131.0
 30
0.0
 11
154.45
 21
131.0
 31
0.0
  0
LINE
  8
0
  6
LTYPE3
 62
     5
 10
96.0
 20
125.975
 30
0.0
 11
102.25
 21
125.975
 31
0.0
  0
LINE
  8
0
  6
LTYPE3
 62
     5
 10
104.5
 20
125.975
 30
0.0
 11
112.5
 21
125.975
 31
0.0
  0
LINE
  8
0
  6
LTYPE3
 62
     5
 10
88.5
 20
126.0
 30
0.0
 11
95.5
 21
126.0
 31
0.0
  0
LINE
  8
0
  6
LTYPE3
 62
     5
 10
72.9
 20
148.5
 30
0.0
 11
76.9
 21
148.5
 31
0.0
  0
LINE
  8
0
  6
LTYPE3
 62
     5
 10
74.9
 20
150.5
 30
0.0
 11
74.9
 21
146.5
 31
0.0
  0
LINE
  8
0
  6
LTYPE3
 62
     5
 10
27.9
 20
148.5
 30
0.0
 11
31.9
 21
148.5
 31
0.0
  0
LINE
  8
0
  6
LTYPE3
 62
     5
 10
29.9
 20
150.5
 30
0.0
 11
29.9
 21
146.5
 31
0.0
  0
LINE
  8
0
  6
LTYPE3
 62
     5
 10
27.9
 20
103.5
 30
0.0
 11
31.9
 21
103.5
 31
0.0
  0
LINE
  8
0
  6
LTYPE3
 62
     5
 10
29.9
 20
105.5
 30
0.0
 11
29.9
 21
101.5
 31
0.0
  0
LINE
  8
0
  6
LTYPE3
 62
     5
 10
72.9
 20
103.5
 30
0.0
 11
76.9
 21
103.5
 31
0.0
  0
LINE
  8
0
  6
LTYPE3
 62
     5
 10
50.1
 20
139.0
 30
0.0
 11
54.9
 21
139.0
 31
0.0
  0
LINE
  8
0
  6
LTYPE3
 62
     5
 10
100.2
 20
103.5
 30
0.0
 11
112.05
 21
103.5
 31
0.0
  0
LINE
  8
0
  6
LTYPE3
 62
     5
 10
102.25
 20
125.975
 30
0.0
 11
104.5
 21
125.975
 31
0.0
  0
LINE
  8
0
  6
LTYPE3
 62
     5
 10
100.2
 20
148.5
 30
0.0
 11
112.05
 21
148.5
 31
0.0
  0
LINE
  8
0
  6
LTYPE3
 62
     5
 10
164.747441117
 20
115.0
 30
0.0
 11
168.747441117
 21
115.0
 31
0.0
  0
LINE
  8
0
  6
LTYPE3
 62
     5
 10
166.747441117
 20
117.0
 30
0.0
 11
166.747441117
 21
113.0
 31
0.0
  0
LINE
  8
0
  6
LTYPE3
 62
     5
 10
202.852558883
 20
115.0
 30
0.0
 11
206.852558883
 21
115.0
 31
0.0
  0
LINE
  8
0
  6
LTYPE3
 62
     5
 10
204.852558883
 20
117.0
 30
0.0
 11
204.852558883
 21
113.0
 31
0.0
  0
LINE
  8
0
  6
LTYPE3
 62
     5
 10
88.75
 20
108.9
 30
0.0
 11
105.75
 21
108.9
 31
0.0
  0
LINE
  8
0
  6
LTYPE3
 62
     5
 10
72.1
 20
108.9
 30
0.0
 11
78.8
 21
108.9
 31
0.0
  0
LINE
  8
0
  6
LTYPE3
 62
     5
 10
75.4
 20
105.9
 30
0.0
 11
75.4
 21
111.9
 31
0.0
  0
LINE
  8
0
  6
LTYPE3
 62
     5
 10
74.9
 20
105.25
 30
0.0
 11
74.9
 21
101.75
 31
0.0
  0
LINE
  8
0
  6
CONTINUOUS
 62
     5
 10
96.25
 20
97.975
 30
0.0
 11
96.25
 21
89.784227534
 31
0.0
  0
LINE
  8
0
  6
CONTINUOUS
 62
     5
 10
96.25
 20
91.784227534
 30
0.0
 11
98.664814566
 21
91.137179921
 31
0.0
  0
LINE
  8
0
  6
CONTINUOUS
 62
     5
 10
96.25
 20
91.784227534
 30
0.0
 11
98.664814566
 21
92.431275146
 31
0.0
  0
LINE
  8
0
  6
CONTINUOUS
 62
     5
 10
91.85
 20
91.784227534
 30
0.0
 11
89.435185434
 21
92.431275146
 31
0.0
  0
LINE
  8
0
  6
CONTINUOUS
 62
     5
 10
91.85
 20
91.784227534
 30
0.0
 11
89.435185434
 21
91.137179921
 31
0.0
  0
LINE
  8
0
  6
CONTINUOUS
 62
     5
 10
91.85
 20
105.7
 30
0.0
 11
91.85
 21
89.784227534
 31
0.0
  0
LINE
  8
0
  6
CONTINUOUS
 62
     5
 10
52.375777922
 20
124.35
 30
0.0
 11
51.300928067
 21
122.092856276
 31
0.0
  0
LINE
  8
0
  6
CONTINUOUS
 62
     5
 10
52.375777922
 20
124.35
 30
0.0
 11
52.573502504
 21
121.857831268
 31
0.0
  0
LINE
  8
0
  6
CONTINUOUS
 62
     5
 10
52.375777922
 20
124.35
 30
0.0
 11
44.175777922
 21
79.95
 31
0.0
  0
LINE
  8
0
  6
CONTINUOUS
 62
     5
 10
75.975777922
 20
106.45
 30
0.0
 11
76.232736876
 21
103.963240644
 31
0.0
  0
LINE
  8
0
  6
CONTINUOUS
 62
     5
 10
75.975777922
 20
106.45
 30
0.0
 11
77.441690582
 21
104.424882702
 31
0.0
  0
LINE
  8
0
  6
CONTINUOUS
 62
     5
 10
75.975777922
 20
106.45
 30
0.0
 11
86.075777922
 21
80.0
 31
0.0
  0
LINE
  8
0
  6
CONTINUOUS
 62
     5
 10
100.125777922
 20
91.784227534
 30
0.0
 11
88.125777922
 21
91.784227534
 31
0.0
  0
LINE
  8
0
  6
LTYPE3
 62
     5
 10
43.9
 20
112.5
 30
0.0
 11
43.9
 21
108.6
 31
0.0
  0
LINE
  8
0
  6
LTYPE3
 62
     5
 10
42.000777922
 20
110.5
 30
0.0
 11
45.900777922
 21
110.5
 31
0.0
  0
LINE
  8
0
  6
LTYPE3
 62
     5
 10
59.025777922
 20
110.5
 30
0.0
 11
62.925777922
 21
110.5
 31
0.0
  0
LINE
  8
0
  6
LTYPE3
 62
     5
 10
60.9
 20
112.6
 30
0.0
 11
60.9
 21
108.75
 31
0.0
  0
LINE
  8
0
  6
CONTINUOUS
 62
     5
 10
86.075777922
 20
80.0
 30
0.0
 11
115.775777922
 21
80.0
 31
0.0
  0
ARC
  8
0
  6
CONTINUOUS
 62
     5
 10
74.275
 20
106.951442841
 30
0.0
 40
0.25
 50
330.0
 51
150.0
  0
LINE
  8
0
  6
CONTINUOUS
 62
     5
 10
74.498472362
 20
106.838508327
 30
0.0
 11
74.372772055
 21
106.620789008
 31
0.0
  0
LINE
  8
0
  6
CONTINUOUS
 62
     5
 10
74.06545966
 20
107.088508327
 30
0.0
 11
73.939759353
 21
106.870789008
 31
0.0
  0
ARC
  8
0
  6
CONTINUOUS
 62
     5
 10
75.4
 20
106.65
 30
0.0
 40
0.25
 50
0.0
 51
180.0
  0
LINE
  8
0
  6
CONTINUOUS
 62
     5
 10
75.65
 20
106.663932023
 30
0.0
 11
75.65
 21
106.412531407
 31
0.0
  0
LINE
  8
0
  6
CONTINUOUS
 62
     5
 10
75.15
 20
106.663932023
 30
0.0
 11
75.15
 21
106.412531407
 31
0.0
  0
ARC
  8
0
  6
CONTINUOUS
 62
     5
 10
76.525
 20
106.951442841
 30
0.0
 40
0.25
 50
30.0
 51
210.0
  0
LINE
  8
0
  6
CONTINUOUS
 62
     5
 10
76.73454034
 20
107.088508327
 30
0.0
 11
76.860240647
 21
106.870789008
 31
0.0
  0
LINE
  8
0
  6
CONTINUOUS
 62
     5
 10
76.301527638
 20
106.838508327
 30
0.0
 11
76.427227945
 21
106.620789008
 31
0.0
  0
ARC
  8
0
  6
CONTINUOUS
 62
     5
 10
76.525
 20
106.951442841
 30
0.0
 40
0.25
 50
30.0
 51
210.0
  0
LINE
  8
0
  6
CONTINUOUS
 62
     5
 10
76.73454034
 20
107.088508327
 30
0.0
 11
76.860240647
 21
106.870789008
 31
0.0
  0
LINE
  8
0
  6
CONTINUOUS
 62
     5
 10
76.301527638
 20
106.838508327
 30
0.0
 11
76.427227945
 21
106.620789008
 31
0.0
  0
ARC
  8
0
  6
CONTINUOUS
 62
     5
 10
77.348557159
 20
107.775
 30
0.0
 40
0.25
 50
60.0
 51
240.0
  0
LINE
  8
0
  6
CONTINUOUS
 62
     5
 10
77.461491673
 20
107.998472362
 30
0.0
 11
77.679210992
 21
107.872772055
 31
0.0
  0
LINE
  8
0
  6
CONTINUOUS
 62
     5
 10
77.211491673
 20
107.56545966
 30
0.0
 11
77.429210992
 21
107.439759353
 31
0.0
  0
ARC
  8
0
  6
CONTINUOUS
 62
     5
 10
77.65
 20
108.9
 30
0.0
 40
0.25
 50
90.0
 51
270.0
  0
LINE
  8
0
  6
CONTINUOUS
 62
     5
 10
77.636067977
 20
109.15
 30
0.0
 11
77.887468593
 21
109.15
 31
0.0
  0
LINE
  8
0
  6
CONTINUOUS
 62
     5
 10
77.636067977
 20
108.65
 30
0.0
 11
77.887468593
 21
108.65
 31
0.0
  0
ARC
  8
0
  6
CONTINUOUS
 62
     5
 10
77.348557159
 20
110.025
 30
0.0
 40
0.25
 50
120.0
 51
300.0
  0
LINE
  8
0
  6
CONTINUOUS
 62
     5
 10
77.211491673
 20
110.23454034
 30
0.0
 11
77.429210992
 21
110.360240647
 31
0.0
  0
LINE
  8
0
  6
CONTINUOUS
 62
     5
 10
77.461491673
 20
109.801527638
 30
0.0
 11
77.679210992
 21
109.927227945
 31
0.0
  0
ARC
  8
0
  6
CONTINUOUS
 62
     5
 10
76.525
 20
110.848557159
 30
0.0
 40
0.25
 50
150.0
 51
330.0
  0
LINE
  8
0
  6
CONTINUOUS
 62
     5
 10
76.301527638
 20
110.961491673
 30
0.0
 11
76.427227945
 21
111.179210992
 31
0.0
  0
LINE
  8
0
  6
CONTINUOUS
 62
     5
 10
76.73454034
 20
110.711491673
 30
0.0
 11
76.860240647
 21
110.929210992
 31
0.0
  0
ARC
  8
0
  6
CONTINUOUS
 62
     5
 10
75.4
 20
111.15
 30
0.0
 40
0.25
 50
180.0
 51
0.0
  0
LINE
  8
0
  6
CONTINUOUS
 62
     5
 10
75.15
 20
111.136067977
 30
0.0
 11
75.15
 21
111.387468593
 31
0.0
  0
LINE
  8
0
  6
CONTINUOUS
 62
     5
 10
75.65
 20
111.136067977
 30
0.0
 11
75.65
 21
111.387468593
 31
0.0
  0
ARC
  8
0
  6
CONTINUOUS
 62
     5
 10
74.275
 20
110.848557159
 30
0.0
 40
0.25
 50
210.0
 51
30.0
  0
LINE
  8
0
  6
CONTINUOUS
 62
     5
 10
74.06545966
 20
110.711491673
 30
0.0
 11
73.939759353
 21
110.929210992
 31
0.0
  0
LINE
  8
0
  6
CONTINUOUS
 62
     5
 10
74.498472362
 20
110.961491673
 30
0.0
 11
74.372772055
 21
111.179210992
 31
0.0
  0
ARC
  8
0
  6
CONTINUOUS
 62
     5
 10
73.451442841
 20
110.025
 30
0.0
 40
0.25
 50
240.0
 51
60.0
  0
LINE
  8
0
  6
CONTINUOUS
 62
     5
 10
73.338508327
 20
109.801527638
 30
0.0
 11
73.120789008
 21
109.927227945
 31
0.0
  0
LINE
  8
0
  6
CONTINUOUS
 62
     5
 10
73.588508327
 20
110.23454034
 30
0.0
 11
73.370789008
 21
110.360240647
 31
0.0
  0
ARC
  8
0
  6
CONTINUOUS
 62
     5
 10
73.15
 20
108.9
 30
0.0
 40
0.25
 50
270.0
 51
90.0
  0
LINE
  8
0
  6
CONTINUOUS
 62
     5
 10
73.163932023
 20
108.65
 30
0.0
 11
72.912531407
 21
108.65
 31
0.0
  0
LINE
  8
0
  6
CONTINUOUS
 62
     5
 10
73.163932023
 20
109.15
 30
0.0
 11
72.912531407
 21
109.15
 31
0.0
  0
ARC
  8
0
  6
CONTINUOUS
 62
     5
 10
73.451442841
 20
107.775
 30
0.0
 40
0.25
 50
300.0
 51
120.0
  0
LINE
  8
0
  6
CONTINUOUS
 62
     5
 10
73.588508327
 20
107.56545966
 30
0.0
 11
73.370789008
 21
107.439759353
 31
0.0
  0
LINE
  8
0
  6
CONTINUOUS
 62
     5
 10
73.338508327
 20
107.998472362
 30
0.0
 11
73.120789008
 21
107.872772055
 31
0.0
  0
ARC
  8
0
  6
CONTINUOUS
 62
     5
 10
75.4
 20
108.9
 30
0.0
 40
2.25
 50
6.34018908
 51
23.630522927
  0
ARC
  8
0
  6
CONTINUOUS
 62
     5
 10
75.4
 20
108.9
 30
0.0
 40
2.25
 50
36.340188481
 51
53.630522927
  0
ARC
  8
0
  6
CONTINUOUS
 62
     5
 10
75.4
 20
108.9
 30
0.0
 40
2.25
 50
66.369477073
 51
83.620629791
  0
ARC
  8
0
  6
CONTINUOUS
 62
     5
 10
75.4
 20
108.9
 30
0.0
 40
2.25
 50
96.379370209
 51
113.65981625
  0
ARC
  8
0
  6
CONTINUOUS
 62
     5
 10
75.4
 20
108.9
 30
0.0
 40
2.25
 50
126.340187129
 51
143.630522927
  0
ARC
  8
0
  6
CONTINUOUS
 62
     5
 10
75.4
 20
108.9
 30
0.0
 40
2.25
 50
156.34019501
 51
173.659805589
  0
ARC
  8
0
  6
CONTINUOUS
 62
     5
 10
75.4
 20
108.9
 30
0.0
 40
2.25
 50
186.340194411
 51
203.65980499
  0
ARC
  8
0
  6
CONTINUOUS
 62
     5
 10
75.4
 20
108.9
 30
0.0
 40
2.25
 50
216.34019501
 51
233.659803637
  0
ARC
  8
0
  6
CONTINUOUS
 62
     5
 10
75.4
 20
108.9
 30
0.0
 40
2.25
 50
246.340196363
 51
263.659808254
  0
ARC
  8
0
  6
CONTINUOUS
 62
     5
 10
75.4
 20
108.9
 30
0.0
 40
2.25
 50
276.340191746
 51
293.659803637
  0
ARC
  8
0
  6
CONTINUOUS
 62
     5
 10
75.4
 20
108.9
 30
0.0
 40
2.25
 50
306.340196363
 51
323.659812871
  0
ARC
  8
0
  6
CONTINUOUS
 62
     5
 10
75.4
 20
108.9
 30
0.0
 40
2.25
 50
336.340188481
 51
353.65981092
  0
LINE
  8
0
  6
CONTINUOUS
 62
     5
 10
44.175777922
 20
79.95
 30
0.0
 11
22.125
 21
79.95
 31
0.0
  0
LINE
  8
0
  6
CONTINUOUS
 62
     6
 10
178.55
 20
120.675378759
 30
0.0
 11
193.05
 21
120.675378759
 31
0.0
  0
LINE
  8
0
  6
CONTINUOUS
 62
     6
 10
178.55
 20
123.175378759
 30
0.0
 11
178.55
 21
120.675378759
 31
0.0
  0
LINE
  8
0
  6
CONTINUOUS
 62
     6
 10
193.05
 20
120.675378759
 30
0.0
 11
193.05
 21
123.175378759
 31
0.0
  0
LINE
  8
0
  6
CONTINUOUS
 62
     6
 10
193.05
 20
123.175378759
 30
0.0
 11
178.55
 21
123.175378759
 31
0.0
  0
TEXT
  8
0
  6
CONTINUOUS
 62
     1
 10
234.036
 20
33.772
 30
0.48
 40
4.8
  1
□ＶＦ－１１ＥＺ
 50
0.0
 41
0.9
 51
0.0
  7
KANJI15
  0
TEXT
  8
0
  6
CONTINUOUS
 62
     2
 10
233.8
 20
27.15
 30
0.5
 40
3.0
  1
ＥＬ板照度可変ボリューム付
 50
0.0
 41
0.9
 51
0.0
  7
KANJI16
  0
TEXT
  8
0
  6
CONTINUOUS
 62
     2
 10
234.3852
 20
22.683524248
 30
0.384
 40
3.84
  1
広角度計器　外形図
 50
0.0
 41
0.9
 51
0.0
  7
KANJI17
  0
LINE
  8
0
  6
LTYPE3
 62
     5
 10
20.6
 20
126.0
 30
0.0
 11
81.5
 21
126.0
 31
0.0
  0
LINE
  8
0
  6
LTYPE3
 62
     5
 10
52.4
 20
157.5
 30
0.0
 11
52.4
 21
94.0
 31
0.0
  0
LINE
  8
0
  6
LTYPE3
 62
     5
 10
156.6
 20
126.0
 30
0.0
 11
169.069080919
 21
126.0
 31
0.0
  0
LINE
  8
0
  6
LTYPE3
 62
     5
 10
119.2
 20
126.0
 30
0.0
 11
154.5
 21
126.0
 31
0.0
  0
LINE
  8
0
  6
LTYPE3
 62
     5
 10
185.8
 20
94.0
 30
0.0
 11
185.8
 21
157.0
 31
0.0
  0
LINE
  8
0
  6
LTYPE3
 62
     5
 10
185.8
 20
27.1
 30
0.0
 11
185.8
 21
87.2
 31
0.0
  0
ENDSEC
  0
EOF
