  0
SECTION
  2
HEADER
  9
$ACADVER
  1
AC1009
  9
$INSBASE
 10
0
 20
0
 30
0
  9
$EXTMIN
 10
0
 20
0
  9
$EXTMAX
 10
420
 20
297
  9
$LIMMIN
 10
0
 20
0
  9
$LIMMAX
 10
420
 20
297
  9
$LTSCALE
 40
1
  0
ENDSEC
  0
SECTION
  2
TABLES
  0
TABLE
  2
LTYPE
 70
     9
  0
LTYPE
  2
CONTINUOUS
 70
    64
  3
実線
 72
    65
 73
     0
 40
0.0
  0
LTYPE
  2
DASHED1
 70
    64
  3
--  --  --  --  --  --  --  --  
 72
    65
 73
     2
 40
2.5
 49
1.25
 49
-1.25
  0
LTYPE
  2
DASHED2
 70
    64
  3
----    ----    ----    ----    
 72
    65
 73
     2
 40
5.0
 49
2.5
 49
-2.5
  0
LTYPE
  2
DASHED3
 70
    64
  3
------  ------  ------  ------  
 72
    65
 73
     2
 40
5.0
 49
3.75
 49
-1.25
  0
LTYPE
  2
CENTER1
 70
    64
  3
----- - ----- - ----- - ----- - 
 72
    65
 73
     4
 40
10.0
 49
6.25
 49
-1.25
 49
1.25
 49
-1.25
  0
LTYPE
  2
CENTER2
 70
    64
  3
----------  --  ----------  --  
 72
    65
 73
     4
 40
20.0
 49
12.5
 49
-2.5
 49
2.5
 49
-2.5
  0
LTYPE
  2
PHANTOM1
 70
    64
  3
--- - - --- - - --- - - --- - - 
 72
    65
 73
     6
 40
10.0
 49
3.25
 49
-1.25
 49
1.25
 49
-1.25
 49
1.25
 49
-1.25
  0
LTYPE
  2
PHANTOM2
 70
    64
  3
--------  -  -  --------  -  -  
 72
    65
 73
     6
 40
20.0
 49
10.0
 49
-2.5
 49
1.25
 49
-2.5
 49
1.25
 49
-2.5
  0
LTYPE
  2
DOT
 70
    64
  3
-   -   -   -   -   -   -   -   
 72
    65
 73
     2
 40
2.5
 49
0.625
 49
-1.875
  0
LTYPE
  2
DUMMY
 70
    64
  3
ダミー
 72
    65
 73
     0
 40
0.0
  0
LTYPE
  2
RAND1
 70
    64
  3
ランダム線1
 72
    65
 73
     4
 40
10.0
 49
1.0
 49
-2.0
 49
3.0
 49
-4.0
  0
LTYPE
  2
RAND2
 70
    64
  3
ランダム線2
 72
    65
 73
     4
 40
14.0
 49
2.0
 49
-3.0
 49
4.0
 49
-5.0
  0
LTYPE
  2
RAND3
 70
    64
  3
ランダム線3
 72
    65
 73
     4
 40
18.0
 49
3.0
 49
-4.0
 49
5.0
 49
-6.0
  0
LTYPE
  2
RAND4
 70
    64
  3
ランダム線4
 72
    65
 73
     4
 40
22.0
 49
4.0
 49
-5.0
 49
6.0
 49
-7.0
  0
LTYPE
  2
RAND5
 70
    64
  3
ランダム線5
 72
    65
 73
     4
 40
26.0
 49
5.0
 49
-6.0
 49
7.0
 49
-8.0
  0
LTYPE
  2
LONG1
 70
    64
  3
----------  --  ----------  --  
 72
    65
 73
     4
 40
40.0
 49
32.5
 49
-2.5
 49
2.5
 49
-2.5
  0
LTYPE
  2
LONG2
 70
    64
  3
--------  -  -  --------  -  -  
 72
    65
 73
     6
 40
40.0
 49
30.0
 49
-2.5
 49
1.25
 49
-2.5
 49
1.25
 49
-2.5
  0
LTYPE
  2
LONG3
 70
    64
  3
+++++++++++++++..+++++++++++++++
 72
    65
 73
     2
 40
40.0
 49
37.5
 49
-2.5
  0
LTYPE
  2
LONG4
 70
    64
  3
+++++++++++++++..+++++++++++++++
 72
    65
 73
     2
 40
80.0
 49
75.0
 49
-5.0
  0
LTYPE
  2
LONG5
 70
    64
  3
----------  --  ----------  --  
 72
    65
 73
     4
 40
60.0
 49
37.5
 49
-7.5
 49
7.5
 49
-7.5
  0
LTYPE
  2
dashed
 70
   64
  3
-------   -------------   ------
 72
   65
 73
    2
 40
7.5
 49
6
 49
-1.5
  0
LTYPE
  2
dashed_spaced
 70
   64
  3
----        --------        ----
 72
   65
 73
    2
 40
12
 49
6
 49
-6
  0
LTYPE
  2
long_dashed_dotted
 70
   64
  3
------------- --- --------------
 72
   65
 73
    4
 40
15.25
 49
12
 49
-1.5
 49
0.25
 49
-1.5
  0
LTYPE
  2
long_dashed_double-dotted
 70
   64
  3
----------- --- --- ------------
 72
   65
 73
    6
 40
17
 49
12
 49
-1.5
 49
0.25
 49
-1.5
 49
0.25
 49
-1.5
  0
LTYPE
  2
long_dashed_triplicate-dotted
 70
   64
  3
--------- --- --- --- ----------
 72
   65
 73
    8
 40
18.75
 49
12
 49
-1.5
 49
0.25
 49
-1.5
 49
0.25
 49
-1.5
 49
0.25
 49
-1.5
  0
LTYPE
  2
dotted
 70
   64
  3
   -       -       -       -    
 72
   65
 73
    2
 40
1.75
 49
0.25
 49
-1.5
  0
LTYPE
  2
chain
 70
   64
  3
-------------- -- --------------
 72
   65
 73
    4
 40
18.5
 49
12
 49
-1.5
 49
3.5
 49
-1.5
  0
LTYPE
  2
chain_double_dash
 70
   64
  3
------------ -- -- -------------
 72
   65
 73
    6
 40
23.5
 49
12
 49
-1.5
 49
3.5
 49
-1.5
 49
3.5
 49
-1.5
  0
LTYPE
  2
dashed_dotted
 70
   64
  3
-----------     -     ----------
 72
   65
 73
    4
 40
9.25
 49
6
 49
-1.5
 49
0.25
 49
-1.5
  0
LTYPE
  2
double-dashed_dotted
 70
   64
  3
------   -----------   -   -----
 72
   65
 73
    6
 40
16.75
 49
6
 49
-1.5
 49
6
 49
-1.5
 49
0.25
 49
-1.5
  0
LTYPE
  2
dashed_double-dotted
 70
   64
  3
---------    -    -    ---------
 72
   65
 73
    6
 40
11
 49
6
 49
-1.5
 49
0.25
 49
-1.5
 49
0.25
 49
-1.5
  0
LTYPE
  2
double-dashed_double-dotted
 70
   64
  3
-----   ---------   -   -   ----
 72
   65
 73
    8
 40
18.5
 49
6
 49
-1.5
 49
6
 49
-1.5
 49
0.25
 49
-1.5
 49
0.25
 49
-1.5
  0
LTYPE
  2
dashed_triplicate-dotted
 70
   64
  3
-------    -    -    -    ------
 72
   65
 73
    8
 40
12.75
 49
6
 49
-1.5
 49
0.25
 49
-1.5
 49
0.25
 49
-1.5
 49
0.25
 49
-1.5
  0
LTYPE
  2
double-dashed_triplicate-dotted
 70
   64
  3
-----  ---------  -  -  -  -----
 72
   65
 73
   10
 40
20.25
 49
6
 49
-1.5
 49
6
 49
-1.5
 49
0.25
 49
-1.5
 49
0.25
 49
-1.5
 49
0.25
 49
-1.5
  0
LTYPE
  2
undefined
 70
   64
  3
--------------------------------
 72
   65
 73
    0
 40
0
  0
LTYPE
  2
LTYPE1
 70
   64
  3
------------   ---   -----------
 72
   65
 73
    4
 40
5
 49
3.5
 49
-0.5
 49
0.5
 49
-0.5
  0
LTYPE
  2
LTYPE2
 70
   64
  3
------------   ---   -----------
 72
   65
 73
    4
 40
15
 49
10.5
 49
-1.5
 49
1.5
 49
-1.5
  0
ENDTAB
  0
TABLE
  2
STYLE
  5
3
100
AcDbSymbolTable
 70
     1
  0
STYLE
  5
10
100
AcDbSymbolTableRecord
100
AcDbTextStyleTableRecord
  2
STANDARD
 70
     0
 40
0.0
 41
1.0
 50
0.0
 71
     0
 42
0.2
  3
txt
  4
bigfont.shx
  0
STYLE
  5
26
100
AcDbSymbolTableRecord
100
AcDbTextStyleTableRecord
  2
TATEGAKI
 70
    68
 40
0.0
 41
1.0
 50
0.0
 71
     0
 42
1.0
  3
txt
  4
bigfont.shx
  0
ENDTAB
  0
TABLE
  2
LAYER
 70
    2
  0
LAYER
  2
_0-0_0
 70
   64
 62
    7
  6
CONTINUOUS
  0
LAYER
  2
ADD_LINE
 70
   64
 62
    7
  6
CONTINUOUS
  0
ENDTAB
  0
ENDSEC
  0
SECTION
  2
BLOCKS
  0
ENDSEC
  0
SECTION
  2
ENTITIES
  0
ARC
  8
_0-0_0
  6
CONTINUOUS
 62
    1
 10
446.19999999999999
 20
364.30000000000001
 40
1.7
 50
90
 51
180
  0
LINE
  8
_0-0_0
  6
CONTINUOUS
 62
    1
 10
446.19999999999999
 20
366
 11
492.80000000000001
 21
366
  0
ARC
  8
_0-0_0
  6
CONTINUOUS
 62
    1
 10
492.80000000000001
 20
364.30000000000001
 40
1.7
 50
0
 51
90
  0
ARC
  8
_0-0_0
  6
CONTINUOUS
 62
    1
 10
446.19999999999999
 20
364.30000000000001
 40
0.9
 50
90
 51
180
  0
LINE
  8
_0-0_0
  6
CONTINUOUS
 62
    1
 10
446.19999999999999
 20
365.19999999999999
 11
492.80000000000001
 21
365.19999999999999
  0
ARC
  8
_0-0_0
  6
CONTINUOUS
 62
    1
 10
492.80000000000001
 20
364.30000000000001
 40
0.9
 50
0
 51
90
  0
TEXT
  8
_0-0_0
 62
    7
 10
447
 20
361.5
 40
2.5
 41
0.5999999999999999
 50
0
  1
ＣＯＮＮＥＣＴＩＯＮＳ　ＯＦ　ＴＡＣＨＯ－ＭＥＴＥＲ
  0
CIRCLE
  8
_0-0_0
  6
CONTINUOUS
 62
    1
 10
472.80000000000001
 20
355
 40
1.5
  0
CIRCLE
  8
_0-0_0
  6
CONTINUOUS
 62
    1
 10
469.39999999999998
 20
355
 40
1.5
  0
CIRCLE
  8
_0-0_0
  6
CONTINUOUS
 62
    1
 10
476.19999999999999
 20
355
 40
1.5
  0
CIRCLE
  8
_0-0_0
  6
CONTINUOUS
 62
    1
 10
479.60000000000002
 20
355
 40
1.5
  0
LINE
  8
_0-0_0
  6
CONTINUOUS
 62
    1
 10
454.5
 20
355
 11
454.5
 21
358.60000000000002
  0
LINE
  8
_0-0_0
  6
CONTINUOUS
 62
    1
 10
454.5
 20
358.60000000000002
 11
456
 21
358.60000000000002
  0
LINE
  8
_0-0_0
  6
CONTINUOUS
 62
    1
 10
456
 20
358.60000000000002
 11
456
 21
355
  0
LINE
  8
_0-0_0
  6
CONTINUOUS
 62
    1
 10
456
 20
355
 11
454.5
 21
355
  0
LINE
  8
_0-0_0
  6
CONTINUOUS
 62
    1
 10
454.5
 20
358
 11
451.5
 21
358
  0
LINE
  8
_0-0_0
  6
CONTINUOUS
 62
    1
 10
451.5
 20
358
 11
451.5
 21
355.60000000000002
  0
LINE
  8
_0-0_0
  6
CONTINUOUS
 62
    1
 10
451.5
 20
355.60000000000002
 11
454.5
 21
355.60000000000002
  0
LINE
  8
_0-0_0
  6
CONTINUOUS
 62
    1
 10
456
 20
355.60000000000002
 11
459
 21
355.60000000000002
  0
LINE
  8
_0-0_0
  6
CONTINUOUS
 62
    1
 10
459
 20
355.60000000000002
 11
459
 21
358
  0
LINE
  8
_0-0_0
  6
CONTINUOUS
 62
    1
 10
459
 20
358
 11
456
 21
358
  0
LINE
  8
_0-0_0
  6
CONTINUOUS
 62
    1
 10
459
 20
358
 11
459.30000000000001
 21
357.69999999999999
  0
LINE
  8
_0-0_0
  6
CONTINUOUS
 62
    1
 10
459.30000000000001
 20
357.69999999999999
 11
459.30000000000001
 21
355.89999999999998
  0
LINE
  8
_0-0_0
  6
CONTINUOUS
 62
    1
 10
459.30000000000001
 20
355.89999999999998
 11
459
 21
355.60000000000002
  0
LINE
  8
_0-0_0
  6
CONTINUOUS
 62
    1
 10
451.5
 20
355.60000000000002
 11
451.19999999999999
 21
355.89999999999998
  0
LINE
  8
_0-0_0
  6
CONTINUOUS
 62
    1
 10
451.19999999999999
 20
355.89999999999998
 11
451.19999999999999
 21
357.69999999999999
  0
LINE
  8
_0-0_0
  6
CONTINUOUS
 62
    1
 10
451.19999999999999
 20
357.69999999999999
 11
451.5
 21
358
  0
LINE
  8
_0-0_0
  6
CONTINUOUS
 62
    1
 10
459.30000000000001
 20
357.19999999999999
 11
472.80000000000001
 21
357.19999999999999
  0
LINE
  8
_0-0_0
  6
CONTINUOUS
 62
    1
 10
472.80000000000001
 20
357.19999999999999
 11
472.80000000000001
 21
356.5
  0
LINE
  8
_0-0_0
  6
CONTINUOUS
 62
    1
 10
469.39999999999998
 20
356.5
 11
469.39999999999998
 21
356.60000000000002
  0
LINE
  8
_0-0_0
  6
CONTINUOUS
 62
    1
 10
469.39999999999998
 20
356.60000000000002
 11
459.30000000000001
 21
356.60000000000002
  0
TEXT
  8
_0-0_0
 62
    7
 10
447
 20
353
 40
2
 41
0.5
 50
0
  1
ＴＹＰＥ　ＴＮ－１／ＴＮ－２　　　　　　　　　　　　
  0
TEXT
  8
_0-0_0
 62
    7
 10
469
 20
354.19999999999999
 40
2
 41
0.5
 50
0
  1
１　　　　　　　　　　　　　　　　　　　　　　　　　
  0
TEXT
  8
_0-0_0
 62
    7
 10
472.39999999999998
 20
354.19999999999999
 40
2
 41
0.5
 50
0
  1
２　　　　　　　　　　　　　　　　　　　　　　　　　
  0
TEXT
  8
_0-0_0
 62
    7
 10
475.69999999999999
 20
354.19999999999999
 40
2
 41
0.5
 50
0
  1
３　　　　　　　　　　　　　　　　　　　　　　　　　
  0
TEXT
  8
_0-0_0
 62
    7
 10
479.10000000000002
 20
354.19999999999999
 40
2
 41
0.5
 50
0
  1
４　　　　　　　　　　　　　　　　　　　　　　　　　
  0
TEXT
  8
_0-0_0
 62
    7
 10
470.60000000000002
 20
351.19999999999999
 40
2
 41
0.5
 50
0
  1
５　　　　　　　　　　　　　　　　　　　　　　　　　
  0
TEXT
  8
_0-0_0
 62
    7
 10
474
 20
351.19999999999999
 40
2
 41
0.5
 50
0
  1
６　　　　　　　　　　　　　　　　　　　　　　　　　
  0
TEXT
  8
_0-0_0
 62
    7
 10
477.39999999999998
 20
351.19999999999999
 40
2
 41
0.5
 50
0
  1
７　　　　　　　　　　　　　　　　　　　　　　　　　
  0
TEXT
  8
_0-0_0
 62
    7
 10
484
 20
351.80000000000001
 40
1.5
 41
0.6666666669999999
 50
0
  1
ＳＯＵＲＣＥ　　　
  0
ARC
  8
_0-0_0
  6
CONTINUOUS
 62
    1
 10
446.19999999999999
 20
364.30000000000001
 40
1.7
 50
90
 51
180
  0
LINE
  8
_0-0_0
  6
CONTINUOUS
 62
    1
 10
446.19999999999999
 20
366
 11
492.80000000000001
 21
366
  0
ARC
  8
_0-0_0
  6
CONTINUOUS
 62
    1
 10
492.80000000000001
 20
364.30000000000001
 40
1.7
 50
0
 51
90
  0
ARC
  8
_0-0_0
  6
CONTINUOUS
 62
    1
 10
446.19999999999999
 20
364.30000000000001
 40
0.9
 50
90
 51
180
  0
LINE
  8
_0-0_0
  6
CONTINUOUS
 62
    1
 10
446.19999999999999
 20
365.19999999999999
 11
492.80000000000001
 21
365.19999999999999
  0
ARC
  8
_0-0_0
  6
CONTINUOUS
 62
    1
 10
492.80000000000001
 20
364.30000000000001
 40
0.9
 50
0
 51
90
  0
TEXT
  8
_0-0_0
 62
    7
 10
447
 20
361.5
 40
2.5
 41
0.5999999999999999
 50
0
  1
ＣＯＮＮＥＣＴＩＯＮＳ　ＯＦ　ＴＡＣＨＯ－ＭＥＴＥＲ
  0
CIRCLE
  8
_0-0_0
  6
CONTINUOUS
 62
    1
 10
472.80000000000001
 20
355
 40
1.5
  0
CIRCLE
  8
_0-0_0
  6
CONTINUOUS
 62
    1
 10
469.39999999999998
 20
355
 40
1.5
  0
CIRCLE
  8
_0-0_0
  6
CONTINUOUS
 62
    1
 10
476.19999999999999
 20
355
 40
1.5
  0
CIRCLE
  8
_0-0_0
  6
CONTINUOUS
 62
    1
 10
479.60000000000002
 20
355
 40
1.5
  0
LINE
  8
_0-0_0
  6
CONTINUOUS
 62
    1
 10
454.5
 20
355
 11
454.5
 21
358.60000000000002
  0
LINE
  8
_0-0_0
  6
CONTINUOUS
 62
    1
 10
454.5
 20
358.60000000000002
 11
456
 21
358.60000000000002
  0
LINE
  8
_0-0_0
  6
CONTINUOUS
 62
    1
 10
456
 20
358.60000000000002
 11
456
 21
355
  0
LINE
  8
_0-0_0
  6
CONTINUOUS
 62
    1
 10
456
 20
355
 11
454.5
 21
355
  0
LINE
  8
_0-0_0
  6
CONTINUOUS
 62
    1
 10
454.5
 20
358
 11
451.5
 21
358
  0
LINE
  8
_0-0_0
  6
CONTINUOUS
 62
    1
 10
451.5
 20
358
 11
451.5
 21
355.60000000000002
  0
LINE
  8
_0-0_0
  6
CONTINUOUS
 62
    1
 10
451.5
 20
355.60000000000002
 11
454.5
 21
355.60000000000002
  0
LINE
  8
_0-0_0
  6
CONTINUOUS
 62
    1
 10
456
 20
355.60000000000002
 11
459
 21
355.60000000000002
  0
LINE
  8
_0-0_0
  6
CONTINUOUS
 62
    1
 10
459
 20
355.60000000000002
 11
459
 21
358
  0
LINE
  8
_0-0_0
  6
CONTINUOUS
 62
    1
 10
459
 20
358
 11
456
 21
358
  0
LINE
  8
_0-0_0
  6
CONTINUOUS
 62
    1
 10
459
 20
358
 11
459.30000000000001
 21
357.69999999999999
  0
LINE
  8
_0-0_0
  6
CONTINUOUS
 62
    1
 10
459.30000000000001
 20
357.69999999999999
 11
459.30000000000001
 21
355.89999999999998
  0
LINE
  8
_0-0_0
  6
CONTINUOUS
 62
    1
 10
459.30000000000001
 20
355.89999999999998
 11
459
 21
355.60000000000002
  0
LINE
  8
_0-0_0
  6
CONTINUOUS
 62
    1
 10
451.5
 20
355.60000000000002
 11
451.19999999999999
 21
355.89999999999998
  0
LINE
  8
_0-0_0
  6
CONTINUOUS
 62
    1
 10
451.19999999999999
 20
355.89999999999998
 11
451.19999999999999
 21
357.69999999999999
  0
LINE
  8
_0-0_0
  6
CONTINUOUS
 62
    1
 10
451.19999999999999
 20
357.69999999999999
 11
451.5
 21
358
  0
LINE
  8
_0-0_0
  6
CONTINUOUS
 62
    1
 10
459.30000000000001
 20
357.19999999999999
 11
472.80000000000001
 21
357.19999999999999
  0
LINE
  8
_0-0_0
  6
CONTINUOUS
 62
    1
 10
472.80000000000001
 20
357.19999999999999
 11
472.80000000000001
 21
356.5
  0
LINE
  8
_0-0_0
  6
CONTINUOUS
 62
    1
 10
469.39999999999998
 20
356.5
 11
469.39999999999998
 21
356.60000000000002
  0
LINE
  8
_0-0_0
  6
CONTINUOUS
 62
    1
 10
469.39999999999998
 20
356.60000000000002
 11
459.30000000000001
 21
356.60000000000002
  0
TEXT
  8
_0-0_0
 62
    7
 10
447
 20
353
 40
2
 41
0.5
 50
0
  1
ＴＹＰＥ　ＴＮ－１／ＴＮ－２　　　　　　　　　　　　
  0
TEXT
  8
_0-0_0
 62
    7
 10
469
 20
354.19999999999999
 40
2
 41
0.5
 50
0
  1
１　　　　　　　　　　　　　　　　　　　　　　　　　
  0
TEXT
  8
_0-0_0
 62
    7
 10
472.39999999999998
 20
354.19999999999999
 40
2
 41
0.5
 50
0
  1
２　　　　　　　　　　　　　　　　　　　　　　　　　
  0
TEXT
  8
_0-0_0
 62
    7
 10
475.69999999999999
 20
354.19999999999999
 40
2
 41
0.5
 50
0
  1
３　　　　　　　　　　　　　　　　　　　　　　　　　
  0
TEXT
  8
_0-0_0
 62
    7
 10
479.10000000000002
 20
354.19999999999999
 40
2
 41
0.5
 50
0
  1
４　　　　　　　　　　　　　　　　　　　　　　　　　
  0
TEXT
  8
_0-0_0
 62
    7
 10
470.60000000000002
 20
351.19999999999999
 40
2
 41
0.5
 50
0
  1
５　　　　　　　　　　　　　　　　　　　　　　　　　
  0
TEXT
  8
_0-0_0
 62
    7
 10
474
 20
351.19999999999999
 40
2
 41
0.5
 50
0
  1
６　　　　　　　　　　　　　　　　　　　　　　　　　
  0
TEXT
  8
_0-0_0
 62
    7
 10
477.39999999999998
 20
351.19999999999999
 40
2
 41
0.5
 50
0
  1
７　　　　　　　　　　　　　　　　　　　　　　　　　
  0
TEXT
  8
_0-0_0
 62
    7
 10
484
 20
351.80000000000001
 40
1.5
 41
0.6666666669999999
 50
0
  1
ＳＯＵＲＣＥ　　　
  0
ARC
  8
_0-0_0
  6
CONTINUOUS
 62
    1
 10
446.19999999999999
 20
364.30000000000001
 40
1.7
 50
90
 51
180
  0
LINE
  8
_0-0_0
  6
CONTINUOUS
 62
    1
 10
446.19999999999999
 20
366
 11
492.80000000000001
 21
366
  0
ARC
  8
_0-0_0
  6
CONTINUOUS
 62
    1
 10
492.80000000000001
 20
364.30000000000001
 40
1.7
 50
0
 51
90
  0
ARC
  8
_0-0_0
  6
CONTINUOUS
 62
    1
 10
446.19999999999999
 20
364.30000000000001
 40
0.9
 50
90
 51
180
  0
LINE
  8
_0-0_0
  6
CONTINUOUS
 62
    1
 10
446.19999999999999
 20
365.19999999999999
 11
492.80000000000001
 21
365.19999999999999
  0
ARC
  8
_0-0_0
  6
CONTINUOUS
 62
    1
 10
492.80000000000001
 20
364.30000000000001
 40
0.9
 50
0
 51
90
  0
TEXT
  8
_0-0_0
 62
    7
 10
447
 20
361.5
 40
2.5
 41
0.5999999999999999
 50
0
  1
ＣＯＮＮＥＣＴＩＯＮＳ　ＯＦ　ＴＡＣＨＯ－ＭＥＴＥＲ
  0
CIRCLE
  8
_0-0_0
  6
CONTINUOUS
 62
    1
 10
472.80000000000001
 20
355
 40
1.5
  0
CIRCLE
  8
_0-0_0
  6
CONTINUOUS
 62
    1
 10
469.39999999999998
 20
355
 40
1.5
  0
CIRCLE
  8
_0-0_0
  6
CONTINUOUS
 62
    1
 10
476.19999999999999
 20
355
 40
1.5
  0
CIRCLE
  8
_0-0_0
  6
CONTINUOUS
 62
    1
 10
479.60000000000002
 20
355
 40
1.5
  0
LINE
  8
_0-0_0
  6
CONTINUOUS
 62
    1
 10
454.5
 20
355
 11
454.5
 21
358.60000000000002
  0
LINE
  8
_0-0_0
  6
CONTINUOUS
 62
    1
 10
454.5
 20
358.60000000000002
 11
456
 21
358.60000000000002
  0
LINE
  8
_0-0_0
  6
CONTINUOUS
 62
    1
 10
456
 20
358.60000000000002
 11
456
 21
355
  0
LINE
  8
_0-0_0
  6
CONTINUOUS
 62
    1
 10
456
 20
355
 11
454.5
 21
355
  0
LINE
  8
_0-0_0
  6
CONTINUOUS
 62
    1
 10
454.5
 20
358
 11
451.5
 21
358
  0
LINE
  8
_0-0_0
  6
CONTINUOUS
 62
    1
 10
451.5
 20
358
 11
451.5
 21
355.60000000000002
  0
LINE
  8
_0-0_0
  6
CONTINUOUS
 62
    1
 10
451.5
 20
355.60000000000002
 11
454.5
 21
355.60000000000002
  0
LINE
  8
_0-0_0
  6
CONTINUOUS
 62
    1
 10
456
 20
355.60000000000002
 11
459
 21
355.60000000000002
  0
LINE
  8
_0-0_0
  6
CONTINUOUS
 62
    1
 10
459
 20
355.60000000000002
 11
459
 21
358
  0
LINE
  8
_0-0_0
  6
CONTINUOUS
 62
    1
 10
459
 20
358
 11
456
 21
358
  0
LINE
  8
_0-0_0
  6
CONTINUOUS
 62
    1
 10
459
 20
358
 11
459.30000000000001
 21
357.69999999999999
  0
LINE
  8
_0-0_0
  6
CONTINUOUS
 62
    1
 10
459.30000000000001
 20
357.69999999999999
 11
459.30000000000001
 21
355.89999999999998
  0
LINE
  8
_0-0_0
  6
CONTINUOUS
 62
    1
 10
459.30000000000001
 20
355.89999999999998
 11
459
 21
355.60000000000002
  0
LINE
  8
_0-0_0
  6
CONTINUOUS
 62
    1
 10
451.5
 20
355.60000000000002
 11
451.19999999999999
 21
355.89999999999998
  0
LINE
  8
_0-0_0
  6
CONTINUOUS
 62
    1
 10
451.19999999999999
 20
355.89999999999998
 11
451.19999999999999
 21
357.69999999999999
  0
LINE
  8
_0-0_0
  6
CONTINUOUS
 62
    1
 10
451.19999999999999
 20
357.69999999999999
 11
451.5
 21
358
  0
LINE
  8
_0-0_0
  6
CONTINUOUS
 62
    1
 10
459.30000000000001
 20
357.19999999999999
 11
472.80000000000001
 21
357.19999999999999
  0
LINE
  8
_0-0_0
  6
CONTINUOUS
 62
    1
 10
472.80000000000001
 20
357.19999999999999
 11
472.80000000000001
 21
356.5
  0
LINE
  8
_0-0_0
  6
CONTINUOUS
 62
    1
 10
469.39999999999998
 20
356.5
 11
469.39999999999998
 21
356.60000000000002
  0
LINE
  8
_0-0_0
  6
CONTINUOUS
 62
    1
 10
469.39999999999998
 20
356.60000000000002
 11
459.30000000000001
 21
356.60000000000002
  0
TEXT
  8
_0-0_0
 62
    7
 10
447
 20
353
 40
2
 41
0.5
 50
0
  1
ＴＹＰＥ　ＴＮ－１／ＴＮ－２　　　　　　　　　　　　
  0
TEXT
  8
_0-0_0
 62
    7
 10
469
 20
354.19999999999999
 40
2
 41
0.5
 50
0
  1
１　　　　　　　　　　　　　　　　　　　　　　　　　
  0
TEXT
  8
_0-0_0
 62
    7
 10
472.39999999999998
 20
354.19999999999999
 40
2
 41
0.5
 50
0
  1
２　　　　　　　　　　　　　　　　　　　　　　　　　
  0
TEXT
  8
_0-0_0
 62
    7
 10
475.69999999999999
 20
354.19999999999999
 40
2
 41
0.5
 50
0
  1
３　　　　　　　　　　　　　　　　　　　　　　　　　
  0
TEXT
  8
_0-0_0
 62
    7
 10
479.10000000000002
 20
354.19999999999999
 40
2
 41
0.5
 50
0
  1
４　　　　　　　　　　　　　　　　　　　　　　　　　
  0
TEXT
  8
_0-0_0
 62
    7
 10
470.60000000000002
 20
351.19999999999999
 40
2
 41
0.5
 50
0
  1
５　　　　　　　　　　　　　　　　　　　　　　　　　
  0
TEXT
  8
_0-0_0
 62
    7
 10
474
 20
351.19999999999999
 40
2
 41
0.5
 50
0
  1
６　　　　　　　　　　　　　　　　　　　　　　　　　
  0
TEXT
  8
_0-0_0
 62
    7
 10
477.39999999999998
 20
351.19999999999999
 40
2
 41
0.5
 50
0
  1
７　　　　　　　　　　　　　　　　　　　　　　　　　
  0
TEXT
  8
_0-0_0
 62
    7
 10
484
 20
351.80000000000001
 40
1.5
 41
0.6666666669999999
 50
0
  1
ＳＯＵＲＣＥ　　　
  0
ARC
  8
_0-0_0
  6
CONTINUOUS
 62
    1
 10
446.19999999999999
 20
364.30000000000001
 40
1.7
 50
90
 51
180
  0
LINE
  8
_0-0_0
  6
CONTINUOUS
 62
    1
 10
446.19999999999999
 20
366
 11
492.80000000000001
 21
366
  0
ARC
  8
_0-0_0
  6
CONTINUOUS
 62
    1
 10
492.80000000000001
 20
364.30000000000001
 40
1.7
 50
0
 51
90
  0
ARC
  8
_0-0_0
  6
CONTINUOUS
 62
    1
 10
446.19999999999999
 20
364.30000000000001
 40
0.9
 50
90
 51
180
  0
LINE
  8
_0-0_0
  6
CONTINUOUS
 62
    1
 10
446.19999999999999
 20
365.19999999999999
 11
492.80000000000001
 21
365.19999999999999
  0
ARC
  8
_0-0_0
  6
CONTINUOUS
 62
    1
 10
492.80000000000001
 20
364.30000000000001
 40
0.9
 50
0
 51
90
  0
TEXT
  8
_0-0_0
 62
    7
 10
447
 20
361.5
 40
2.5
 41
0.5999999999999999
 50
0
  1
ＣＯＮＮＥＣＴＩＯＮＳ　ＯＦ　ＴＡＣＨＯ－ＭＥＴＥＲ
  0
CIRCLE
  8
_0-0_0
  6
CONTINUOUS
 62
    1
 10
472.80000000000001
 20
355
 40
1.5
  0
CIRCLE
  8
_0-0_0
  6
CONTINUOUS
 62
    1
 10
469.39999999999998
 20
355
 40
1.5
  0
CIRCLE
  8
_0-0_0
  6
CONTINUOUS
 62
    1
 10
476.19999999999999
 20
355
 40
1.5
  0
CIRCLE
  8
_0-0_0
  6
CONTINUOUS
 62
    1
 10
479.60000000000002
 20
355
 40
1.5
  0
LINE
  8
_0-0_0
  6
CONTINUOUS
 62
    1
 10
454.5
 20
355
 11
454.5
 21
358.60000000000002
  0
LINE
  8
_0-0_0
  6
CONTINUOUS
 62
    1
 10
454.5
 20
358.60000000000002
 11
456
 21
358.60000000000002
  0
LINE
  8
_0-0_0
  6
CONTINUOUS
 62
    1
 10
456
 20
358.60000000000002
 11
456
 21
355
  0
LINE
  8
_0-0_0
  6
CONTINUOUS
 62
    1
 10
456
 20
355
 11
454.5
 21
355
  0
LINE
  8
_0-0_0
  6
CONTINUOUS
 62
    1
 10
454.5
 20
358
 11
451.5
 21
358
  0
LINE
  8
_0-0_0
  6
CONTINUOUS
 62
    1
 10
451.5
 20
358
 11
451.5
 21
355.60000000000002
  0
LINE
  8
_0-0_0
  6
CONTINUOUS
 62
    1
 10
451.5
 20
355.60000000000002
 11
454.5
 21
355.60000000000002
  0
LINE
  8
_0-0_0
  6
CONTINUOUS
 62
    1
 10
456
 20
355.60000000000002
 11
459
 21
355.60000000000002
  0
LINE
  8
_0-0_0
  6
CONTINUOUS
 62
    1
 10
459
 20
355.60000000000002
 11
459
 21
358
  0
LINE
  8
_0-0_0
  6
CONTINUOUS
 62
    1
 10
459
 20
358
 11
456
 21
358
  0
LINE
  8
_0-0_0
  6
CONTINUOUS
 62
    1
 10
459
 20
358
 11
459.30000000000001
 21
357.69999999999999
  0
LINE
  8
_0-0_0
  6
CONTINUOUS
 62
    1
 10
459.30000000000001
 20
357.69999999999999
 11
459.30000000000001
 21
355.89999999999998
  0
LINE
  8
_0-0_0
  6
CONTINUOUS
 62
    1
 10
459.30000000000001
 20
355.89999999999998
 11
459
 21
355.60000000000002
  0
LINE
  8
_0-0_0
  6
CONTINUOUS
 62
    1
 10
451.5
 20
355.60000000000002
 11
451.19999999999999
 21
355.89999999999998
  0
LINE
  8
_0-0_0
  6
CONTINUOUS
 62
    1
 10
451.19999999999999
 20
355.89999999999998
 11
451.19999999999999
 21
357.69999999999999
  0
LINE
  8
_0-0_0
  6
CONTINUOUS
 62
    1
 10
451.19999999999999
 20
357.69999999999999
 11
451.5
 21
358
  0
LINE
  8
_0-0_0
  6
CONTINUOUS
 62
    1
 10
459.30000000000001
 20
357.19999999999999
 11
472.80000000000001
 21
357.19999999999999
  0
LINE
  8
_0-0_0
  6
CONTINUOUS
 62
    1
 10
472.80000000000001
 20
357.19999999999999
 11
472.80000000000001
 21
356.5
  0
LINE
  8
_0-0_0
  6
CONTINUOUS
 62
    1
 10
469.39999999999998
 20
356.5
 11
469.39999999999998
 21
356.60000000000002
  0
LINE
  8
_0-0_0
  6
CONTINUOUS
 62
    1
 10
469.39999999999998
 20
356.60000000000002
 11
459.30000000000001
 21
356.60000000000002
  0
TEXT
  8
_0-0_0
 62
    7
 10
447
 20
353
 40
2
 41
0.5
 50
0
  1
ＴＹＰＥ　ＴＮ－１／ＴＮ－２　　　　　　　　　　　　
  0
TEXT
  8
_0-0_0
 62
    7
 10
469
 20
354.19999999999999
 40
2
 41
0.5
 50
0
  1
１　　　　　　　　　　　　　　　　　　　　　　　　　
  0
TEXT
  8
_0-0_0
 62
    7
 10
472.39999999999998
 20
354.19999999999999
 40
2
 41
0.5
 50
0
  1
２　　　　　　　　　　　　　　　　　　　　　　　　　
  0
TEXT
  8
_0-0_0
 62
    7
 10
475.69999999999999
 20
354.19999999999999
 40
2
 41
0.5
 50
0
  1
３　　　　　　　　　　　　　　　　　　　　　　　　　
  0
TEXT
  8
_0-0_0
 62
    7
 10
479.10000000000002
 20
354.19999999999999
 40
2
 41
0.5
 50
0
  1
４　　　　　　　　　　　　　　　　　　　　　　　　　
  0
TEXT
  8
_0-0_0
 62
    7
 10
470.60000000000002
 20
351.19999999999999
 40
2
 41
0.5
 50
0
  1
５　　　　　　　　　　　　　　　　　　　　　　　　　
  0
TEXT
  8
_0-0_0
 62
    7
 10
474
 20
351.19999999999999
 40
2
 41
0.5
 50
0
  1
６　　　　　　　　　　　　　　　　　　　　　　　　　
  0
TEXT
  8
_0-0_0
 62
    7
 10
477.39999999999998
 20
351.19999999999999
 40
2
 41
0.5
 50
0
  1
７　　　　　　　　　　　　　　　　　　　　　　　　　
  0
TEXT
  8
_0-0_0
 62
    7
 10
484
 20
351.80000000000001
 40
1.5
 41
0.6666666669999999
 50
0
  1
ＳＯＵＲＣＥ　　　
  0
ARC
  8
_0-0_0
  6
CONTINUOUS
 62
    1
 10
446.19999999999999
 20
364.30000000000001
 40
1.7
 50
90
 51
180
  0
LINE
  8
_0-0_0
  6
CONTINUOUS
 62
    1
 10
446.19999999999999
 20
366
 11
492.80000000000001
 21
366
  0
ARC
  8
_0-0_0
  6
CONTINUOUS
 62
    1
 10
492.80000000000001
 20
364.30000000000001
 40
1.7
 50
0
 51
90
  0
ARC
  8
_0-0_0
  6
CONTINUOUS
 62
    1
 10
446.19999999999999
 20
364.30000000000001
 40
0.9
 50
90
 51
180
  0
LINE
  8
_0-0_0
  6
CONTINUOUS
 62
    1
 10
446.19999999999999
 20
365.19999999999999
 11
492.80000000000001
 21
365.19999999999999
  0
ARC
  8
_0-0_0
  6
CONTINUOUS
 62
    1
 10
492.80000000000001
 20
364.30000000000001
 40
0.9
 50
0
 51
90
  0
TEXT
  8
_0-0_0
 62
    7
 10
447
 20
361.5
 40
2.5
 41
0.5999999999999999
 50
0
  1
ＣＯＮＮＥＣＴＩＯＮＳ　ＯＦ　ＴＡＣＨＯ－ＭＥＴＥＲ
  0
CIRCLE
  8
_0-0_0
  6
CONTINUOUS
 62
    1
 10
472.80000000000001
 20
355
 40
1.5
  0
CIRCLE
  8
_0-0_0
  6
CONTINUOUS
 62
    1
 10
469.39999999999998
 20
355
 40
1.5
  0
CIRCLE
  8
_0-0_0
  6
CONTINUOUS
 62
    1
 10
476.19999999999999
 20
355
 40
1.5
  0
CIRCLE
  8
_0-0_0
  6
CONTINUOUS
 62
    1
 10
479.60000000000002
 20
355
 40
1.5
  0
LINE
  8
_0-0_0
  6
CONTINUOUS
 62
    1
 10
454.5
 20
355
 11
454.5
 21
358.60000000000002
  0
LINE
  8
_0-0_0
  6
CONTINUOUS
 62
    1
 10
454.5
 20
358.60000000000002
 11
456
 21
358.60000000000002
  0
LINE
  8
_0-0_0
  6
CONTINUOUS
 62
    1
 10
456
 20
358.60000000000002
 11
456
 21
355
  0
LINE
  8
_0-0_0
  6
CONTINUOUS
 62
    1
 10
456
 20
355
 11
454.5
 21
355
  0
LINE
  8
_0-0_0
  6
CONTINUOUS
 62
    1
 10
454.5
 20
358
 11
451.5
 21
358
  0
LINE
  8
_0-0_0
  6
CONTINUOUS
 62
    1
 10
451.5
 20
358
 11
451.5
 21
355.60000000000002
  0
LINE
  8
_0-0_0
  6
CONTINUOUS
 62
    1
 10
451.5
 20
355.60000000000002
 11
454.5
 21
355.60000000000002
  0
LINE
  8
_0-0_0
  6
CONTINUOUS
 62
    1
 10
456
 20
355.60000000000002
 11
459
 21
355.60000000000002
  0
LINE
  8
_0-0_0
  6
CONTINUOUS
 62
    1
 10
459
 20
355.60000000000002
 11
459
 21
358
  0
LINE
  8
_0-0_0
  6
CONTINUOUS
 62
    1
 10
459
 20
358
 11
456
 21
358
  0
LINE
  8
_0-0_0
  6
CONTINUOUS
 62
    1
 10
459
 20
358
 11
459.30000000000001
 21
357.69999999999999
  0
LINE
  8
_0-0_0
  6
CONTINUOUS
 62
    1
 10
459.30000000000001
 20
357.69999999999999
 11
459.30000000000001
 21
355.89999999999998
  0
LINE
  8
_0-0_0
  6
CONTINUOUS
 62
    1
 10
459.30000000000001
 20
355.89999999999998
 11
459
 21
355.60000000000002
  0
LINE
  8
_0-0_0
  6
CONTINUOUS
 62
    1
 10
451.5
 20
355.60000000000002
 11
451.19999999999999
 21
355.89999999999998
  0
LINE
  8
_0-0_0
  6
CONTINUOUS
 62
    1
 10
451.19999999999999
 20
355.89999999999998
 11
451.19999999999999
 21
357.69999999999999
  0
LINE
  8
_0-0_0
  6
CONTINUOUS
 62
    1
 10
451.19999999999999
 20
357.69999999999999
 11
451.5
 21
358
  0
LINE
  8
_0-0_0
  6
CONTINUOUS
 62
    1
 10
459.30000000000001
 20
357.19999999999999
 11
472.80000000000001
 21
357.19999999999999
  0
LINE
  8
_0-0_0
  6
CONTINUOUS
 62
    1
 10
472.80000000000001
 20
357.19999999999999
 11
472.80000000000001
 21
356.5
  0
LINE
  8
_0-0_0
  6
CONTINUOUS
 62
    1
 10
469.39999999999998
 20
356.5
 11
469.39999999999998
 21
356.60000000000002
  0
LINE
  8
_0-0_0
  6
CONTINUOUS
 62
    1
 10
469.39999999999998
 20
356.60000000000002
 11
459.30000000000001
 21
356.60000000000002
  0
TEXT
  8
_0-0_0
 62
    7
 10
447
 20
353
 40
2
 41
0.5
 50
0
  1
ＴＹＰＥ　ＴＮ－１／ＴＮ－２　　　　　　　　　　　　
  0
TEXT
  8
_0-0_0
 62
    7
 10
469
 20
354.19999999999999
 40
2
 41
0.5
 50
0
  1
１　　　　　　　　　　　　　　　　　　　　　　　　　
  0
TEXT
  8
_0-0_0
 62
    7
 10
472.39999999999998
 20
354.19999999999999
 40
2
 41
0.5
 50
0
  1
２　　　　　　　　　　　　　　　　　　　　　　　　　
  0
TEXT
  8
_0-0_0
 62
    7
 10
475.69999999999999
 20
354.19999999999999
 40
2
 41
0.5
 50
0
  1
３　　　　　　　　　　　　　　　　　　　　　　　　　
  0
TEXT
  8
_0-0_0
 62
    7
 10
479.10000000000002
 20
354.19999999999999
 40
2
 41
0.5
 50
0
  1
４　　　　　　　　　　　　　　　　　　　　　　　　　
  0
TEXT
  8
_0-0_0
 62
    7
 10
470.60000000000002
 20
351.19999999999999
 40
2
 41
0.5
 50
0
  1
５　　　　　　　　　　　　　　　　　　　　　　　　　
  0
TEXT
  8
_0-0_0
 62
    7
 10
474
 20
351.19999999999999
 40
2
 41
0.5
 50
0
  1
６　　　　　　　　　　　　　　　　　　　　　　　　　
  0
TEXT
  8
_0-0_0
 62
    7
 10
477.39999999999998
 20
351.19999999999999
 40
2
 41
0.5
 50
0
  1
７　　　　　　　　　　　　　　　　　　　　　　　　　
  0
TEXT
  8
_0-0_0
 62
    7
 10
484
 20
351.80000000000001
 40
1.5
 41
0.6666666669999999
 50
0
  1
ＳＯＵＲＣＥ　　　
  0
ARC
  8
_0-0_0
  6
CONTINUOUS
 62
    1
 10
446.19999999999999
 20
364.30000000000001
 40
1.7
 50
90
 51
180
  0
LINE
  8
_0-0_0
  6
CONTINUOUS
 62
    1
 10
446.19999999999999
 20
366
 11
492.80000000000001
 21
366
  0
ARC
  8
_0-0_0
  6
CONTINUOUS
 62
    1
 10
492.80000000000001
 20
364.30000000000001
 40
1.7
 50
0
 51
90
  0
ARC
  8
_0-0_0
  6
CONTINUOUS
 62
    1
 10
446.19999999999999
 20
364.30000000000001
 40
0.9
 50
90
 51
180
  0
LINE
  8
_0-0_0
  6
CONTINUOUS
 62
    1
 10
446.19999999999999
 20
365.19999999999999
 11
492.80000000000001
 21
365.19999999999999
  0
ARC
  8
_0-0_0
  6
CONTINUOUS
 62
    1
 10
492.80000000000001
 20
364.30000000000001
 40
0.9
 50
0
 51
90
  0
TEXT
  8
_0-0_0
 62
    7
 10
447
 20
361.5
 40
2.5
 41
0.5999999999999999
 50
0
  1
ＣＯＮＮＥＣＴＩＯＮＳ　ＯＦ　ＴＡＣＨＯ－ＭＥＴＥＲ
  0
CIRCLE
  8
_0-0_0
  6
CONTINUOUS
 62
    1
 10
472.80000000000001
 20
355
 40
1.5
  0
CIRCLE
  8
_0-0_0
  6
CONTINUOUS
 62
    1
 10
469.39999999999998
 20
355
 40
1.5
  0
CIRCLE
  8
_0-0_0
  6
CONTINUOUS
 62
    1
 10
476.19999999999999
 20
355
 40
1.5
  0
CIRCLE
  8
_0-0_0
  6
CONTINUOUS
 62
    1
 10
479.60000000000002
 20
355
 40
1.5
  0
LINE
  8
_0-0_0
  6
CONTINUOUS
 62
    1
 10
454.5
 20
355
 11
454.5
 21
358.60000000000002
  0
LINE
  8
_0-0_0
  6
CONTINUOUS
 62
    1
 10
454.5
 20
358.60000000000002
 11
456
 21
358.60000000000002
  0
LINE
  8
_0-0_0
  6
CONTINUOUS
 62
    1
 10
456
 20
358.60000000000002
 11
456
 21
355
  0
LINE
  8
_0-0_0
  6
CONTINUOUS
 62
    1
 10
456
 20
355
 11
454.5
 21
355
  0
LINE
  8
_0-0_0
  6
CONTINUOUS
 62
    1
 10
454.5
 20
358
 11
451.5
 21
358
  0
LINE
  8
_0-0_0
  6
CONTINUOUS
 62
    1
 10
451.5
 20
358
 11
451.5
 21
355.60000000000002
  0
LINE
  8
_0-0_0
  6
CONTINUOUS
 62
    1
 10
451.5
 20
355.60000000000002
 11
454.5
 21
355.60000000000002
  0
LINE
  8
_0-0_0
  6
CONTINUOUS
 62
    1
 10
456
 20
355.60000000000002
 11
459
 21
355.60000000000002
  0
LINE
  8
_0-0_0
  6
CONTINUOUS
 62
    1
 10
459
 20
355.60000000000002
 11
459
 21
358
  0
LINE
  8
_0-0_0
  6
CONTINUOUS
 62
    1
 10
459
 20
358
 11
456
 21
358
  0
LINE
  8
_0-0_0
  6
CONTINUOUS
 62
    1
 10
459
 20
358
 11
459.30000000000001
 21
357.69999999999999
  0
LINE
  8
_0-0_0
  6
CONTINUOUS
 62
    1
 10
459.30000000000001
 20
357.69999999999999
 11
459.30000000000001
 21
355.89999999999998
  0
LINE
  8
_0-0_0
  6
CONTINUOUS
 62
    1
 10
459.30000000000001
 20
355.89999999999998
 11
459
 21
355.60000000000002
  0
LINE
  8
_0-0_0
  6
CONTINUOUS
 62
    1
 10
451.5
 20
355.60000000000002
 11
451.19999999999999
 21
355.89999999999998
  0
LINE
  8
_0-0_0
  6
CONTINUOUS
 62
    1
 10
451.19999999999999
 20
355.89999999999998
 11
451.19999999999999
 21
357.69999999999999
  0
LINE
  8
_0-0_0
  6
CONTINUOUS
 62
    1
 10
451.19999999999999
 20
357.69999999999999
 11
451.5
 21
358
  0
LINE
  8
_0-0_0
  6
CONTINUOUS
 62
    1
 10
459.30000000000001
 20
357.19999999999999
 11
472.80000000000001
 21
357.19999999999999
  0
LINE
  8
_0-0_0
  6
CONTINUOUS
 62
    1
 10
472.80000000000001
 20
357.19999999999999
 11
472.80000000000001
 21
356.5
  0
LINE
  8
_0-0_0
  6
CONTINUOUS
 62
    1
 10
469.39999999999998
 20
356.5
 11
469.39999999999998
 21
356.60000000000002
  0
LINE
  8
_0-0_0
  6
CONTINUOUS
 62
    1
 10
469.39999999999998
 20
356.60000000000002
 11
459.30000000000001
 21
356.60000000000002
  0
TEXT
  8
_0-0_0
 62
    7
 10
447
 20
353
 40
2
 41
0.5
 50
0
  1
ＴＹＰＥ　ＴＮ－１／ＴＮ－２　　　　　　　　　　　　
  0
TEXT
  8
_0-0_0
 62
    7
 10
469
 20
354.19999999999999
 40
2
 41
0.5
 50
0
  1
１　　　　　　　　　　　　　　　　　　　　　　　　　
  0
TEXT
  8
_0-0_0
 62
    7
 10
472.39999999999998
 20
354.19999999999999
 40
2
 41
0.5
 50
0
  1
２　　　　　　　　　　　　　　　　　　　　　　　　　
  0
TEXT
  8
_0-0_0
 62
    7
 10
475.69999999999999
 20
354.19999999999999
 40
2
 41
0.5
 50
0
  1
３　　　　　　　　　　　　　　　　　　　　　　　　　
  0
TEXT
  8
_0-0_0
 62
    7
 10
479.10000000000002
 20
354.19999999999999
 40
2
 41
0.5
 50
0
  1
４　　　　　　　　　　　　　　　　　　　　　　　　　
  0
TEXT
  8
_0-0_0
 62
    7
 10
470.60000000000002
 20
351.19999999999999
 40
2
 41
0.5
 50
0
  1
５　　　　　　　　　　　　　　　　　　　　　　　　　
  0
TEXT
  8
_0-0_0
 62
    7
 10
474
 20
351.19999999999999
 40
2
 41
0.5
 50
0
  1
６　　　　　　　　　　　　　　　　　　　　　　　　　
  0
TEXT
  8
_0-0_0
 62
    7
 10
477.39999999999998
 20
351.19999999999999
 40
2
 41
0.5
 50
0
  1
７　　　　　　　　　　　　　　　　　　　　　　　　　
  0
TEXT
  8
_0-0_0
 62
    7
 10
484
 20
351.80000000000001
 40
1.5
 41
0.6666666669999999
 50
0
  1
ＳＯＵＲＣＥ　　　
  0
TEXT
  8
_0-0_0
 62
    7
 10
296.5
 20
55.5
 40
6
 41
0.9
 50
0
  1
ＭＳ－１２７５０
  0
ARC
  8
_0-0_0
  6
CONTINUOUS
 62
    1
 10
139.69999999999999
 20
147.30000000000001
 40
3
 50
270
 51
0
  0
LINE
  8
_0-0_0
  6
CONTINUOUS
 62
    1
 10
142.69999999999999
 20
147.30000000000001
 11
142.69999999999999
 21
196.30000000000001
  0
ARC
  8
_0-0_0
  6
CONTINUOUS
 62
    1
 10
139.69999999999999
 20
196.30000000000001
 40
3
 50
0
 51
90
  0
LINE
  8
_0-0_0
  6
CONTINUOUS
 62
    1
 10
139.69999999999999
 20
199.30000000000001
 11
90.700000000000003
 21
199.30000000000001
  0
ARC
  8
_0-0_0
  6
CONTINUOUS
 62
    1
 10
90.700000000000003
 20
196.30000000000001
 40
3
 50
90
 51
180
  0
LINE
  8
_0-0_0
  6
CONTINUOUS
 62
    1
 10
90.700000000000003
 20
144.30000000000001
 11
139.69999999999999
 21
144.30000000000001
  0
LINE
  8
_0-0_0
  6
CONTINUOUS
 62
    1
 10
87.700000000000003
 20
196.30000000000001
 11
87.700000000000003
 21
147.30000000000001
  0
ARC
  8
_0-0_0
  6
CONTINUOUS
 62
    1
 10
90.700000000000003
 20
147.30000000000001
 40
3
 50
180
 51
270
  0
CIRCLE
  8
_0-0_0
  6
CONTINUOUS
 62
    1
 10
115.2
 20
171.80000000000001
 40
25.5
  0
CIRCLE
  8
_0-0_0
  6
CONTINUOUS
 62
    1
 10
115.2
 20
171.80000000000001
 40
3.0499999999999998
  0
LINE
  8
_0-0_0
  6
CONTINUOUS
 62
    1
 10
164.80000000000001
 20
199.27500000000001
 11
159.55000000000001
 21
199.27500000000001
  0
ARC
  8
_0-0_0
  6
CONTINUOUS
 62
    1
 10
159.55000000000001
 20
198.77500000000001
 40
0.5
 50
90
 51
180
  0
LINE
  8
_0-0_0
  6
CONTINUOUS
 62
    1
 10
159.05000000000001
 20
197.27500000000001
 11
155.55000000000001
 21
197.27500000000001
  0
ARC
  8
_0-0_0
  6
CONTINUOUS
 62
    1
 10
155.55000000000001
 20
197.02500000000001
 40
0.25
 50
90
 51
180
  0
LINE
  8
_0-0_0
  6
CONTINUOUS
 62
    1
 10
154.30000000000001
 20
169.52500000000001
 11
154.5
 21
169.52500000000001
  0
LINE
  8
_0-0_0
  6
CONTINUOUS
 62
    1
 10
164.80000000000001
 20
144.27500000000001
 11
159.55000000000001
 21
144.27500000000001
  0
ARC
  8
_0-0_0
  6
CONTINUOUS
 62
    1
 10
159.55000000000001
 20
144.77500000000001
 40
0.5
 50
180
 51
270
  0
LINE
  8
_0-0_0
  6
CONTINUOUS
 62
    1
 10
159.05000000000001
 20
146.27500000000001
 11
155.55000000000001
 21
146.27500000000001
  0
ARC
  8
_0-0_0
  6
CONTINUOUS
 62
    1
 10
155.55000000000001
 20
146.52500000000001
 40
0.25
 50
180
 51
270
  0
LINE
  8
_0-0_0
  6
CONTINUOUS
 62
    1
 10
154.5
 20
169.52500000000001
 11
155.30000000000001
 21
146.52500000000001
  0
LINE
  8
_0-0_0
  6
CONTINUOUS
 62
    1
 10
159.05000000000001
 20
144.77500000000001
 11
159.05000000000001
 21
171.77500000000001
  0
LINE
  8
_0-0_0
  6
CONTINUOUS
 62
    1
 10
154.47707792200001
 20
173.36599025800001
 11
155.30000000000001
 21
197.02500000000001
  0
LINE
  8
_0-0_0
  6
CONTINUOUS
 62
    1
 10
159.05000000000001
 20
198.77500000000001
 11
159.05000000000001
 21
197.42500000000001
  0
LINE
  8
_0-0_0
  6
CONTINUOUS
 62
    1
 10
164.80000000000001
 20
199.27500000000001
 11
164.80000000000001
 21
198.625
  0
LINE
  8
_0-0_0
  6
CONTINUOUS
 62
    1
 10
159.05000000000001
 20
197.42500000000001
 11
159.05000000000001
 21
197.27500000000001
  0
LINE
  8
_0-0_0
  6
CONTINUOUS
 62
    1
 10
164.80000000000001
 20
198.625
 11
164.80000000000001
 21
172.02500000000001
  0
LINE
  8
_0-0_0
  6
CONTINUOUS
 62
    1
 10
164.80000000000001
 20
172.02500000000001
 11
164.80000000000001
 21
144.27500000000001
  0
LINE
  8
_0-0_0
  6
CONTINUOUS
 62
    1
 10
154.30000000000001
 20
173.36599025800001
 11
154.30000000000001
 21
169.52500000000001
  0
LINE
  8
_0-0_0
  6
CONTINUOUS
 62
    1
 10
159.05000000000001
 20
171.80000000000001
 11
159.05000000000001
 21
197.27500000000001
  0
LINE
  8
_0-0_0
  6
CONTINUOUS
 62
    1
 10
168.05000000000001
 20
147.05000000000001
 11
167.40000000000001
 21
147.05000000000001
  0
LINE
  8
_0-0_0
  6
CONTINUOUS
 62
    1
 10
168
 20
196.55000000000001
 11
167.15000000000001
 21
196.55000000000001
  0
LINE
  8
_0-0_0
  6
CONTINUOUS
 62
    1
 10
204.80000000000001
 20
196.55000000000001
 11
204.80000000000001
 21
147.05000000000001
  0
LINE
  8
_0-0_0
  6
CONTINUOUS
 62
    1
 10
206.80000000000001
 20
147.05000000000001
 11
170.59999999999999
 21
147.05000000000001
  0
ARC
  8
_0-0_0
  6
CONTINUOUS
 62
    1
 10
206.80000000000001
 20
147.55000000000001
 40
0.5
 50
270
 51
0
  0
LINE
  8
_0-0_0
  6
CONTINUOUS
 62
    1
 10
170.55000000000001
 20
196.55000000000001
 11
206.80000000000001
 21
196.55000000000001
  0
LINE
  8
_0-0_0
  6
CONTINUOUS
 62
    1
 10
207.30000000000001
 20
196.05000000000001
 11
207.30000000000001
 21
147.55000000000001
  0
ARC
  8
_0-0_0
  6
CONTINUOUS
 62
    1
 10
206.80000000000001
 20
196.05000000000001
 40
0.5
 50
0
 51
90
  0
LINE
  8
_0-0_0
  6
CONTINUOUS
 62
    1
 10
159.05000000000001
 20
189.77500000000001
 11
159.05000000000001
 21
198.77500190699999
  0
ARC
  8
_0-0_0
  6
CONTINUOUS
 62
    1
 10
273.10000000000002
 20
147.30000000000001
 40
3
 50
270
 51
0
  0
LINE
  8
_0-0_0
  6
CONTINUOUS
 62
    1
 10
224.09999999999999
 20
144.30000000000001
 11
273.10000000000002
 21
144.30000000000001
  0
ARC
  8
_0-0_0
  6
CONTINUOUS
 62
    1
 10
224.09999999999999
 20
147.30000000000001
 40
3
 50
180
 51
270
  0
LINE
  8
_0-0_0
  6
CONTINUOUS
 62
    1
 10
221.09999999999999
 20
196.30000000000001
 11
221.09999999999999
 21
147.30000000000001
  0
ARC
  8
_0-0_0
  6
CONTINUOUS
 62
    1
 10
224.09999999999999
 20
196.30000000000001
 40
3
 50
90
 51
180
  0
LINE
  8
_0-0_0
  6
CONTINUOUS
 62
    1
 10
276.10000000000002
 20
147.30000000000001
 11
276.10000000000002
 21
196.30000000000001
  0
LINE
  8
_0-0_0
  6
CONTINUOUS
 62
    1
 10
273.10000000000002
 20
199.30000000000001
 11
224.09999999999999
 21
199.30000000000001
  0
ARC
  8
_0-0_0
  6
CONTINUOUS
 62
    1
 10
273.10000000000002
 20
196.30000000000001
 40
3
 50
0
 51
90
  0
CIRCLE
  8
_0-0_0
  6
CONTINUOUS
 62
    1
 10
248.59999999999999
 20
171.80000000000001
 40
24.75
  0
CIRCLE
  8
_0-0_0
  6
CONTINUOUS
 62
    1
 10
248.59999999999999
 20
100.95
 40
25.5
  0
CIRCLE
  8
_0-0_0
  6
CONTINUOUS
 62
    1
 10
226.09999999999999
 20
123.45
 40
1.75
  0
CIRCLE
  8
_0-0_0
  6
CONTINUOUS
 62
    1
 10
226.09999999999999
 20
78.450000000000003
 40
1.75
  0
CIRCLE
  8
_0-0_0
  6
CONTINUOUS
 62
    1
 10
271.10000000000002
 20
78.450000000000003
 40
1.75
  0
CIRCLE
  8
_0-0_0
  6
CONTINUOUS
 62
    1
 10
271.10000000000002
 20
123.45
 40
1.75
  0
TEXT
  8
_0-0_0
 62
    7
 10
239.44999999999999
 20
66.700000000000003
 40
3
 41
0.9
 50
0
  1
パネルカット
  0
LINE
  8
_0-0_0
  6
CONTINUOUS
 62
    1
 10
238.19999999999999
 20
65.849999999999994
 11
259.10000000000002
 21
65.849999999999994
  0
TEXT
  8
_0-0_0
 62
    7
 10
239.69999999999999
 20
181.09999999999999
 40
3
 41
0.9
 50
0
  1
＋
  0
CIRCLE
  8
_0-0_0
  6
CONTINUOUS
 62
    2
 10
137.69999999999999
 20
194.30000000000001
 40
1.5
  0
LINE
  8
_0-0_0
  6
CONTINUOUS
 62
    2
 10
136.82499999999999
 20
194.5
 11
137.30000000000001
 21
194.5
  0
ARC
  8
_0-0_0
  6
CONTINUOUS
 62
    2
 10
137.30000000000001
 20
194.69999999999999
 40
0.2
 50
270
 51
0
  0
LINE
  8
_0-0_0
  6
CONTINUOUS
 62
    2
 10
137.5
 20
194.69999999999999
 11
137.5
 21
195.17500000000001
  0
LINE
  8
_0-0_0
  6
CONTINUOUS
 62
    2
 10
137.5
 20
195.17500000000001
 11
137.90000000000001
 21
195.17500000000001
  0
LINE
  8
_0-0_0
  6
CONTINUOUS
 62
    2
 10
137.90000000000001
 20
195.17500000000001
 11
137.90000000000001
 21
194.69999999999999
  0
ARC
  8
_0-0_0
  6
CONTINUOUS
 62
    2
 10
138.09999999999999
 20
194.69999999999999
 40
0.2
 50
180
 51
270
  0
LINE
  8
_0-0_0
  6
CONTINUOUS
 62
    2
 10
138.09999999999999
 20
194.5
 11
138.57499999999999
 21
194.5
  0
LINE
  8
_0-0_0
  6
CONTINUOUS
 62
    2
 10
138.57499999999999
 20
194.5
 11
138.57499999999999
 21
194.09999999999999
  0
LINE
  8
_0-0_0
  6
CONTINUOUS
 62
    2
 10
138.57499999999999
 20
194.09999999999999
 11
138.09999999999999
 21
194.09999999999999
  0
ARC
  8
_0-0_0
  6
CONTINUOUS
 62
    2
 10
138.09999999999999
 20
193.90000000000001
 40
0.2
 50
90
 51
180
  0
LINE
  8
_0-0_0
  6
CONTINUOUS
 62
    2
 10
137.90000000000001
 20
193.90000000000001
 11
137.90000000000001
 21
193.42500000000001
  0
LINE
  8
_0-0_0
  6
CONTINUOUS
 62
    2
 10
137.90000000000001
 20
193.42500000000001
 11
137.5
 21
193.42500000000001
  0
LINE
  8
_0-0_0
  6
CONTINUOUS
 62
    2
 10
137.5
 20
193.42500000000001
 11
137.5
 21
193.90000000000001
  0
ARC
  8
_0-0_0
  6
CONTINUOUS
 62
    2
 10
137.30000000000001
 20
193.90000000000001
 40
0.2
 50
0
 51
90
  0
LINE
  8
_0-0_0
  6
CONTINUOUS
 62
    2
 10
137.30000000000001
 20
194.09999999999999
 11
136.82499999999999
 21
194.09999999999999
  0
LINE
  8
_0-0_0
  6
CONTINUOUS
 62
    2
 10
136.82499999999999
 20
194.09999999999999
 11
136.82499999999999
 21
194.5
  0
LINE
  8
_0-0_0
  6
LTYPE1
 62
    2
 10
135.69999999999999
 20
194.30000000000001
 11
139.69999999999999
 21
194.30000000000001
  0
LINE
  8
_0-0_0
  6
LTYPE1
 62
    2
 10
137.69999999999999
 20
196.30000000000001
 11
137.69999999999999
 21
192.30000000000001
  0
CIRCLE
  8
_0-0_0
  6
CONTINUOUS
 62
    2
 10
92.700000000000003
 20
194.30000000000001
 40
1.5
  0
LINE
  8
_0-0_0
  6
CONTINUOUS
 62
    2
 10
91.825000000000003
 20
194.5
 11
92.299999999999997
 21
194.5
  0
ARC
  8
_0-0_0
  6
CONTINUOUS
 62
    2
 10
92.299999999999997
 20
194.69999999999999
 40
0.2
 50
270
 51
0
  0
LINE
  8
_0-0_0
  6
CONTINUOUS
 62
    2
 10
92.5
 20
194.69999999999999
 11
92.5
 21
195.17500000000001
  0
LINE
  8
_0-0_0
  6
CONTINUOUS
 62
    2
 10
92.5
 20
195.17500000000001
 11
92.900000000000006
 21
195.17500000000001
  0
LINE
  8
_0-0_0
  6
CONTINUOUS
 62
    2
 10
92.900000000000006
 20
195.17500000000001
 11
92.900000000000006
 21
194.69999999999999
  0
ARC
  8
_0-0_0
  6
CONTINUOUS
 62
    2
 10
93.099999999999994
 20
194.69999999999999
 40
0.2
 50
180
 51
270
  0
LINE
  8
_0-0_0
  6
CONTINUOUS
 62
    2
 10
93.099999999999994
 20
194.5
 11
93.575000000000003
 21
194.5
  0
LINE
  8
_0-0_0
  6
CONTINUOUS
 62
    2
 10
93.575000000000003
 20
194.5
 11
93.575000000000003
 21
194.09999999999999
  0
LINE
  8
_0-0_0
  6
CONTINUOUS
 62
    2
 10
93.575000000000003
 20
194.09999999999999
 11
93.099999999999994
 21
194.09999999999999
  0
ARC
  8
_0-0_0
  6
CONTINUOUS
 62
    2
 10
93.099999999999994
 20
193.90000000000001
 40
0.2
 50
90
 51
180
  0
LINE
  8
_0-0_0
  6
CONTINUOUS
 62
    2
 10
92.900000000000006
 20
193.90000000000001
 11
92.900000000000006
 21
193.42500000000001
  0
LINE
  8
_0-0_0
  6
CONTINUOUS
 62
    2
 10
92.900000000000006
 20
193.42500000000001
 11
92.5
 21
193.42500000000001
  0
LINE
  8
_0-0_0
  6
CONTINUOUS
 62
    2
 10
92.5
 20
193.42500000000001
 11
92.5
 21
193.90000000000001
  0
ARC
  8
_0-0_0
  6
CONTINUOUS
 62
    2
 10
92.299999999999997
 20
193.90000000000001
 40
0.2
 50
0
 51
90
  0
LINE
  8
_0-0_0
  6
CONTINUOUS
 62
    2
 10
92.299999999999997
 20
194.09999999999999
 11
91.825000000000003
 21
194.09999999999999
  0
LINE
  8
_0-0_0
  6
CONTINUOUS
 62
    2
 10
91.825000000000003
 20
194.09999999999999
 11
91.825000000000003
 21
194.5
  0
LINE
  8
_0-0_0
  6
LTYPE1
 62
    2
 10
90.700000000000003
 20
194.30000000000001
 11
94.700000000000003
 21
194.30000000000001
  0
LINE
  8
_0-0_0
  6
LTYPE1
 62
    2
 10
92.700000000000003
 20
196.30000000000001
 11
92.700000000000003
 21
192.30000000000001
  0
CIRCLE
  8
_0-0_0
  6
CONTINUOUS
 62
    2
 10
92.700000000000003
 20
149.30000000000001
 40
1.5
  0
LINE
  8
_0-0_0
  6
CONTINUOUS
 62
    2
 10
91.825000000000003
 20
149.5
 11
92.299999999999997
 21
149.5
  0
ARC
  8
_0-0_0
  6
CONTINUOUS
 62
    2
 10
92.299999999999997
 20
149.69999999999999
 40
0.2
 50
270
 51
0
  0
LINE
  8
_0-0_0
  6
CONTINUOUS
 62
    2
 10
92.5
 20
149.69999999999999
 11
92.5
 21
150.17500000000001
  0
LINE
  8
_0-0_0
  6
CONTINUOUS
 62
    2
 10
92.5
 20
150.17500000000001
 11
92.900000000000006
 21
150.17500000000001
  0
LINE
  8
_0-0_0
  6
CONTINUOUS
 62
    2
 10
92.900000000000006
 20
150.17500000000001
 11
92.900000000000006
 21
149.69999999999999
  0
ARC
  8
_0-0_0
  6
CONTINUOUS
 62
    2
 10
93.099999999999994
 20
149.69999999999999
 40
0.2
 50
180
 51
270
  0
LINE
  8
_0-0_0
  6
CONTINUOUS
 62
    2
 10
93.099999999999994
 20
149.5
 11
93.575000000000003
 21
149.5
  0
LINE
  8
_0-0_0
  6
CONTINUOUS
 62
    2
 10
93.575000000000003
 20
149.5
 11
93.575000000000003
 21
149.09999999999999
  0
LINE
  8
_0-0_0
  6
CONTINUOUS
 62
    2
 10
93.575000000000003
 20
149.09999999999999
 11
93.099999999999994
 21
149.09999999999999
  0
ARC
  8
_0-0_0
  6
CONTINUOUS
 62
    2
 10
93.099999999999994
 20
148.90000000000001
 40
0.2
 50
90
 51
180
  0
LINE
  8
_0-0_0
  6
CONTINUOUS
 62
    2
 10
92.900000000000006
 20
148.90000000000001
 11
92.900000000000006
 21
148.42500000000001
  0
LINE
  8
_0-0_0
  6
CONTINUOUS
 62
    2
 10
92.900000000000006
 20
148.42500000000001
 11
92.5
 21
148.42500000000001
  0
LINE
  8
_0-0_0
  6
CONTINUOUS
 62
    2
 10
92.5
 20
148.42500000000001
 11
92.5
 21
148.90000000000001
  0
ARC
  8
_0-0_0
  6
CONTINUOUS
 62
    2
 10
92.299999999999997
 20
148.90000000000001
 40
0.2
 50
0
 51
90
  0
LINE
  8
_0-0_0
  6
CONTINUOUS
 62
    2
 10
92.299999999999997
 20
149.09999999999999
 11
91.825000000000003
 21
149.09999999999999
  0
LINE
  8
_0-0_0
  6
CONTINUOUS
 62
    2
 10
91.825000000000003
 20
149.09999999999999
 11
91.825000000000003
 21
149.5
  0
LINE
  8
_0-0_0
  6
LTYPE1
 62
    2
 10
90.700000000000003
 20
149.30000000000001
 11
94.700000000000003
 21
149.30000000000001
  0
LINE
  8
_0-0_0
  6
LTYPE1
 62
    2
 10
92.700000000000003
 20
151.30000000000001
 11
92.700000000000003
 21
147.30000000000001
  0
CIRCLE
  8
_0-0_0
  6
CONTINUOUS
 62
    2
 10
137.69999999999999
 20
149.30000000000001
 40
1.5
  0
LINE
  8
_0-0_0
  6
CONTINUOUS
 62
    2
 10
136.82499999999999
 20
149.5
 11
137.30000000000001
 21
149.5
  0
ARC
  8
_0-0_0
  6
CONTINUOUS
 62
    2
 10
137.30000000000001
 20
149.69999999999999
 40
0.2
 50
270
 51
0
  0
LINE
  8
_0-0_0
  6
CONTINUOUS
 62
    2
 10
137.5
 20
149.69999999999999
 11
137.5
 21
150.17500000000001
  0
LINE
  8
_0-0_0
  6
CONTINUOUS
 62
    2
 10
137.5
 20
150.17500000000001
 11
137.90000000000001
 21
150.17500000000001
  0
LINE
  8
_0-0_0
  6
CONTINUOUS
 62
    2
 10
137.90000000000001
 20
150.17500000000001
 11
137.90000000000001
 21
149.69999999999999
  0
ARC
  8
_0-0_0
  6
CONTINUOUS
 62
    2
 10
138.09999999999999
 20
149.69999999999999
 40
0.2
 50
180
 51
270
  0
LINE
  8
_0-0_0
  6
CONTINUOUS
 62
    2
 10
138.09999999999999
 20
149.5
 11
138.57499999999999
 21
149.5
  0
LINE
  8
_0-0_0
  6
CONTINUOUS
 62
    2
 10
138.57499999999999
 20
149.5
 11
138.57499999999999
 21
149.09999999999999
  0
LINE
  8
_0-0_0
  6
CONTINUOUS
 62
    2
 10
138.57499999999999
 20
149.09999999999999
 11
138.09999999999999
 21
149.09999999999999
  0
ARC
  8
_0-0_0
  6
CONTINUOUS
 62
    2
 10
138.09999999999999
 20
148.90000000000001
 40
0.2
 50
90
 51
180
  0
LINE
  8
_0-0_0
  6
CONTINUOUS
 62
    2
 10
137.90000000000001
 20
148.90000000000001
 11
137.90000000000001
 21
148.42500000000001
  0
LINE
  8
_0-0_0
  6
CONTINUOUS
 62
    2
 10
137.90000000000001
 20
148.42500000000001
 11
137.5
 21
148.42500000000001
  0
LINE
  8
_0-0_0
  6
CONTINUOUS
 62
    2
 10
137.5
 20
148.42500000000001
 11
137.5
 21
148.90000000000001
  0
ARC
  8
_0-0_0
  6
CONTINUOUS
 62
    2
 10
137.30000000000001
 20
148.90000000000001
 40
0.2
 50
0
 51
90
  0
LINE
  8
_0-0_0
  6
CONTINUOUS
 62
    2
 10
137.30000000000001
 20
149.09999999999999
 11
136.82499999999999
 21
149.09999999999999
  0
LINE
  8
_0-0_0
  6
CONTINUOUS
 62
    2
 10
136.82499999999999
 20
149.09999999999999
 11
136.82499999999999
 21
149.5
  0
LINE
  8
_0-0_0
  6
LTYPE1
 62
    2
 10
135.69999999999999
 20
149.30000000000001
 11
139.69999999999999
 21
149.30000000000001
  0
LINE
  8
_0-0_0
  6
LTYPE1
 62
    2
 10
137.69999999999999
 20
151.30000000000001
 11
137.69999999999999
 21
147.30000000000001
  0
LINE
  8
_0-0_0
  6
CONTINUOUS
 62
    2
 10
115.65000000000001
 20
168.78337937399999
 11
115.65000000000001
 21
174.816620626
  0
LINE
  8
_0-0_0
  6
CONTINUOUS
 62
    2
 10
114.75
 20
174.816620626
 11
114.75
 21
168.78337937399999
  0
CIRCLE
  8
_0-0_0
  6
CONTINUOUS
 62
    2
 10
115.2
 20
171.80000000000001
 40
8.5
  0
CIRCLE
  8
_0-0_0
  6
CONTINUOUS
 62
    2
 10
115.2
 20
171.80000000000001
 40
7.7999999999999998
  0
CIRCLE
  8
_0-0_0
  6
CONTINUOUS
 62
    2
 10
115.2
 20
171.80000000000001
 40
7.0999999999999996
  0
CIRCLE
  8
_0-0_0
  6
CONTINUOUS
 62
    2
 10
115.2
 20
171.80000000000001
 40
6.4000000000000004
  0
CIRCLE
  8
_0-0_0
  6
CONTINUOUS
 62
    2
 10
115.2
 20
171.80000000000001
 40
5.7000000000000002
  0
CIRCLE
  8
_0-0_0
  6
CONTINUOUS
 62
    2
 10
115.2
 20
171.80000000000001
 40
5
  0
CIRCLE
  8
_0-0_0
  6
CONTINUOUS
 62
    2
 10
115.2
 20
171.80000000000001
 40
4.2999999999999998
  0
CIRCLE
  8
_0-0_0
  6
CONTINUOUS
 62
    2
 10
115.2
 20
171.80000000000001
 40
3.6000000000000001
  0
CIRCLE
  8
_0-0_0
  6
CONTINUOUS
 62
    2
 10
115.2
 20
171.80000000000001
 40
24.25
  0
CIRCLE
  8
_0-0_0
  6
CONTINUOUS
 62
    2
 10
115.2
 20
171.80000000000001
 40
21
  0
CIRCLE
  8
_0-0_0
  6
CONTINUOUS
 62
    2
 10
106.7
 20
156.30000000000001
 40
1.5
  0
LINE
  8
_0-0_0
  6
CONTINUOUS
 62
    2
 10
105.93986021000001
 20
155.82270292300001
 11
106.275735931
 21
156.15857864399999
  0
ARC
  8
_0-0_0
  6
CONTINUOUS
 62
    2
 10
106.13431457499999
 20
156.30000000000001
 40
0.2
 50
315
 51
45
  0
LINE
  8
_0-0_0
  6
CONTINUOUS
 62
    2
 10
106.275735931
 20
156.44142135600001
 11
105.93986021000001
 21
156.77729707700001
  0
LINE
  8
_0-0_0
  6
CONTINUOUS
 62
    2
 10
105.93986021000001
 20
156.77729707700001
 11
106.222702923
 21
157.06013978999999
  0
LINE
  8
_0-0_0
  6
CONTINUOUS
 62
    2
 10
106.222702923
 20
157.06013978999999
 11
106.55857864399999
 21
156.72426406900001
  0
ARC
  8
_0-0_0
  6
CONTINUOUS
 62
    2
 10
106.7
 20
156.86568542499998
 40
0.2
 50
225
 51
315
  0
LINE
  8
_0-0_0
  6
CONTINUOUS
 62
    2
 10
106.841421356
 20
156.72426406900001
 11
107.17729707699999
 21
157.06013978999999
  0
LINE
  8
_0-0_0
  6
CONTINUOUS
 62
    2
 10
107.17729707699999
 20
157.06013978999999
 11
107.46013979
 21
156.77729707700001
  0
LINE
  8
_0-0_0
  6
CONTINUOUS
 62
    2
 10
107.46013979
 20
156.77729707700001
 11
107.12426406899999
 21
156.44142135600001
  0
ARC
  8
_0-0_0
  6
CONTINUOUS
 62
    2
 10
107.265685425
 20
156.30000000000001
 40
0.2
 50
135
 51
225
  0
LINE
  8
_0-0_0
  6
CONTINUOUS
 62
    2
 10
107.12426406899999
 20
156.15857864399999
 11
107.46013979
 21
155.82270292300001
  0
LINE
  8
_0-0_0
  6
CONTINUOUS
 62
    2
 10
107.46013979
 20
155.82270292300001
 11
107.17729707699999
 21
155.53986021
  0
LINE
  8
_0-0_0
  6
CONTINUOUS
 62
    2
 10
107.17729707699999
 20
155.53986021
 11
106.841421356
 21
155.87573593100001
  0
ARC
  8
_0-0_0
  6
CONTINUOUS
 62
    2
 10
106.7
 20
155.73431457499998
 40
0.2
 50
45
 51
135
  0
LINE
  8
_0-0_0
  6
CONTINUOUS
 62
    2
 10
106.55857864399999
 20
155.87573593100001
 11
106.222702923
 21
155.53986021
  0
LINE
  8
_0-0_0
  6
CONTINUOUS
 62
    2
 10
106.222702923
 20
155.53986021
 11
105.93986021000001
 21
155.82270292300001
  0
CIRCLE
  8
_0-0_0
  6
CONTINUOUS
 62
    2
 10
123.7
 20
156.30000000000001
 40
1.5
  0
LINE
  8
_0-0_0
  6
CONTINUOUS
 62
    2
 10
122.93986021000001
 20
155.82270292300001
 11
123.275735931
 21
156.15857864399999
  0
ARC
  8
_0-0_0
  6
CONTINUOUS
 62
    2
 10
123.13431457499999
 20
156.30000000000001
 40
0.2
 50
315
 51
45
  0
LINE
  8
_0-0_0
  6
CONTINUOUS
 62
    2
 10
123.275735931
 20
156.44142135600001
 11
122.93986021000001
 21
156.77729707700001
  0
LINE
  8
_0-0_0
  6
CONTINUOUS
 62
    2
 10
122.93986021000001
 20
156.77729707700001
 11
123.222702923
 21
157.06013978999999
  0
LINE
  8
_0-0_0
  6
CONTINUOUS
 62
    2
 10
123.222702923
 20
157.06013978999999
 11
123.55857864399999
 21
156.72426406900001
  0
ARC
  8
_0-0_0
  6
CONTINUOUS
 62
    2
 10
123.7
 20
156.86568542499998
 40
0.2
 50
225
 51
315
  0
LINE
  8
_0-0_0
  6
CONTINUOUS
 62
    2
 10
123.841421356
 20
156.72426406900001
 11
124.17729707699999
 21
157.06013978999999
  0
LINE
  8
_0-0_0
  6
CONTINUOUS
 62
    2
 10
124.17729707699999
 20
157.06013978999999
 11
124.46013979
 21
156.77729707700001
  0
LINE
  8
_0-0_0
  6
CONTINUOUS
 62
    2
 10
124.46013979
 20
156.77729707700001
 11
124.12426406899999
 21
156.44142135600001
  0
ARC
  8
_0-0_0
  6
CONTINUOUS
 62
    2
 10
124.265685425
 20
156.30000000000001
 40
0.2
 50
135
 51
225
  0
LINE
  8
_0-0_0
  6
CONTINUOUS
 62
    2
 10
124.12426406899999
 20
156.15857864399999
 11
124.46013979
 21
155.82270292300001
  0
LINE
  8
_0-0_0
  6
CONTINUOUS
 62
    2
 10
124.46013979
 20
155.82270292300001
 11
124.17729707699999
 21
155.53986021
  0
LINE
  8
_0-0_0
  6
CONTINUOUS
 62
    2
 10
124.17729707699999
 20
155.53986021
 11
123.841421356
 21
155.87573593100001
  0
ARC
  8
_0-0_0
  6
CONTINUOUS
 62
    2
 10
123.7
 20
155.73431457499998
 40
0.2
 50
45
 51
135
  0
LINE
  8
_0-0_0
  6
CONTINUOUS
 62
    2
 10
123.55857864399999
 20
155.87573593100001
 11
123.222702923
 21
155.53986021
  0
LINE
  8
_0-0_0
  6
CONTINUOUS
 62
    2
 10
123.222702923
 20
155.53986021
 11
122.93986021000001
 21
155.82270292300001
  0
LINE
  8
_0-0_0
  6
CONTINUOUS
 62
    2
 10
99.90224001499999
 20
164.34741391
 11
97.184249190000003
 21
162.018245415
  0
LINE
  8
_0-0_0
  6
CONTINUOUS
 62
    2
 10
97.184249190000003
 20
162.018245415
 11
100.617978155
 21
163.02918824099999
  0
LINE
  8
_0-0_0
  6
CONTINUOUS
 62
    2
 10
100.617978155
 20
163.02918824099999
 11
108.117058939
 21
167.10085689499999
  0
LINE
  8
_0-0_0
  6
CONTINUOUS
 62
    2
 10
99.381291972
 20
163.21114231500002
 11
107.901656687
 21
167.44291555199999
  0
LINE
  8
_0-0_0
  6
CONTINUOUS
 62
    2
 10
107.57087885199999
 20
168.052132538
 11
99.381291972
 21
163.21114231500002
  0
LINE
  8
_0-0_0
  6
CONTINUOUS
 62
    2
 10
107.401320798
 20
168.41908256400001
 11
99.90224001499999
 21
164.34741391
  0
LINE
  8
_0-0_0
  6
CONTINUOUS
 62
    2
 10
87.713820798
 20
197.36824541499999
 11
87.713820798
 21
219.018245415
  0
LINE
  8
_0-0_0
  6
CONTINUOUS
 62
    2
 10
87.713820798
 20
217.018245415
 11
90.128635364000004
 21
216.37119780200001
  0
LINE
  8
_0-0_0
  6
CONTINUOUS
 62
    2
 10
87.713820798
 20
217.018245415
 11
90.128635364000004
 21
217.66529302699999
  0
LINE
  8
_0-0_0
  6
CONTINUOUS
 62
    2
 10
87.713820798
 20
217.018245415
 11
142.713820798
 21
217.018245415
  0
LINE
  8
_0-0_0
  6
CONTINUOUS
 62
    2
 10
142.713820798
 20
217.018245415
 11
140.299006233
 21
217.66529302699999
  0
LINE
  8
_0-0_0
  6
CONTINUOUS
 62
    2
 10
142.713820798
 20
217.018245415
 11
140.299006233
 21
216.37119780200001
  0
LINE
  8
_0-0_0
  6
CONTINUOUS
 62
    2
 10
142.713820798
 20
197.768245415
 11
142.713820798
 21
219.018245415
  0
TEXT
  8
_0-0_0
 62
    7
 10
115.78382079799999
 20
218.018245415
 40
1.8
 41
0.5999999999999999
 50
0
  1
±１．５
  0
LINE
  8
_0-0_0
  6
CONTINUOUS
 62
    2
 10
90.063820797999995
 20
199.31824541500001
 11
75.163820797999989
 21
199.31824541500001
  0
LINE
  8
_0-0_0
  6
CONTINUOUS
 62
    2
 10
77.163820797999989
 20
199.31824541500001
 11
76.516773185999995
 21
196.90343084899999
  0
LINE
  8
_0-0_0
  6
CONTINUOUS
 62
    2
 10
77.163820797999989
 20
199.31824541500001
 11
77.810868411000001
 21
196.90343084899999
  0
LINE
  8
_0-0_0
  6
CONTINUOUS
 62
    2
 10
77.163820797999989
 20
199.31824541500001
 11
77.163820797999989
 21
144.31824541500001
  0
LINE
  8
_0-0_0
  6
CONTINUOUS
 62
    2
 10
77.163820797999989
 20
144.31824541500001
 11
77.810868411000001
 21
146.73305998000001
  0
LINE
  8
_0-0_0
  6
CONTINUOUS
 62
    2
 10
77.163820797999989
 20
144.31824541500001
 11
76.516773185999995
 21
146.73305998000001
  0
LINE
  8
_0-0_0
  6
CONTINUOUS
 62
    2
 10
90.063820797999995
 20
144.31824541500001
 11
75.163820797999989
 21
144.31824541500001
  0
TEXT
  8
_0-0_0
 62
    7
 10
76.163820797999989
 20
172.388245415
 40
1.8
 41
0.5999999999999999
 50
90
  1
±１．５
  0
LINE
  8
_0-0_0
  6
CONTINUOUS
 62
    2
 10
159.05000000000001
 20
150.52500000000001
 11
158.94999999999999
 21
150.52500000000001
  0
LINE
  8
_0-0_0
  6
CONTINUOUS
 62
    2
 10
158.94999999999999
 20
150.52500000000001
 11
158.94999999999999
 21
148.02500000000001
  0
LINE
  8
_0-0_0
  6
CONTINUOUS
 62
    2
 10
158.94999999999999
 20
148.02500000000001
 11
159.05000000000001
 21
148.02500000000001
  0
LINE
  8
_0-0_0
  6
LTYPE1
 62
    2
 10
165.05000000000001
 20
171.77500000000001
 11
167.30000000000001
 21
171.77500000000001
  0
LINE
  8
_0-0_0
  6
LTYPE1
 62
    2
 10
158.80000000000001
 20
171.77500000000001
 11
165.05000000000001
 21
171.77500000000001
  0
LINE
  8
_0-0_0
  6
CONTINUOUS
 62
    2
 10
164.80000000000001
 20
191.30000000000001
 11
165.05000000000001
 21
191.30000000000001
  0
LINE
  8
_0-0_0
  6
CONTINUOUS
 62
    2
 10
165.05000000000001
 20
191.30000000000001
 11
165.05000000000001
 21
197.30000000000001
  0
LINE
  8
_0-0_0
  6
CONTINUOUS
 62
    2
 10
165.05000000000001
 20
197.30000000000001
 11
164.80000000000001
 21
197.30000000000001
  0
LINE
  8
_0-0_0
  6
CONTINUOUS
 62
    2
 10
170.55000000000001
 20
195.80000000000001
 11
172.55000000000001
 21
195.80000000000001
  0
LINE
  8
_0-0_0
  6
CONTINUOUS
 62
    2
 10
172.55000000000001
 20
195.80000000000001
 11
172.55000000000001
 21
192.80000000000001
  0
LINE
  8
_0-0_0
  6
CONTINUOUS
 62
    2
 10
172.55000000000001
 20
192.80000000000001
 11
170.55000000000001
 21
192.80000000000001
  0
LINE
  8
_0-0_0
  6
LTYPE2
 62
    2
 10
163
 20
194.30000000000001
 11
174.84999999999999
 21
194.30000000000001
  0
ARC
  8
_0-0_0
  6
CONTINUOUS
 62
    2
 10
165.55000000000001
 20
194.30000000000001
 40
5
 50
343.5
 51
16.500000000000004
  0
ARC
  8
_0-0_0
  6
CONTINUOUS
 62
    2
 10
173.05000000000001
 20
194.30000000000001
 40
5
 50
163.5
 51
196.30000000000001
  0
ARC
  8
_0-0_0
  6
CONTINUOUS
 62
    2
 10
169.30000000000001
 20
196.42500000000001
 40
1.25
 50
325
 51
34.999999999999986
  0
ARC
  8
_0-0_0
  6
CONTINUOUS
 62
    2
 10
169.30000000000001
 20
196.42500000000001
 40
1.25
 50
145
 51
215
  0
ARC
  8
_0-0_0
  6
CONTINUOUS
 62
    2
 10
169.30000000000001
 20
192.17500000000001
 40
1.25
 50
145
 51
215
  0
ARC
  8
_0-0_0
  6
CONTINUOUS
 62
    2
 10
169.30000000000001
 20
192.17500000000001
 40
1.25
 50
325
 51
34.999999999999986
  0
LINE
  8
_0-0_0
  6
CONTINUOUS
 62
    2
 10
168.25097354000002
 20
192.896666455
 11
170.32597354000001
 21
192.896666455
  0
LINE
  8
_0-0_0
  6
CONTINUOUS
 62
    2
 10
170.34409867400001
 20
195.72007672399999
 11
168.25590132600001
 21
195.72007672399999
  0
LINE
  8
_0-0_0
  6
CONTINUOUS
 62
    2
 10
170.330901326
 20
197.15000000000001
 11
168.05000000000001
 21
197.15000000000001
  0
LINE
  8
_0-0_0
  6
CONTINUOUS
 62
    2
 10
170.55000000000001
 20
192.17500000000001
 11
170.55000000000001
 21
196.42500000000001
  0
LINE
  8
_0-0_0
  6
CONTINUOUS
 62
    2
 10
168.27500000000001
 20
191.44999999999999
 11
170.32499999999999
 21
191.44999999999999
  0
LINE
  8
_0-0_0
  6
CONTINUOUS
 62
    2
 10
168.05000000000001
 20
197.15000000000001
 11
168.05000000000001
 21
192.17500000000001
  0
LINE
  8
_0-0_0
  6
CONTINUOUS
 62
    2
 10
166.40000000000001
 20
191.30000000000001
 11
167.19999999999999
 21
191.30000000000001
  0
LINE
  8
_0-0_0
  6
CONTINUOUS
 62
    2
 10
166.05000000000001
 20
194.34999999999999
 11
166.84999999999999
 21
194.34999999999999
  0
LINE
  8
_0-0_0
  6
CONTINUOUS
 62
    2
 10
166.84999999999999
 20
194.34999999999999
 11
167.19999999999999
 21
197.30000000000001
  0
LINE
  8
_0-0_0
  6
CONTINUOUS
 62
    2
 10
167.19999999999999
 20
197.30000000000001
 11
166.40000000000001
 21
197.30000000000001
  0
LINE
  8
_0-0_0
  6
CONTINUOUS
 62
    2
 10
166.40000000000001
 20
197.30000000000001
 11
166.05000000000001
 21
194.34999999999999
  0
LINE
  8
_0-0_0
  6
CONTINUOUS
 62
    2
 10
167.55000000000001
 20
194.25
 11
166.75
 21
194.25
  0
LINE
  8
_0-0_0
  6
CONTINUOUS
 62
    2
 10
166.75
 20
194.25
 11
166.40000000000001
 21
191.30000000000001
  0
LINE
  8
_0-0_0
  6
CONTINUOUS
 62
    2
 10
167.19999999999999
 20
191.30000000000001
 11
167.55000000000001
 21
194.25
  0
LINE
  8
_0-0_0
  6
CONTINUOUS
 62
    2
 10
165.25
 20
197.34999999999999
 11
166.05000000000001
 21
197.34999999999999
  0
LINE
  8
_0-0_0
  6
CONTINUOUS
 62
    2
 10
166.05000000000001
 20
197.34999999999999
 11
166.05000000000001
 21
191.2475
  0
LINE
  8
_0-0_0
  6
CONTINUOUS
 62
    2
 10
166.05000000000001
 20
191.2475
 11
165.255
 21
191.2475
  0
LINE
  8
_0-0_0
  6
CONTINUOUS
 62
    2
 10
165.255
 20
191.2475
 11
165.255
 21
197.34999999999999
  0
LINE
  8
_0-0_0
  6
CONTINUOUS
 62
    2
 10
168.04500000000002
 20
195.80000000000001
 11
167.03
 21
195.80000000000001
  0
LINE
  8
_0-0_0
  6
CONTINUOUS
 62
    2
 10
166.23500000000001
 20
195.80000000000001
 11
166.06
 21
195.80000000000001
  0
LINE
  8
_0-0_0
  6
CONTINUOUS
 62
    2
 10
165.25
 20
195.80000000000001
 11
165.06
 21
195.80000000000001
  0
LINE
  8
_0-0_0
  6
CONTINUOUS
 62
    2
 10
165.06
 20
192.80500000000001
 11
165.24000000000001
 21
192.80500000000001
  0
LINE
  8
_0-0_0
  6
CONTINUOUS
 62
    2
 10
166.05000000000001
 20
192.80500000000001
 11
166.56999999999999
 21
192.80500000000001
  0
LINE
  8
_0-0_0
  6
CONTINUOUS
 62
    2
 10
167.37
 20
192.80500000000001
 11
168.04000000000002
 21
192.80500000000001
  0
LINE
  8
_0-0_0
  6
CONTINUOUS
 62
    2
 10
168.05000000000001
 20
192.92500000000001
 11
167.39499999999998
 21
192.92500000000001
  0
LINE
  8
_0-0_0
  6
CONTINUOUS
 62
    2
 10
166.59999999999999
 20
192.92500000000001
 11
166.065
 21
192.92500000000001
  0
LINE
  8
_0-0_0
  6
CONTINUOUS
 62
    2
 10
170.55500000000001
 20
192.92500000000001
 11
172.53
 21
192.92500000000001
  0
LINE
  8
_0-0_0
  6
CONTINUOUS
 62
    2
 10
172.55000000000001
 20
195.685
 11
170.56
 21
195.685
  0
LINE
  8
_0-0_0
  6
CONTINUOUS
 62
    2
 10
168.05000000000001
 20
195.685
 11
167.01499999999999
 21
195.685
  0
LINE
  8
_0-0_0
  6
CONTINUOUS
 62
    2
 10
166.215
 20
195.685
 11
166.05500000000001
 21
195.685
  0
LINE
  8
_0-0_0
  6
CONTINUOUS
 62
    2
 10
164.80000000000001
 20
146.30000000000001
 11
165.05000000000001
 21
146.30000000000001
  0
LINE
  8
_0-0_0
  6
CONTINUOUS
 62
    2
 10
165.05000000000001
 20
146.30000000000001
 11
165.05000000000001
 21
152.30000000000001
  0
LINE
  8
_0-0_0
  6
CONTINUOUS
 62
    2
 10
165.05000000000001
 20
152.30000000000001
 11
164.80000000000001
 21
152.30000000000001
  0
LINE
  8
_0-0_0
  6
CONTINUOUS
 62
    2
 10
170.55000000000001
 20
150.80000000000001
 11
172.55000000000001
 21
150.80000000000001
  0
LINE
  8
_0-0_0
  6
CONTINUOUS
 62
    2
 10
172.55000000000001
 20
150.80000000000001
 11
172.55000000000001
 21
147.80000000000001
  0
LINE
  8
_0-0_0
  6
CONTINUOUS
 62
    2
 10
172.55000000000001
 20
147.80000000000001
 11
170.55000000000001
 21
147.80000000000001
  0
LINE
  8
_0-0_0
  6
LTYPE2
 62
    2
 10
163
 20
149.30000000000001
 11
174.84999999999999
 21
149.30000000000001
  0
ARC
  8
_0-0_0
  6
CONTINUOUS
 62
    2
 10
165.55000000000001
 20
149.30000000000001
 40
5
 50
343.5
 51
16.500000000000004
  0
ARC
  8
_0-0_0
  6
CONTINUOUS
 62
    2
 10
173.05000000000001
 20
149.30000000000001
 40
5
 50
163.5
 51
196.30000000000001
  0
ARC
  8
_0-0_0
  6
CONTINUOUS
 62
    2
 10
169.30000000000001
 20
151.42500000000001
 40
1.25
 50
325
 51
34.999999999999986
  0
ARC
  8
_0-0_0
  6
CONTINUOUS
 62
    2
 10
169.30000000000001
 20
151.42500000000001
 40
1.25
 50
145
 51
215
  0
ARC
  8
_0-0_0
  6
CONTINUOUS
 62
    2
 10
169.30000000000001
 20
147.17500000000001
 40
1.25
 50
145
 51
215
  0
ARC
  8
_0-0_0
  6
CONTINUOUS
 62
    2
 10
169.30000000000001
 20
147.17500000000001
 40
1.25
 50
325
 51
34.999999999999986
  0
LINE
  8
_0-0_0
  6
CONTINUOUS
 62
    2
 10
168.25097354000002
 20
147.896666455
 11
170.32597354000001
 21
147.896666455
  0
LINE
  8
_0-0_0
  6
CONTINUOUS
 62
    2
 10
170.34409867400001
 20
150.72007672399999
 11
168.25590132600001
 21
150.72007672399999
  0
LINE
  8
_0-0_0
  6
CONTINUOUS
 62
    2
 10
170.330901326
 20
152.15000000000001
 11
168.05000000000001
 21
152.15000000000001
  0
LINE
  8
_0-0_0
  6
CONTINUOUS
 62
    2
 10
170.55000000000001
 20
147.17500000000001
 11
170.55000000000001
 21
151.42500000000001
  0
LINE
  8
_0-0_0
  6
CONTINUOUS
 62
    2
 10
168.27500000000001
 20
146.44999999999999
 11
170.32499999999999
 21
146.44999999999999
  0
LINE
  8
_0-0_0
  6
CONTINUOUS
 62
    2
 10
168.05000000000001
 20
152.15000000000001
 11
168.05000000000001
 21
147.17500000000001
  0
LINE
  8
_0-0_0
  6
CONTINUOUS
 62
    2
 10
166.40000000000001
 20
146.30000000000001
 11
167.19999999999999
 21
146.30000000000001
  0
LINE
  8
_0-0_0
  6
CONTINUOUS
 62
    2
 10
166.05000000000001
 20
149.34999999999999
 11
166.84999999999999
 21
149.34999999999999
  0
LINE
  8
_0-0_0
  6
CONTINUOUS
 62
    2
 10
166.84999999999999
 20
149.34999999999999
 11
167.19999999999999
 21
152.30000000000001
  0
LINE
  8
_0-0_0
  6
CONTINUOUS
 62
    2
 10
167.19999999999999
 20
152.30000000000001
 11
166.40000000000001
 21
152.30000000000001
  0
LINE
  8
_0-0_0
  6
CONTINUOUS
 62
    2
 10
166.40000000000001
 20
152.30000000000001
 11
166.05000000000001
 21
149.34999999999999
  0
LINE
  8
_0-0_0
  6
CONTINUOUS
 62
    2
 10
167.55000000000001
 20
149.25
 11
166.75
 21
149.25
  0
LINE
  8
_0-0_0
  6
CONTINUOUS
 62
    2
 10
166.75
 20
149.25
 11
166.40000000000001
 21
146.30000000000001
  0
LINE
  8
_0-0_0
  6
CONTINUOUS
 62
    2
 10
167.19999999999999
 20
146.30000000000001
 11
167.55000000000001
 21
149.25
  0
LINE
  8
_0-0_0
  6
CONTINUOUS
 62
    2
 10
165.25
 20
152.34999999999999
 11
166.05000000000001
 21
152.34999999999999
  0
LINE
  8
_0-0_0
  6
CONTINUOUS
 62
    2
 10
166.05000000000001
 20
152.34999999999999
 11
166.05000000000001
 21
146.2475
  0
LINE
  8
_0-0_0
  6
CONTINUOUS
 62
    2
 10
166.05000000000001
 20
146.2475
 11
165.255
 21
146.2475
  0
LINE
  8
_0-0_0
  6
CONTINUOUS
 62
    2
 10
165.255
 20
146.2475
 11
165.255
 21
152.34999999999999
  0
LINE
  8
_0-0_0
  6
CONTINUOUS
 62
    2
 10
168.04500000000002
 20
150.80000000000001
 11
167.03
 21
150.80000000000001
  0
LINE
  8
_0-0_0
  6
CONTINUOUS
 62
    2
 10
166.23500000000001
 20
150.80000000000001
 11
166.06
 21
150.80000000000001
  0
LINE
  8
_0-0_0
  6
CONTINUOUS
 62
    2
 10
165.25
 20
150.80000000000001
 11
165.06
 21
150.80000000000001
  0
LINE
  8
_0-0_0
  6
CONTINUOUS
 62
    2
 10
165.06
 20
147.80500000000001
 11
165.24000000000001
 21
147.80500000000001
  0
LINE
  8
_0-0_0
  6
CONTINUOUS
 62
    2
 10
166.05000000000001
 20
147.80500000000001
 11
166.56999999999999
 21
147.80500000000001
  0
LINE
  8
_0-0_0
  6
CONTINUOUS
 62
    2
 10
167.37
 20
147.80500000000001
 11
168.04000000000002
 21
147.80500000000001
  0
LINE
  8
_0-0_0
  6
CONTINUOUS
 62
    2
 10
168.05000000000001
 20
147.92500000000001
 11
167.39499999999998
 21
147.92500000000001
  0
LINE
  8
_0-0_0
  6
CONTINUOUS
 62
    2
 10
166.59999999999999
 20
147.92500000000001
 11
166.065
 21
147.92500000000001
  0
LINE
  8
_0-0_0
  6
CONTINUOUS
 62
    2
 10
170.55500000000001
 20
147.92500000000001
 11
172.53
 21
147.92500000000001
  0
LINE
  8
_0-0_0
  6
CONTINUOUS
 62
    2
 10
172.55000000000001
 20
150.685
 11
170.56
 21
150.685
  0
LINE
  8
_0-0_0
  6
CONTINUOUS
 62
    2
 10
168.05000000000001
 20
150.685
 11
167.01499999999999
 21
150.685
  0
LINE
  8
_0-0_0
  6
CONTINUOUS
 62
    2
 10
166.215
 20
150.685
 11
166.05500000000001
 21
150.685
  0
ARC
  8
_0-0_0
  6
CONTINUOUS
 62
    2
 10
213.47499999999999
 20
175.72499999999999
 40
1.4750000000000001
 50
270
 51
0
  0
ARC
  8
_0-0_0
  6
CONTINUOUS
 62
    2
 10
213.47499999999999
 20
177.875
 40
1.4750000000000001
 50
0
 51
90
  0
LINE
  8
_0-0_0
  6
CONTINUOUS
 62
    2
 10
214.94999999999999
 20
177.875
 11
214.94999999999999
 21
175.72499999999999
  0
LINE
  8
_0-0_0
  6
CONTINUOUS
 62
    2
 10
213.47499999999999
 20
174.25
 11
212.97499999999999
 21
174.25
  0
LINE
  8
_0-0_0
  6
CONTINUOUS
 62
    2
 10
212.97499999999999
 20
174.25
 11
212.97499999999999
 21
179.34999999999999
  0
LINE
  8
_0-0_0
  6
CONTINUOUS
 62
    2
 10
212.97499999999999
 20
179.34999999999999
 11
213.47500013199999
 21
179.34999999999999
  0
LINE
  8
_0-0_0
  6
CONTINUOUS
 62
    2
 10
212.27500000000001
 20
179.55000000000001
 11
212.94999999999999
 21
179.55000000000001
  0
LINE
  8
_0-0_0
  6
CONTINUOUS
 62
    2
 10
212.94999999999999
 20
179.55000000000001
 11
212.94999999999999
 21
174.04750000000001
  0
LINE
  8
_0-0_0
  6
CONTINUOUS
 62
    2
 10
212.94999999999999
 20
174.04750000000001
 11
212.27500000000001
 21
174.04750000000001
  0
LINE
  8
_0-0_0
  6
CONTINUOUS
 62
    2
 10
212.27500000000001
 20
174.04750000000001
 11
212.27500000000001
 21
179.55000000000001
  0
LINE
  8
_0-0_0
  6
CONTINUOUS
 62
    2
 10
212.27500000000001
 20
176.86000000000001
 11
212.94999999999999
 21
176.86000000000001
  0
LINE
  8
_0-0_0
  6
CONTINUOUS
 62
    2
 10
212.94999999999999
 20
176.75999999999999
 11
212.27500000000001
 21
176.75999999999999
  0
LINE
  8
_0-0_0
  6
CONTINUOUS
 62
    2
 10
211.80000000000001
 20
173.625
 11
212.27500000000001
 21
173.625
  0
LINE
  8
_0-0_0
  6
CONTINUOUS
 62
    2
 10
212.27500000000001
 20
173.625
 11
212.27500000000001
 21
179.97499999999999
  0
LINE
  8
_0-0_0
  6
CONTINUOUS
 62
    2
 10
212.27500000000001
 20
179.97499999999999
 11
211.80000000000001
 21
179.97499999999999
  0
LINE
  8
_0-0_0
  6
CONTINUOUS
 62
    2
 10
211.80000000000001
 20
179.97499999999999
 11
211.80000000000001
 21
173.625
  0
LINE
  8
_0-0_0
  6
CONTINUOUS
 62
    2
 10
211.80000000000001
 20
174.80000000000001
 11
207.30000000000001
 21
174.80000000000001
  0
LINE
  8
_0-0_0
  6
CONTINUOUS
 62
    2
 10
207.30000000000001
 20
178.80000000000001
 11
211.80000000000001
 21
178.80000000000001
  0
LINE
  8
_0-0_0
  6
CONTINUOUS
 62
    2
 10
207.30000000000001
 20
178.80000000000001
 11
207.30000000000001
 21
174.80000000000001
  0
LINE
  8
_0-0_0
  6
LTYPE2
 62
    2
 10
204.52500000000001
 20
176.80000000000001
 11
217.25
 21
176.80000000000001
  0
LINE
  8
_0-0_0
  6
CONTINUOUS
 62
    2
 10
158.94999999999999
 20
150.80000000000001
 11
158.94999999999999
 21
147.80000000000001
  0
LINE
  8
_0-0_0
  6
CONTINUOUS
 62
    2
 10
158.59999999999999
 20
147.80000000000001
 11
158.94999999999999
 21
147.80000000000001
  0
ARC
  8
_0-0_0
  6
CONTINUOUS
 62
    2
 10
158.59999999999999
 20
148.19999999999999
 40
0.4
 50
180
 51
270
  0
LINE
  8
_0-0_0
  6
CONTINUOUS
 62
    2
 10
158.59999999999999
 20
150.80000000000001
 11
159.05000000000001
 21
150.80000000000001
  0
LINE
  8
_0-0_0
  6
CONTINUOUS
 62
    2
 10
158.19999999999999
 20
148.19999999999999
 11
158.19999999999999
 21
150.40000000000001
  0
ARC
  8
_0-0_0
  6
CONTINUOUS
 62
    2
 10
158.59999999999999
 20
150.40000000000001
 40
0.4
 50
90
 51
180
  0
LINE
  8
_0-0_0
  6
CONTINUOUS
 62
    2
 10
158.19999999999999
 20
149.40000000000001
 11
158.30000000000001
 21
149.40000000000001
  0
LINE
  8
_0-0_0
  6
CONTINUOUS
 62
    2
 10
158.30000000000001
 20
149.40000000000001
 11
158.30000000000001
 21
149.19999999999999
  0
LINE
  8
_0-0_0
  6
CONTINUOUS
 62
    2
 10
158.30000000000001
 20
149.19999999999999
 11
158.19999999999999
 21
149.19999999999999
  0
LINE
  8
_0-0_0
  6
CONTINUOUS
 62
    2
 10
159.05000000000001
 20
195.52500000000001
 11
158.94999999999999
 21
195.52500000000001
  0
LINE
  8
_0-0_0
  6
CONTINUOUS
 62
    2
 10
158.94999999999999
 20
195.52500000000001
 11
158.94999999999999
 21
193.02500000000001
  0
LINE
  8
_0-0_0
  6
CONTINUOUS
 62
    2
 10
158.94999999999999
 20
193.02500000000001
 11
159.05000000000001
 21
193.02500000000001
  0
LINE
  8
_0-0_0
  6
CONTINUOUS
 62
    2
 10
158.94999999999999
 20
195.80000000000001
 11
158.94999999999999
 21
192.80000000000001
  0
LINE
  8
_0-0_0
  6
CONTINUOUS
 62
    2
 10
158.59999999999999
 20
192.80000000000001
 11
158.94999999999999
 21
192.80000000000001
  0
ARC
  8
_0-0_0
  6
CONTINUOUS
 62
    2
 10
158.59999999999999
 20
193.19999999999999
 40
0.4
 50
180
 51
270
  0
LINE
  8
_0-0_0
  6
CONTINUOUS
 62
    2
 10
158.59999999999999
 20
195.80000000000001
 11
159.05000000000001
 21
195.80000000000001
  0
LINE
  8
_0-0_0
  6
CONTINUOUS
 62
    2
 10
158.19999999999999
 20
193.19999999999999
 11
158.19999999999999
 21
195.40000000000001
  0
ARC
  8
_0-0_0
  6
CONTINUOUS
 62
    2
 10
158.59999999999999
 20
195.40000000000001
 40
0.4
 50
90
 51
180
  0
LINE
  8
_0-0_0
  6
CONTINUOUS
 62
    2
 10
158.19999999999999
 20
194.40000000000001
 11
158.30000000000001
 21
194.40000000000001
  0
LINE
  8
_0-0_0
  6
CONTINUOUS
 62
    2
 10
158.30000000000001
 20
194.40000000000001
 11
158.30000000000001
 21
194.19999999999999
  0
LINE
  8
_0-0_0
  6
CONTINUOUS
 62
    2
 10
158.30000000000001
 20
194.19999999999999
 11
158.19999999999999
 21
194.19999999999999
  0
LINE
  8
_0-0_0
  6
CONTINUOUS
 62
    2
 10
154.30000000000001
 20
174.94999999999999
 11
154.30000000000001
 21
169.05000000000001
  0
ARC
  8
_0-0_0
  6
CONTINUOUS
 62
    2
 10
154.30000000000001
 20
173.44999999999999
 40
1.5
 50
90
 51
180
  0
LINE
  8
_0-0_0
  6
CONTINUOUS
 62
    2
 10
154.30000000000001
 20
169.05000000000001
 11
154.19999999999999
 21
169.05000000000001
  0
LINE
  8
_0-0_0
  6
CONTINUOUS
 62
    2
 10
152.80000000000001
 20
170.44999999999999
 11
152.80000000000001
 21
173.44999999999999
  0
ARC
  8
_0-0_0
  6
CONTINUOUS
 62
    2
 10
154.19999999999999
 20
170.44999999999999
 40
1.3999999999999999
 50
180
 51
270
  0
LINE
  8
_0-0_0
  6
CONTINUOUS
 62
    2
 10
155.34999999999999
 20
146.27500000000001
 11
147.92500000000001
 21
146.27500000000001
  0
LINE
  8
_0-0_0
  6
CONTINUOUS
 62
    2
 10
149.92500000000001
 20
146.27500000000001
 11
150.572047613
 21
148.689814566
  0
LINE
  8
_0-0_0
  6
CONTINUOUS
 62
    2
 10
149.92500000000001
 20
146.27500000000001
 11
149.277952387
 21
148.689814566
  0
LINE
  8
_0-0_0
  6
CONTINUOUS
 62
    2
 10
149.92500000000001
 20
146.27500000000001
 11
149.92500000000001
 21
197.27500000000001
  0
LINE
  8
_0-0_0
  6
CONTINUOUS
 62
    2
 10
149.92500000000001
 20
197.27500000000001
 11
149.277952387
 21
194.86018543399999
  0
LINE
  8
_0-0_0
  6
CONTINUOUS
 62
    2
 10
149.92500000000001
 20
197.27500000000001
 11
150.572047613
 21
194.86018543399999
  0
LINE
  8
_0-0_0
  6
CONTINUOUS
 62
    2
 10
155.34999999999999
 20
197.27500000000001
 11
147.92500000000001
 21
197.27500000000001
  0
LINE
  8
_0-0_0
  6
CONTINUOUS
 62
    2
 10
152.80000000000001
 20
173.90000000000001
 11
152.80000000000001
 21
219.22500190700001
  0
LINE
  8
_0-0_0
  6
CONTINUOUS
 62
    2
 10
152.80000000000001
 20
217.22500190700001
 11
155.214814566
 21
216.57795429500001
  0
LINE
  8
_0-0_0
  6
CONTINUOUS
 62
    2
 10
152.80000000000001
 20
217.22500190700001
 11
155.214814566
 21
217.87204951999999
  0
LINE
  8
_0-0_0
  6
CONTINUOUS
 62
    2
 10
152.80000000000001
 20
217.22500190700001
 11
164.80000000000001
 21
217.22500190700001
  0
LINE
  8
_0-0_0
  6
CONTINUOUS
 62
    2
 10
164.80000000000001
 20
217.22500190700001
 11
162.38518543399999
 21
217.87204951999999
  0
LINE
  8
_0-0_0
  6
CONTINUOUS
 62
    2
 10
164.80000000000001
 20
217.22500190700001
 11
162.38518543399999
 21
216.57795429500001
  0
LINE
  8
_0-0_0
  6
CONTINUOUS
 62
    2
 10
164.80000000000001
 20
199.5
 11
164.80000000000001
 21
219.22500190700001
  0
TEXT
  8
_0-0_0
 62
    7
 10
156.84999999999999
 20
218.22500190700001
 40
3
 41
0.5999999999999999
 50
0
  1
２４
  0
LINE
  8
_0-0_0
  6
CONTINUOUS
 62
    2
 10
164.80000000000001
 20
217.22500190700001
 11
167.214814566
 21
216.57795429500001
  0
LINE
  8
_0-0_0
  6
CONTINUOUS
 62
    2
 10
164.80000000000001
 20
217.22500190700001
 11
167.214814566
 21
217.87204951999999
  0
LINE
  8
_0-0_0
  6
CONTINUOUS
 62
    2
 10
164.80000000000001
 20
217.22500190700001
 11
214.94999999999999
 21
217.22500190700001
  0
LINE
  8
_0-0_0
  6
CONTINUOUS
 62
    2
 10
214.94999999999999
 20
217.22500190700001
 11
212.535185434
 21
217.87204951999999
  0
LINE
  8
_0-0_0
  6
CONTINUOUS
 62
    2
 10
214.94999999999999
 20
217.22500190700001
 11
212.535185434
 21
216.57795429500001
  0
LINE
  8
_0-0_0
  6
CONTINUOUS
 62
    2
 10
214.94999999999999
 20
178.69999999999999
 11
214.94999999999999
 21
219.22500190700001
  0
LINE
  8
_0-0_0
  6
CONTINUOUS
 62
    2
 10
207.30000000000001
 20
196.40000190699999
 11
207.30000000000001
 21
209.675001907
  0
LINE
  8
_0-0_0
  6
CONTINUOUS
 62
    2
 10
207.30000000000001
 20
207.675001907
 11
209.714814566
 21
207.027954295
  0
LINE
  8
_0-0_0
  6
CONTINUOUS
 62
    2
 10
207.30000000000001
 20
207.675001907
 11
209.714814566
 21
208.32204952000001
  0
LINE
  8
_0-0_0
  6
CONTINUOUS
 62
    2
 10
207.30000000000001
 20
207.675001907
 11
214.94999999999999
 21
207.675001907
  0
LINE
  8
_0-0_0
  6
CONTINUOUS
 62
    2
 10
214.94999999999999
 20
207.675001907
 11
212.535185434
 21
208.32204952000001
  0
LINE
  8
_0-0_0
  6
CONTINUOUS
 62
    2
 10
214.94999999999999
 20
207.675001907
 11
212.535185434
 21
207.027954295
  0
LINE
  8
_0-0_0
  6
CONTINUOUS
 62
    2
 10
214.94999999999999
 20
207.950001907
 11
214.94999999999999
 21
205.675001907
  0
LINE
  8
_0-0_0
  6
CONTINUOUS
 62
    2
 10
165.05000000000001
 20
197.55000000000001
 11
165.05000000000001
 21
209.675001907
  0
LINE
  8
_0-0_0
  6
CONTINUOUS
 62
    2
 10
165.05000000000001
 20
207.675001907
 11
167.464814566
 21
207.027954295
  0
LINE
  8
_0-0_0
  6
CONTINUOUS
 62
    2
 10
165.05000000000001
 20
207.675001907
 11
167.464814566
 21
208.32204952000001
  0
LINE
  8
_0-0_0
  6
CONTINUOUS
 62
    2
 10
165.05000000000001
 20
207.675001907
 11
172.55000000000001
 21
207.675001907
  0
LINE
  8
_0-0_0
  6
CONTINUOUS
 62
    2
 10
172.55000000000001
 20
207.675001907
 11
170.13518543399999
 21
208.32204952000001
  0
LINE
  8
_0-0_0
  6
CONTINUOUS
 62
    2
 10
172.55000000000001
 20
207.675001907
 11
170.13518543399999
 21
207.027954295
  0
LINE
  8
_0-0_0
  6
CONTINUOUS
 62
    2
 10
172.55000000000001
 20
196.05000000000001
 11
172.55000000000001
 21
209.675001907
  0
TEXT
  8
_0-0_0
 62
    7
 10
166.84999999999999
 20
208.675001907
 40
3
 41
0.5999999999999999
 50
0
  1
１５
  0
LINE
  8
_0-0_0
  6
CONTINUOUS
 62
    2
 10
164.80000000000001
 20
207.675001907
 11
162.38518543399999
 21
208.32204952000001
  0
LINE
  8
_0-0_0
  6
CONTINUOUS
 62
    2
 10
164.80000000000001
 20
207.675001907
 11
162.38518543399999
 21
207.027954295
  0
LINE
  8
_0-0_0
  6
CONTINUOUS
 62
    2
 10
153.80000000000001
 20
207.675001907
 11
170.05000000000001
 21
207.675001907
  0
LINE
  8
_0-0_0
  6
CONTINUOUS
 62
    2
 10
165.05000000000001
 20
207.675001907
 11
167.464814566
 21
207.027954295
  0
LINE
  8
_0-0_0
  6
CONTINUOUS
 62
    2
 10
165.05000000000001
 20
207.675001907
 11
167.464814566
 21
208.32204952000001
  0
TEXT
  8
_0-0_0
 62
    7
 10
154.94999999999999
 20
208.675001907
 40
3
 41
0.5999999999999999
 50
0
  1
０．５
  0
POINT
  8
_0-0_0
 62
    2
 10
248.59999999999999
 20
71.299999999999997
  0
POINT
  8
_0-0_0
 62
    2
 10
248.59999999999999
 20
202.80000000000001
  0
ARC
  8
_0-0_0
  6
CONTINUOUS
 62
    2
 10
223.84999999999999
 20
147.05000000000001
 40
1.5
 50
180
 51
270
  0
LINE
  8
_0-0_0
  6
CONTINUOUS
 62
    2
 10
222.34999999999999
 20
196.55000000000001
 11
222.34999999999999
 21
147.05000000000001
  0
ARC
  8
_0-0_0
  6
CONTINUOUS
 62
    2
 10
223.84999999999999
 20
196.55000000000001
 40
1.5
 50
90
 51
180
  0
LINE
  8
_0-0_0
  6
CONTINUOUS
 62
    2
 10
273.35000000000002
 20
198.05000000000001
 11
223.84999999999999
 21
198.05000000000001
  0
ARC
  8
_0-0_0
  6
CONTINUOUS
 62
    2
 10
273.35000000000002
 20
196.55000000000001
 40
1.5
 50
0
 51
90
  0
LINE
  8
_0-0_0
  6
CONTINUOUS
 62
    2
 10
223.84999999999999
 20
145.55000000000001
 11
273.35000000000002
 21
145.55000000000001
  0
LINE
  8
_0-0_0
  6
CONTINUOUS
 62
    2
 10
274.85000000000002
 20
147.05000000000001
 11
274.85000000000002
 21
196.55000000000001
  0
ARC
  8
_0-0_0
  6
CONTINUOUS
 62
    2
 10
273.35000000000002
 20
147.05000000000001
 40
1.5
 50
270
 51
0
  0
LINE
  8
_0-0_0
  6
CONTINUOUS
 62
    2
 10
273.524871131
 20
195.69999999999999
 11
271.10000000000002
 21
197.09999999999999
  0
LINE
  8
_0-0_0
  6
CONTINUOUS
 62
    2
 10
271.10000000000002
 20
197.09999999999999
 11
268.67512886899999
 21
195.69999999999999
  0
LINE
  8
_0-0_0
  6
CONTINUOUS
 62
    2
 10
268.67512886899999
 20
195.69999999999999
 11
268.67512886899999
 21
192.90000000000001
  0
LINE
  8
_0-0_0
  6
CONTINUOUS
 62
    2
 10
268.67512886899999
 20
192.90000000000001
 11
271.10000000000002
 21
191.5
  0
LINE
  8
_0-0_0
  6
CONTINUOUS
 62
    2
 10
271.10000000000002
 20
191.5
 11
273.524871131
 21
192.90000000000001
  0
LINE
  8
_0-0_0
  6
CONTINUOUS
 62
    2
 10
273.524871131
 20
192.90000000000001
 11
273.524871131
 21
195.69999999999999
  0
CIRCLE
  8
_0-0_0
  6
CONTINUOUS
 62
    2
 10
271.10000000000002
 20
194.30000000000001
 40
1.5
  0
CIRCLE
  8
_0-0_0
  6
CONTINUOUS
 62
    2
 10
271.10000000000002
 20
194.30000000000001
 40
1.3999999999999999
  0
CIRCLE
  8
_0-0_0
  6
CONTINUOUS
 62
    2
 10
271.10000000000002
 20
194.30000000000001
 40
3
  0
CIRCLE
  8
_0-0_0
  6
CONTINUOUS
 62
    2
 10
271.10000000000002
 20
194.30000000000001
 40
2.5
  0
LINE
  8
_0-0_0
  6
LTYPE2
 62
    2
 10
267.22500000000002
 20
194.30000000000001
 11
275.19999999999999
 21
194.30000000000001
  0
LINE
  8
_0-0_0
  6
LTYPE2
 62
    2
 10
271.10000000000002
 20
198.19999999999999
 11
271.10000000000002
 21
190.47499999999999
  0
LINE
  8
_0-0_0
  6
CONTINUOUS
 62
    2
 10
228.524871131
 20
195.69999999999999
 11
226.09999999999999
 21
197.09999999999999
  0
LINE
  8
_0-0_0
  6
CONTINUOUS
 62
    2
 10
226.09999999999999
 20
197.09999999999999
 11
223.67512886899999
 21
195.69999999999999
  0
LINE
  8
_0-0_0
  6
CONTINUOUS
 62
    2
 10
223.67512886899999
 20
195.69999999999999
 11
223.67512886899999
 21
192.90000000000001
  0
LINE
  8
_0-0_0
  6
CONTINUOUS
 62
    2
 10
223.67512886899999
 20
192.90000000000001
 11
226.09999999999999
 21
191.5
  0
LINE
  8
_0-0_0
  6
CONTINUOUS
 62
    2
 10
226.09999999999999
 20
191.5
 11
228.524871131
 21
192.90000000000001
  0
LINE
  8
_0-0_0
  6
CONTINUOUS
 62
    2
 10
228.524871131
 20
192.90000000000001
 11
228.524871131
 21
195.69999999999999
  0
CIRCLE
  8
_0-0_0
  6
CONTINUOUS
 62
    2
 10
226.09999999999999
 20
194.30000000000001
 40
1.5
  0
CIRCLE
  8
_0-0_0
  6
CONTINUOUS
 62
    2
 10
226.09999999999999
 20
194.30000000000001
 40
1.3999999999999999
  0
CIRCLE
  8
_0-0_0
  6
CONTINUOUS
 62
    2
 10
226.09999999999999
 20
194.30000000000001
 40
3
  0
CIRCLE
  8
_0-0_0
  6
CONTINUOUS
 62
    2
 10
226.09999999999999
 20
194.30000000000001
 40
2.5
  0
LINE
  8
_0-0_0
  6
LTYPE2
 62
    2
 10
222.22499999999999
 20
194.30000000000001
 11
230.19999999999999
 21
194.30000000000001
  0
LINE
  8
_0-0_0
  6
LTYPE2
 62
    2
 10
226.09999999999999
 20
198.19999999999999
 11
226.09999999999999
 21
190.47499999999999
  0
LINE
  8
_0-0_0
  6
CONTINUOUS
 62
    2
 10
228.524871131
 20
150.69999999999999
 11
226.09999999999999
 21
152.09999999999999
  0
LINE
  8
_0-0_0
  6
CONTINUOUS
 62
    2
 10
226.09999999999999
 20
152.09999999999999
 11
223.67512886899999
 21
150.69999999999999
  0
LINE
  8
_0-0_0
  6
CONTINUOUS
 62
    2
 10
223.67512886899999
 20
150.69999999999999
 11
223.67512886899999
 21
147.90000000000001
  0
LINE
  8
_0-0_0
  6
CONTINUOUS
 62
    2
 10
223.67512886899999
 20
147.90000000000001
 11
226.09999999999999
 21
146.5
  0
LINE
  8
_0-0_0
  6
CONTINUOUS
 62
    2
 10
226.09999999999999
 20
146.5
 11
228.524871131
 21
147.90000000000001
  0
LINE
  8
_0-0_0
  6
CONTINUOUS
 62
    2
 10
228.524871131
 20
147.90000000000001
 11
228.524871131
 21
150.69999999999999
  0
CIRCLE
  8
_0-0_0
  6
CONTINUOUS
 62
    2
 10
226.09999999999999
 20
149.30000000000001
 40
1.5
  0
CIRCLE
  8
_0-0_0
  6
CONTINUOUS
 62
    2
 10
226.09999999999999
 20
149.30000000000001
 40
1.3999999999999999
  0
CIRCLE
  8
_0-0_0
  6
CONTINUOUS
 62
    2
 10
226.09999999999999
 20
149.30000000000001
 40
3
  0
CIRCLE
  8
_0-0_0
  6
CONTINUOUS
 62
    2
 10
226.09999999999999
 20
149.30000000000001
 40
2.5
  0
LINE
  8
_0-0_0
  6
LTYPE2
 62
    2
 10
222.22499999999999
 20
149.30000000000001
 11
230.19999999999999
 21
149.30000000000001
  0
LINE
  8
_0-0_0
  6
LTYPE2
 62
    2
 10
226.09999999999999
 20
153.19999999999999
 11
226.09999999999999
 21
145.47499999999999
  0
LINE
  8
_0-0_0
  6
CONTINUOUS
 62
    2
 10
273.524871131
 20
150.69999999999999
 11
271.10000000000002
 21
152.09999999999999
  0
LINE
  8
_0-0_0
  6
CONTINUOUS
 62
    2
 10
271.10000000000002
 20
152.09999999999999
 11
268.67512886899999
 21
150.69999999999999
  0
LINE
  8
_0-0_0
  6
CONTINUOUS
 62
    2
 10
268.67512886899999
 20
150.69999999999999
 11
268.67512886899999
 21
147.90000000000001
  0
LINE
  8
_0-0_0
  6
CONTINUOUS
 62
    2
 10
268.67512886899999
 20
147.90000000000001
 11
271.10000000000002
 21
146.5
  0
LINE
  8
_0-0_0
  6
CONTINUOUS
 62
    2
 10
271.10000000000002
 20
146.5
 11
273.524871131
 21
147.90000000000001
  0
LINE
  8
_0-0_0
  6
CONTINUOUS
 62
    2
 10
273.524871131
 20
147.90000000000001
 11
273.524871131
 21
150.69999999999999
  0
CIRCLE
  8
_0-0_0
  6
CONTINUOUS
 62
    2
 10
271.10000000000002
 20
149.30000000000001
 40
1.5
  0
CIRCLE
  8
_0-0_0
  6
CONTINUOUS
 62
    2
 10
271.10000000000002
 20
149.30000000000001
 40
1.3999999999999999
  0
CIRCLE
  8
_0-0_0
  6
CONTINUOUS
 62
    2
 10
271.10000000000002
 20
149.30000000000001
 40
3
  0
CIRCLE
  8
_0-0_0
  6
CONTINUOUS
 62
    2
 10
271.10000000000002
 20
149.30000000000001
 40
2.5
  0
LINE
  8
_0-0_0
  6
LTYPE2
 62
    2
 10
267.22500000000002
 20
149.30000000000001
 11
275.19999999999999
 21
149.30000000000001
  0
LINE
  8
_0-0_0
  6
LTYPE2
 62
    2
 10
271.10000000000002
 20
153.19999999999999
 11
271.10000000000002
 21
145.47499999999999
  0
CIRCLE
  8
_0-0_0
  6
CONTINUOUS
 62
    2
 10
267.65255888299998
 20
160.80000000000001
 40
1.75
  0
CIRCLE
  8
_0-0_0
  6
CONTINUOUS
 62
    2
 10
248.59999999999999
 20
193.80000000000001
 40
1.75
  0
CIRCLE
  8
_0-0_0
  6
CONTINUOUS
 62
    2
 10
229.54744111700001
 20
160.80000000000001
 40
1.75
  0
CIRCLE
  8
_0-0_0
  6
CONTINUOUS
 62
    2
 10
229.54744111700001
 20
160.80000000000001
 40
1.5
  0
LINE
  8
_0-0_0
  6
CONTINUOUS
 62
    2
 10
228.67244111700001
 20
161
 11
229.147441117
 21
161
  0
ARC
  8
_0-0_0
  6
CONTINUOUS
 62
    2
 10
229.147441117
 20
161.19999999999999
 40
0.2
 50
270
 51
0
  0
LINE
  8
_0-0_0
  6
CONTINUOUS
 62
    2
 10
229.34744111699999
 20
161.19999999999999
 11
229.34744111699999
 21
161.67500000000001
  0
LINE
  8
_0-0_0
  6
CONTINUOUS
 62
    2
 10
229.34744111699999
 20
161.67500000000001
 11
229.74744111699999
 21
161.67500000000001
  0
LINE
  8
_0-0_0
  6
CONTINUOUS
 62
    2
 10
229.74744111699999
 20
161.67500000000001
 11
229.74744111699999
 21
161.19999999999999
  0
ARC
  8
_0-0_0
  6
CONTINUOUS
 62
    2
 10
229.94744111700001
 20
161.19999999999999
 40
0.2
 50
180
 51
270
  0
LINE
  8
_0-0_0
  6
CONTINUOUS
 62
    2
 10
229.94744111700001
 20
161
 11
230.42244111700001
 21
161
  0
LINE
  8
_0-0_0
  6
CONTINUOUS
 62
    2
 10
230.42244111700001
 20
161
 11
230.42244111700001
 21
160.59999999999999
  0
LINE
  8
_0-0_0
  6
CONTINUOUS
 62
    2
 10
230.42244111700001
 20
160.59999999999999
 11
229.94744111700001
 21
160.59999999999999
  0
ARC
  8
_0-0_0
  6
CONTINUOUS
 62
    2
 10
229.94744111700001
 20
160.40000000000001
 40
0.2
 50
90
 51
180
  0
LINE
  8
_0-0_0
  6
CONTINUOUS
 62
    2
 10
229.74744111699999
 20
160.40000000000001
 11
229.74744111699999
 21
159.92500000000001
  0
LINE
  8
_0-0_0
  6
CONTINUOUS
 62
    2
 10
229.74744111699999
 20
159.92500000000001
 11
229.34744111699999
 21
159.92500000000001
  0
LINE
  8
_0-0_0
  6
CONTINUOUS
 62
    2
 10
229.34744111699999
 20
159.92500000000001
 11
229.34744111699999
 21
160.40000000000001
  0
ARC
  8
_0-0_0
  6
CONTINUOUS
 62
    2
 10
229.147441117
 20
160.40000000000001
 40
0.2
 50
0
 51
90
  0
LINE
  8
_0-0_0
  6
CONTINUOUS
 62
    2
 10
229.147441117
 20
160.59999999999999
 11
228.67244111700001
 21
160.59999999999999
  0
LINE
  8
_0-0_0
  6
CONTINUOUS
 62
    2
 10
228.67244111700001
 20
160.59999999999999
 11
228.67244111700001
 21
161
  0
LINE
  8
_0-0_0
  6
LTYPE1
 62
    2
 10
227.54744111700001
 20
160.80000000000001
 11
231.54744111700001
 21
160.80000000000001
  0
LINE
  8
_0-0_0
  6
LTYPE1
 62
    2
 10
229.54744111700001
 20
162.80000000000001
 11
229.54744111700001
 21
158.80000000000001
  0
CIRCLE
  8
_0-0_0
  6
CONTINUOUS
 62
    2
 10
248.59999999999999
 20
193.80000000000001
 40
1.5
  0
LINE
  8
_0-0_0
  6
CONTINUOUS
 62
    2
 10
247.72499999999999
 20
194
 11
248.19999999999999
 21
194
  0
ARC
  8
_0-0_0
  6
CONTINUOUS
 62
    2
 10
248.19999999999999
 20
194.19999999999999
 40
0.2
 50
270
 51
0
  0
LINE
  8
_0-0_0
  6
CONTINUOUS
 62
    2
 10
248.40000000000001
 20
194.19999999999999
 11
248.40000000000001
 21
194.67500000000001
  0
LINE
  8
_0-0_0
  6
CONTINUOUS
 62
    2
 10
248.40000000000001
 20
194.67500000000001
 11
248.80000000000001
 21
194.67500000000001
  0
LINE
  8
_0-0_0
  6
CONTINUOUS
 62
    2
 10
248.80000000000001
 20
194.67500000000001
 11
248.80000000000001
 21
194.19999999999999
  0
ARC
  8
_0-0_0
  6
CONTINUOUS
 62
    2
 10
249
 20
194.19999999999999
 40
0.2
 50
180
 51
270
  0
LINE
  8
_0-0_0
  6
CONTINUOUS
 62
    2
 10
249
 20
194
 11
249.47499999999999
 21
194
  0
LINE
  8
_0-0_0
  6
CONTINUOUS
 62
    2
 10
249.47499999999999
 20
194
 11
249.47499999999999
 21
193.59999999999999
  0
LINE
  8
_0-0_0
  6
CONTINUOUS
 62
    2
 10
249.47499999999999
 20
193.59999999999999
 11
249
 21
193.59999999999999
  0
ARC
  8
_0-0_0
  6
CONTINUOUS
 62
    2
 10
249
 20
193.40000000000001
 40
0.2
 50
90
 51
180
  0
LINE
  8
_0-0_0
  6
CONTINUOUS
 62
    2
 10
248.80000000000001
 20
193.40000000000001
 11
248.80000000000001
 21
192.92500000000001
  0
LINE
  8
_0-0_0
  6
CONTINUOUS
 62
    2
 10
248.80000000000001
 20
192.92500000000001
 11
248.40000000000001
 21
192.92500000000001
  0
LINE
  8
_0-0_0
  6
CONTINUOUS
 62
    2
 10
248.40000000000001
 20
192.92500000000001
 11
248.40000000000001
 21
193.40000000000001
  0
ARC
  8
_0-0_0
  6
CONTINUOUS
 62
    2
 10
248.19999999999999
 20
193.40000000000001
 40
0.2
 50
0
 51
90
  0
LINE
  8
_0-0_0
  6
CONTINUOUS
 62
    2
 10
248.19999999999999
 20
193.59999999999999
 11
247.72499999999999
 21
193.59999999999999
  0
LINE
  8
_0-0_0
  6
CONTINUOUS
 62
    2
 10
247.72499999999999
 20
193.59999999999999
 11
247.72499999999999
 21
194
  0
LINE
  8
_0-0_0
  6
LTYPE1
 62
    2
 10
246.59999999999999
 20
193.80000000000001
 11
250.59999999999999
 21
193.80000000000001
  0
LINE
  8
_0-0_0
  6
LTYPE1
 62
    2
 10
248.59999999999999
 20
195.80000000000001
 11
248.59999999999999
 21
191.80000000000001
  0
CIRCLE
  8
_0-0_0
  6
CONTINUOUS
 62
    2
 10
267.65255888299998
 20
160.80000000000001
 40
1.5
  0
LINE
  8
_0-0_0
  6
CONTINUOUS
 62
    2
 10
266.77755888299998
 20
161
 11
267.25255888300001
 21
161
  0
ARC
  8
_0-0_0
  6
CONTINUOUS
 62
    2
 10
267.25255888300001
 20
161.19999999999999
 40
0.2
 50
270
 51
0
  0
LINE
  8
_0-0_0
  6
CONTINUOUS
 62
    2
 10
267.45255888299999
 20
161.19999999999999
 11
267.45255888299999
 21
161.67500000000001
  0
LINE
  8
_0-0_0
  6
CONTINUOUS
 62
    2
 10
267.45255888299999
 20
161.67500000000001
 11
267.85255888300003
 21
161.67500000000001
  0
LINE
  8
_0-0_0
  6
CONTINUOUS
 62
    2
 10
267.85255888300003
 20
161.67500000000001
 11
267.85255888300003
 21
161.19999999999999
  0
ARC
  8
_0-0_0
  6
CONTINUOUS
 62
    2
 10
268.05255888299996
 20
161.19999999999999
 40
0.2
 50
180
 51
270
  0
LINE
  8
_0-0_0
  6
CONTINUOUS
 62
    2
 10
268.05255888299996
 20
161
 11
268.52755888299998
 21
161
  0
LINE
  8
_0-0_0
  6
CONTINUOUS
 62
    2
 10
268.52755888299998
 20
161
 11
268.52755888299998
 21
160.59999999999999
  0
LINE
  8
_0-0_0
  6
CONTINUOUS
 62
    2
 10
268.52755888299998
 20
160.59999999999999
 11
268.05255888299996
 21
160.59999999999999
  0
ARC
  8
_0-0_0
  6
CONTINUOUS
 62
    2
 10
268.05255888299996
 20
160.40000000000001
 40
0.2
 50
90
 51
180
  0
LINE
  8
_0-0_0
  6
CONTINUOUS
 62
    2
 10
267.85255888300003
 20
160.40000000000001
 11
267.85255888300003
 21
159.92500000000001
  0
LINE
  8
_0-0_0
  6
CONTINUOUS
 62
    2
 10
267.85255888300003
 20
159.92500000000001
 11
267.45255888299999
 21
159.92500000000001
  0
LINE
  8
_0-0_0
  6
CONTINUOUS
 62
    2
 10
267.45255888299999
 20
159.92500000000001
 11
267.45255888299999
 21
160.40000000000001
  0
ARC
  8
_0-0_0
  6
CONTINUOUS
 62
    2
 10
267.25255888300001
 20
160.40000000000001
 40
0.2
 50
0
 51
90
  0
LINE
  8
_0-0_0
  6
CONTINUOUS
 62
    2
 10
267.25255888300001
 20
160.59999999999999
 11
266.77755888299998
 21
160.59999999999999
  0
LINE
  8
_0-0_0
  6
CONTINUOUS
 62
    2
 10
266.77755888299998
 20
160.59999999999999
 11
266.77755888299998
 21
161
  0
LINE
  8
_0-0_0
  6
LTYPE1
 62
    2
 10
265.65255888299998
 20
160.80000000000001
 11
269.65255888299998
 21
160.80000000000001
  0
LINE
  8
_0-0_0
  6
LTYPE1
 62
    2
 10
267.65255888299998
 20
162.80000000000001
 11
267.65255888299998
 21
158.80000000000001
  0
LINE
  8
_0-0_0
  6
CONTINUOUS
 62
    2
 10
226.09999999999999
 20
198.40000000000001
 11
226.09999999999999
 21
219.15000000000001
  0
LINE
  8
_0-0_0
  6
CONTINUOUS
 62
    2
 10
226.09999999999999
 20
217.15000000000001
 11
228.51481456600001
 21
216.50295238699999
  0
LINE
  8
_0-0_0
  6
CONTINUOUS
 62
    2
 10
226.09999999999999
 20
217.15000000000001
 11
228.51481456600001
 21
217.79704761299999
  0
LINE
  8
_0-0_0
  6
CONTINUOUS
 62
    2
 10
226.09999999999999
 20
217.15000000000001
 11
248.59999999999999
 21
217.15000000000001
  0
LINE
  8
_0-0_0
  6
CONTINUOUS
 62
    2
 10
248.59999999999999
 20
217.15000000000001
 11
246.185185434
 21
217.79704761299999
  0
LINE
  8
_0-0_0
  6
CONTINUOUS
 62
    2
 10
248.59999999999999
 20
217.15000000000001
 11
246.185185434
 21
216.50295238699999
  0
LINE
  8
_0-0_0
  6
CONTINUOUS
 62
    2
 10
248.59999999999999
 20
203
 11
248.59999999999999
 21
219.15000000000001
  0
TEXT
  8
_0-0_0
 62
    7
 10
236.87
 20
218.15000000000001
 40
1.8
 41
0.5999999999999999
 50
0
  1
±０．５
  0
LINE
  8
_0-0_0
  6
CONTINUOUS
 62
    2
 10
248.59999999999999
 20
217.15000000000001
 11
251.01481456600001
 21
216.50295238699999
  0
LINE
  8
_0-0_0
  6
CONTINUOUS
 62
    2
 10
248.59999999999999
 20
217.15000000000001
 11
251.01481456600001
 21
217.79704761299999
  0
LINE
  8
_0-0_0
  6
CONTINUOUS
 62
    2
 10
248.59999999999999
 20
217.15000000000001
 11
271.10000000000002
 21
217.15000000000001
  0
LINE
  8
_0-0_0
  6
CONTINUOUS
 62
    2
 10
271.10000000000002
 20
217.15000000000001
 11
268.685185434
 21
217.79704761299999
  0
LINE
  8
_0-0_0
  6
CONTINUOUS
 62
    2
 10
271.10000000000002
 20
217.15000000000001
 11
268.685185434
 21
216.50295238699999
  0
LINE
  8
_0-0_0
  6
CONTINUOUS
 62
    2
 10
271.10000000000002
 20
198.30000000000001
 11
271.10000000000002
 21
219.15000000000001
  0
TEXT
  8
_0-0_0
 62
    7
 10
259.37
 20
218.15000000000001
 40
1.8
 41
0.5999999999999999
 50
0
  1
±０．５
  0
LINE
  8
_0-0_0
  6
CONTINUOUS
 62
    2
 10
275.35000000000002
 20
149.30000000000001
 11
285.19999999999999
 21
149.30000000000001
  0
LINE
  8
_0-0_0
  6
CONTINUOUS
 62
    2
 10
283.19999999999999
 20
149.30000000000001
 11
283.84704761299997
 21
151.714814566
  0
LINE
  8
_0-0_0
  6
CONTINUOUS
 62
    2
 10
283.19999999999999
 20
149.30000000000001
 11
282.552952387
 21
151.714814566
  0
LINE
  8
_0-0_0
  6
CONTINUOUS
 62
    2
 10
283.19999999999999
 20
149.30000000000001
 11
283.19999999999999
 21
171.80000000000001
  0
LINE
  8
_0-0_0
  6
CONTINUOUS
 62
    2
 10
283.19999999999999
 20
171.80000000000001
 11
282.552952387
 21
169.38518543399999
  0
LINE
  8
_0-0_0
  6
CONTINUOUS
 62
    2
 10
283.19999999999999
 20
171.80000000000001
 11
283.84704761299997
 21
169.38518543399999
  0
LINE
  8
_0-0_0
  6
CONTINUOUS
 62
    2
 10
270.80000000000001
 20
171.80000000000001
 11
285.19999999999999
 21
171.80000000000001
  0
TEXT
  8
_0-0_0
 62
    7
 10
282.19999999999999
 20
160.06999999999999
 40
1.8
 41
0.5999999999999999
 50
90
  1
±０．５
  0
LINE
  8
_0-0_0
  6
CONTINUOUS
 62
    2
 10
283.19999999999999
 20
171.80000000000001
 11
283.84704761299997
 21
174.214814566
  0
LINE
  8
_0-0_0
  6
CONTINUOUS
 62
    2
 10
283.19999999999999
 20
171.80000000000001
 11
282.552952387
 21
174.214814566
  0
LINE
  8
_0-0_0
  6
CONTINUOUS
 62
    2
 10
283.19999999999999
 20
171.80000000000001
 11
283.19999999999999
 21
194.30000000000001
  0
LINE
  8
_0-0_0
  6
CONTINUOUS
 62
    2
 10
283.19999999999999
 20
194.30000000000001
 11
282.552952387
 21
191.88518543399999
  0
LINE
  8
_0-0_0
  6
CONTINUOUS
 62
    2
 10
283.19999999999999
 20
194.30000000000001
 11
283.84704761299997
 21
191.88518543399999
  0
LINE
  8
_0-0_0
  6
CONTINUOUS
 62
    2
 10
275.30000000000001
 20
194.30000000000001
 11
285.19999999999999
 21
194.30000000000001
  0
TEXT
  8
_0-0_0
 62
    7
 10
282.19999999999999
 20
182.56999999999999
 40
1.8
 41
0.5999999999999999
 50
90
  1
±０．５
  0
CIRCLE
  8
_0-0_0
  6
CONTINUOUS
 62
    2
 10
241.09999999999999
 20
176.75
 40
3.1749999999999998
  0
CIRCLE
  8
_0-0_0
  6
CONTINUOUS
 62
    2
 10
241.09999999999999
 20
176.75
 40
2.5
  0
LINE
  8
_0-0_0
  6
CONTINUOUS
 62
    2
 10
242.47499999999999
 20
176.40000000000001
 11
242.47499999999999
 21
177.09999999999999
  0
LINE
  8
_0-0_0
  6
CONTINUOUS
 62
    2
 10
239.72499999999999
 20
177.09999999999999
 11
239.72499999999999
 21
176.40000000000001
  0
LINE
  8
_0-0_0
  6
CONTINUOUS
 62
    2
 10
242.47499999999999
 20
177.09999999999999
 11
242.19999999999999
 21
177.09999999999999
  0
LINE
  8
_0-0_0
  6
CONTINUOUS
 62
    2
 10
241.44999999999999
 20
177.84999999999999
 11
241.44999999999999
 21
179.22537875899999
  0
ARC
  8
_0-0_0
  6
CONTINUOUS
 62
    2
 10
242.19999999999999
 20
177.84999999999999
 40
0.75
 50
180
 51
270
  0
LINE
  8
_0-0_0
  6
CONTINUOUS
 62
    2
 10
242.19999999999999
 20
176.40000000000001
 11
242.47499999999999
 21
176.40000000000001
  0
LINE
  8
_0-0_0
  6
CONTINUOUS
 62
    2
 10
241.44999999999999
 20
174.30000000000001
 11
241.44999999999999
 21
175.65000000000001
  0
ARC
  8
_0-0_0
  6
CONTINUOUS
 62
    2
 10
242.19999999999999
 20
175.65000000000001
 40
0.75
 50
90
 51
180
  0
LINE
  8
_0-0_0
  6
CONTINUOUS
 62
    2
 10
239.72499999999999
 20
176.40000000000001
 11
240
 21
176.40000000000001
  0
LINE
  8
_0-0_0
  6
CONTINUOUS
 62
    2
 10
240.75
 20
175.65000000000001
 11
240.75
 21
174.27462124100001
  0
ARC
  8
_0-0_0
  6
CONTINUOUS
 62
    2
 10
240
 20
175.65000000000001
 40
0.75
 50
0
 51
90
  0
LINE
  8
_0-0_0
  6
CONTINUOUS
 62
    2
 10
240
 20
177.09999999999999
 11
239.72499999999999
 21
177.09999999999999
  0
LINE
  8
_0-0_0
  6
CONTINUOUS
 62
    2
 10
240.75
 20
179.22537875899999
 11
240.75
 21
177.84999999999999
  0
ARC
  8
_0-0_0
  6
CONTINUOUS
 62
    2
 10
240
 20
177.84999999999999
 40
0.75
 50
270
 51
0
  0
CIRCLE
  8
_0-0_0
  6
CONTINUOUS
 62
    2
 10
256.10000000000002
 20
176.75
 40
3.1749999999999998
  0
CIRCLE
  8
_0-0_0
  6
CONTINUOUS
 62
    2
 10
256.10000000000002
 20
176.75
 40
2.5
  0
LINE
  8
_0-0_0
  6
CONTINUOUS
 62
    2
 10
257.47500000000002
 20
176.40000000000001
 11
257.47500000000002
 21
177.09999999999999
  0
LINE
  8
_0-0_0
  6
CONTINUOUS
 62
    2
 10
254.72499999999999
 20
177.09999999999999
 11
254.72499999999999
 21
176.40000000000001
  0
LINE
  8
_0-0_0
  6
CONTINUOUS
 62
    2
 10
257.47500000000002
 20
177.09999999999999
 11
257.19999999999999
 21
177.09999999999999
  0
LINE
  8
_0-0_0
  6
CONTINUOUS
 62
    2
 10
256.44999999999999
 20
177.84999999999999
 11
256.44999999999999
 21
179.22537875899999
  0
ARC
  8
_0-0_0
  6
CONTINUOUS
 62
    2
 10
257.19999999999999
 20
177.84999999999999
 40
0.75
 50
180
 51
270
  0
LINE
  8
_0-0_0
  6
CONTINUOUS
 62
    2
 10
257.19999999999999
 20
176.40000000000001
 11
257.47500000000002
 21
176.40000000000001
  0
LINE
  8
_0-0_0
  6
CONTINUOUS
 62
    2
 10
256.44999999999999
 20
174.30000000000001
 11
256.44999999999999
 21
175.65000000000001
  0
ARC
  8
_0-0_0
  6
CONTINUOUS
 62
    2
 10
257.19999999999999
 20
175.65000000000001
 40
0.75
 50
90
 51
180
  0
LINE
  8
_0-0_0
  6
CONTINUOUS
 62
    2
 10
254.72499999999999
 20
176.40000000000001
 11
255
 21
176.40000000000001
  0
LINE
  8
_0-0_0
  6
CONTINUOUS
 62
    2
 10
255.75
 20
175.65000000000001
 11
255.75
 21
174.27462124100001
  0
ARC
  8
_0-0_0
  6
CONTINUOUS
 62
    2
 10
255
 20
175.65000000000001
 40
0.75
 50
0
 51
90
  0
LINE
  8
_0-0_0
  6
CONTINUOUS
 62
    2
 10
255
 20
177.09999999999999
 11
254.72499999999999
 21
177.09999999999999
  0
LINE
  8
_0-0_0
  6
CONTINUOUS
 62
    2
 10
255.75
 20
179.22537875899999
 11
255.75
 21
177.84999999999999
  0
ARC
  8
_0-0_0
  6
CONTINUOUS
 62
    2
 10
255
 20
177.84999999999999
 40
0.75
 50
270
 51
0
  0
LINE
  8
_0-0_0
  6
CONTINUOUS
 62
    2
 10
170.94999999999999
 20
147.94999999999999
 11
171.596786092
 21
145.535115375
  0
LINE
  8
_0-0_0
  6
CONTINUOUS
 62
    2
 10
170.94999999999999
 20
147.94999999999999
 11
172.71757549900002
 21
146.18204161400001
  0
LINE
  8
_0-0_0
  6
CONTINUOUS
 62
    2
 10
170.94999999999999
 20
147.94999999999999
 11
178.80000000000001
 21
134.34999999999999
  0
LINE
  8
_0-0_0
  6
CONTINUOUS
 62
    2
 10
178.80000000000001
 20
134.34999999999999
 11
199
 21
134.34999999999999
  0
TEXT
  8
_0-0_0
 62
    7
 10
178.80000000000001
 20
135.34999999999999
 40
3
 41
0.5999999999999999
 50
0
  1
４－Ｍ６取付ボルト
  0
LINE
  8
_0-0_0
  6
LTYPE2
 62
    2
 10
219.30000000000001
 20
100.95
 11
278
 21
100.95
  0
LINE
  8
_0-0_0
  6
LTYPE2
 62
    2
 10
222
 20
78.450000000000003
 11
229.15000000000001
 21
78.450000000000003
  0
LINE
  8
_0-0_0
  6
LTYPE2
 62
    2
 10
266.69999999999999
 20
78.450000000000003
 11
276
 21
78.450000000000003
  0
LINE
  8
_0-0_0
  6
LTYPE2
 62
    2
 10
271.10000000000002
 20
74.099999999999994
 11
271.10000000000002
 21
83.450000000000003
  0
LINE
  8
_0-0_0
  6
LTYPE2
 62
    2
 10
271.10000000000002
 20
118.05
 11
271.10000000000002
 21
129.80000000000001
  0
LINE
  8
_0-0_0
  6
LTYPE2
 62
    2
 10
226.09999999999999
 20
129.80000000000001
 11
226.09999999999999
 21
119.05
  0
LINE
  8
_0-0_0
  6
LTYPE2
 62
    2
 10
226.09999999999999
 20
83.650000000000006
 11
226.09999999999999
 21
73.349999999999994
  0
LINE
  8
_0-0_0
  6
LTYPE2
 62
    2
 10
222.05000000000001
 20
123.45
 11
232.69999999999999
 21
123.45
  0
LINE
  8
_0-0_0
  6
LTYPE2
 62
    2
 10
265.30000000000001
 20
123.45
 11
278.35000000000002
 21
123.45
  0
LINE
  8
_0-0_0
  6
CONTINUOUS
 62
    2
 10
276.14999999999998
 20
78.450000000000003
 11
284.60000000000002
 21
78.450000000000003
  0
LINE
  8
_0-0_0
  6
CONTINUOUS
 62
    2
 10
282.60000000000002
 20
78.450000000000003
 11
283.24704761300001
 21
80.864814566000007
  0
LINE
  8
_0-0_0
  6
CONTINUOUS
 62
    2
 10
282.60000000000002
 20
78.450000000000003
 11
281.95295238699998
 21
80.864814566000007
  0
LINE
  8
_0-0_0
  6
CONTINUOUS
 62
    2
 10
282.60000000000002
 20
100.95
 11
281.95295238699998
 21
98.535185433999999
  0
LINE
  8
_0-0_0
  6
CONTINUOUS
 62
    2
 10
282.60000000000002
 20
100.95
 11
283.24704761300001
 21
98.535185433999999
  0
LINE
  8
_0-0_0
  6
CONTINUOUS
 62
    2
 10
278
 20
100.95
 11
284.60000000000002
 21
100.95
  0
LINE
  8
_0-0_0
  6
CONTINUOUS
 62
    2
 10
282.60000000000002
 20
100.95
 11
283.24704761300001
 21
103.36481456600001
  0
LINE
  8
_0-0_0
  6
CONTINUOUS
 62
    2
 10
282.60000000000002
 20
100.95
 11
281.95295238699998
 21
103.36481456600001
  0
LINE
  8
_0-0_0
  6
CONTINUOUS
 62
    2
 10
282.60000000000002
 20
100.95
 11
282.60000000000002
 21
123.45
  0
LINE
  8
_0-0_0
  6
CONTINUOUS
 62
    2
 10
282.60000000000002
 20
123.45
 11
281.95295238699998
 21
121.035185434
  0
LINE
  8
_0-0_0
  6
CONTINUOUS
 62
    2
 10
282.60000000000002
 20
123.45
 11
283.24704761300001
 21
121.035185434
  0
LINE
  8
_0-0_0
  6
CONTINUOUS
 62
    2
 10
278.35000000000002
 20
123.45
 11
284.60000000000002
 21
123.45
  0
TEXT
  8
_0-0_0
 62
    7
 10
281.60000000000002
 20
111.72
 40
1.8
 41
0.5999999999999999
 50
90
  1
±０．５
  0
LINE
  8
_0-0_0
  6
CONTINUOUS
 62
    2
 10
282.60000000000002
 20
78.450000000000003
 11
282.60000000000002
 21
100.95
  0
TEXT
  8
_0-0_0
 62
    7
 10
281.60000000000002
 20
89.219999999999999
 40
1.8
 41
0.5999999999999999
 50
90
  1
±０．５
  0
LINE
  8
_0-0_0
  6
CONTINUOUS
 62
    2
 10
234.769080919
 20
138.69999999999999
 11
209.96908091899999
 21
138.69999999999999
  0
LINE
  8
_0-0_0
  6
CONTINUOUS
 62
    2
 10
209.992057942
 20
138.94999999999999
 11
209.96908091899999
 21
138.69999999999999
  0
LINE
  8
_0-0_0
  6
CONTINUOUS
 62
    2
 10
226.09999999999999
 20
129.80000000000001
 11
226.09999999999999
 21
132.44999999999999
  0
LINE
  8
_0-0_0
  6
CONTINUOUS
 62
    2
 10
226.09999999999999
 20
130.44999999999999
 11
228.51481456600001
 21
129.802952387
  0
LINE
  8
_0-0_0
  6
CONTINUOUS
 62
    2
 10
226.09999999999999
 20
130.44999999999999
 11
228.51481456600001
 21
131.097047613
  0
LINE
  8
_0-0_0
  6
CONTINUOUS
 62
    2
 10
226.09999999999999
 20
130.44999999999999
 11
248.59999999999999
 21
130.44999999999999
  0
LINE
  8
_0-0_0
  6
CONTINUOUS
 62
    2
 10
248.59999999999999
 20
130.44999999999999
 11
246.185185434
 21
131.097047613
  0
LINE
  8
_0-0_0
  6
CONTINUOUS
 62
    2
 10
248.59999999999999
 20
130.44999999999999
 11
246.185185434
 21
129.802952387
  0
LINE
  8
_0-0_0
  6
CONTINUOUS
 62
    2
 10
248.59999999999999
 20
129.80000000000001
 11
248.59999999999999
 21
132.44999999999999
  0
TEXT
  8
_0-0_0
 62
    7
 10
236.87
 20
131.44999999999999
 40
1.8
 41
0.5999999999999999
 50
0
  1
±０．５
  0
LINE
  8
_0-0_0
  6
CONTINUOUS
 62
    2
 10
248.59999999999999
 20
130.44999999999999
 11
251.01481456600001
 21
129.802952387
  0
LINE
  8
_0-0_0
  6
CONTINUOUS
 62
    2
 10
248.59999999999999
 20
130.44999999999999
 11
251.01481456600001
 21
131.097047613
  0
LINE
  8
_0-0_0
  6
CONTINUOUS
 62
    2
 10
248.59999999999999
 20
130.44999999999999
 11
271.10000000000002
 21
130.44999999999999
  0
LINE
  8
_0-0_0
  6
CONTINUOUS
 62
    2
 10
271.10000000000002
 20
130.44999999999999
 11
268.685185434
 21
131.097047613
  0
LINE
  8
_0-0_0
  6
CONTINUOUS
 62
    2
 10
271.10000000000002
 20
130.44999999999999
 11
268.685185434
 21
129.802952387
  0
TEXT
  8
_0-0_0
 62
    7
 10
259.37
 20
131.44999999999999
 40
1.8
 41
0.5999999999999999
 50
0
  1
±０．５
  0
LINE
  8
_0-0_0
  6
CONTINUOUS
 62
    2
 10
230.997520726
 20
82.499993945999989
 11
233.13260918500001
 21
83.800531245999991
  0
LINE
  8
_0-0_0
  6
CONTINUOUS
 62
    2
 10
230.997520726
 20
82.499993945999989
 11
232.19629292100001
 21
84.693836516000005
  0
LINE
  8
_0-0_0
  6
CONTINUOUS
 62
    2
 10
230.997520726
 20
82.499993945999989
 11
266.20247927399998
 21
119.400006054
  0
LINE
  8
_0-0_0
  6
CONTINUOUS
 62
    2
 10
266.20247927399998
 20
119.400006054
 11
264.06739081500001
 21
118.099468754
  0
LINE
  8
_0-0_0
  6
CONTINUOUS
 62
    2
 10
266.20247927399998
 20
119.400006054
 11
265.00370707900004
 21
117.206163484
  0
LINE
  8
_0-0_0
  6
CONTINUOUS
 62
    2
 10
225.19999999999999
 20
76.900000000000006
 11
223.752635312
 21
74.861585062000003
  0
LINE
  8
_0-0_0
  6
CONTINUOUS
 62
    2
 10
225.19999999999999
 20
76.900000000000006
 11
224.96575288099999
 21
74.410998535999994
  0
LINE
  8
_0-0_0
  6
CONTINUOUS
 62
    2
 10
225.19999999999999
 20
76.900000000000006
 11
221.94999999999999
 21
68.150000000000006
  0
LINE
  8
_0-0_0
  6
CONTINUOUS
 62
    2
 10
221.94999999999999
 20
68.150000000000006
 11
213.25
 21
68.150000000000006
  0
TEXT
  8
_0-0_0
 62
    7
 10
213.25
 20
69.150000000000006
 40
3
 41
0.5999999999999999
 50
0
  1
４－φ７
  0
LINE
  8
_0-0_0
  6
CONTINUOUS
 62
    2
 10
101.2
 20
163.40000000000001
 11
100.16730914
 21
161.123258999
  0
LINE
  8
_0-0_0
  6
CONTINUOUS
 62
    2
 10
101.2
 20
163.40000000000001
 11
101.44403398099999
 21
160.91193902499998
  0
LINE
  8
_0-0_0
  6
CONTINUOUS
 62
    2
 10
116.8
 20
169.40000000000001
 11
116.845041865
 21
166.90040578700001
  0
LINE
  8
_0-0_0
  6
CONTINUOUS
 62
    2
 10
116.8
 20
169.40000000000001
 11
118.088804506
 21
167.257808845
  0
LINE
  8
_0-0_0
  6
LTYPE1
 62
    2
 10
236.59999999999999
 20
176.80000000000001
 11
245.59999999999999
 21
176.80000000000001
  0
LINE
  8
_0-0_0
  6
LTYPE1
 62
    2
 10
251.59999999999999
 20
176.80000000000001
 11
261.30000000000001
 21
176.80000000000001
  0
LINE
  8
_0-0_0
  6
LTYPE1
 62
    2
 10
256.10000000000002
 20
181.75
 11
256.10000000000002
 21
172.75
  0
LINE
  8
_0-0_0
  6
CONTINUOUS
 62
    2
 10
180.30000000000001
 20
196.5
 11
179.652952387
 21
194.08518543400001
  0
LINE
  8
_0-0_0
  6
CONTINUOUS
 62
    2
 10
180.30000000000001
 20
196.5
 11
180.947047613
 21
194.08518543400001
  0
LINE
  8
_0-0_0
  6
CONTINUOUS
 62
    2
 10
180.30000000000001
 20
196.5
 11
180.30000000000001
 21
147.09999999999999
  0
LINE
  8
_0-0_0
  6
CONTINUOUS
 62
    2
 10
180.30000000000001
 20
147.09999999999999
 11
180.947047613
 21
149.51481456599998
  0
LINE
  8
_0-0_0
  6
CONTINUOUS
 62
    2
 10
180.30000000000001
 20
147.09999999999999
 11
179.652952387
 21
149.51481456599998
  0
TEXT
  8
_0-0_0
 62
    7
 10
179.30000000000001
 20
172.58000000000001
 40
1.8
 41
0.5999999999999999
 50
90
  1
±１
  0
LINE
  8
_0-0_0
  6
LTYPE1
 62
    2
 10
167.30000000000001
 20
171.77500000000001
 11
175.30000000000001
 21
171.77500000000001
  0
LINE
  8
_0-0_0
  6
LTYPE1
 62
    2
 10
151.30000000000001
 20
171.80000000000001
 11
158.30000000000001
 21
171.80000000000001
  0
LINE
  8
_0-0_0
  6
LTYPE1
 62
    2
 10
104.3
 20
156.30000000000001
 11
109.3
 21
156.30000000000001
  0
LINE
  8
_0-0_0
  6
LTYPE1
 62
    2
 10
121.3
 20
156.30000000000001
 11
126.3
 21
156.30000000000001
  0
LINE
  8
_0-0_0
  6
LTYPE1
 62
    2
 10
123.7
 20
159.30000000000001
 11
123.7
 21
154.30000000000001
  0
LINE
  8
_0-0_0
  6
LTYPE1
 62
    2
 10
106.7
 20
159.30000000000001
 11
106.7
 21
154
  0
TEXT
  8
_0-0_0
 62
    7
 10
210.96908091899999
 20
139.69999999999999
 40
3
 41
0.5999999999999999
 50
0
  1
４－Ｍ６ターミナルネジ
  0
LINE
  8
_0-0_0
  6
LTYPE2
 62
    2
 10
236.06908091899999
 20
171.80000000000001
 11
261.06908091899999
 21
171.80000000000001
  0
LINE
  8
_0-0_0
  6
LTYPE2
 62
    2
 10
266.06908091899999
 20
171.80000000000001
 11
270.5
 21
171.80000000000001
  0
LINE
  8
_0-0_0
  6
LTYPE1
 62
    2
 10
241.09999999999999
 20
180.69999999999999
 11
241.09999999999999
 21
172.75
  0
LINE
  8
_0-0_0
  6
CONTINUOUS
 62
    2
 10
214.80000000000001
 20
177.55000000000001
 11
214.59999999999999
 21
177.55000000000001
  0
POINT
  8
_0-0_0
 62
    2
 10
214.59999999999999
 20
177.55000000000001
  0
LINE
  8
_0-0_0
  6
CONTINUOUS
 62
    2
 10
214.59999999999999
 20
177.55000000000001
 11
214.59999999999999
 21
176.34999999999999
  0
POINT
  8
_0-0_0
 62
    2
 10
214.59999999999999
 20
176.34999999999999
  0
LINE
  8
_0-0_0
  6
CONTINUOUS
 62
    2
 10
214.59999999999999
 20
176.44999999999999
 11
214.59999999999999
 21
176.25
  0
LINE
  8
_0-0_0
  6
CONTINUOUS
 62
    2
 10
214.59999999999999
 20
176.25
 11
214.69999999999999
 21
176.25
  0
LINE
  8
_0-0_0
  6
CONTINUOUS
 62
    2
 10
214.69999999999999
 20
176.25
 11
214.90000000000001
 21
176.25
  0
TEXT
  8
_0-0_0
 62
    7
 10
169.40000000000001
 20
218.94999999999999
 40
3
 41
0.9
 50
0
  1
　　　　７６
  0
TEXT
  8
_0-0_0
 62
    7
 10
209.17500000000001
 20
208.675001907
 40
3
 41
0.5999999999999999
 50
0
  1
１６
  0
TEXT
  8
_0-0_0
 62
    7
 10
148.92500000000001
 20
167.72499999999999
 40
3
 41
0.5999999999999999
 50
90
  1
φ　１０２
  0
TEXT
  8
_0-0_0
 62
    7
 10
232.97
 20
218.15000000000001
 40
3
 41
0.5999999999999999
 50
0
  1
４５
  0
TEXT
  8
_0-0_0
 62
    7
 10
255.47
 20
218.15000000000001
 40
3
 41
0.5999999999999999
 50
0
  1
４５
  0
TEXT
  8
_0-0_0
 62
    7
 10
282.19999999999999
 20
178.66999999999999
 40
3
 41
0.5999999999999999
 50
90
  1
４５
  0
TEXT
  8
_0-0_0
 62
    7
 10
282.19999999999999
 20
156.17000000000002
 40
3
 41
0.5999999999999999
 50
90
  1
４５
  0
TEXT
  8
_0-0_0
 62
    7
 10
255.47
 20
131.44999999999999
 40
3
 41
0.5999999999999999
 50
0
  1
４５
  0
TEXT
  8
_0-0_0
 62
    7
 10
232.97
 20
131.44999999999999
 40
3
 41
0.5999999999999999
 50
0
  1
４５
  0
TEXT
  8
_0-0_0
 62
    7
 10
281.60000000000002
 20
107.81999999999999
 40
3
 41
0.5999999999999999
 50
90
  1
４５
  0
TEXT
  8
_0-0_0
 62
    7
 10
281.60000000000002
 20
85.319999999999993
 40
3
 41
0.5999999999999999
 50
90
  1
４５
  0
TEXT
  8
_0-0_0
 62
    7
 10
251.97647035099999
 20
106.090293305
 40
3
 41
0.5999999999999999
 50
46.346669024999997
  1
φ　１０２
  0
TEXT
  8
_0-0_0
 62
    7
 10
76.163820797999989
 20
165.388245415
 40
3
 41
0.5999999999999999
 50
90
  1
１１０
  0
TEXT
  8
_0-0_0
 62
    7
 10
108.28382079799999
 20
218.018245415
 40
3
 41
0.5999999999999999
 50
0
  1
１１０
  0
TEXT
  8
_0-0_0
 62
    7
 10
179.30000000000001
 20
165.28
 40
3
 41
0.5999999999999999
 50
90
  1
φ９９
  0
LINE
  8
_0-0_0
  6
CONTINUOUS
 62
    2
 10
159.05000000000001
 20
143.97499999999999
 11
159.05000000000001
 21
135.52500000000001
  0
LINE
  8
_0-0_0
  6
CONTINUOUS
 62
    2
 10
159.05000000000001
 20
137.52500000000001
 11
161.464814566
 21
136.87795238699999
  0
LINE
  8
_0-0_0
  6
CONTINUOUS
 62
    2
 10
159.05000000000001
 20
137.52500000000001
 11
161.464814566
 21
138.17204761300002
  0
LINE
  8
_0-0_0
  6
CONTINUOUS
 62
    2
 10
159.05000000000001
 20
137.52500000000001
 11
164.80000000000001
 21
137.52500000000001
  0
LINE
  8
_0-0_0
  6
CONTINUOUS
 62
    2
 10
164.80000000000001
 20
137.52500000000001
 11
162.38518543399999
 21
138.17204761300002
  0
LINE
  8
_0-0_0
  6
CONTINUOUS
 62
    2
 10
164.80000000000001
 20
137.52500000000001
 11
162.38518543399999
 21
136.87795238699999
  0
LINE
  8
_0-0_0
  6
CONTINUOUS
 62
    2
 10
164.80000000000001
 20
143.77500000000001
 11
164.80000000000001
 21
135.52500000000001
  0
TEXT
  8
_0-0_0
 62
    7
 10
98.400000000000006
 20
135.40000000000001
 40
3
 41
0.9
 50
0
  1
指針
  0
LINE
  8
_0-0_0
  6
CONTINUOUS
 62
    2
 10
101.2
 20
163.40000000000001
 11
96.400000000000006
 21
134.40000000000001
  0
LINE
  8
_0-0_0
  6
CONTINUOUS
 62
    2
 10
106.5
 20
134.40000000000001
 11
96.400000000000006
 21
134.40000000000001
  0
TEXT
  8
_0-0_0
 62
    7
 10
158.77500000000001
 20
138.42500000000001
 40
3
 41
0.5333333329999999
 50
0
  1
１１．５
  0
LINE
  8
_0-0_0
  6
CONTINUOUS
 62
    2
 10
213.69999999999999
 20
174.54499999999999
 11
214.09357597299999
 21
172.076174783
  0
LINE
  8
_0-0_0
  6
CONTINUOUS
 62
    2
 10
213.69999999999999
 20
174.54499999999999
 11
209.96908091899999
 21
138.69999999999999
  0
LINE
  8
_0-0_0
  6
CONTINUOUS
 62
    2
 10
213.69999999999999
 20
174.54499999999999
 11
212.806434182
 21
172.21014665800001
  0
LINE
  8
_0-0_0
  6
LTYPE2
 62
    2
 10
248.59999999999999
 20
140
 11
248.59999999999999
 21
202.80000000000001
  0
LINE
  8
_0-0_0
  6
LTYPE2
 62
    2
 10
248.59999999999999
 20
71.299999999999997
 11
248.59999999999999
 21
133.5
  0
TEXT
  8
_0-0_0
 62
    7
 10
128.19999999999999
 20
135.19999999999999
 40
3
 41
0.9
 50
0
  1
機械的零位調整器
  0
LINE
  8
_0-0_0
  6
CONTINUOUS
 62
    2
 10
126.914942529
 20
134.19999999999999
 11
151.80000000000001
 21
134.19999999999999
  0
LINE
  8
_0-0_0
  6
CONTINUOUS
 62
    2
 10
116.8
 20
169.40000000000001
 11
126.914942529
 21
134.19999999999999
  0
TEXT
  8
_0-0_0
 62
    7
 10
97.799999999999997
 20
99.200000000000003
 40
3
 41
0.9
 50
0
  1
項
  0
TEXT
  8
_0-0_0
 62
    7
 10
97.799999999999997
 20
94.200000000000003
 40
3
 41
0.9
 50
0
  1
１
  0
TEXT
  8
_0-0_0
 62
    7
 10
97.799999999999997
 20
89.200000000000003
 40
3
 41
0.9
 50
0
  1
２
  0
TEXT
  8
_0-0_0
 62
    7
 10
106.8
 20
99.200000000000003
 40
3
 41
0.9
 50
0
  1
計器形名
  0
TEXT
  8
_0-0_0
 62
    7
 10
106.8
 20
94.200000000000003
 40
3
 41
0.9
 50
0
  1
ＤＶＦ－１１
  0
TEXT
  8
_0-0_0
 62
    7
 10
106.8
 20
90.700000000000003
 40
3
 41
0.45
 50
0
  1
Ｓ
  0
TEXT
  8
_0-0_0
 62
    7
 10
106.8
 20
88.200000000000003
 40
3
 41
0.45
 50
0
  1
Ｃ
  0
TEXT
  8
_0-0_0
 62
    7
 10
110.09999999999999
 20
89.200000000000003
 40
3
 41
0.9
 50
0
  1
ＶＦ－１１
  0
LINE
  8
_0-0_0
  6
CONTINUOUS
 62
    2
 10
106.214213562
 20
93.200000000000003
 11
96.799999999999997
 21
93.200000000000003
  0
TEXT
  8
_0-0_0
 62
    7
 10
136.80000000000001
 20
99.200000000000003
 40
3
 41
0.9
 50
0
  1
動作原理
  0
TEXT
  8
_0-0_0
 62
    7
 10
136.80000000000001
 20
89.200000000000003
 40
3
 41
0.9
 50
0
  1
整流形
  0
LINE
  8
_0-0_0
  6
CONTINUOUS
 62
    2
 10
96.799999999999997
 20
88.200000000000003
 11
96.799999999999997
 21
103.2
  0
LINE
  8
_0-0_0
  6
CONTINUOUS
 62
    2
 10
131.80000000000001
 20
103.2
 11
131.80000000000001
 21
88.200000000000003
  0
LINE
  8
_0-0_0
  6
CONTINUOUS
 62
    2
 10
101.8
 20
88.200000000000003
 11
101.8
 21
103.2
  0
TEXT
  8
_0-0_0
 62
    7
 10
136.80000000000001
 20
94.400000000000006
 40
3
 41
0.9
 50
0
  1
永久磁石可動コイル形
  0
LINE
  8
_0-0_0
  6
CONTINUOUS
 62
    2
 10
96.799999999999997
 20
88.200000000000003
 11
174.09999999999999
 21
88.200000000000003
  0
LINE
  8
_0-0_0
  6
CONTINUOUS
 62
    2
 10
174.09999999999999
 20
88.200000000000003
 11
174.09999999999999
 21
103.2
  0
LINE
  8
_0-0_0
  6
CONTINUOUS
 62
    2
 10
96.799999999999997
 20
103.2
 11
174.09999999999999
 21
103.2
  0
LINE
  8
_0-0_0
  6
CONTINUOUS
 62
    2
 10
96.799999999999997
 20
98.200000000000003
 11
174.09999999999999
 21
98.200000000000003
  0
LINE
  8
_0-0_0
  6
CONTINUOUS
 62
    2
 10
174.09999999999999
 20
93.200000000000003
 11
108.214213562
 21
93.200000000000003
  0
TEXT
  8
_0-0_0
 62
    7
 10
299.5
 20
76
 40
4
 41
0.9
 50
0
  1
□ＶＦ－１１
  0
TEXT
  8
_0-0_0
 62
    7
 10
298.69999999999999
 20
65
 40
4
 41
0.9
 50
0
  1
広角度計器　外形図
  0
TEXT
  8
_0-0_0
 62
    7
 10
298.69999999999999
 20
70
 40
3
 41
0.9
 50
0
  1
車両向け
  0
LINE
  8
_0-0_0
  6
LTYPE2
 62
    2
 10
219.5
 20
171.80000000000001
 11
231.869080919
 21
171.80000000000001
  0
LINE
  8
_0-0_0
  6
LTYPE2
 62
    2
 10
182
 20
171.80000000000001
 11
216
 21
171.80000000000001
  0
LINE
  8
_0-0_0
  6
LTYPE1
 62
    2
 10
84.5
 20
171.80000000000001
 11
144.30000000000001
 21
171.80000000000001
  0
LINE
  8
_0-0_0
  6
LTYPE2
 62
    2
 10
115.15000000000001
 20
202.232
 11
115.15000000000001
 21
140.5
  0
ENDSEC
  0
EOF
