  0
SECTION
  2
HEADER
  9
$ACADVER
  1
AC1009
  9
$DWGCODEPAGE
  3
dos932
  9
$EXTMIN
 10
0.0
 20
0.0
 30
0.0
  9
$EXTMAX
 10
297.0
 20
210.0
 30
0.0
  9
$LIMMIN
 10
0.0
 20
0.0
  9
$LIMMAX
 10
297.0
 20
210.0
  9
$LTSCALE
 40
1.0
  9
$PDMODE
 70
     0
  0
ENDSEC
  0
SECTION
  2
TABLES
  0
TABLE
  2
VPORT
 70
     1
  0
VPORT
  2
*ACTIVE
 70
     0
 10
0.0
 20
0.0
 11
1.0
 21
1.0
 12
148.5
 22
105.0
 13
0.0
 23
0.0
 14
10.0
 24
10.0
 15
10.0
 25
10.0
 16
0.0
 26
0.0
 36
1.0
 17
0.0
 27
0.0
 37
0.0
 40
297.0
 41
1.414285714
 42
50.0
 43
0.0
 44
0.0
 50
0.0
 51
0.0
 71
     0
 72
  1000
 73
     1
 74
     3
 75
     0
 76
     0
 77
     0
 78
     0
  0
ENDTAB
  0
TABLE
  2
LTYPE
 70
     7
  0
LTYPE
  2
CONTINUOUS
 70
    64
  3
Solid line
 72
    65
 73
     0
 40
0.0
  0
LTYPE
  2
LTYPE1
 70
    64
  3
CENTER
 72
    65
 73
     4
 40
5.0
 49
3.5
 49
-0.5
 49
0.5
 49
-0.5
  0
LTYPE
  2
LTYPE2
 70
    64
  3
CENTER
 72
    65
 73
     4
 40
15.0
 49
10.5
 49
-1.5
 49
1.5
 49
-1.5
  0
LTYPE
  2
LTYPE3
 70
    64
  3
CENTER
 72
    65
 73
     4
 40
3.0
 49
2.1
 49
-0.3
 49
0.3
 49
-0.3
  0
LTYPE
  2
LTYPE4
 70
    64
  3
HIDDEN
 72
    65
 73
     2
 40
2.0
 49
1.2
 49
-0.8
  0
LTYPE
  2
LTYPE5
 70
    64
  3
HIDDEN
 72
    65
 73
     2
 40
1.0
 49
0.6
 49
-0.4
  0
LTYPE
  2
LTYPE6
 70
    64
  3
HIDDEN
 72
    65
 73
     2
 40
1.5
 49
0.9
 49
-0.6
  0
ENDTAB
  0
TABLE
  2
LAYER
 70
   128
  0
LAYER
  2
0
 70
     0
 62
     7
  6
CONTINUOUS
  0
LAYER
  2
2
 70
     0
 62
     7
  6
CONTINUOUS
  0
LAYER
  2
3
 70
     0
 62
     7
  6
CONTINUOUS
  0
LAYER
  2
4
 70
     0
 62
     7
  6
CONTINUOUS
  0
LAYER
  2
5
 70
     0
 62
     7
  6
CONTINUOUS
  0
LAYER
  2
6
 70
     0
 62
     7
  6
CONTINUOUS
  0
LAYER
  2
7
 70
     0
 62
     7
  6
CONTINUOUS
  0
LAYER
  2
8
 70
     0
 62
     7
  6
CONTINUOUS
  0
LAYER
  2
9
 70
     0
 62
     7
  6
CONTINUOUS
  0
LAYER
  2
10
 70
     0
 62
     7
  6
CONTINUOUS
  0
LAYER
  2
11
 70
     0
 62
     7
  6
CONTINUOUS
  0
LAYER
  2
12
 70
     0
 62
     7
  6
CONTINUOUS
  0
LAYER
  2
13
 70
     0
 62
     7
  6
CONTINUOUS
  0
LAYER
  2
14
 70
     0
 62
     7
  6
CONTINUOUS
  0
LAYER
  2
15
 70
     0
 62
     7
  6
CONTINUOUS
  0
LAYER
  2
16
 70
     0
 62
     7
  6
CONTINUOUS
  0
LAYER
  2
17
 70
     0
 62
     7
  6
CONTINUOUS
  0
LAYER
  2
18
 70
     0
 62
     7
  6
CONTINUOUS
  0
LAYER
  2
19
 70
     0
 62
     7
  6
CONTINUOUS
  0
LAYER
  2
20
 70
     0
 62
     7
  6
CONTINUOUS
  0
LAYER
  2
21
 70
     0
 62
     7
  6
CONTINUOUS
  0
LAYER
  2
22
 70
     0
 62
     7
  6
CONTINUOUS
  0
LAYER
  2
23
 70
     0
 62
     7
  6
CONTINUOUS
  0
LAYER
  2
24
 70
     0
 62
     7
  6
CONTINUOUS
  0
LAYER
  2
25
 70
     0
 62
     7
  6
CONTINUOUS
  0
LAYER
  2
26
 70
     0
 62
     7
  6
CONTINUOUS
  0
LAYER
  2
27
 70
     0
 62
     7
  6
CONTINUOUS
  0
LAYER
  2
28
 70
     0
 62
     7
  6
CONTINUOUS
  0
LAYER
  2
29
 70
     0
 62
     7
  6
CONTINUOUS
  0
LAYER
  2
30
 70
     0
 62
     7
  6
CONTINUOUS
  0
LAYER
  2
31
 70
     0
 62
     7
  6
CONTINUOUS
  0
LAYER
  2
32
 70
     0
 62
     7
  6
CONTINUOUS
  0
LAYER
  2
33
 70
     0
 62
     7
  6
CONTINUOUS
  0
LAYER
  2
34
 70
     0
 62
     7
  6
CONTINUOUS
  0
LAYER
  2
35
 70
     0
 62
     7
  6
CONTINUOUS
  0
LAYER
  2
36
 70
     0
 62
     7
  6
CONTINUOUS
  0
LAYER
  2
37
 70
     0
 62
     7
  6
CONTINUOUS
  0
LAYER
  2
38
 70
     0
 62
     7
  6
CONTINUOUS
  0
LAYER
  2
39
 70
     0
 62
     7
  6
CONTINUOUS
  0
LAYER
  2
40
 70
     0
 62
     7
  6
CONTINUOUS
  0
LAYER
  2
41
 70
     0
 62
     7
  6
CONTINUOUS
  0
LAYER
  2
42
 70
     0
 62
     7
  6
CONTINUOUS
  0
LAYER
  2
43
 70
     0
 62
     7
  6
CONTINUOUS
  0
LAYER
  2
44
 70
     0
 62
     7
  6
CONTINUOUS
  0
LAYER
  2
45
 70
     0
 62
     7
  6
CONTINUOUS
  0
LAYER
  2
46
 70
     0
 62
     7
  6
CONTINUOUS
  0
LAYER
  2
47
 70
     0
 62
     7
  6
CONTINUOUS
  0
LAYER
  2
48
 70
     0
 62
     7
  6
CONTINUOUS
  0
LAYER
  2
49
 70
     0
 62
     7
  6
CONTINUOUS
  0
LAYER
  2
50
 70
     0
 62
     7
  6
CONTINUOUS
  0
LAYER
  2
51
 70
     0
 62
     7
  6
CONTINUOUS
  0
LAYER
  2
52
 70
     0
 62
     7
  6
CONTINUOUS
  0
LAYER
  2
53
 70
     0
 62
     7
  6
CONTINUOUS
  0
LAYER
  2
54
 70
     0
 62
     7
  6
CONTINUOUS
  0
LAYER
  2
55
 70
     0
 62
     7
  6
CONTINUOUS
  0
LAYER
  2
56
 70
     0
 62
     7
  6
CONTINUOUS
  0
LAYER
  2
57
 70
     0
 62
     7
  6
CONTINUOUS
  0
LAYER
  2
58
 70
     0
 62
     7
  6
CONTINUOUS
  0
LAYER
  2
59
 70
     0
 62
     7
  6
CONTINUOUS
  0
LAYER
  2
60
 70
     0
 62
     7
  6
CONTINUOUS
  0
LAYER
  2
61
 70
     0
 62
     7
  6
CONTINUOUS
  0
LAYER
  2
62
 70
     0
 62
     7
  6
CONTINUOUS
  0
LAYER
  2
63
 70
     0
 62
     7
  6
CONTINUOUS
  0
LAYER
  2
64
 70
     0
 62
     7
  6
CONTINUOUS
  0
LAYER
  2
65
 70
     0
 62
     7
  6
CONTINUOUS
  0
LAYER
  2
66
 70
     0
 62
     7
  6
CONTINUOUS
  0
LAYER
  2
67
 70
     0
 62
     7
  6
CONTINUOUS
  0
LAYER
  2
68
 70
     0
 62
     7
  6
CONTINUOUS
  0
LAYER
  2
69
 70
     0
 62
     7
  6
CONTINUOUS
  0
LAYER
  2
70
 70
     0
 62
     7
  6
CONTINUOUS
  0
LAYER
  2
71
 70
     0
 62
     7
  6
CONTINUOUS
  0
LAYER
  2
72
 70
     0
 62
     7
  6
CONTINUOUS
  0
LAYER
  2
73
 70
     0
 62
     7
  6
CONTINUOUS
  0
LAYER
  2
74
 70
     0
 62
     7
  6
CONTINUOUS
  0
LAYER
  2
75
 70
     0
 62
     7
  6
CONTINUOUS
  0
LAYER
  2
76
 70
     0
 62
     7
  6
CONTINUOUS
  0
LAYER
  2
77
 70
     0
 62
     7
  6
CONTINUOUS
  0
LAYER
  2
78
 70
     0
 62
     7
  6
CONTINUOUS
  0
LAYER
  2
79
 70
     0
 62
     7
  6
CONTINUOUS
  0
LAYER
  2
80
 70
     0
 62
     7
  6
CONTINUOUS
  0
LAYER
  2
81
 70
     0
 62
     7
  6
CONTINUOUS
  0
LAYER
  2
82
 70
     0
 62
     7
  6
CONTINUOUS
  0
LAYER
  2
83
 70
     0
 62
     7
  6
CONTINUOUS
  0
LAYER
  2
84
 70
     0
 62
     7
  6
CONTINUOUS
  0
LAYER
  2
85
 70
     0
 62
     7
  6
CONTINUOUS
  0
LAYER
  2
86
 70
     0
 62
     7
  6
CONTINUOUS
  0
LAYER
  2
87
 70
     0
 62
     7
  6
CONTINUOUS
  0
LAYER
  2
88
 70
     0
 62
     7
  6
CONTINUOUS
  0
LAYER
  2
89
 70
     0
 62
     7
  6
CONTINUOUS
  0
LAYER
  2
90
 70
     0
 62
     7
  6
CONTINUOUS
  0
LAYER
  2
91
 70
     0
 62
     7
  6
CONTINUOUS
  0
LAYER
  2
92
 70
     0
 62
     7
  6
CONTINUOUS
  0
LAYER
  2
93
 70
     0
 62
     7
  6
CONTINUOUS
  0
LAYER
  2
94
 70
     0
 62
     7
  6
CONTINUOUS
  0
LAYER
  2
95
 70
     0
 62
     7
  6
CONTINUOUS
  0
LAYER
  2
96
 70
     0
 62
     7
  6
CONTINUOUS
  0
LAYER
  2
97
 70
     0
 62
     7
  6
CONTINUOUS
  0
LAYER
  2
98
 70
     0
 62
     7
  6
CONTINUOUS
  0
LAYER
  2
99
 70
     0
 62
     7
  6
CONTINUOUS
  0
LAYER
  2
100
 70
     0
 62
     7
  6
CONTINUOUS
  0
LAYER
  2
101
 70
     0
 62
     7
  6
CONTINUOUS
  0
LAYER
  2
102
 70
     0
 62
     7
  6
CONTINUOUS
  0
LAYER
  2
103
 70
     0
 62
     7
  6
CONTINUOUS
  0
LAYER
  2
104
 70
     0
 62
     7
  6
CONTINUOUS
  0
LAYER
  2
105
 70
     0
 62
     7
  6
CONTINUOUS
  0
LAYER
  2
106
 70
     0
 62
     7
  6
CONTINUOUS
  0
LAYER
  2
107
 70
     0
 62
     7
  6
CONTINUOUS
  0
LAYER
  2
108
 70
     0
 62
     7
  6
CONTINUOUS
  0
LAYER
  2
109
 70
     0
 62
     7
  6
CONTINUOUS
  0
LAYER
  2
110
 70
     0
 62
     7
  6
CONTINUOUS
  0
LAYER
  2
111
 70
     0
 62
     7
  6
CONTINUOUS
  0
LAYER
  2
112
 70
     0
 62
     7
  6
CONTINUOUS
  0
LAYER
  2
113
 70
     0
 62
     7
  6
CONTINUOUS
  0
LAYER
  2
114
 70
     0
 62
     7
  6
CONTINUOUS
  0
LAYER
  2
115
 70
     0
 62
     7
  6
CONTINUOUS
  0
LAYER
  2
116
 70
     0
 62
     7
  6
CONTINUOUS
  0
LAYER
  2
117
 70
     0
 62
     7
  6
CONTINUOUS
  0
LAYER
  2
118
 70
     0
 62
     7
  6
CONTINUOUS
  0
LAYER
  2
119
 70
     0
 62
     7
  6
CONTINUOUS
  0
LAYER
  2
120
 70
     0
 62
     7
  6
CONTINUOUS
  0
LAYER
  2
121
 70
     0
 62
     7
  6
CONTINUOUS
  0
LAYER
  2
122
 70
     0
 62
     7
  6
CONTINUOUS
  0
LAYER
  2
123
 70
     0
 62
     7
  6
CONTINUOUS
  0
LAYER
  2
124
 70
     0
 62
     7
  6
CONTINUOUS
  0
LAYER
  2
125
 70
     0
 62
     7
  6
CONTINUOUS
  0
LAYER
  2
126
 70
     0
 62
     7
  6
CONTINUOUS
  0
LAYER
  2
127
 70
     0
 62
     7
  6
CONTINUOUS
  0
LAYER
  2
128
 70
     0
 62
     7
  6
CONTINUOUS
  0
ENDTAB
  0
TABLE
  2
STYLE
 70
    19
  0
STYLE
  2
STANDARD
 70
     0
 40
0.0
 41
1.0
 50
0.0
 71
     0
 42
0.2
  3
txt.shx
  4
extfont.shx
  0
STYLE
  2
KANJI0
 70
     0
 40
4.0
 41
0.9
 50
0.0
 71
     0
 42
4.0
  3
txt.shx
  4
extfont.shx
  0
STYLE
  2
KANJI1
 70
     0
 40
4.0
 41
0.9
 50
0.0
 71
     0
 42
4.0
  3
txt.shx
  4
extfont.shx
  0
STYLE
  2
KANJI2
 70
     0
 40
3.0
 41
0.6
 50
0.0
 71
     0
 42
3.0
  3
txt.shx
  4
extfont.shx
  0
STYLE
  2
KANJI3
 70
     0
 40
1.8
 41
0.6
 50
0.0
 71
     0
 42
1.8
  3
txt.shx
  4
extfont.shx
  0
STYLE
  2
KANJI4
 70
     0
 40
3.0
 41
0.9
 50
0.0
 71
     0
 42
3.0
  3
txt.shx
  4
extfont.shx
  0
STYLE
  2
KANJI5
 70
     0
 40
4.0
 41
0.9
 50
0.0
 71
     0
 42
4.0
  3
txt.shx
  4
extfont.shx
  0
STYLE
  2
KANJI6
 70
     0
 40
2.4
 41
0.9
 50
0.0
 71
     0
 42
2.4
  3
txt.shx
  4
extfont.shx
  0
STYLE
  2
KANJI7
 70
     0
 40
2.187
 41
0.9
 50
0.0
 71
     0
 42
2.187
  3
txt.shx
  4
extfont.shx
  0
STYLE
  2
KANJI8
 70
     0
 40
3.0
 41
0.8
 50
0.0
 71
     0
 42
3.0
  3
txt.shx
  4
extfont.shx
  0
STYLE
  2
KANJI9
 70
     0
 40
2.0
 41
0.8
 50
0.0
 71
     0
 42
2.0
  3
txt.shx
  4
extfont.shx
  0
STYLE
  2
KANJI10
 70
     0
 40
1.2
 41
0.666666667
 50
0.0
 71
     0
 42
1.2
  3
txt.shx
  4
extfont.shx
  0
STYLE
  2
KANJI11
 70
     0
 40
3.0
 41
0.833333333
 50
0.0
 71
     0
 42
3.0
  3
txt.shx
  4
extfont.shx
  0
STYLE
  2
KANJI12
 70
     0
 40
3.0
 41
0.6
 50
0.0
 71
     0
 42
3.0
  3
txt.shx
  4
extfont.shx
  0
STYLE
  2
KANJI13
 70
     0
 40
3.0
 41
0.9
 50
0.0
 71
     0
 42
3.0
  3
txt.shx
  4
extfont.shx
  0
STYLE
  2
KANJI14
 70
     0
 40
3.0
 41
0.9
 50
0.0
 71
     0
 42
3.0
  3
txt.shx
  4
extfont.shx
  0
STYLE
  2
KANJI15
 70
     0
 40
5.8
 41
0.827586207
 50
0.0
 71
     0
 42
5.8
  3
txt.shx
  4
extfont.shx
  0
STYLE
  2
KANJI16
 70
     0
 40
3.0
 41
0.666666667
 50
0.0
 71
     0
 42
3.0
  3
txt.shx
  4
extfont.shx
  0
STYLE
  2
KANJI17
 70
     0
 40
3.0
 41
0.45
 50
0.0
 71
     0
 42
3.0
  3
txt.shx
  4
extfont.shx
  0
ENDTAB
  0
TABLE
  2
VIEW
 70
     0
  0
ENDTAB
  0
ENDSEC
  0
SECTION
  2
BLOCKS
  0
ENDSEC
  0
SECTION
  2
ENTITIES
  0
TEXT
  8
0
  6
CONTINUOUS
 62
     1
 10
154.855925513
 20
23.711
 30
1.0
 40
4.0
  1
パネルカット
 50
0.0
 41
0.9
 51
0.0
  7
KANJI0
  0
LINE
  8
0
  6
CONTINUOUS
 62
     1
 10
153.755925513
 20
22.711
 30
0.0
 11
181.755925513
 21
22.711
 31
0.0
  0
TEXT
  8
0
  6
CONTINUOUS
 62
     1
 10
230.0
 20
87.436
 30
1.2
 40
4.0
  1
広角度計器　外形図
 50
0.0
 41
0.9
 51
0.0
  7
KANJI1
  0
CIRCLE
  8
0
  6
CONTINUOUS
 62
     1
 10
166.75
 20
50.936
 30
0.0
 40
16.75
  0
CIRCLE
  8
0
  6
CONTINUOUS
 62
     1
 10
182.75
 20
66.936
 30
0.0
 40
1.25
  0
CIRCLE
  8
0
  6
CONTINUOUS
 62
     1
 10
150.75
 20
66.936
 30
0.0
 40
1.25
  0
CIRCLE
  8
0
  6
CONTINUOUS
 62
     1
 10
150.75
 20
34.936
 30
0.0
 40
1.25
  0
CIRCLE
  8
0
  6
CONTINUOUS
 62
     1
 10
182.75
 20
34.936
 30
0.0
 40
1.25
  0
LINE
  8
0
  6
LTYPE1
 62
     2
 10
146.75
 20
34.936
 30
0.0
 11
154.25
 21
34.936
 31
0.0
  0
LINE
  8
0
  6
LTYPE1
 62
     2
 10
178.75
 20
34.936
 30
0.0
 11
187.75
 21
34.936
 31
0.0
  0
LINE
  8
0
  6
LTYPE1
 62
     2
 10
146.25
 20
66.936
 30
0.0
 11
154.75
 21
66.936
 31
0.0
  0
LINE
  8
0
  6
LTYPE1
 62
     2
 10
178.75
 20
66.936
 30
0.0
 11
187.75
 21
66.936
 31
0.0
  0
LINE
  8
0
  6
LTYPE1
 62
     2
 10
182.75
 20
70.936
 30
0.0
 11
182.75
 21
62.436
 31
0.0
  0
LINE
  8
0
  6
LTYPE1
 62
     2
 10
182.75
 20
38.936
 30
0.0
 11
182.75
 21
29.436
 31
0.0
  0
TEXT
  8
0
  6
CONTINUOUS
 62
     2
 10
191.75
 20
54.556
 30
0.3
 40
3.0
  1
３２
 50
90.0
 41
0.6
 51
0.0
  7
KANJI2
  0
TEXT
  8
0
  6
CONTINUOUS
 62
     2
 10
191.75
 20
58.456
 30
0.18
 40
1.8
  1
±０．５
 50
90.0
 41
0.6
 51
0.0
  7
KANJI3
  0
TEXT
  8
0
  6
CONTINUOUS
 62
     2
 10
191.75
 20
38.556
 30
0.3
 40
3.0
  1
３２
 50
90.0
 41
0.6
 51
0.0
  7
KANJI2
  0
TEXT
  8
0
  6
CONTINUOUS
 62
     2
 10
191.75
 20
42.456
 30
0.18
 40
1.8
  1
±０．５
 50
90.0
 41
0.6
 51
0.0
  7
KANJI3
  0
TEXT
  8
0
  6
CONTINUOUS
 62
     2
 10
188.523502692
 20
25.936
 30
0.3
 40
3.0
  1
４－φ５穴
 50
0.0
 41
0.9
 51
0.0
  7
KANJI4
  0
LINE
  8
0
  6
LTYPE1
 62
     2
 10
150.75
 20
31.236
 30
0.0
 11
150.75
 21
39.436
 31
0.0
  0
LINE
  8
0
  6
LTYPE1
 62
     2
 10
150.75
 20
62.436
 30
0.0
 11
150.75
 21
70.236
 31
0.0
  0
LINE
  8
0
  6
CONTINUOUS
 62
     2
 10
166.75
 20
76.936
 30
0.0
 11
166.75
 21
77.936
 31
0.0
  0
LINE
  8
0
  6
LTYPE1
 62
     2
 10
166.75
 20
77.936
 30
0.0
 11
166.75
 21
30.436
 31
0.0
  0
LINE
  8
0
  6
CONTINUOUS
 62
     2
 10
192.85
 20
50.936
 30
0.0
 11
190.75
 21
50.936
 31
0.0
  0
LINE
  8
0
  6
CONTINUOUS
 62
     2
 10
143.65
 20
50.936
 30
0.0
 11
193.75
 21
50.936
 31
0.0
  0
LINE
  8
0
  6
CONTINUOUS
 62
     2
 10
192.75
 20
34.936
 30
0.0
 11
193.397047613
 21
37.350814566
 31
0.0
  0
LINE
  8
0
  6
CONTINUOUS
 62
     2
 10
192.75
 20
34.936
 30
0.0
 11
192.102952387
 21
37.350814566
 31
0.0
  0
LINE
  8
0
  6
CONTINUOUS
 62
     2
 10
188.75
 20
34.936
 30
0.0
 11
193.75
 21
34.936
 31
0.0
  0
LINE
  8
0
  6
CONTINUOUS
 62
     2
 10
192.75
 20
50.936
 30
0.0
 11
192.102952387
 21
48.521185434
 31
0.0
  0
LINE
  8
0
  6
CONTINUOUS
 62
     2
 10
192.75
 20
50.936
 30
0.0
 11
193.397047613
 21
48.521185434
 31
0.0
  0
LINE
  8
0
  6
CONTINUOUS
 62
     2
 10
192.75
 20
50.936
 30
0.0
 11
192.75
 21
34.936
 31
0.0
  0
LINE
  8
0
  6
CONTINUOUS
 62
     2
 10
192.75
 20
50.936
 30
0.0
 11
193.397047613
 21
53.350814566
 31
0.0
  0
LINE
  8
0
  6
CONTINUOUS
 62
     2
 10
192.75
 20
50.936
 30
0.0
 11
192.102952387
 21
53.350814566
 31
0.0
  0
LINE
  8
0
  6
CONTINUOUS
 62
     2
 10
192.75
 20
66.936
 30
0.0
 11
192.102952387
 21
64.521185434
 31
0.0
  0
LINE
  8
0
  6
CONTINUOUS
 62
     2
 10
192.75
 20
66.936
 30
0.0
 11
193.397047613
 21
64.521185434
 31
0.0
  0
LINE
  8
0
  6
CONTINUOUS
 62
     2
 10
192.75
 20
66.936
 30
0.0
 11
192.75
 21
50.936
 31
0.0
  0
LINE
  8
0
  6
CONTINUOUS
 62
     2
 10
188.75
 20
66.936
 30
0.0
 11
193.75
 21
66.936
 31
0.0
  0
LINE
  8
0
  6
CONTINUOUS
 62
     2
 10
183.090944495
 20
54.615134818
 30
0.0
 11
180.592978753
 21
54.715967104
 31
0.0
  0
LINE
  8
0
  6
CONTINUOUS
 62
     2
 10
183.090944495
 20
54.615134818
 30
0.0
 11
180.877226562
 21
53.453475268
 31
0.0
  0
LINE
  8
0
  6
CONTINUOUS
 62
     2
 10
150.409055505
 20
47.256865182
 30
0.0
 11
152.907021247
 21
47.156032896
 31
0.0
  0
LINE
  8
0
  6
CONTINUOUS
 62
     2
 10
150.409055505
 20
47.256865182
 30
0.0
 11
152.622773438
 21
48.418524732
 31
0.0
  0
LINE
  8
0
  6
CONTINUOUS
 62
     2
 10
150.409055505
 20
47.256865182
 30
0.0
 11
183.090944495
 21
54.615134818
 31
0.0
  0
LINE
  8
0
  6
CONTINUOUS
 62
     2
 10
183.35
 20
33.836
 30
0.0
 11
183.997047613
 21
31.421185434
 31
0.0
  0
LINE
  8
0
  6
CONTINUOUS
 62
     2
 10
183.35
 20
33.836
 30
0.0
 11
185.117766953
 21
32.068233047
 31
0.0
  0
LINE
  8
0
  6
CONTINUOUS
 62
     2
 10
183.35
 20
33.836
 30
0.0
 11
188.488417396
 21
24.936
 31
0.0
  0
LINE
  8
0
  6
CONTINUOUS
 62
     2
 10
188.523502692
 20
24.936
 30
0.0
 11
203.223502692
 21
24.936
 31
0.0
  0
TEXT
  8
0
  6
CONTINUOUS
 62
     2
 10
154.37
 20
77.936
 30
0.3
 40
3.0
  1
３２
 50
0.0
 41
0.6
 51
0.0
  7
KANJI2
  0
TEXT
  8
0
  6
CONTINUOUS
 62
     2
 10
158.27
 20
77.936
 30
0.18
 40
1.8
  1
±０．５
 50
0.0
 41
0.6
 51
0.0
  7
KANJI3
  0
LINE
  8
0
  6
CONTINUOUS
 62
     2
 10
166.75
 20
76.936
 30
0.0
 11
164.335185434
 21
77.583047613
 31
0.0
  0
LINE
  8
0
  6
CONTINUOUS
 62
     2
 10
166.75
 20
76.936
 30
0.0
 11
164.335185434
 21
76.288952387
 31
0.0
  0
LINE
  8
0
  6
CONTINUOUS
 62
     2
 10
150.75
 20
76.936
 30
0.0
 11
153.164814566
 21
76.288952387
 31
0.0
  0
LINE
  8
0
  6
CONTINUOUS
 62
     2
 10
150.75
 20
76.936
 30
0.0
 11
153.164814566
 21
77.583047613
 31
0.0
  0
LINE
  8
0
  6
CONTINUOUS
 62
     2
 10
150.75
 20
71.436
 30
0.0
 11
150.75
 21
77.936
 31
0.0
  0
LINE
  8
0
  6
CONTINUOUS
 62
     2
 10
150.75
 20
76.936
 30
0.0
 11
166.75
 21
76.936
 31
0.0
  0
TEXT
  8
0
  6
CONTINUOUS
 62
     2
 10
170.37
 20
77.936
 30
0.3
 40
3.0
  1
３２
 50
0.0
 41
0.6
 51
0.0
  7
KANJI2
  0
TEXT
  8
0
  6
CONTINUOUS
 62
     2
 10
174.27
 20
77.936
 30
0.18
 40
1.8
  1
±０．５
 50
0.0
 41
0.6
 51
0.0
  7
KANJI3
  0
LINE
  8
0
  6
CONTINUOUS
 62
     2
 10
166.75
 20
76.936
 30
0.0
 11
169.164814566
 21
76.288952387
 31
0.0
  0
LINE
  8
0
  6
CONTINUOUS
 62
     2
 10
166.75
 20
76.936
 30
0.0
 11
169.164814566
 21
77.583047613
 31
0.0
  0
LINE
  8
0
  6
CONTINUOUS
 62
     2
 10
182.75
 20
76.936
 30
0.0
 11
180.335185434
 21
77.583047613
 31
0.0
  0
LINE
  8
0
  6
CONTINUOUS
 62
     2
 10
182.75
 20
76.936
 30
0.0
 11
180.335185434
 21
76.288952387
 31
0.0
  0
LINE
  8
0
  6
CONTINUOUS
 62
     2
 10
182.75
 20
71.836
 30
0.0
 11
182.75
 21
77.936
 31
0.0
  0
LINE
  8
0
  6
CONTINUOUS
 62
     2
 10
166.75
 20
76.936
 30
0.0
 11
182.75
 21
76.936
 31
0.0
  0
TEXT
  8
0
  6
CONTINUOUS
 62
     1
 10
230.0
 20
98.436
 30
0.4
 40
4.0
  1
□ＶＦ－８ＮＬＥＤ（Ｖ）
 50
0.0
 41
0.9
 51
0.0
  7
KANJI5
  0
TEXT
  8
0
  6
CONTINUOUS
 62
     1
 10
228.32
 20
92.116
 30
0.24
 40
2.4
  1
ＬＥＤ照明付（Ｖ付），端子キャップ付
 50
0.0
 41
0.9
 51
0.0
  7
KANJI6
  0
CIRCLE
  8
0
  6
CONTINUOUS
 62
     1
 10
49.0
 20
138.479
 30
0.0
 40
18.75
  0
CIRCLE
  8
0
  6
CONTINUOUS
 62
     1
 10
49.0
 20
138.479
 30
0.0
 40
3.0
  0
LINE
  8
0
  6
CONTINUOUS
 62
     1
 10
36.138342919
 20
131.783645108
 30
0.0
 11
37.03447535
 21
131.686451151
 31
0.0
  0
LINE
  8
0
  6
CONTINUOUS
 62
     1
 10
36.138342919
 20
131.783645108
 30
0.0
 11
36.572726737
 21
132.573461985
 31
0.0
  0
LINE
  8
0
  6
CONTINUOUS
 62
     1
 10
36.572726737
 20
132.573461985
 30
0.0
 11
42.001107291
 21
135.681143526
 31
0.0
  0
LINE
  8
0
  6
CONTINUOUS
 62
     1
 10
42.693730211
 20
134.350627276
 30
0.0
 11
37.03447535
 21
131.686451151
 31
0.0
  0
LINE
  8
0
  6
CONTINUOUS
 62
     1
 10
46.65
 20
138.929
 30
0.0
 11
51.35
 21
138.929
 31
0.0
  0
LINE
  8
0
  6
CONTINUOUS
 62
     1
 10
51.35
 20
138.079
 30
0.0
 11
46.65
 21
138.079
 31
0.0
  0
CIRCLE
  8
0
  6
CONTINUOUS
 62
     1
 10
49.0
 20
138.479
 30
0.0
 40
2.4
  0
ARC
  8
0
  6
CONTINUOUS
 62
     1
 10
31.0
 20
156.479
 30
0.0
 40
2.0
 50
90.0
 51
180.0
  0
LINE
  8
0
  6
CONTINUOUS
 62
     1
 10
67.0
 20
158.479
 30
0.0
 11
31.0
 21
158.479
 31
0.0
  0
ARC
  8
0
  6
CONTINUOUS
 62
     1
 10
67.0
 20
156.479
 30
0.0
 40
2.0
 50
0.0
 51
90.0
  0
LINE
  8
0
  6
CONTINUOUS
 62
     1
 10
69.0
 20
120.479
 30
0.0
 11
69.0
 21
156.479
 31
0.0
  0
LINE
  8
0
  6
CONTINUOUS
 62
     1
 10
29.0
 20
156.479
 30
0.0
 11
29.0
 21
120.479
 31
0.0
  0
ARC
  8
0
  6
CONTINUOUS
 62
     1
 10
31.0
 20
120.479
 30
0.0
 40
2.0
 50
180.0
 51
270.0
  0
ARC
  8
0
  6
CONTINUOUS
 62
     1
 10
185.75
 20
156.479
 30
0.0
 40
1.0
 50
0.0
 51
90.0
  0
LINE
  8
0
  6
CONTINUOUS
 62
     1
 10
185.75
 20
157.479
 30
0.0
 11
149.75
 21
157.479
 31
0.0
  0
ARC
  8
0
  6
CONTINUOUS
 62
     1
 10
149.75
 20
156.479
 30
0.0
 40
1.0
 50
90.0
 51
180.0
  0
LINE
  8
0
  6
CONTINUOUS
 62
     1
 10
148.75
 20
156.479
 30
0.0
 11
148.75
 21
120.479
 31
0.0
  0
ARC
  8
0
  6
CONTINUOUS
 62
     1
 10
149.75
 20
120.479
 30
0.0
 40
1.0
 50
180.0
 51
270.0
  0
LINE
  8
0
  6
CONTINUOUS
 62
     1
 10
186.75
 20
120.479
 30
0.0
 11
186.75
 21
156.479
 31
0.0
  0
ARC
  8
0
  6
CONTINUOUS
 62
     1
 10
185.75
 20
120.479
 30
0.0
 40
1.0
 50
270.0
 51
0.0
  0
ARC
  8
0
  6
CONTINUOUS
 62
     1
 10
185.75
 20
120.479
 30
0.0
 40
2.0
 50
270.0
 51
0.0
  0
LINE
  8
0
  6
CONTINUOUS
 62
     1
 10
147.75
 20
156.479
 30
0.0
 11
147.75
 21
120.479
 31
0.0
  0
ARC
  8
0
  6
CONTINUOUS
 62
     1
 10
149.75
 20
156.479
 30
0.0
 40
2.0
 50
90.0
 51
180.0
  0
LINE
  8
0
  6
CONTINUOUS
 62
     1
 10
187.75
 20
120.479
 30
0.0
 11
187.75
 21
156.479
 31
0.0
  0
LINE
  8
0
  6
CONTINUOUS
 62
     1
 10
185.75
 20
158.479
 30
0.0
 11
149.75
 21
158.479
 31
0.0
  0
ARC
  8
0
  6
CONTINUOUS
 62
     1
 10
185.75
 20
156.479
 30
0.0
 40
2.0
 50
0.0
 51
90.0
  0
LINE
  8
0
  6
CONTINUOUS
 62
     1
 10
89.0
 20
118.479
 30
0.0
 11
89.0
 21
158.479
 31
0.0
  0
LINE
  8
0
  6
CONTINUOUS
 62
     1
 10
89.0
 20
158.479
 30
0.0
 11
86.5
 21
158.479
 31
0.0
  0
LINE
  8
0
  6
CONTINUOUS
 62
     1
 10
85.5
 20
157.479
 30
0.0
 11
85.5
 21
119.479
 31
0.0
  0
ARC
  8
0
  6
CONTINUOUS
 62
     1
 10
86.5
 20
157.479
 30
0.0
 40
1.0
 50
90.0
 51
180.0
  0
LINE
  8
0
  6
CONTINUOUS
 62
     1
 10
85.5
 20
157.229
 30
0.0
 11
83.961266683
 21
157.229
 31
0.0
  0
LINE
  8
0
  6
CONTINUOUS
 62
     1
 10
82.35
 20
140.779
 30
0.0
 11
82.962046435
 21
156.268482867
 31
0.0
  0
ARC
  8
0
  6
CONTINUOUS
 62
     1
 10
83.961266683
 20
156.229
 30
0.0
 40
1.0
 50
90.0
 51
177.737210193
  0
LINE
  8
0
  6
CONTINUOUS
 62
     1
 10
82.35
 20
136.229
 30
0.0
 11
82.96215674
 21
120.689636592
 31
0.0
  0
ARC
  8
0
  6
CONTINUOUS
 62
     1
 10
131.75
 20
122.729
 30
0.0
 40
0.5
 50
270.0
 51
0.0
  0
ARC
  8
0
  6
CONTINUOUS
 62
     1
 10
131.75
 20
154.229
 30
0.0
 40
0.5
 50
0.0
 51
90.0
  0
LINE
  8
0
  6
CONTINUOUS
 62
     1
 10
96.75
 20
154.729
 30
0.0
 11
131.75
 21
154.729
 31
0.0
  0
LINE
  8
0
  6
CONTINUOUS
 62
     1
 10
131.75
 20
122.229
 30
0.0
 11
96.75
 21
122.229
 31
0.0
  0
LINE
  8
0
  6
CONTINUOUS
 62
     1
 10
129.75
 20
154.729
 30
0.0
 11
129.75
 21
122.229
 31
0.0
  0
LINE
  8
0
  6
CONTINUOUS
 62
     1
 10
80.8
 20
138.929
 30
0.0
 11
81.5
 21
138.929
 31
0.0
  0
LINE
  8
0
  6
CONTINUOUS
 62
     1
 10
80.8
 20
138.079
 30
0.0
 11
81.5
 21
138.079
 31
0.0
  0
LINE
  8
0
  6
CONTINUOUS
 62
     1
 10
81.5
 20
140.879
 30
0.0
 11
81.5
 21
141.229
 31
0.0
  0
ARC
  8
0
  6
CONTINUOUS
 62
     1
 10
81.75
 20
141.229
 30
0.0
 40
0.25
 50
90.0
 51
180.0
  0
LINE
  8
0
  6
CONTINUOUS
 62
     1
 10
81.5
 20
136.079
 30
0.0
 11
81.5
 21
135.729
 31
0.0
  0
ARC
  8
0
  6
CONTINUOUS
 62
     1
 10
81.75
 20
135.729
 30
0.0
 40
0.25
 50
180.0
 51
270.0
  0
LINE
  8
0
  6
CONTINUOUS
 62
     1
 10
81.75
 20
135.479
 30
0.0
 11
81.9
 21
135.479
 31
0.0
  0
ARC
  8
0
  6
CONTINUOUS
 62
     1
 10
81.9
 20
135.579
 30
0.0
 40
0.1
 50
270.0
 51
0.0
  0
LINE
  8
0
  6
CONTINUOUS
 62
     1
 10
81.9
 20
141.479
 30
0.0
 11
81.75
 21
141.479
 31
0.0
  0
ARC
  8
0
  6
CONTINUOUS
 62
     1
 10
81.9
 20
141.379
 30
0.0
 40
0.1
 50
0.0
 51
90.0
  0
ARC
  8
0
  6
CONTINUOUS
 62
     1
 10
85.25
 20
138.479
 30
0.0
 40
4.5
 50
185.07960786
 51
212.619243071
  0
ARC
  8
0
  6
CONTINUOUS
 62
     1
 10
85.25
 20
138.479
 30
0.0
 40
4.5
 50
147.380756929
 51
174.289406862
  0
LINE
  8
0
  6
CONTINUOUS
 62
     1
 10
82.35
 20
140.779
 30
0.0
 11
82.35
 21
136.229
 31
0.0
  0
LINE
  8
0
  6
CONTINUOUS
 62
     1
 10
135.25
 20
147.479
 30
0.0
 11
135.25
 21
144.479
 31
0.0
  0
LINE
  8
0
  6
CONTINUOUS
 62
     1
 10
135.25
 20
147.479
 30
0.0
 11
135.25
 21
147.729
 31
0.0
  0
LINE
  8
0
  6
CONTINUOUS
 62
     1
 10
135.25
 20
147.729
 30
0.0
 11
135.75
 21
147.729
 31
0.0
  0
LINE
  8
0
  6
CONTINUOUS
 62
     1
 10
135.75
 20
147.729
 30
0.0
 11
135.75
 21
144.229
 31
0.0
  0
LINE
  8
0
  6
CONTINUOUS
 62
     1
 10
135.75
 20
144.229
 30
0.0
 11
135.25
 21
144.229
 31
0.0
  0
LINE
  8
0
  6
CONTINUOUS
 62
     1
 10
135.25
 20
144.229
 30
0.0
 11
135.25
 21
144.479
 31
0.0
  0
LINE
  8
0
  6
CONTINUOUS
 62
     1
 10
135.25
 20
145.979
 30
0.0
 11
135.75
 21
146.267675135
 31
0.0
  0
LINE
  8
0
  6
CONTINUOUS
 62
     1
 10
135.25
 20
145.690324865
 30
0.0
 11
135.75
 21
145.979
 31
0.0
  0
LINE
  8
0
  6
CONTINUOUS
 62
     1
 10
135.75
 20
144.229
 30
0.0
 11
136.239512163
 21
144.229
 31
0.0
  0
ARC
  8
0
  6
CONTINUOUS
 62
     1
 10
136.239512163
 20
147.079
 30
0.0
 40
0.65
 50
16.601549599
 51
90.0
  0
LINE
  8
0
  6
CONTINUOUS
 62
     1
 10
137.05
 20
146.229
 30
0.0
 11
136.35
 21
146.229
 31
0.0
  0
LINE
  8
0
  6
CONTINUOUS
 62
     1
 10
136.35
 20
146.229
 30
0.0
 11
136.35
 21
145.729
 31
0.0
  0
LINE
  8
0
  6
CONTINUOUS
 62
     1
 10
136.35
 20
145.729
 30
0.0
 11
137.05
 21
145.729
 31
0.0
  0
ARC
  8
0
  6
CONTINUOUS
 62
     1
 10
132.55
 20
145.979
 30
0.0
 40
4.5
 50
3.17983012
 51
16.601549599
  0
ARC
  8
0
  6
CONTINUOUS
 62
     1
 10
132.55
 20
145.979
 30
0.0
 40
4.5
 50
343.398450401
 51
356.82016988
  0
LINE
  8
0
  6
CONTINUOUS
 62
     1
 10
135.75
 20
147.729
 30
0.0
 11
136.239512163
 21
147.729
 31
0.0
  0
ARC
  8
0
  6
CONTINUOUS
 62
     1
 10
136.239512163
 20
144.879
 30
0.0
 40
0.65
 50
270.0
 51
343.398450401
  0
LINE
  8
0
  6
CONTINUOUS
 62
     1
 10
132.25
 20
154.229
 30
0.0
 11
132.25
 21
122.729
 31
0.0
  0
LINE
  8
0
  6
CONTINUOUS
 62
     1
 10
132.25
 20
148.435835382
 30
0.0
 11
131.25
 21
148.435835382
 31
0.0
  0
LINE
  8
0
  6
CONTINUOUS
 62
     1
 10
131.25
 20
148.435835382
 30
0.0
 11
131.25
 21
144.821994406
 31
0.0
  0
LINE
  8
0
  6
CONTINUOUS
 62
     1
 10
131.25
 20
144.821994406
 30
0.0
 11
132.25
 21
144.821994406
 31
0.0
  0
ARC
  8
0
  6
CONTINUOUS
 62
     1
 10
131.619560071
 20
146.354
 30
0.0
 40
0.5
 50
16.9577633
 51
90.0
  0
LINE
  8
0
  6
CONTINUOUS
 62
     1
 10
131.25
 20
146.854
 30
0.0
 11
131.619560071
 21
146.854
 31
0.0
  0
ARC
  8
0
  6
CONTINUOUS
 62
     1
 10
128.75
 20
145.479
 30
0.0
 40
3.5
 50
349.180484284
 51
16.9577633
  0
LINE
  8
0
  6
CONTINUOUS
 62
     1
 10
132.25
 20
147.479
 30
0.0
 11
135.25
 21
147.479
 31
0.0
  0
LINE
  8
0
  6
CONTINUOUS
 62
     1
 10
135.25
 20
144.479
 30
0.0
 11
132.25
 21
144.479
 31
0.0
  0
ARC
  8
0
  6
CONTINUOUS
 62
     1
 10
153.562649522
 20
144.071994406
 30
0.0
 40
0.75
 50
60.0
 51
158.484449741
  0
LINE
  8
0
  6
CONTINUOUS
 62
     1
 10
154.875644347
 20
144.179961894
 30
0.0
 11
153.937649522
 21
144.721513459
 31
0.0
  0
ARC
  8
0
  6
CONTINUOUS
 62
     1
 10
155.812649522
 20
147.969108723
 30
0.0
 40
0.75
 50
141.515550259
 51
240.0
  0
LINE
  8
0
  6
CONTINUOUS
 62
     1
 10
156.375644347
 20
146.778038106
 30
0.0
 11
155.437649522
 21
147.31958967
 31
0.0
  0
ARC
  8
0
  6
CONTINUOUS
 62
     1
 10
155.625644347
 20
145.479
 30
0.0
 40
1.5
 50
240.0
 51
60.0
  0
ARC
  8
0
  6
CONTINUOUS
 62
     1
 10
181.937350478
 20
144.071994406
 30
0.0
 40
0.75
 50
21.515550259
 51
120.0
  0
LINE
  8
0
  6
CONTINUOUS
 62
     1
 10
180.624355653
 20
144.179961894
 30
0.0
 11
181.562350478
 21
144.721513459
 31
0.0
  0
ARC
  8
0
  6
CONTINUOUS
 62
     1
 10
179.687350478
 20
147.969108723
 30
0.0
 40
0.75
 50
300.0
 51
38.484449741
  0
LINE
  8
0
  6
CONTINUOUS
 62
     1
 10
179.124355653
 20
146.778038106
 30
0.0
 11
180.062350478
 21
147.31958967
 31
0.0
  0
ARC
  8
0
  6
CONTINUOUS
 62
     1
 10
179.874355653
 20
145.479
 30
0.0
 40
1.5
 50
120.0
 51
300.0
  0
ARC
  8
0
  6
CONTINUOUS
 62
     1
 10
170.0
 20
123.395896871
 30
0.0
 40
0.75
 50
180.0
 51
278.484449741
  0
LINE
  8
0
  6
CONTINUOUS
 62
     1
 10
169.25
 20
124.479
 30
0.0
 11
169.25
 21
123.395896871
 31
0.0
  0
CIRCLE
  8
0
  6
CONTINUOUS
 62
     1
 10
167.75
 20
138.479
 30
0.0
 40
16.25
  0
CIRCLE
  8
0
  6
CONTINUOUS
 62
     1
 10
167.75
 20
138.479
 30
0.0
 40
16.0
  0
LINE
  8
0
  6
CONTINUOUS
 62
     1
 10
166.25
 20
124.479
 30
0.0
 11
166.25
 21
123.395896871
 31
0.0
  0
ARC
  8
0
  6
CONTINUOUS
 62
     1
 10
165.5
 20
123.395896871
 30
0.0
 40
0.75
 50
261.515550259
 51
0.0
  0
ARC
  8
0
  6
CONTINUOUS
 62
     1
 10
167.75
 20
124.479
 30
0.0
 40
1.5
 50
0.0
 51
180.0
  0
LINE
  8
0
  6
CONTINUOUS
 62
     1
 10
181.996298557
 20
123.4915
 30
0.0
 11
181.996298557
 21
121.4665
 31
0.0
  0
LINE
  8
0
  6
CONTINUOUS
 62
     1
 10
181.996298557
 20
121.4665
 30
0.0
 11
183.75
 21
120.454
 31
0.0
  0
LINE
  8
0
  6
CONTINUOUS
 62
     1
 10
183.75
 20
120.454
 30
0.0
 11
185.503701443
 21
121.4665
 31
0.0
  0
LINE
  8
0
  6
CONTINUOUS
 62
     1
 10
185.503701443
 20
121.4665
 30
0.0
 11
185.503701443
 21
123.4915
 31
0.0
  0
LINE
  8
0
  6
CONTINUOUS
 62
     1
 10
185.503701443
 20
123.4915
 30
0.0
 11
183.75
 21
124.504
 31
0.0
  0
LINE
  8
0
  6
CONTINUOUS
 62
     1
 10
183.75
 20
124.504
 30
0.0
 11
181.996298557
 21
123.4915
 31
0.0
  0
LINE
  8
0
  6
CONTINUOUS
 62
     1
 10
153.503701443
 20
121.4665
 30
0.0
 11
153.503701443
 21
123.4915
 31
0.0
  0
LINE
  8
0
  6
CONTINUOUS
 62
     1
 10
153.503701443
 20
123.4915
 30
0.0
 11
151.75
 21
124.504
 31
0.0
  0
LINE
  8
0
  6
CONTINUOUS
 62
     1
 10
151.75
 20
120.454
 30
0.0
 11
153.503701443
 21
121.4665
 31
0.0
  0
LINE
  8
0
  6
CONTINUOUS
 62
     1
 10
149.996298557
 20
123.4915
 30
0.0
 11
149.996298557
 21
121.4665
 31
0.0
  0
LINE
  8
0
  6
CONTINUOUS
 62
     1
 10
149.996298557
 20
121.4665
 30
0.0
 11
151.75
 21
120.454
 31
0.0
  0
LINE
  8
0
  6
CONTINUOUS
 62
     1
 10
151.75
 20
124.504
 30
0.0
 11
149.996298557
 21
123.4915
 31
0.0
  0
LINE
  8
0
  6
CONTINUOUS
 62
     1
 10
149.996298557
 20
155.4915
 30
0.0
 11
149.996298557
 21
153.4665
 31
0.0
  0
LINE
  8
0
  6
CONTINUOUS
 62
     1
 10
149.996298557
 20
153.4665
 30
0.0
 11
151.75
 21
152.454
 31
0.0
  0
LINE
  8
0
  6
CONTINUOUS
 62
     1
 10
151.75
 20
156.504
 30
0.0
 11
149.996298557
 21
155.4915
 31
0.0
  0
LINE
  8
0
  6
CONTINUOUS
 62
     1
 10
153.503701443
 20
153.4665
 30
0.0
 11
153.503701443
 21
155.4915
 31
0.0
  0
LINE
  8
0
  6
CONTINUOUS
 62
     1
 10
153.503701443
 20
155.4915
 30
0.0
 11
151.75
 21
156.504
 31
0.0
  0
LINE
  8
0
  6
CONTINUOUS
 62
     1
 10
151.75
 20
152.454
 30
0.0
 11
153.503701443
 21
153.4665
 31
0.0
  0
CIRCLE
  8
0
  6
CONTINUOUS
 62
     1
 10
161.5
 20
145.979
 30
0.0
 40
1.75
  0
CIRCLE
  8
0
  6
CONTINUOUS
 62
     1
 10
174.0
 20
145.979
 30
0.0
 40
1.75
  0
LINE
  8
0
  6
CONTINUOUS
 62
     1
 10
93.35
 20
152.424
 30
0.0
 11
93.65
 21
152.724
 31
0.0
  0
LINE
  8
0
  6
CONTINUOUS
 62
     1
 10
92.15
 20
152.449
 30
0.0
 11
93.4
 21
152.449
 31
0.0
  0
LINE
  8
0
  6
CONTINUOUS
 62
     1
 10
92.15
 20
156.499
 30
0.0
 11
92.15
 21
152.449
 31
0.0
  0
LINE
  8
0
  6
CONTINUOUS
 62
     1
 10
93.65
 20
152.704
 30
0.0
 11
93.65
 21
156.249
 31
0.0
  0
LINE
  8
0
  6
CONTINUOUS
 62
     1
 10
91.75
 20
156.899
 30
0.0
 11
91.75
 21
152.049
 31
0.0
  0
LINE
  8
0
  6
CONTINUOUS
 62
     1
 10
92.15
 20
152.449
 30
0.0
 11
91.75
 21
152.049
 31
0.0
  0
LINE
  8
0
  6
CONTINUOUS
 62
     1
 10
93.65
 20
153.149
 30
0.0
 11
93.35
 21
153.419
 31
0.0
  0
LINE
  8
0
  6
CONTINUOUS
 62
     1
 10
93.65
 20
153.724
 30
0.0
 11
93.35
 21
153.454
 31
0.0
  0
LINE
  8
0
  6
CONTINUOUS
 62
     1
 10
92.15
 20
153.449
 30
0.0
 11
93.366666667
 21
153.449
 31
0.0
  0
LINE
  8
0
  6
CONTINUOUS
 62
     1
 10
93.4
 20
156.499
 30
0.0
 11
92.15
 21
156.499
 31
0.0
  0
LINE
  8
0
  6
CONTINUOUS
 62
     1
 10
93.4
 20
156.499
 30
0.0
 11
93.65
 21
156.249
 31
0.0
  0
LINE
  8
0
  6
CONTINUOUS
 62
     1
 10
93.39
 20
155.434
 30
0.0
 11
93.65
 21
155.734
 31
0.0
  0
LINE
  8
0
  6
CONTINUOUS
 62
     1
 10
93.403
 20
155.449
 30
0.0
 11
93.653
 21
155.249
 31
0.0
  0
LINE
  8
0
  6
CONTINUOUS
 62
     1
 10
93.403
 20
155.449
 30
0.0
 11
92.15
 21
155.449
 31
0.0
  0
LINE
  8
0
  6
CONTINUOUS
 62
     1
 10
92.15
 20
156.499
 30
0.0
 11
91.75
 21
156.899
 31
0.0
  0
LINE
  8
0
  6
CONTINUOUS
 62
     1
 10
93.75
 20
155.5189725
 30
0.0
 11
96.75
 21
155.5189725
 31
0.0
  0
LINE
  8
0
  6
CONTINUOUS
 62
     1
 10
96.75
 20
155.5189725
 30
0.0
 11
96.75
 21
153.7056845
 31
0.0
  0
LINE
  8
0
  6
CONTINUOUS
 62
     1
 10
93.7
 20
153.48569
 30
0.0
 11
96.746735
 21
153.48569
 31
0.0
  0
LINE
  8
0
  6
CONTINUOUS
 62
     1
 10
91.75
 20
153.48569
 30
0.0
 11
89.25
 21
153.48569
 31
0.0
  0
LINE
  8
0
  6
CONTINUOUS
 62
     1
 10
91.75
 20
155.5189725
 30
0.0
 11
89.25
 21
155.5189725
 31
0.0
  0
LINE
  8
0
  6
CONTINUOUS
 62
     1
 10
93.4
 20
124.499
 30
0.0
 11
92.15
 21
124.499
 31
0.0
  0
LINE
  8
0
  6
CONTINUOUS
 62
     1
 10
92.15
 20
124.499
 30
0.0
 11
92.15
 21
120.449
 31
0.0
  0
LINE
  8
0
  6
CONTINUOUS
 62
     1
 10
92.15
 20
124.499
 30
0.0
 11
91.75
 21
124.899
 31
0.0
  0
LINE
  8
0
  6
CONTINUOUS
 62
     1
 10
91.75
 20
123.5189725
 30
0.0
 11
89.25
 21
123.5189725
 31
0.0
  0
LINE
  8
0
  6
CONTINUOUS
 62
     1
 10
93.39
 20
123.434
 30
0.0
 11
93.65
 21
123.734
 31
0.0
  0
LINE
  8
0
  6
CONTINUOUS
 62
     1
 10
93.403
 20
123.449
 30
0.0
 11
93.653
 21
123.249
 31
0.0
  0
LINE
  8
0
  6
CONTINUOUS
 62
     1
 10
93.403
 20
123.449
 30
0.0
 11
92.15
 21
123.449
 31
0.0
  0
LINE
  8
0
  6
CONTINUOUS
 62
     1
 10
93.4
 20
124.499
 30
0.0
 11
93.65
 21
124.249
 31
0.0
  0
LINE
  8
0
  6
CONTINUOUS
 62
     1
 10
93.65
 20
120.704
 30
0.0
 11
93.65
 21
124.249
 31
0.0
  0
LINE
  8
0
  6
CONTINUOUS
 62
     1
 10
93.65
 20
121.149
 30
0.0
 11
93.35
 21
121.419
 31
0.0
  0
LINE
  8
0
  6
CONTINUOUS
 62
     1
 10
93.65
 20
121.724
 30
0.0
 11
93.35
 21
121.454
 31
0.0
  0
LINE
  8
0
  6
CONTINUOUS
 62
     1
 10
92.15
 20
121.449
 30
0.0
 11
93.366666667
 21
121.449
 31
0.0
  0
LINE
  8
0
  6
CONTINUOUS
 62
     1
 10
93.35
 20
120.424
 30
0.0
 11
93.65
 21
120.724
 31
0.0
  0
LINE
  8
0
  6
CONTINUOUS
 62
     1
 10
92.15
 20
120.449
 30
0.0
 11
93.4
 21
120.449
 31
0.0
  0
LINE
  8
0
  6
CONTINUOUS
 62
     1
 10
92.15
 20
120.449
 30
0.0
 11
91.75
 21
120.049
 31
0.0
  0
LINE
  8
0
  6
CONTINUOUS
 62
     1
 10
91.75
 20
124.899
 30
0.0
 11
91.75
 21
120.049
 31
0.0
  0
LINE
  8
0
  6
CONTINUOUS
 62
     1
 10
91.75
 20
121.48569
 30
0.0
 11
89.25
 21
121.48569
 31
0.0
  0
LINE
  8
0
  6
CONTINUOUS
 62
     1
 10
93.666695
 20
123.5189725
 30
0.0
 11
96.75
 21
123.5189725
 31
0.0
  0
LINE
  8
0
  6
CONTINUOUS
 62
     1
 10
96.75
 20
123.5189725
 30
0.0
 11
96.75
 21
121.7056845
 31
0.0
  0
LINE
  8
0
  6
CONTINUOUS
 62
     1
 10
96.75
 20
121.7656845
 30
0.0
 11
96.75
 21
121.5656895
 31
0.0
  0
LINE
  8
0
  6
CONTINUOUS
 62
     1
 10
96.75
 20
121.7056845
 30
0.0
 11
96.75
 21
121.5056895
 31
0.0
  0
LINE
  8
0
  6
CONTINUOUS
 62
     1
 10
93.65
 20
121.48569
 30
0.0
 11
96.746735
 21
121.48569
 31
0.0
  0
LINE
  8
0
  6
CONTINUOUS
 62
     1
 10
81.5
 20
140.879
 30
0.0
 11
81.5
 21
136.079
 31
0.0
  0
LINE
  8
0
  6
CONTINUOUS
 62
     1
 10
138.5
 20
129.279
 30
0.0
 11
138.5
 21
127.679
 31
0.0
  0
LINE
  8
0
  6
CONTINUOUS
 62
     1
 10
138.3
 20
129.479
 30
0.0
 11
138.5
 21
129.279
 31
0.0
  0
LINE
  8
0
  6
CONTINUOUS
 62
     1
 10
138.5
 20
127.679
 30
0.0
 11
138.3
 21
127.479
 31
0.0
  0
LINE
  8
0
  6
CONTINUOUS
 62
     1
 10
136.809734362
 20
129.479
 30
0.0
 11
138.3
 21
129.479
 31
0.0
  0
LINE
  8
0
  6
CONTINUOUS
 62
     1
 10
138.3
 20
127.479
 30
0.0
 11
136.809734362
 21
127.479
 31
0.0
  0
CIRCLE
  8
0
  6
CONTINUOUS
 62
     2
 10
49.0
 20
138.479
 30
0.0
 40
7.5
  0
CIRCLE
  8
0
  6
CONTINUOUS
 62
     2
 10
49.0
 20
138.479
 30
0.0
 40
7.0
  0
CIRCLE
  8
0
  6
CONTINUOUS
 62
     2
 10
49.0
 20
138.479
 30
0.0
 40
6.5
  0
CIRCLE
  8
0
  6
CONTINUOUS
 62
     2
 10
49.0
 20
138.479
 30
0.0
 40
6.0
  0
CIRCLE
  8
0
  6
CONTINUOUS
 62
     2
 10
49.0
 20
138.479
 30
0.0
 40
6.0
  0
CIRCLE
  8
0
  6
CONTINUOUS
 62
     2
 10
49.0
 20
138.479
 30
0.0
 40
5.5
  0
CIRCLE
  8
0
  6
CONTINUOUS
 62
     2
 10
49.0
 20
138.479
 30
0.0
 40
5.0
  0
CIRCLE
  8
0
  6
CONTINUOUS
 62
     2
 10
49.0
 20
138.479
 30
0.0
 40
4.5
  0
CIRCLE
  8
0
  6
CONTINUOUS
 62
     2
 10
49.0
 20
138.479
 30
0.0
 40
4.0
  0
CIRCLE
  8
0
  6
CONTINUOUS
 62
     2
 10
49.0
 20
138.479
 30
0.0
 40
3.5
  0
CIRCLE
  8
0
  6
CONTINUOUS
 62
     2
 10
49.0
 20
138.479
 30
0.0
 40
17.5
  0
CIRCLE
  8
0
  6
CONTINUOUS
 62
     2
 10
49.0
 20
138.479
 30
0.0
 40
17.0
  0
CIRCLE
  8
0
  6
CONTINUOUS
 62
     2
 10
49.0
 20
138.479
 30
0.0
 40
14.75
  0
LINE
  8
0
  6
LTYPE1
 62
     2
 10
31.4
 20
122.479
 30
0.0
 11
34.6
 21
122.479
 31
0.0
  0
LINE
  8
0
  6
LTYPE1
 62
     2
 10
33.0
 20
124.079
 30
0.0
 11
33.0
 21
120.879
 31
0.0
  0
LINE
  8
0
  6
LTYPE1
 62
     2
 10
31.4
 20
154.479
 30
0.0
 11
34.6
 21
154.479
 31
0.0
  0
LINE
  8
0
  6
LTYPE1
 62
     2
 10
33.0
 20
156.079
 30
0.0
 11
33.0
 21
152.879
 31
0.0
  0
LINE
  8
0
  6
LTYPE1
 62
     2
 10
63.4
 20
154.479
 30
0.0
 11
66.6
 21
154.479
 31
0.0
  0
LINE
  8
0
  6
LTYPE1
 62
     2
 10
65.0
 20
156.079
 30
0.0
 11
65.0
 21
152.879
 31
0.0
  0
LINE
  8
0
  6
LTYPE2
 62
     2
 10
148.75
 20
122.479
 30
0.0
 11
154.75
 21
122.479
 31
0.0
  0
LINE
  8
0
  6
LTYPE2
 62
     2
 10
151.75
 20
125.479
 30
0.0
 11
151.75
 21
119.479
 31
0.0
  0
LINE
  8
0
  6
LTYPE2
 62
     2
 10
148.75
 20
154.479
 30
0.0
 11
154.75
 21
154.479
 31
0.0
  0
LINE
  8
0
  6
LTYPE2
 62
     2
 10
151.75
 20
157.479
 30
0.0
 11
151.75
 21
151.479
 31
0.0
  0
LINE
  8
0
  6
LTYPE2
 62
     2
 10
180.75
 20
154.479
 30
0.0
 11
186.75
 21
154.479
 31
0.0
  0
LINE
  8
0
  6
LTYPE2
 62
     2
 10
183.75
 20
157.479
 30
0.0
 11
183.75
 21
151.479
 31
0.0
  0
TEXT
  8
0
  6
CONTINUOUS
 62
     2
 10
165.8
 20
179.479
 30
0.3
 40
3.0
  1
８０
 50
0.0
 41
0.6
 51
0.0
  7
KANJI2
  0
TEXT
  8
0
  6
CONTINUOUS
 62
     2
 10
206.75
 20
136.529
 30
0.3
 40
3.0
  1
８０
 50
90.0
 41
0.6
 51
0.0
  7
KANJI2
  0
TEXT
  8
0
  6
CONTINUOUS
 62
     2
 10
196.85
 20
142.099
 30
0.3
 40
3.0
  1
３２
 50
90.0
 41
0.6
 51
0.0
  7
KANJI2
  0
TEXT
  8
0
  6
CONTINUOUS
 62
     2
 10
196.85
 20
145.999
 30
0.18
 40
1.8
  1
±０．５
 50
90.0
 41
0.6
 51
0.0
  7
KANJI3
  0
TEXT
  8
0
  6
CONTINUOUS
 62
     2
 10
196.85
 20
126.099
 30
0.3
 40
3.0
  1
３２
 50
90.0
 41
0.6
 51
0.0
  7
KANJI2
  0
TEXT
  8
0
  6
CONTINUOUS
 62
     2
 10
196.85
 20
129.999
 30
0.18
 40
1.8
  1
±０．５
 50
90.0
 41
0.6
 51
0.0
  7
KANJI3
  0
TEXT
  8
0
  6
CONTINUOUS
 62
     2
 10
155.37
 20
169.479
 30
0.3
 40
3.0
  1
３２
 50
0.0
 41
0.6
 51
0.0
  7
KANJI2
  0
TEXT
  8
0
  6
CONTINUOUS
 62
     2
 10
159.27
 20
169.479
 30
0.18
 40
1.8
  1
±０．５
 50
0.0
 41
0.6
 51
0.0
  7
KANJI3
  0
TEXT
  8
0
  6
CONTINUOUS
 62
     2
 10
171.37
 20
169.479
 30
0.3
 40
3.0
  1
３２
 50
0.0
 41
0.6
 51
0.0
  7
KANJI2
  0
TEXT
  8
0
  6
CONTINUOUS
 62
     2
 10
175.27
 20
169.479
 30
0.18
 40
1.8
  1
±０．５
 50
0.0
 41
0.6
 51
0.0
  7
KANJI3
  0
LINE
  8
0
  6
LTYPE2
 62
     2
 10
84.08
 20
122.479
 30
0.0
 11
98.549955
 21
122.479
 31
0.0
  0
LINE
  8
0
  6
LTYPE2
 62
     2
 10
84.06
 20
154.479
 30
0.0
 11
98.549955
 21
154.479
 31
0.0
  0
TEXT
  8
0
  6
CONTINUOUS
 62
     2
 10
91.05
 20
165.479
 30
0.3
 40
3.0
  1
１５
 50
0.0
 41
0.6
 51
0.0
  7
KANJI2
  0
TEXT
  8
0
  6
CONTINUOUS
 62
     2
 10
76.5
 20
135.479
 30
0.3
 40
3.0
  1
φ７５
 50
90.0
 41
0.6
 51
0.0
  7
KANJI2
  0
TEXT
  8
0
  6
CONTINUOUS
 62
     2
 10
108.0
 20
135.454
 30
0.3
 40
3.0
  1
φ６５
 50
90.0
 41
0.6
 51
0.0
  7
KANJI2
  0
TEXT
  8
0
  6
CONTINUOUS
 62
     2
 10
108.8
 20
179.479
 30
0.3
 40
3.0
  1
８６
 50
0.0
 41
0.6
 51
0.0
  7
KANJI2
  0
LINE
  8
0
  6
CONTINUOUS
 62
     2
 10
167.55
 20
125.354
 30
0.0
 11
167.95
 21
125.354
 31
0.0
  0
LINE
  8
0
  6
CONTINUOUS
 62
     2
 10
168.625
 20
124.679
 30
0.0
 11
168.625
 21
124.279
 31
0.0
  0
LINE
  8
0
  6
CONTINUOUS
 62
     2
 10
167.95
 20
123.604
 30
0.0
 11
167.55
 21
123.604
 31
0.0
  0
LINE
  8
0
  6
CONTINUOUS
 62
     2
 10
166.875
 20
124.279
 30
0.0
 11
166.875
 21
124.679
 31
0.0
  0
LINE
  8
0
  6
CONTINUOUS
 62
     2
 10
166.875
 20
124.679
 30
0.0
 11
167.35
 21
124.679
 31
0.0
  0
LINE
  8
0
  6
CONTINUOUS
 62
     2
 10
167.55
 20
124.879
 30
0.0
 11
167.55
 21
125.354
 31
0.0
  0
ARC
  8
0
  6
CONTINUOUS
 62
     2
 10
167.35
 20
124.879
 30
0.0
 40
0.2
 50
270.0
 51
0.0
  0
LINE
  8
0
  6
CONTINUOUS
 62
     2
 10
167.95
 20
125.354
 30
0.0
 11
167.95
 21
124.879
 31
0.0
  0
LINE
  8
0
  6
CONTINUOUS
 62
     2
 10
168.15
 20
124.679
 30
0.0
 11
168.625
 21
124.679
 31
0.0
  0
ARC
  8
0
  6
CONTINUOUS
 62
     2
 10
168.15
 20
124.879
 30
0.0
 40
0.2
 50
180.0
 51
270.0
  0
LINE
  8
0
  6
CONTINUOUS
 62
     2
 10
168.625
 20
124.279
 30
0.0
 11
168.15
 21
124.279
 31
0.0
  0
LINE
  8
0
  6
CONTINUOUS
 62
     2
 10
167.95
 20
124.079
 30
0.0
 11
167.95
 21
123.604
 31
0.0
  0
ARC
  8
0
  6
CONTINUOUS
 62
     2
 10
168.15
 20
124.079
 30
0.0
 40
0.2
 50
90.0
 51
180.0
  0
LINE
  8
0
  6
CONTINUOUS
 62
     2
 10
167.55
 20
123.604
 30
0.0
 11
167.55
 21
124.079
 31
0.0
  0
LINE
  8
0
  6
CONTINUOUS
 62
     2
 10
167.35
 20
124.279
 30
0.0
 11
166.875
 21
124.279
 31
0.0
  0
ARC
  8
0
  6
CONTINUOUS
 62
     2
 10
167.35
 20
124.079
 30
0.0
 40
0.2
 50
0.0
 51
90.0
  0
CIRCLE
  8
0
  6
CONTINUOUS
 62
     2
 10
167.75
 20
124.479
 30
0.0
 40
1.375
  0
LINE
  8
0
  6
CONTINUOUS
 62
     2
 10
179.216583425
 20
144.868294919
 30
0.0
 11
179.016583425
 21
145.214705081
 31
0.0
  0
LINE
  8
0
  6
CONTINUOUS
 62
     2
 10
179.263650572
 20
146.136772228
 30
0.0
 11
179.610060734
 21
146.336772228
 31
0.0
  0
LINE
  8
0
  6
CONTINUOUS
 62
     2
 10
180.532127881
 20
146.089705081
 30
0.0
 11
180.732127881
 21
145.743294919
 31
0.0
  0
LINE
  8
0
  6
CONTINUOUS
 62
     2
 10
180.485060734
 20
144.821227772
 30
0.0
 11
180.138650572
 21
144.621227772
 31
0.0
  0
LINE
  8
0
  6
CONTINUOUS
 62
     2
 10
180.138650572
 20
144.621227772
 30
0.0
 11
179.901150572
 21
145.032589838
 31
0.0
  0
LINE
  8
0
  6
CONTINUOUS
 62
     2
 10
179.627945491
 20
145.105794919
 30
0.0
 11
179.216583425
 21
144.868294919
 31
0.0
  0
ARC
  8
0
  6
CONTINUOUS
 62
     2
 10
179.727945491
 20
144.932589838
 30
0.0
 40
0.2
 50
30.0
 51
120.0
  0
LINE
  8
0
  6
CONTINUOUS
 62
     2
 10
179.016583425
 20
145.214705081
 30
0.0
 11
179.427945491
 21
145.452205081
 31
0.0
  0
LINE
  8
0
  6
CONTINUOUS
 62
     2
 10
179.501150572
 20
145.725410162
 30
0.0
 11
179.263650572
 21
146.136772228
 31
0.0
  0
ARC
  8
0
  6
CONTINUOUS
 62
     2
 10
179.327945491
 20
145.625410162
 30
0.0
 40
0.2
 50
300.0
 51
30.0
  0
LINE
  8
0
  6
CONTINUOUS
 62
     2
 10
179.610060734
 20
146.336772228
 30
0.0
 11
179.847560734
 21
145.925410162
 31
0.0
  0
LINE
  8
0
  6
CONTINUOUS
 62
     2
 10
180.120765814
 20
145.852205081
 30
0.0
 11
180.532127881
 21
146.089705081
 31
0.0
  0
ARC
  8
0
  6
CONTINUOUS
 62
     2
 10
180.020765814
 20
146.025410162
 30
0.0
 40
0.2
 50
210.0
 51
300.0
  0
LINE
  8
0
  6
CONTINUOUS
 62
     2
 10
180.732127881
 20
145.743294919
 30
0.0
 11
180.320765814
 21
145.505794919
 31
0.0
  0
LINE
  8
0
  6
CONTINUOUS
 62
     2
 10
180.247560734
 20
145.232589838
 30
0.0
 11
180.485060734
 21
144.821227772
 31
0.0
  0
ARC
  8
0
  6
CONTINUOUS
 62
     2
 10
180.420765814
 20
145.332589838
 30
0.0
 40
0.2
 50
120.0
 51
210.0
  0
CIRCLE
  8
0
  6
CONTINUOUS
 62
     2
 10
179.874355653
 20
145.479
 30
0.0
 40
1.375
  0
LINE
  8
0
  6
CONTINUOUS
 62
     2
 10
156.483416575
 20
145.214705081
 30
0.0
 11
156.283416575
 21
144.868294919
 31
0.0
  0
LINE
  8
0
  6
CONTINUOUS
 62
     2
 10
155.361349428
 20
144.621227772
 30
0.0
 11
155.014939266
 21
144.821227772
 31
0.0
  0
LINE
  8
0
  6
CONTINUOUS
 62
     2
 10
154.767872119
 20
145.743294919
 30
0.0
 11
154.967872119
 21
146.089705081
 31
0.0
  0
LINE
  8
0
  6
CONTINUOUS
 62
     2
 10
155.889939266
 20
146.336772228
 30
0.0
 11
156.236349428
 21
146.136772228
 31
0.0
  0
LINE
  8
0
  6
CONTINUOUS
 62
     2
 10
156.236349428
 20
146.136772228
 30
0.0
 11
155.998849428
 21
145.725410162
 31
0.0
  0
LINE
  8
0
  6
CONTINUOUS
 62
     2
 10
156.072054509
 20
145.452205081
 30
0.0
 11
156.483416575
 21
145.214705081
 31
0.0
  0
ARC
  8
0
  6
CONTINUOUS
 62
     2
 10
156.172054509
 20
145.625410162
 30
0.0
 40
0.2
 50
150.0
 51
240.0
  0
LINE
  8
0
  6
CONTINUOUS
 62
     2
 10
156.283416575
 20
144.868294919
 30
0.0
 11
155.872054509
 21
145.105794919
 31
0.0
  0
LINE
  8
0
  6
CONTINUOUS
 62
     2
 10
155.598849428
 20
145.032589838
 30
0.0
 11
155.361349428
 21
144.621227772
 31
0.0
  0
ARC
  8
0
  6
CONTINUOUS
 62
     2
 10
155.772054509
 20
144.932589838
 30
0.0
 40
0.2
 50
60.0
 51
150.0
  0
LINE
  8
0
  6
CONTINUOUS
 62
     2
 10
155.014939266
 20
144.821227772
 30
0.0
 11
155.252439266
 21
145.232589838
 31
0.0
  0
LINE
  8
0
  6
CONTINUOUS
 62
     2
 10
155.179234186
 20
145.505794919
 30
0.0
 11
154.767872119
 21
145.743294919
 31
0.0
  0
ARC
  8
0
  6
CONTINUOUS
 62
     2
 10
155.079234186
 20
145.332589838
 30
0.0
 40
0.2
 50
330.0
 51
60.0
  0
LINE
  8
0
  6
CONTINUOUS
 62
     2
 10
154.967872119
 20
146.089705081
 30
0.0
 11
155.379234186
 21
145.852205081
 31
0.0
  0
LINE
  8
0
  6
CONTINUOUS
 62
     2
 10
155.652439266
 20
145.925410162
 30
0.0
 11
155.889939266
 21
146.336772228
 31
0.0
  0
ARC
  8
0
  6
CONTINUOUS
 62
     2
 10
155.479234186
 20
146.025410162
 30
0.0
 40
0.2
 50
240.0
 51
330.0
  0
CIRCLE
  8
0
  6
CONTINUOUS
 62
     2
 10
155.625644347
 20
145.479
 30
0.0
 40
1.375
  0
LINE
  8
0
  6
CONTINUOUS
 62
     2
 10
161.25
 20
147.004
 30
0.0
 11
161.75
 21
147.004
 31
0.0
  0
LINE
  8
0
  6
CONTINUOUS
 62
     2
 10
159.767949192
 20
146.229
 30
0.0
 11
160.95
 21
146.229
 31
0.0
  0
LINE
  8
0
  6
CONTINUOUS
 62
     2
 10
161.25
 20
146.529
 30
0.0
 11
161.25
 21
147.004
 31
0.0
  0
ARC
  8
0
  6
CONTINUOUS
 62
     2
 10
160.95
 20
146.529
 30
0.0
 40
0.3
 50
270.0
 51
0.0
  0
LINE
  8
0
  6
CONTINUOUS
 62
     2
 10
161.75
 20
147.004
 30
0.0
 11
161.75
 21
146.529
 31
0.0
  0
LINE
  8
0
  6
CONTINUOUS
 62
     2
 10
162.05
 20
146.229
 30
0.0
 11
163.232050808
 21
146.229
 31
0.0
  0
ARC
  8
0
  6
CONTINUOUS
 62
     2
 10
162.05
 20
146.529
 30
0.0
 40
0.3
 50
180.0
 51
270.0
  0
LINE
  8
0
  6
CONTINUOUS
 62
     2
 10
161.25
 20
144.954
 30
0.0
 11
161.75
 21
144.954
 31
0.0
  0
LINE
  8
0
  6
CONTINUOUS
 62
     2
 10
159.767949192
 20
145.729
 30
0.0
 11
160.95
 21
145.729
 31
0.0
  0
LINE
  8
0
  6
CONTINUOUS
 62
     2
 10
161.25
 20
145.429
 30
0.0
 11
161.25
 21
144.954
 31
0.0
  0
ARC
  8
0
  6
CONTINUOUS
 62
     2
 10
160.95
 20
145.429
 30
0.0
 40
0.3
 50
0.0
 51
90.0
  0
LINE
  8
0
  6
CONTINUOUS
 62
     2
 10
161.75
 20
144.954
 30
0.0
 11
161.75
 21
145.429
 31
0.0
  0
LINE
  8
0
  6
CONTINUOUS
 62
     2
 10
162.05
 20
145.729
 30
0.0
 11
163.232050808
 21
145.729
 31
0.0
  0
ARC
  8
0
  6
CONTINUOUS
 62
     2
 10
162.05
 20
145.429
 30
0.0
 40
0.3
 50
90.0
 51
180.0
  0
LINE
  8
0
  6
CONTINUOUS
 62
     2
 10
173.75
 20
147.004
 30
0.0
 11
174.25
 21
147.004
 31
0.0
  0
LINE
  8
0
  6
CONTINUOUS
 62
     2
 10
172.267949192
 20
146.229
 30
0.0
 11
173.45
 21
146.229
 31
0.0
  0
LINE
  8
0
  6
CONTINUOUS
 62
     2
 10
173.75
 20
146.529
 30
0.0
 11
173.75
 21
147.004
 31
0.0
  0
ARC
  8
0
  6
CONTINUOUS
 62
     2
 10
173.45
 20
146.529
 30
0.0
 40
0.3
 50
270.0
 51
0.0
  0
LINE
  8
0
  6
CONTINUOUS
 62
     2
 10
174.25
 20
147.004
 30
0.0
 11
174.25
 21
146.529
 31
0.0
  0
LINE
  8
0
  6
CONTINUOUS
 62
     2
 10
174.55
 20
146.229
 30
0.0
 11
175.732050808
 21
146.229
 31
0.0
  0
ARC
  8
0
  6
CONTINUOUS
 62
     2
 10
174.55
 20
146.529
 30
0.0
 40
0.3
 50
180.0
 51
270.0
  0
LINE
  8
0
  6
CONTINUOUS
 62
     2
 10
173.75
 20
144.954
 30
0.0
 11
174.25
 21
144.954
 31
0.0
  0
LINE
  8
0
  6
CONTINUOUS
 62
     2
 10
172.267949192
 20
145.729
 30
0.0
 11
173.45
 21
145.729
 31
0.0
  0
LINE
  8
0
  6
CONTINUOUS
 62
     2
 10
173.75
 20
145.429
 30
0.0
 11
173.75
 21
144.954
 31
0.0
  0
ARC
  8
0
  6
CONTINUOUS
 62
     2
 10
173.45
 20
145.429
 30
0.0
 40
0.3
 50
0.0
 51
90.0
  0
LINE
  8
0
  6
CONTINUOUS
 62
     2
 10
174.25
 20
144.954
 30
0.0
 11
174.25
 21
145.429
 31
0.0
  0
LINE
  8
0
  6
CONTINUOUS
 62
     2
 10
174.55
 20
145.729
 30
0.0
 11
175.732050808
 21
145.729
 31
0.0
  0
ARC
  8
0
  6
CONTINUOUS
 62
     2
 10
174.55
 20
145.429
 30
0.0
 40
0.3
 50
90.0
 51
180.0
  0
TEXT
  8
0
  6
CONTINUOUS
 62
     2
 10
165.8
 20
164.479
 30
0.3
 40
3.0
  1
２５
 50
0.0
 41
0.6
 51
0.0
  7
KANJI2
  0
CIRCLE
  8
0
  6
CONTINUOUS
 62
     2
 10
161.5
 20
149.979
 30
0.0
 40
1.25
  0
LINE
  8
0
  6
CONTINUOUS
 62
     2
 10
160.5
 20
149.979
 30
0.0
 11
162.5
 21
149.979
 31
0.0
  0
LINE
  8
0
  6
CONTINUOUS
 62
     2
 10
161.5
 20
150.979
 30
0.0
 11
161.5
 21
148.979
 31
0.0
  0
LINE
  8
0
  6
LTYPE2
 62
     2
 10
158.5
 20
128.479
 30
0.0
 11
164.5
 21
128.479
 31
0.0
  0
LINE
  8
0
  6
LTYPE2
 62
     2
 10
171.0
 20
128.479
 30
0.0
 11
177.0
 21
128.479
 31
0.0
  0
LINE
  8
0
  6
CONTINUOUS
 62
     2
 10
161.5
 20
130.504
 30
0.0
 11
159.746298557
 21
129.4915
 31
0.0
  0
LINE
  8
0
  6
CONTINUOUS
 62
     2
 10
159.746298557
 20
129.4915
 30
0.0
 11
159.746298557
 21
127.4665
 31
0.0
  0
LINE
  8
0
  6
CONTINUOUS
 62
     2
 10
159.746298557
 20
127.4665
 30
0.0
 11
161.5
 21
126.454
 31
0.0
  0
LINE
  8
0
  6
CONTINUOUS
 62
     2
 10
161.5
 20
126.454
 30
0.0
 11
163.253701443
 21
127.4665
 31
0.0
  0
LINE
  8
0
  6
CONTINUOUS
 62
     2
 10
163.253701443
 20
127.4665
 30
0.0
 11
163.253701443
 21
129.4915
 31
0.0
  0
LINE
  8
0
  6
CONTINUOUS
 62
     2
 10
163.253701443
 20
129.4915
 30
0.0
 11
161.5
 21
130.504
 31
0.0
  0
CIRCLE
  8
0
  6
CONTINUOUS
 62
     2
 10
161.5
 20
128.479
 30
0.0
 40
0.8
  0
CIRCLE
  8
0
  6
CONTINUOUS
 62
     2
 10
161.5
 20
128.479
 30
0.0
 40
1.0
  0
CIRCLE
  8
0
  6
CONTINUOUS
 62
     2
 10
161.5
 20
128.479
 30
0.0
 40
2.0
  0
LINE
  8
0
  6
CONTINUOUS
 62
     2
 10
174.0
 20
130.504
 30
0.0
 11
172.246298557
 21
129.4915
 31
0.0
  0
LINE
  8
0
  6
CONTINUOUS
 62
     2
 10
172.246298557
 20
129.4915
 30
0.0
 11
172.246298557
 21
127.4665
 31
0.0
  0
LINE
  8
0
  6
CONTINUOUS
 62
     2
 10
172.246298557
 20
127.4665
 30
0.0
 11
174.0
 21
126.454
 31
0.0
  0
LINE
  8
0
  6
CONTINUOUS
 62
     2
 10
174.0
 20
126.454
 30
0.0
 11
175.753701443
 21
127.4665
 31
0.0
  0
LINE
  8
0
  6
CONTINUOUS
 62
     2
 10
175.753701443
 20
127.4665
 30
0.0
 11
175.753701443
 21
129.4915
 31
0.0
  0
LINE
  8
0
  6
CONTINUOUS
 62
     2
 10
175.753701443
 20
129.4915
 30
0.0
 11
174.0
 21
130.504
 31
0.0
  0
CIRCLE
  8
0
  6
CONTINUOUS
 62
     2
 10
174.0
 20
128.479
 30
0.0
 40
0.8
  0
CIRCLE
  8
0
  6
CONTINUOUS
 62
     2
 10
174.0
 20
128.479
 30
0.0
 40
1.0
  0
CIRCLE
  8
0
  6
CONTINUOUS
 62
     2
 10
174.0
 20
128.479
 30
0.0
 40
2.0
  0
CIRCLE
  8
0
  6
CONTINUOUS
 62
     2
 10
151.75
 20
122.479
 30
0.0
 40
0.8
  0
CIRCLE
  8
0
  6
CONTINUOUS
 62
     2
 10
151.75
 20
122.479
 30
0.0
 40
1.0
  0
CIRCLE
  8
0
  6
CONTINUOUS
 62
     2
 10
151.75
 20
122.479
 30
0.0
 40
2.5
  0
CIRCLE
  8
0
  6
CONTINUOUS
 62
     2
 10
151.75
 20
154.479
 30
0.0
 40
0.8
  0
CIRCLE
  8
0
  6
CONTINUOUS
 62
     2
 10
151.75
 20
154.479
 30
0.0
 40
1.0
  0
CIRCLE
  8
0
  6
CONTINUOUS
 62
     2
 10
151.75
 20
154.479
 30
0.0
 40
2.5
  0
LINE
  8
0
  6
CONTINUOUS
 62
     2
 10
183.75
 20
156.504
 30
0.0
 11
181.996298557
 21
155.4915
 31
0.0
  0
LINE
  8
0
  6
CONTINUOUS
 62
     2
 10
181.996298557
 20
155.4915
 30
0.0
 11
181.996298557
 21
153.4665
 31
0.0
  0
LINE
  8
0
  6
CONTINUOUS
 62
     2
 10
181.996298557
 20
153.4665
 30
0.0
 11
183.75
 21
152.454
 31
0.0
  0
LINE
  8
0
  6
CONTINUOUS
 62
     2
 10
183.75
 20
152.454
 30
0.0
 11
185.503701443
 21
153.4665
 31
0.0
  0
LINE
  8
0
  6
CONTINUOUS
 62
     2
 10
185.503701443
 20
153.4665
 30
0.0
 11
185.503701443
 21
155.4915
 31
0.0
  0
LINE
  8
0
  6
CONTINUOUS
 62
     2
 10
185.503701443
 20
155.4915
 30
0.0
 11
183.75
 21
156.504
 31
0.0
  0
CIRCLE
  8
0
  6
CONTINUOUS
 62
     2
 10
183.75
 20
154.479
 30
0.0
 40
0.8
  0
CIRCLE
  8
0
  6
CONTINUOUS
 62
     2
 10
183.75
 20
154.479
 30
0.0
 40
1.0
  0
CIRCLE
  8
0
  6
CONTINUOUS
 62
     2
 10
183.75
 20
154.479
 30
0.0
 40
2.5
  0
LINE
  8
0
  6
CONTINUOUS
 62
     2
 10
89.0
 20
156.979
 30
0.0
 11
89.25
 21
156.979
 31
0.0
  0
LINE
  8
0
  6
CONTINUOUS
 62
     2
 10
89.25
 20
156.979
 30
0.0
 11
89.25
 21
151.979
 31
0.0
  0
LINE
  8
0
  6
CONTINUOUS
 62
     2
 10
89.25
 20
151.979
 30
0.0
 11
89.0
 21
151.979
 31
0.0
  0
LINE
  8
0
  6
CONTINUOUS
 62
     2
 10
96.75
 20
153.7056845
 30
0.0
 11
96.75
 21
153.5056895
 31
0.0
  0
ARC
  8
0
  6
CONTINUOUS
 62
     2
 10
85.45834
 20
155.68714
 30
0.0
 40
0.04166
 50
0.0
 51
90.0
  0
LINE
  8
0
  6
CONTINUOUS
 62
     2
 10
85.5
 20
153.27086
 30
0.0
 11
85.5
 21
155.68714
 31
0.0
  0
ARC
  8
0
  6
CONTINUOUS
 62
     2
 10
85.45834
 20
153.27086
 30
0.0
 40
0.04166
 50
270.0
 51
0.0
  0
LINE
  8
0
  6
CONTINUOUS
 62
     2
 10
85.0834
 20
153.2292
 30
0.0
 11
85.45834
 21
153.2292
 31
0.0
  0
ARC
  8
0
  6
CONTINUOUS
 62
     2
 10
85.0834
 20
153.31252
 30
0.0
 40
0.08332
 50
180.0
 51
270.0
  0
LINE
  8
0
  6
CONTINUOUS
 62
     2
 10
85.45834
 20
155.7288
 30
0.0
 11
85.0834
 21
155.7288
 31
0.0
  0
ARC
  8
0
  6
CONTINUOUS
 62
     2
 10
85.0834
 20
155.64548
 30
0.0
 40
0.08332
 50
90.0
 51
180.0
  0
LINE
  8
0
  6
CONTINUOUS
 62
     2
 10
85.04174
 20
153.249336245
 30
0.0
 11
85.04174
 21
155.696861245
 31
0.0
  0
LINE
  8
0
  6
CONTINUOUS
 62
     2
 10
84.70846
 20
154.37485
 30
0.0
 11
84.79178
 21
154.37485
 31
0.0
  0
LINE
  8
0
  6
CONTINUOUS
 62
     2
 10
84.79178
 20
154.37485
 30
0.0
 11
84.79178
 21
154.58315
 31
0.0
  0
LINE
  8
0
  6
CONTINUOUS
 62
     2
 10
84.79178
 20
154.58315
 30
0.0
 11
84.70846
 21
154.58315
 31
0.0
  0
ARC
  8
0
  6
CONTINUOUS
 62
     2
 10
87.20806
 20
154.479
 30
0.0
 40
2.4996
 50
151.294758009
 51
177.611984537
  0
ARC
  8
0
  6
CONTINUOUS
 62
     2
 10
87.20806
 20
154.479
 30
0.0
 40
2.4996
 50
182.388015463
 51
208.942689997
  0
POINT
  8
0
  6
CONTINUOUS
 62
     2
 10
89.0
 20
119.979
 30
0.0
  0
LINE
  8
0
  6
CONTINUOUS
 62
     2
 10
89.0
 20
119.979
 30
0.0
 11
89.25
 21
119.979
 31
0.0
  0
LINE
  8
0
  6
CONTINUOUS
 62
     2
 10
89.25
 20
119.979
 30
0.0
 11
89.25
 21
124.979
 31
0.0
  0
LINE
  8
0
  6
CONTINUOUS
 62
     2
 10
89.25
 20
124.979
 30
0.0
 11
89.0
 21
124.979
 31
0.0
  0
CIRCLE
  8
0
  6
CONTINUOUS
 62
     2
 10
65.0
 20
154.479
 30
0.0
 40
1.2
  0
LINE
  8
0
  6
CONTINUOUS
 62
     2
 10
64.3
 20
154.639
 30
0.0
 11
64.68
 21
154.639
 31
0.0
  0
ARC
  8
0
  6
CONTINUOUS
 62
     2
 10
64.68
 20
154.799
 30
0.0
 40
0.16
 50
270.0
 51
0.0
  0
LINE
  8
0
  6
CONTINUOUS
 62
     2
 10
64.84
 20
154.799
 30
0.0
 11
64.84
 21
155.179
 31
0.0
  0
LINE
  8
0
  6
CONTINUOUS
 62
     2
 10
64.84
 20
155.179
 30
0.0
 11
65.16
 21
155.179
 31
0.0
  0
LINE
  8
0
  6
CONTINUOUS
 62
     2
 10
65.16
 20
155.179
 30
0.0
 11
65.16
 21
154.799
 31
0.0
  0
ARC
  8
0
  6
CONTINUOUS
 62
     2
 10
65.32
 20
154.799
 30
0.0
 40
0.16
 50
180.0
 51
270.0
  0
LINE
  8
0
  6
CONTINUOUS
 62
     2
 10
65.32
 20
154.639
 30
0.0
 11
65.7
 21
154.639
 31
0.0
  0
LINE
  8
0
  6
CONTINUOUS
 62
     2
 10
65.7
 20
154.639
 30
0.0
 11
65.7
 21
154.319
 31
0.0
  0
LINE
  8
0
  6
CONTINUOUS
 62
     2
 10
65.7
 20
154.319
 30
0.0
 11
65.32
 21
154.319
 31
0.0
  0
ARC
  8
0
  6
CONTINUOUS
 62
     2
 10
65.32
 20
154.159
 30
0.0
 40
0.16
 50
90.0
 51
180.0
  0
LINE
  8
0
  6
CONTINUOUS
 62
     2
 10
65.16
 20
154.159
 30
0.0
 11
65.16
 21
153.779
 31
0.0
  0
LINE
  8
0
  6
CONTINUOUS
 62
     2
 10
65.16
 20
153.779
 30
0.0
 11
64.84
 21
153.779
 31
0.0
  0
LINE
  8
0
  6
CONTINUOUS
 62
     2
 10
64.84
 20
153.779
 30
0.0
 11
64.84
 21
154.159
 31
0.0
  0
ARC
  8
0
  6
CONTINUOUS
 62
     2
 10
64.68
 20
154.159
 30
0.0
 40
0.16
 50
0.0
 51
90.0
  0
LINE
  8
0
  6
CONTINUOUS
 62
     2
 10
64.68
 20
154.319
 30
0.0
 11
64.3
 21
154.319
 31
0.0
  0
LINE
  8
0
  6
CONTINUOUS
 62
     2
 10
64.3
 20
154.319
 30
0.0
 11
64.3
 21
154.639
 31
0.0
  0
CIRCLE
  8
0
  6
CONTINUOUS
 62
     2
 10
33.0
 20
154.479
 30
0.0
 40
1.2
  0
LINE
  8
0
  6
CONTINUOUS
 62
     2
 10
32.3
 20
154.639
 30
0.0
 11
32.68
 21
154.639
 31
0.0
  0
ARC
  8
0
  6
CONTINUOUS
 62
     2
 10
32.68
 20
154.799
 30
0.0
 40
0.16
 50
270.0
 51
0.0
  0
LINE
  8
0
  6
CONTINUOUS
 62
     2
 10
32.84
 20
154.799
 30
0.0
 11
32.84
 21
155.179
 31
0.0
  0
LINE
  8
0
  6
CONTINUOUS
 62
     2
 10
32.84
 20
155.179
 30
0.0
 11
33.16
 21
155.179
 31
0.0
  0
LINE
  8
0
  6
CONTINUOUS
 62
     2
 10
33.16
 20
155.179
 30
0.0
 11
33.16
 21
154.799
 31
0.0
  0
ARC
  8
0
  6
CONTINUOUS
 62
     2
 10
33.32
 20
154.799
 30
0.0
 40
0.16
 50
180.0
 51
270.0
  0
LINE
  8
0
  6
CONTINUOUS
 62
     2
 10
33.32
 20
154.639
 30
0.0
 11
33.7
 21
154.639
 31
0.0
  0
LINE
  8
0
  6
CONTINUOUS
 62
     2
 10
33.7
 20
154.639
 30
0.0
 11
33.7
 21
154.319
 31
0.0
  0
LINE
  8
0
  6
CONTINUOUS
 62
     2
 10
33.7
 20
154.319
 30
0.0
 11
33.32
 21
154.319
 31
0.0
  0
ARC
  8
0
  6
CONTINUOUS
 62
     2
 10
33.32
 20
154.159
 30
0.0
 40
0.16
 50
90.0
 51
180.0
  0
LINE
  8
0
  6
CONTINUOUS
 62
     2
 10
33.16
 20
154.159
 30
0.0
 11
33.16
 21
153.779
 31
0.0
  0
LINE
  8
0
  6
CONTINUOUS
 62
     2
 10
33.16
 20
153.779
 30
0.0
 11
32.84
 21
153.779
 31
0.0
  0
LINE
  8
0
  6
CONTINUOUS
 62
     2
 10
32.84
 20
153.779
 30
0.0
 11
32.84
 21
154.159
 31
0.0
  0
ARC
  8
0
  6
CONTINUOUS
 62
     2
 10
32.68
 20
154.159
 30
0.0
 40
0.16
 50
0.0
 51
90.0
  0
LINE
  8
0
  6
CONTINUOUS
 62
     2
 10
32.68
 20
154.319
 30
0.0
 11
32.3
 21
154.319
 31
0.0
  0
LINE
  8
0
  6
CONTINUOUS
 62
     2
 10
32.3
 20
154.319
 30
0.0
 11
32.3
 21
154.639
 31
0.0
  0
CIRCLE
  8
0
  6
CONTINUOUS
 62
     2
 10
33.0
 20
122.479
 30
0.0
 40
1.2
  0
LINE
  8
0
  6
CONTINUOUS
 62
     2
 10
32.3
 20
122.639
 30
0.0
 11
32.68
 21
122.639
 31
0.0
  0
ARC
  8
0
  6
CONTINUOUS
 62
     2
 10
32.68
 20
122.799
 30
0.0
 40
0.16
 50
270.0
 51
0.0
  0
LINE
  8
0
  6
CONTINUOUS
 62
     2
 10
32.84
 20
122.799
 30
0.0
 11
32.84
 21
123.179
 31
0.0
  0
LINE
  8
0
  6
CONTINUOUS
 62
     2
 10
32.84
 20
123.179
 30
0.0
 11
33.16
 21
123.179
 31
0.0
  0
LINE
  8
0
  6
CONTINUOUS
 62
     2
 10
33.16
 20
123.179
 30
0.0
 11
33.16
 21
122.799
 31
0.0
  0
ARC
  8
0
  6
CONTINUOUS
 62
     2
 10
33.32
 20
122.799
 30
0.0
 40
0.16
 50
180.0
 51
270.0
  0
LINE
  8
0
  6
CONTINUOUS
 62
     2
 10
33.32
 20
122.639
 30
0.0
 11
33.7
 21
122.639
 31
0.0
  0
LINE
  8
0
  6
CONTINUOUS
 62
     2
 10
33.7
 20
122.639
 30
0.0
 11
33.7
 21
122.319
 31
0.0
  0
LINE
  8
0
  6
CONTINUOUS
 62
     2
 10
33.7
 20
122.319
 30
0.0
 11
33.32
 21
122.319
 31
0.0
  0
ARC
  8
0
  6
CONTINUOUS
 62
     2
 10
33.32
 20
122.159
 30
0.0
 40
0.16
 50
90.0
 51
180.0
  0
LINE
  8
0
  6
CONTINUOUS
 62
     2
 10
33.16
 20
122.159
 30
0.0
 11
33.16
 21
121.779
 31
0.0
  0
LINE
  8
0
  6
CONTINUOUS
 62
     2
 10
33.16
 20
121.779
 30
0.0
 11
32.84
 21
121.779
 31
0.0
  0
LINE
  8
0
  6
CONTINUOUS
 62
     2
 10
32.84
 20
121.779
 30
0.0
 11
32.84
 21
122.159
 31
0.0
  0
ARC
  8
0
  6
CONTINUOUS
 62
     2
 10
32.68
 20
122.159
 30
0.0
 40
0.16
 50
0.0
 51
90.0
  0
LINE
  8
0
  6
CONTINUOUS
 62
     2
 10
32.68
 20
122.319
 30
0.0
 11
32.3
 21
122.319
 31
0.0
  0
LINE
  8
0
  6
CONTINUOUS
 62
     2
 10
32.3
 20
122.319
 30
0.0
 11
32.3
 21
122.639
 31
0.0
  0
LINE
  8
0
  6
LTYPE2
 62
     2
 10
161.5
 20
130.679
 30
0.0
 11
161.5
 21
125.479
 31
0.0
  0
LINE
  8
0
  6
LTYPE2
 62
     2
 10
174.0
 20
130.579
 30
0.0
 11
174.0
 21
125.479
 31
0.0
  0
LINE
  8
0
  6
CONTINUOUS
 62
     2
 10
132.7234765
 20
126.979
 30
0.0
 11
132.25
 21
126.979
 31
0.0
  0
LINE
  8
0
  6
CONTINUOUS
 62
     2
 10
132.25
 20
129.979
 30
0.0
 11
132.7234765
 21
129.979
 31
0.0
  0
ARC
  8
0
  6
CONTINUOUS
 62
     2
 10
132.8234765
 20
130.792273
 30
0.0
 40
0.1
 50
90.0
 51
180.0
  0
LINE
  8
0
  6
CONTINUOUS
 62
     2
 10
132.9568015
 20
130.892273
 30
0.0
 11
132.8234765
 21
130.892273
 31
0.0
  0
ARC
  8
0
  6
CONTINUOUS
 62
     2
 10
132.9568015
 20
130.792273
 30
0.0
 40
0.1
 50
0.0
 51
90.0
  0
LINE
  8
0
  6
CONTINUOUS
 62
     2
 10
132.7234765
 20
130.792273
 30
0.0
 11
132.7234765
 21
126.325723
 31
0.0
  0
ARC
  8
0
  6
CONTINUOUS
 62
     2
 10
132.8234765
 20
126.325723
 30
0.0
 40
0.1
 50
180.0
 51
270.0
  0
LINE
  8
0
  6
CONTINUOUS
 62
     2
 10
133.0568015
 20
126.325723
 30
0.0
 11
133.0568015
 21
130.792273
 31
0.0
  0
LINE
  8
0
  6
CONTINUOUS
 62
     2
 10
132.8234765
 20
126.225723
 30
0.0
 11
132.9568015
 21
126.225723
 31
0.0
  0
ARC
  8
0
  6
CONTINUOUS
 62
     2
 10
132.9568015
 20
126.325723
 30
0.0
 40
0.1
 50
270.0
 51
0.0
  0
LINE
  8
0
  6
CONTINUOUS
 62
     2
 10
133.209734362
 20
129.479
 30
0.0
 11
133.0768015
 21
129.479
 31
0.0
  0
LINE
  8
0
  6
CONTINUOUS
 62
     2
 10
133.209734362
 20
127.479
 30
0.0
 11
133.0568015
 21
127.479
 31
0.0
  0
LINE
  8
0
  6
LTYPE1
 62
     2
 10
49.0
 20
166.679
 30
0.0
 11
49.0
 21
107.379
 31
0.0
  0
TEXT
  8
0
  6
CONTINUOUS
 62
     2
 10
131.95
 20
181.579
 30
0.3
 40
3.0
  1
１２．５
 50
0.0
 41
0.6
 51
0.0
  7
KANJI2
  0
LINE
  8
0
  6
LTYPE3
 62
     2
 10
171.0
 20
145.979
 30
0.0
 11
176.8
 21
145.979
 31
0.0
  0
LINE
  8
0
  6
LTYPE3
 62
     2
 10
174.0
 20
148.829
 30
0.0
 11
174.0
 21
143.229
 31
0.0
  0
LINE
  8
0
  6
LTYPE3
 62
     2
 10
161.5
 20
147.979
 30
0.0
 11
161.5
 21
143.229
 31
0.0
  0
LINE
  8
0
  6
LTYPE3
 62
     2
 10
158.7
 20
145.979
 30
0.0
 11
164.4
 21
145.979
 31
0.0
  0
LINE
  8
0
  6
LTYPE1
 62
     2
 10
15.0
 20
138.479
 30
0.0
 11
71.461268335
 21
138.479
 31
0.0
  0
LINE
  8
0
  6
LTYPE2
 62
     2
 10
131.433535
 20
128.479
 30
0.0
 11
140.009759358
 21
128.479
 31
0.0
  0
LINE
  8
0
  6
LTYPE1
 62
     2
 10
194.534759358
 20
138.479
 30
0.0
 11
194.75
 21
138.479
 31
0.0
  0
LINE
  8
0
  6
LTYPE1
 62
     2
 10
142.934759358
 20
138.479
 30
0.0
 11
193.234759358
 21
138.479
 31
0.0
  0
TEXT
  8
0
  6
CONTINUOUS
 62
     2
 10
82.1
 20
165.479
 30
0.3
 40
3.0
  1
０．５
 50
0.0
 41
0.6
 51
0.0
  7
KANJI2
  0
LINE
  8
0
  6
LTYPE1
 62
     2
 10
111.75
 20
138.479
 30
0.0
 11
135.934759358
 21
138.479
 31
0.0
  0
LINE
  8
0
  6
LTYPE1
 62
     2
 10
78.661268335
 20
138.479
 30
0.0
 11
103.05
 21
138.479
 31
0.0
  0
TEXT
  8
0
  6
CONTINUOUS
 62
     2
 10
27.29056917
 20
109.979
 30
0.3
 40
3.0
  1
指針
 50
0.0
 41
0.9
 51
0.0
  7
KANJI4
  0
LINE
  8
0
  6
CONTINUOUS
 62
     2
 10
82.35
 20
140.779
 30
0.0
 11
82.05
 21
140.779
 31
0.0
  0
LINE
  8
0
  6
CONTINUOUS
 62
     2
 10
82.0
 20
135.579
 30
0.0
 11
82.0
 21
141.379
 31
0.0
  0
LINE
  8
0
  6
CONTINUOUS
 62
     2
 10
82.35
 20
136.229
 30
0.0
 11
82.05
 21
136.229
 31
0.0
  0
TEXT
  8
0
  6
CONTINUOUS
 62
     2
 10
155.53605
 20
152.5759
 30
0.2187
 40
2.187
  1
注１
 50
0.0
 41
0.9
 51
0.0
  7
KANJI7
  0
LINE
  8
0
  6
LTYPE1
 62
     2
 10
167.75
 20
161.329
 30
0.0
 11
167.75
 21
117.479
 31
0.0
  0
ARC
  8
0
  6
LTYPE4
 62
     2
 10
138.5
 20
146.879
 30
0.0
 40
2.25
 50
0.0
 51
90.0
  0
LINE
  8
0
  6
LTYPE4
 62
     2
 10
140.75
 20
146.879
 30
0.0
 11
140.75
 21
144.479
 31
0.0
  0
ARC
  8
0
  6
LTYPE4
 62
     2
 10
138.5
 20
144.479
 30
0.0
 40
2.25
 50
303.748988596
 51
0.0
  0
ARC
  8
0
  6
LTYPE4
 62
     2
 10
137.543240868
 20
143.047163486
 30
0.0
 40
2.25
 50
348.748988596
 51
45.0
  0
LINE
  8
0
  6
LTYPE4
 62
     2
 10
132.25
 20
149.129
 30
0.0
 11
138.5
 21
149.129
 31
0.0
  0
LINE
  8
0
  6
LTYPE5
 62
     2
 10
161.025
 20
131.979
 30
0.0
 11
174.5
 21
131.979
 31
0.0
  0
POINT
  8
0
  6
LTYPE5
 62
     2
 10
162.75
 20
125.079
 30
0.0
  0
LINE
  8
0
  6
LTYPE5
 62
     2
 10
162.75
 20
125.079
 30
0.0
 11
160.25
 21
125.079
 31
0.0
  0
LINE
  8
0
  6
LTYPE5
 62
     2
 10
162.75
 20
125.079
 30
0.0
 11
162.75
 21
122.079
 31
0.0
  0
LINE
  8
0
  6
LTYPE5
 62
     2
 10
160.25
 20
125.079
 30
0.0
 11
160.25
 21
122.079
 31
0.0
  0
POINT
  8
0
  6
LTYPE5
 62
     2
 10
175.25
 20
125.079
 30
0.0
  0
LINE
  8
0
  6
LTYPE5
 62
     2
 10
175.25
 20
125.079
 30
0.0
 11
172.75
 21
125.079
 31
0.0
  0
LINE
  8
0
  6
LTYPE5
 62
     2
 10
172.75
 20
125.079
 30
0.0
 11
172.75
 21
122.079
 31
0.0
  0
ARC
  8
0
  6
LTYPE5
 62
     2
 10
161.5
 20
128.479
 30
0.0
 40
1.975
 50
328.025496594
 51
217.415803658
  0
LINE
  8
0
  6
LTYPE5
 62
     2
 10
163.068637944
 20
127.279
 30
0.0
 11
162.41147392
 21
126.329763076
 31
0.0
  0
LINE
  8
0
  6
LTYPE5
 62
     2
 10
159.931362056
 20
127.279
 30
0.0
 11
160.588529527
 21
126.329758098
 31
0.0
  0
ARC
  8
0
  6
LTYPE5
 62
     2
 10
158.944145143
 20
125.19133814
 30
0.0
 40
2.0
 50
10.612929601
 51
34.695153531
  0
ARC
  8
0
  6
LTYPE5
 62
     2
 10
164.055858303
 20
125.191343118
 30
0.0
 40
2.0
 50
145.304846469
 51
169.387402194
  0
LINE
  8
0
  6
LTYPE5
 62
     2
 10
162.090068544
 20
125.559678053
 30
0.0
 11
162.000002697
 21
125.079
 31
0.0
  0
LINE
  8
0
  6
LTYPE5
 62
     2
 10
160.909932769
 20
125.559684458
 30
0.0
 11
161.000002697
 21
125.079
 31
0.0
  0
ARC
  8
0
  6
LTYPE5
 62
     2
 10
174.0
 20
128.479
 30
0.0
 40
1.975
 50
328.025496594
 51
217.415803658
  0
LINE
  8
0
  6
LTYPE5
 62
     2
 10
175.568637944
 20
127.279
 30
0.0
 11
174.91147392
 21
126.329763076
 31
0.0
  0
LINE
  8
0
  6
LTYPE5
 62
     2
 10
172.431362056
 20
127.279
 30
0.0
 11
173.088529527
 21
126.329758098
 31
0.0
  0
ARC
  8
0
  6
LTYPE5
 62
     2
 10
171.444145143
 20
125.19133814
 30
0.0
 40
2.0
 50
10.612929601
 51
34.695153531
  0
ARC
  8
0
  6
LTYPE5
 62
     2
 10
176.555858303
 20
125.191343118
 30
0.0
 40
2.0
 50
145.304846469
 51
169.387402194
  0
LINE
  8
0
  6
LTYPE5
 62
     2
 10
174.590068544
 20
125.559678053
 30
0.0
 11
174.500002697
 21
125.079
 31
0.0
  0
LINE
  8
0
  6
LTYPE5
 62
     2
 10
173.409932769
 20
125.559684458
 30
0.0
 11
173.500002697
 21
125.079
 31
0.0
  0
POINT
  8
0
  6
CONTINUOUS
 62
     2
 10
133.316695
 20
126.529
 30
0.0
  0
LINE
  8
0
  6
CONTINUOUS
 62
     2
 10
133.229684362
 20
126.529
 30
0.0
 11
134.229684362
 21
126.529
 31
0.0
  0
LINE
  8
0
  6
CONTINUOUS
 62
     2
 10
133.259684362
 20
127.479
 30
0.0
 11
134.179684362
 21
127.479
 31
0.0
  0
ARC
  8
0
  6
CONTINUOUS
 62
     2
 10
133.507441136
 20
126.933469705
 30
0.0
 40
0.831297347
 50
330.698898693
 51
335.234789517
  0
ARC
  8
0
  6
CONTINUOUS
 62
     2
 10
133.472171877
 20
126.950055698
 30
0.0
 40
0.870270895
 50
335.215941013
 51
339.614610188
  0
ARC
  8
0
  6
CONTINUOUS
 62
     2
 10
133.439412695
 20
126.96250133
 30
0.0
 40
0.905313657
 50
339.59846742
 51
343.882043437
  0
ARC
  8
0
  6
CONTINUOUS
 62
     2
 10
133.410826329
 20
126.970988621
 30
0.0
 40
0.935132588
 50
343.868708057
 51
348.059844426
  0
ARC
  8
0
  6
CONTINUOUS
 62
     2
 10
133.387902483
 20
126.976015547
 30
0.0
 40
0.958600494
 50
348.049357625
 51
352.17088944
  0
ARC
  8
0
  6
CONTINUOUS
 62
     2
 10
133.371858106
 20
126.978352642
 30
0.0
 40
0.974813683
 50
352.163262518
 51
356.2380289
  0
ARC
  8
0
  6
CONTINUOUS
 62
     2
 10
133.363555341
 20
126.978980708
 30
0.0
 40
0.983139769
 50
356.233252687
 51
0.284033899
  0
ARC
  8
0
  6
CONTINUOUS
 62
     2
 10
133.363443437
 20
126.979013304
 30
0.0
 40
0.983251511
 50
0.28210216
 51
4.331629413
  0
ARC
  8
0
  6
CONTINUOUS
 62
     2
 10
133.371528507
 20
126.979610217
 30
0.0
 40
0.975144451
 50
4.332537274
 51
8.403539128
  0
ARC
  8
0
  6
CONTINUOUS
 62
     2
 10
133.387372972
 20
126.981887473
 30
0.0
 40
0.959137297
 50
8.407288766
 51
12.522538633
  0
ARC
  8
0
  6
CONTINUOUS
 62
     2
 10
133.410125166
 20
126.986830487
 30
0.0
 40
0.935854604
 50
12.529137887
 51
16.711469681
  0
ARC
  8
0
  6
CONTINUOUS
 62
     2
 10
133.438576818
 20
126.995216414
 30
0.0
 40
0.906193229
 50
16.720927746
 51
20.993183517
  0
ARC
  8
0
  6
CONTINUOUS
 62
     2
 10
133.471244294
 20
127.007551198
 30
0.0
 40
0.871275119
 50
21.005501123
 51
25.390367577
  0
ARC
  8
0
  6
CONTINUOUS
 62
     2
 10
133.506468128
 20
127.024025868
 30
0.0
 40
0.832389614
 50
25.405514419
 51
29.925201266
  0
ARC
  8
0
  6
CONTINUOUS
 62
     2
 10
133.542524003
 20
127.04449486
 30
0.0
 40
0.790929494
 50
29.943104675
 51
34.618810404
  0
ARC
  8
0
  6
CONTINUOUS
 62
     2
 10
133.542524003
 20
127.04449486
 30
0.0
 40
0.790929494
 50
29.943104675
 51
34.618810404
  0
LINE
  8
0
  6
CONTINUOUS
 62
     2
 10
133.219971259
 20
129.479
 30
0.0
 11
134.193418741
 21
129.479
 31
0.0
  0
ARC
  8
0
  6
CONTINUOUS
 62
     2
 10
133.528701238
 20
129.915853791
 30
0.0
 40
0.795418502
 50
326.686995434
 51
331.291389385
  0
ARC
  8
0
  6
CONTINUOUS
 62
     2
 10
133.493169123
 20
129.935654011
 30
0.0
 40
0.83609399
 50
331.270953168
 51
335.724120359
  0
ARC
  8
0
  6
CONTINUOUS
 62
     2
 10
133.458598671
 20
129.951546878
 30
0.0
 40
0.874141688
 50
335.706122265
 51
340.028370516
  0
ARC
  8
0
  6
CONTINUOUS
 62
     2
 10
133.426640109
 20
129.963420522
 30
0.0
 40
0.908233854
 50
340.012978797
 51
344.225568406
  0
ARC
  8
0
  6
CONTINUOUS
 62
     2
 10
133.398873859
 20
129.971480016
 30
0.0
 40
0.937145413
 50
344.212870479
 51
348.337515232
  0
ARC
  8
0
  6
CONTINUOUS
 62
     2
 10
133.37670844
 20
129.976225652
 30
0.0
 40
0.959812562
 50
348.327545487
 51
352.386111646
  0
ARC
  8
0
  6
CONTINUOUS
 62
     2
 10
133.361288101
 20
129.978411205
 30
0.0
 40
0.975386533
 50
352.378878175
 51
356.39322803
  0
ARC
  8
0
  6
CONTINUOUS
 62
     2
 10
133.353418244
 20
129.978984674
 30
0.0
 40
0.983276881
 50
356.388726534
 51
0.380665442
  0
ARC
  8
0
  6
CONTINUOUS
 62
     2
 10
133.353512696
 20
129.979015868
 30
0.0
 40
0.983182225
 50
0.378884202
 51
4.370172857
  0
ARC
  8
0
  6
CONTINUOUS
 62
     2
 10
133.361566488
 20
129.979615362
 30
0.0
 40
0.975106167
 50
4.371109932
 51
8.383507495
  0
ARC
  8
0
  6
CONTINUOUS
 62
     2
 10
133.377156081
 20
129.981850923
 30
0.0
 40
0.95935722
 50
8.387166314
 51
12.442474466
  0
ARC
  8
0
  6
CONTINUOUS
 62
     2
 10
133.399467512
 20
129.986666846
 30
0.0
 40
0.936532192
 50
12.448861161
 51
16.568939706
  0
ARC
  8
0
  6
CONTINUOUS
 62
     2
 10
133.42734925
 20
129.994811533
 30
0.0
 40
0.90748558
 50
16.578063269
 51
20.784781164
  0
ARC
  8
0
  6
CONTINUOUS
 62
     2
 10
133.459387794
 20
130.006778742
 30
0.0
 40
0.873285457
 50
20.796641477
 51
25.111728897
  0
ARC
  8
0
  6
CONTINUOUS
 62
     2
 10
133.493999662
 20
130.022766184
 30
0.0
 40
0.835160235
 50
25.126301258
 51
29.571056907
  0
ARC
  8
0
  6
CONTINUOUS
 62
     2
 10
133.904096394
 20
129.042522171
 30
0.0
 40
0.794716988
 50
146.686191526
 51
151.105275196
  0
ARC
  8
0
  6
CONTINUOUS
 62
     2
 10
133.938189688
 20
129.023392851
 30
0.0
 40
0.83380934
 50
151.086450392
 51
155.365735535
  0
ARC
  8
0
  6
CONTINUOUS
 62
     2
 10
133.971485904
 20
129.007845793
 30
0.0
 40
0.870555599
 50
155.349058228
 51
159.506409735
  0
ARC
  8
0
  6
CONTINUOUS
 62
     2
 10
134.002526751
 20
128.996001817
 30
0.0
 40
0.903778548
 50
159.492024849
 51
163.546151939
  0
ARC
  8
0
  6
CONTINUOUS
 62
     2
 10
134.029904051
 20
128.987712366
 30
0.0
 40
0.932382648
 50
163.5341348
 51
167.504169243
  0
ARC
  8
0
  6
CONTINUOUS
 62
     2
 10
134.052343915
 20
128.982575171
 30
0.0
 40
0.955402491
 50
167.494560659
 51
171.399792788
  0
ARC
  8
0
  6
CONTINUOUS
 62
     2
 10
134.068783055
 20
128.979965491
 30
0.0
 40
0.972047044
 50
171.392599029
 51
175.252333042
  0
ARC
  8
0
  6
CONTINUOUS
 62
     2
 10
134.078432867
 20
128.979081822
 30
0.0
 40
0.981736888
 50
175.247550587
 51
179.081046567
  0
ARC
  8
0
  6
CONTINUOUS
 62
     2
 10
133.907012405
 20
130.02927533
 30
0.0
 40
0.821182
 50
149.559150888
 51
154.12268866
  0
ARC
  8
0
  6
CONTINUOUS
 62
     2
 10
133.94256336
 20
130.011705962
 30
0.0
 40
0.860836407
 50
154.103277351
 51
158.524827793
  0
ARC
  8
0
  6
CONTINUOUS
 62
     2
 10
133.976043163
 20
129.998252739
 30
0.0
 40
0.896917154
 50
158.508067976
 51
162.809411572
  0
ARC
  8
0
  6
CONTINUOUS
 62
     2
 10
134.005773473
 20
129.988817843
 30
0.0
 40
0.928107841
 50
162.795423662
 51
166.998978451
  0
ARC
  8
0
  6
CONTINUOUS
 62
     2
 10
134.030220388
 20
129.982982721
 30
0.0
 40
0.953240822
 50
166.987813079
 51
171.116246109
  0
ARC
  8
0
  6
CONTINUOUS
 62
     2
 10
134.048096962
 20
129.980045669
 30
0.0
 40
0.971356523
 50
171.107921242
 51
175.183935343
  0
ARC
  8
0
  6
CONTINUOUS
 62
     2
 10
134.058449081
 20
129.979079095
 30
0.0
 40
0.981753248
 50
175.178447894
 51
179.224694957
  0
ARC
  8
0
  6
CONTINUOUS
 62
     2
 10
134.060719651
 20
129.979002677
 30
0.0
 40
0.984024645
 50
179.222034745
 51
183.261111054
  0
ARC
  8
0
  6
CONTINUOUS
 62
     2
 10
134.054786121
 20
129.97866735
 30
0.0
 40
0.978081648
 50
183.261272327
 51
187.315757768
  0
ARC
  8
0
  6
CONTINUOUS
 62
     2
 10
134.040968511
 20
129.976944033
 30
0.0
 40
0.964157079
 50
187.318741573
 51
191.411249799
  0
ARC
  8
0
  6
CONTINUOUS
 62
     2
 10
134.020008166
 20
129.972810995
 30
0.0
 40
0.942793356
 50
191.417063479
 51
195.570269066
  0
ARC
  8
0
  6
CONTINUOUS
 62
     2
 10
133.993017759
 20
129.965433637
 30
0.0
 40
0.914813223
 50
195.578921017
 51
199.815529315
  0
ARC
  8
0
  6
CONTINUOUS
 62
     2
 10
133.961406649
 20
129.954231184
 30
0.0
 40
0.881276306
 50
199.827023791
 51
204.169643687
  0
ARC
  8
0
  6
CONTINUOUS
 62
     2
 10
133.926786838
 20
129.938925494
 30
0.0
 40
0.843424634
 50
204.183962212
 51
208.654835082
  0
ARC
  8
0
  6
CONTINUOUS
 62
     2
 10
133.890865322
 20
129.919568529
 30
0.0
 40
0.802620379
 50
208.671917941
 51
213.292452426
  0
ARC
  8
0
  6
CONTINUOUS
 62
     2
 10
133.890865322
 20
129.919568529
 30
0.0
 40
0.802620379
 50
208.671917941
 51
213.292452426
  0
LINE
  8
0
  6
CONTINUOUS
 62
     2
 10
133.229684362
 20
130.429
 30
0.0
 11
134.1868015
 21
130.429
 31
0.0
  0
ARC
  8
0
  6
CONTINUOUS
 62
     2
 10
133.886374281
 20
127.047328204
 30
0.0
 40
0.785624113
 50
145.591107932
 51
150.221119178
  0
ARC
  8
0
  6
CONTINUOUS
 62
     2
 10
133.921797676
 20
127.02671166
 30
0.0
 40
0.826609145
 50
150.200260678
 51
154.675310652
  0
ARC
  8
0
  6
CONTINUOUS
 62
     2
 10
133.956653462
 20
127.009908026
 30
0.0
 40
0.865302987
 50
154.656816624
 51
158.996724919
  0
ARC
  8
0
  6
CONTINUOUS
 62
     2
 10
133.989304024
 20
126.997104212
 30
0.0
 40
0.900373438
 50
158.980786071
 51
163.206465598
  0
ARC
  8
0
  6
CONTINUOUS
 62
     2
 10
134.018155447
 20
126.988171621
 30
0.0
 40
0.930575271
 50
163.193180379
 51
167.326092246
  0
ARC
  8
0
  6
CONTINUOUS
 62
     2
 10
134.041759989
 20
126.982682638
 30
0.0
 40
0.954808988
 50
167.31550937
 51
171.377323206
  0
ARC
  8
0
  6
CONTINUOUS
 62
     2
 10
134.058910347
 20
126.979946902
 30
0.0
 40
0.972175666
 50
171.369454199
 51
175.381862297
  0
ARC
  8
0
  6
CONTINUOUS
 62
     2
 10
134.068717697
 20
126.979065996
 30
0.0
 40
0.982022105
 50
175.376703894
 51
179.361348265
  0
ARC
  8
0
  6
CONTINUOUS
 62
     2
 10
134.070669722
 20
126.979002035
 30
0.0
 40
0.983974723
 50
179.358891056
 51
183.337362384
  0
ARC
  8
0
  6
CONTINUOUS
 62
     2
 10
134.064664207
 20
126.978655915
 30
0.0
 40
0.977959244
 50
183.337601289
 51
187.331476413
  0
ARC
  8
0
  6
CONTINUOUS
 62
     2
 10
134.051015575
 20
126.976949682
 30
0.0
 40
0.964204466
 50
187.334412626
 51
191.365300704
  0
ARC
  8
0
  6
CONTINUOUS
 62
     2
 10
134.030434117
 20
126.972907409
 30
0.0
 40
0.943230016
 50
191.370940779
 51
195.4605093
  0
ARC
  8
0
  6
CONTINUOUS
 62
     2
 10
134.003980248
 20
126.965729266
 30
0.0
 40
0.915819898
 50
195.468862621
 51
199.63880865
  0
ARC
  8
0
  6
CONTINUOUS
 62
     2
 10
133.972994981
 20
126.954853376
 30
0.0
 40
0.882981787
 50
199.649877782
 51
203.921812392
  0
ARC
  8
0
  6
CONTINUOUS
 62
     2
 10
133.939013253
 20
126.940001613
 30
0.0
 40
0.84589689
 50
203.93557903
 51
208.330781276
  0
ARC
  8
0
  6
CONTINUOUS
 62
     2
 10
133.939013253
 20
126.940001613
 30
0.0
 40
0.84589689
 50
203.93557903
 51
208.330781276
  0
ARC
  8
0
  6
CONTINUOUS
 62
     2
 10
133.518691933
 20
127.915859692
 30
0.0
 40
0.795429519
 50
326.68700834
 51
331.294319972
  0
ARC
  8
0
  6
CONTINUOUS
 62
     2
 10
133.483137173
 20
127.935670397
 30
0.0
 40
0.836129889
 50
331.273857193
 51
335.729758842
  0
ARC
  8
0
  6
CONTINUOUS
 62
     2
 10
133.448546831
 20
127.951568487
 30
0.0
 40
0.874197839
 50
335.711740279
 51
340.036580156
  0
ARC
  8
0
  6
CONTINUOUS
 62
     2
 10
133.416574201
 20
127.963442337
 30
0.0
 40
0.908303263
 50
340.021172188
 51
344.236252167
  0
ARC
  8
0
  6
CONTINUOUS
 62
     2
 10
133.388802679
 20
127.971497924
 30
0.0
 40
0.937218796
 50
344.223543117
 51
348.350619823
  0
LINE
  8
0
  6
CONTINUOUS
 62
     2
 10
133.109734362
 20
126.954
 30
0.0
 11
133.109734362
 21
129.839
 31
0.0
  0
LINE
  8
0
  6
CONTINUOUS
 62
     2
 10
134.309734362
 20
127.119
 30
0.0
 11
134.309734362
 21
129.829
 31
0.0
  0
ARC
  8
0
  6
CONTINUOUS
 62
     2
 10
134.07971698
 20
127.934429346
 30
0.0
 40
0.976335797
 50
183.912653632
 51
187.998327059
  0
ARC
  8
0
  6
CONTINUOUS
 62
     2
 10
134.064546278
 20
127.932356791
 30
0.0
 40
0.961024291
 50
188.001816074
 51
192.129836034
  0
ARC
  8
0
  6
CONTINUOUS
 62
     2
 10
134.04230677
 20
127.927683727
 30
0.0
 40
0.938299369
 50
192.136211246
 51
196.329709251
  0
ARC
  8
0
  6
CONTINUOUS
 62
     2
 10
134.014191417
 20
127.919599694
 30
0.0
 40
0.90904527
 50
196.338981733
 51
200.621106856
  0
ARC
  8
0
  6
CONTINUOUS
 62
     2
 10
133.981682174
 20
127.907565014
 30
0.0
 40
0.874380468
 50
200.633275143
 51
205.027038866
  0
ARC
  8
0
  6
CONTINUOUS
 62
     2
 10
133.946449267
 20
127.891357484
 30
0.0
 40
0.83559914
 50
205.042080132
 51
209.570044314
  0
ARC
  8
0
  6
CONTINUOUS
 62
     2
 10
133.366076761
 20
129.025182753
 30
0.0
 40
0.963828597
 50
7.323534494
 51
11.579725972
  0
ARC
  8
0
  6
CONTINUOUS
 62
     2
 10
133.388126628
 20
129.029594831
 30
0.0
 40
0.941341889
 50
11.586045237
 51
15.908745741
  0
ARC
  8
0
  6
CONTINUOUS
 62
     2
 10
133.416613946
 20
129.03755696
 30
0.0
 40
0.911763194
 50
15.918257896
 51
20.332990771
  0
ARC
  8
0
  6
CONTINUOUS
 62
     2
 10
133.449933509
 20
129.049696809
 30
0.0
 40
0.876301526
 50
20.345697014
 51
24.877852906
  0
ARC
  8
0
  6
CONTINUOUS
 62
     2
 10
133.486255556
 20
129.0662844
 30
0.0
 40
0.8363718
 50
24.893730539
 51
29.568218426
  0
POINT
  8
0
  6
CONTINUOUS
 62
     2
 10
135.816695
 20
126.529
 30
0.0
  0
LINE
  8
0
  6
CONTINUOUS
 62
     2
 10
135.759684362
 20
127.479
 30
0.0
 11
136.679684362
 21
127.479
 31
0.0
  0
ARC
  8
0
  6
CONTINUOUS
 62
     2
 10
136.007441138
 20
126.933469704
 30
0.0
 40
0.831297344
 50
330.698898687
 51
335.234789526
  0
ARC
  8
0
  6
CONTINUOUS
 62
     2
 10
135.97217188
 20
126.950055696
 30
0.0
 40
0.870270891
 50
335.215941055
 51
339.614610247
  0
ARC
  8
0
  6
CONTINUOUS
 62
     2
 10
135.939412694
 20
126.962501331
 30
0.0
 40
0.905313659
 50
339.59846742
 51
343.882043428
  0
ARC
  8
0
  6
CONTINUOUS
 62
     2
 10
135.910826326
 20
126.97098862
 30
0.0
 40
0.93513259
 50
343.868708134
 51
348.059844494
  0
ARC
  8
0
  6
CONTINUOUS
 62
     2
 10
135.887902488
 20
126.976015546
 30
0.0
 40
0.95860049
 50
348.049357647
 51
352.170889482
  0
ARC
  8
0
  6
CONTINUOUS
 62
     2
 10
135.871858112
 20
126.978352642
 30
0.0
 40
0.974813677
 50
352.163262469
 51
356.238028877
  0
ARC
  8
0
  6
CONTINUOUS
 62
     2
 10
135.863555339
 20
126.978980708
 30
0.0
 40
0.983139771
 50
356.233252692
 51
0.284033893
  0
ARC
  8
0
  6
CONTINUOUS
 62
     2
 10
135.863443433
 20
126.979013304
 30
0.0
 40
0.983251515
 50
0.282102178
 51
4.331629413
  0
ARC
  8
0
  6
CONTINUOUS
 62
     2
 10
135.871528507
 20
126.979610216
 30
0.0
 40
0.975144451
 50
4.332537293
 51
8.403539146
  0
ARC
  8
0
  6
CONTINUOUS
 62
     2
 10
135.88737297
 20
126.981887473
 30
0.0
 40
0.959137299
 50
8.407288766
 51
12.522538623
  0
ARC
  8
0
  6
CONTINUOUS
 62
     2
 10
135.91012517
 20
126.986830487
 30
0.0
 40
0.9358546
 50
12.52913794
 51
16.711469752
  0
ARC
  8
0
  6
CONTINUOUS
 62
     2
 10
135.938576817
 20
126.995216411
 30
0.0
 40
0.90619323
 50
16.720927894
 51
20.993183657
  0
ARC
  8
0
  6
CONTINUOUS
 62
     2
 10
135.971244288
 20
127.007551196
 30
0.0
 40
0.871275126
 50
21.005501136
 51
25.390367555
  0
ARC
  8
0
  6
CONTINUOUS
 62
     2
 10
136.00646813
 20
127.024025866
 30
0.0
 40
0.832389613
 50
25.405514582
 51
29.925201431
  0
ARC
  8
0
  6
CONTINUOUS
 62
     2
 10
136.042524003
 20
127.04449486
 30
0.0
 40
0.790929495
 50
29.943104652
 51
34.618810379
  0
ARC
  8
0
  6
CONTINUOUS
 62
     2
 10
136.042524003
 20
127.04449486
 30
0.0
 40
0.790929495
 50
29.943104652
 51
34.618810379
  0
LINE
  8
0
  6
CONTINUOUS
 62
     2
 10
135.719971259
 20
129.479
 30
0.0
 11
136.693418741
 21
129.479
 31
0.0
  0
ARC
  8
0
  6
CONTINUOUS
 62
     2
 10
136.02870124
 20
129.91585379
 30
0.0
 40
0.7954185
 50
326.686995441
 51
331.291389405
  0
ARC
  8
0
  6
CONTINUOUS
 62
     2
 10
135.993169122
 20
129.935654011
 30
0.0
 40
0.836093991
 50
331.270953186
 51
335.724120374
  0
ARC
  8
0
  6
CONTINUOUS
 62
     2
 10
135.958598673
 20
129.951546878
 30
0.0
 40
0.874141685
 50
335.706122194
 51
340.028370457
  0
ARC
  8
0
  6
CONTINUOUS
 62
     2
 10
135.926640106
 20
129.963420523
 30
0.0
 40
0.908233857
 50
340.012978771
 51
344.225568367
  0
ARC
  8
0
  6
CONTINUOUS
 62
     2
 10
135.898873855
 20
129.971480017
 30
0.0
 40
0.937145418
 50
344.21287047
 51
348.337515202
  0
ARC
  8
0
  6
CONTINUOUS
 62
     2
 10
135.876708444
 20
129.976225653
 30
0.0
 40
0.959812558
 50
348.327545427
 51
352.3861116
  0
ARC
  8
0
  6
CONTINUOUS
 62
     2
 10
135.861288092
 20
129.978411206
 30
0.0
 40
0.975386542
 50
352.378878207
 51
356.393228023
  0
ARC
  8
0
  6
CONTINUOUS
 62
     2
 10
135.853418242
 20
129.978984674
 30
0.0
 40
0.983276883
 50
356.388726542
 51
0.380665441
  0
ARC
  8
0
  6
CONTINUOUS
 62
     2
 10
135.85351269
 20
129.979015868
 30
0.0
 40
0.983182231
 50
0.3788842
 51
4.370172831
  0
ARC
  8
0
  6
CONTINUOUS
 62
     2
 10
135.861566486
 20
129.979615362
 30
0.0
 40
0.97510617
 50
4.371109921
 51
8.383507474
  0
ARC
  8
0
  6
CONTINUOUS
 62
     2
 10
135.877156085
 20
129.981850922
 30
0.0
 40
0.959357217
 50
8.387166364
 51
12.442474531
  0
ARC
  8
0
  6
CONTINUOUS
 62
     2
 10
135.899467512
 20
129.986666845
 30
0.0
 40
0.936532192
 50
12.448861196
 51
16.568939738
  0
ARC
  8
0
  6
CONTINUOUS
 62
     2
 10
135.927349243
 20
129.994811533
 30
0.0
 40
0.907485586
 50
16.578063148
 51
20.784781014
  0
ARC
  8
0
  6
CONTINUOUS
 62
     2
 10
135.959387793
 20
130.006778742
 30
0.0
 40
0.873285458
 50
20.796641451
 51
25.111728867
  0
ARC
  8
0
  6
CONTINUOUS
 62
     2
 10
135.993999661
 20
130.022766186
 30
0.0
 40
0.835160235
 50
25.126301077
 51
29.571056722
  0
LINE
  8
0
  6
CONTINUOUS
 62
     2
 10
135.609734362
 20
126.954
 30
0.0
 11
135.609734362
 21
129.954
 31
0.0
  0
ARC
  8
0
  6
CONTINUOUS
 62
     2
 10
136.587602463
 20
127.934920145
 30
0.0
 40
0.98423755
 50
178.204533589
 51
181.9667446
  0
ARC
  8
0
  6
CONTINUOUS
 62
     2
 10
136.584466665
 20
127.934803586
 30
0.0
 40
0.981099599
 50
181.96622654
 51
185.735696559
  0
ARC
  8
0
  6
CONTINUOUS
 62
     2
 10
136.574345526
 20
127.933817008
 30
0.0
 40
0.970930533
 50
185.737458848
 51
189.532452703
  0
ARC
  8
0
  6
CONTINUOUS
 62
     2
 10
136.5577118
 20
127.931092114
 30
0.0
 40
0.95407523
 50
189.536499144
 51
193.375324034
  0
ARC
  8
0
  6
CONTINUOUS
 62
     2
 10
136.535336558
 20
127.925877639
 30
0.0
 40
0.93110065
 50
193.381662514
 51
197.282666937
  0
ARC
  8
0
  6
CONTINUOUS
 62
     2
 10
136.508243952
 20
127.917590706
 30
0.0
 40
0.902769333
 50
197.291301649
 51
201.27282391
  0
ARC
  8
0
  6
CONTINUOUS
 62
     2
 10
136.477651929
 20
127.90585816
 30
0.0
 40
0.870005085
 50
201.283752152
 51
205.363990595
  0
ARC
  8
0
  6
CONTINUOUS
 62
     2
 10
136.444901413
 20
127.890544847
 30
0.0
 40
0.833851864
 50
205.377188065
 51
209.573964527
  0
ARC
  8
0
  6
CONTINUOUS
 62
     2
 10
136.404096392
 20
129.042522174
 30
0.0
 40
0.794716984
 50
146.686191632
 51
151.105275321
  0
ARC
  8
0
  6
CONTINUOUS
 62
     2
 10
136.438189696
 20
129.023392846
 30
0.0
 40
0.833809349
 50
151.086450366
 51
155.365735463
  0
ARC
  8
0
  6
CONTINUOUS
 62
     2
 10
136.471485907
 20
129.007845793
 30
0.0
 40
0.870555602
 50
155.349058309
 51
159.506409804
  0
ARC
  8
0
  6
CONTINUOUS
 62
     2
 10
136.502526749
 20
128.996001816
 30
0.0
 40
0.903778547
 50
159.492024753
 51
163.546151851
  0
ARC
  8
0
  6
CONTINUOUS
 62
     2
 10
136.529904047
 20
128.987712367
 30
0.0
 40
0.932382643
 50
163.534134811
 51
167.504169274
  0
ARC
  8
0
  6
CONTINUOUS
 62
     2
 10
136.552343912
 20
128.982575171
 30
0.0
 40
0.955402489
 50
167.494560621
 51
171.399792762
  0
ARC
  8
0
  6
CONTINUOUS
 62
     2
 10
136.568783055
 20
128.979965491
 30
0.0
 40
0.972047044
 50
171.392599053
 51
175.252333066
  0
ARC
  8
0
  6
CONTINUOUS
 62
     2
 10
136.578432867
 20
128.979081822
 30
0.0
 40
0.981736888
 50
175.247550598
 51
179.081046579
  0
ARC
  8
0
  6
CONTINUOUS
 62
     2
 10
136.407363097
 20
130.029085099
 30
0.0
 40
0.821580846
 50
149.605389824
 51
154.164395003
  0
ARC
  8
0
  6
CONTINUOUS
 62
     2
 10
136.442878944
 20
130.011565523
 30
0.0
 40
0.861181731
 50
154.14503472
 51
158.562442346
  0
ARC
  8
0
  6
CONTINUOUS
 62
     2
 10
136.47631087
 20
129.998157254
 30
0.0
 40
0.897201304
 50
158.545729901
 51
162.843285319
  0
ARC
  8
0
  6
CONTINUOUS
 62
     2
 10
136.505984745
 20
129.988759727
 30
0.0
 40
0.928326904
 50
162.829338941
 51
167.029418451
  0
ARC
  8
0
  6
CONTINUOUS
 62
     2
 10
136.530371261
 20
129.982952839
 30
0.0
 40
0.953394587
 50
167.018291167
 51
171.143517348
  0
ARC
  8
0
  6
CONTINUOUS
 62
     2
 10
136.548188087
 20
129.980034366
 30
0.0
 40
0.971448323
 50
171.135224884
 51
175.208255264
  0
ARC
  8
0
  6
CONTINUOUS
 62
     2
 10
136.558485607
 20
129.979077216
 30
0.0
 40
0.981789812
 50
175.202792368
 51
179.246233064
  0
ARC
  8
0
  6
CONTINUOUS
 62
     2
 10
136.560710375
 20
129.979002588
 30
0.0
 40
0.984015369
 50
179.243592293
 51
183.279994177
  0
ARC
  8
0
  6
CONTINUOUS
 62
     2
 10
136.554742438
 20
129.97866358
 30
0.0
 40
0.978037812
 50
183.280170249
 51
187.332067882
  0
ARC
  8
0
  6
CONTINUOUS
 62
     2
 10
136.540903262
 20
129.976933646
 30
0.0
 40
0.964091024
 50
187.335060942
 51
191.425023067
  0
ARC
  8
0
  6
CONTINUOUS
 62
     2
 10
136.51993436
 20
129.972793673
 30
0.0
 40
0.942717563
 50
191.430839214
 51
195.581495069
  0
ARC
  8
0
  6
CONTINUOUS
 62
     2
 10
136.49294725
 20
129.965411493
 30
0.0
 40
0.914739339
 50
195.590144677
 51
199.824154491
  0
ARC
  8
0
  6
CONTINUOUS
 62
     2
 10
136.461349236
 20
129.954208259
 30
0.0
 40
0.881214504
 50
199.835641486
 51
204.175568333
  0
ARC
  8
0
  6
CONTINUOUS
 62
     2
 10
136.426749409
 20
129.938907003
 30
0.0
 40
0.843382902
 50
204.189872245
 51
208.657912093
  0
ARC
  8
0
  6
CONTINUOUS
 62
     2
 10
136.390851462
 20
129.919560103
 30
0.0
 40
0.802604168
 50
208.674975342
 51
213.292492704
  0
LINE
  8
0
  6
CONTINUOUS
 62
     2
 10
135.729684362
 20
130.429
 30
0.0
 11
136.6868015
 21
130.429
 31
0.0
  0
ARC
  8
0
  6
CONTINUOUS
 62
     2
 10
136.3868289
 20
127.047027758
 30
0.0
 40
0.786168966
 50
145.591765897
 51
150.365859584
  0
ARC
  8
0
  6
CONTINUOUS
 62
     2
 10
136.423371774
 20
127.025870768
 30
0.0
 40
0.828393394
 50
150.343679699
 51
154.953444692
  0
ARC
  8
0
  6
CONTINUOUS
 62
     2
 10
136.459233027
 20
127.008785519
 30
0.0
 40
0.86811557
 50
154.933869196
 51
159.401124398
  0
ARC
  8
0
  6
CONTINUOUS
 62
     2
 10
136.492615742
 20
126.995956001
 30
0.0
 40
0.903877771
 50
159.384360236
 51
163.732120227
  0
ARC
  8
0
  6
CONTINUOUS
 62
     2
 10
136.521781206
 20
126.987210005
 30
0.0
 40
0.934325552
 50
163.718276706
 51
167.970136009
  0
ARC
  8
0
  6
CONTINUOUS
 62
     2
 10
136.545168523
 20
126.982040194
 30
0.0
 40
0.958276781
 50
167.959262683
 51
172.139018602
  0
ARC
  8
0
  6
CONTINUOUS
 62
     2
 10
136.561502244
 20
126.979649446
 30
0.0
 40
0.974784002
 50
172.131123581
 51
176.262580352
  0
ARC
  8
0
  6
CONTINUOUS
 62
     2
 10
136.569880183
 20
126.979017535
 30
0.0
 40
0.983185318
 50
176.25765844
 51
180.364559074
  0
ARC
  8
0
  6
CONTINUOUS
 62
     2
 10
136.569836482
 20
126.978983653
 30
0.0
 40
0.983141403
 50
180.362600721
 51
184.46863668
  0
ARC
  8
0
  6
CONTINUOUS
 62
     2
 10
136.561373573
 20
126.978339361
 30
0.0
 40
0.974654022
 50
184.46963842
 51
188.598499158
  0
ARC
  8
0
  6
CONTINUOUS
 62
     2
 10
136.544962122
 20
126.975924814
 30
0.0
 40
0.958066034
 50
188.602461691
 51
192.777885188
  0
ARC
  8
0
  6
CONTINUOUS
 62
     2
 10
136.521508334
 20
126.97072168
 30
0.0
 40
0.934042303
 50
192.784819577
 51
197.03060716
  0
ARC
  8
0
  6
CONTINUOUS
 62
     2
 10
136.492291254
 20
126.961935579
 30
0.0
 40
0.903533156
 50
197.04052215
 51
201.380476209
  0
ARC
  8
0
  6
CONTINUOUS
 62
     2
 10
136.45887419
 20
126.949062396
 30
0.0
 40
0.867722832
 50
201.393369018
 51
205.851108942
  0
ARC
  8
0
  6
CONTINUOUS
 62
     2
 10
136.422997007
 20
126.931933513
 30
0.0
 40
0.827967127
 50
205.866947101
 51
210.46554756
  0
ARC
  8
0
  6
CONTINUOUS
 62
     2
 10
136.422997007
 20
126.931933513
 30
0.0
 40
0.827967127
 50
205.866947101
 51
210.46554756
  0
LINE
  8
0
  6
CONTINUOUS
 62
     2
 10
135.729684362
 20
126.529
 30
0.0
 11
136.7168015
 21
126.529
 31
0.0
  0
ARC
  8
0
  6
CONTINUOUS
 62
     2
 10
135.855472223
 20
129.023757329
 30
0.0
 40
0.97452734
 50
4.576431896
 51
8.556068738
  0
ARC
  8
0
  6
CONTINUOUS
 62
     2
 10
135.871238257
 20
129.026066291
 30
0.0
 40
0.958593251
 50
8.559796108
 51
12.58255348
  0
ARC
  8
0
  6
CONTINUOUS
 62
     2
 10
135.893573606
 20
129.030944802
 30
0.0
 40
0.935731568
 50
12.588941314
 51
16.676124793
  0
ARC
  8
0
  6
CONTINUOUS
 62
     2
 10
135.921345564
 20
129.039114588
 30
0.0
 40
0.906783237
 50
16.685179117
 51
20.858100105
  0
ARC
  8
0
  6
CONTINUOUS
 62
     2
 10
135.953170838
 20
129.051049742
 30
0.0
 40
0.87279408
 50
20.869821501
 51
25.149652154
  0
ARC
  8
0
  6
CONTINUOUS
 62
     2
 10
135.987503933
 20
129.066937618
 30
0.0
 40
0.834963665
 50
25.164014349
 51
29.571503614
  0
ARC
  8
0
  6
CONTINUOUS
 62
     2
 10
136.028074694
 20
127.916250845
 30
0.0
 40
0.796160161
 50
326.687880228
 51
331.488158108
  0
ARC
  8
0
  6
CONTINUOUS
 62
     2
 10
135.991023701
 20
127.936747752
 30
0.0
 40
0.838501618
 50
331.465945337
 51
336.102483358
  0
ARC
  8
0
  6
CONTINUOUS
 62
     2
 10
135.955129081
 20
127.952977903
 30
0.0
 40
0.877893963
 50
336.083048492
 51
340.578975706
  0
ARC
  8
0
  6
CONTINUOUS
 62
     2
 10
135.922260591
 20
127.964844492
 30
0.0
 40
0.912838023
 50
340.562507073
 51
344.942025434
  0
ARC
  8
0
  6
CONTINUOUS
 62
     2
 10
135.894192492
 20
127.972623948
 30
0.0
 40
0.94196346
 50
344.928622565
 51
349.216417972
  0
ARC
  8
0
  6
CONTINUOUS
 62
     2
 10
135.872478587
 20
127.976936098
 30
0.0
 40
0.964100736
 50
349.206116914
 51
353.427016184
  0
LINE
  8
0
  6
CONTINUOUS
 62
     2
 10
136.809734362
 20
127.079
 30
0.0
 11
136.809734362
 21
129.954
 31
0.0
  0
LINE
  8
0
  6
CONTINUOUS
 62
     2
 10
135.109734362
 20
126.679
 30
0.0
 11
135.609734362
 21
126.679
 31
0.0
  0
LINE
  8
0
  6
CONTINUOUS
 62
     2
 10
135.609734362
 20
126.679
 30
0.0
 11
135.609734362
 21
130.279
 31
0.0
  0
LINE
  8
0
  6
CONTINUOUS
 62
     2
 10
135.609734362
 20
130.279
 30
0.0
 11
135.109734362
 21
130.279
 31
0.0
  0
LINE
  8
0
  6
CONTINUOUS
 62
     2
 10
135.109734362
 20
130.279
 30
0.0
 11
135.109734362
 21
126.679
 31
0.0
  0
LINE
  8
0
  6
CONTINUOUS
 62
     2
 10
135.109734362
 20
128.354
 30
0.0
 11
135.609734362
 21
128.654
 31
0.0
  0
LINE
  8
0
  6
CONTINUOUS
 62
     2
 10
135.609734362
 20
128.404
 30
0.0
 11
135.109734362
 21
128.104
 31
0.0
  0
LINE
  8
0
  6
CONTINUOUS
 62
     2
 10
134.709734362
 20
126.229
 30
0.0
 11
135.109734362
 21
126.229
 31
0.0
  0
LINE
  8
0
  6
CONTINUOUS
 62
     2
 10
135.109734362
 20
126.229
 30
0.0
 11
135.109734362
 21
130.729
 31
0.0
  0
LINE
  8
0
  6
CONTINUOUS
 62
     2
 10
135.109734362
 20
130.729
 30
0.0
 11
134.709734362
 21
130.729
 31
0.0
  0
LINE
  8
0
  6
CONTINUOUS
 62
     2
 10
134.709734362
 20
130.729
 30
0.0
 11
134.709734362
 21
126.229
 31
0.0
  0
LINE
  8
0
  6
LTYPE5
 62
     2
 10
133.809734362
 20
122.579
 30
0.0
 11
134.059734362
 21
122.579
 31
0.0
  0
LINE
  8
0
  6
LTYPE4
 62
     2
 10
139.75
 20
142.608171307
 30
0.0
 11
139.75
 21
137.166598965
 31
0.0
  0
LINE
  8
0
  6
LTYPE6
 62
     2
 10
132.25
 20
137.166598965
 30
0.0
 11
138.75
 21
137.166598965
 31
0.0
  0
ARC
  8
0
  6
LTYPE6
 62
     2
 10
138.75
 20
136.166598965
 30
0.0
 40
1.0
 50
0.0
 51
90.0
  0
LINE
  8
0
  6
LTYPE4
 62
     2
 10
138.75
 20
134.129
 30
0.0
 11
132.25
 21
134.129
 31
0.0
  0
LINE
  8
0
  6
LTYPE4
 62
     2
 10
139.75
 20
136.166598965
 30
0.0
 11
139.75
 21
135.129
 31
0.0
  0
ARC
  8
0
  6
LTYPE4
 62
     2
 10
138.75
 20
135.129
 30
0.0
 40
1.0
 50
270.0
 51
0.0
  0
LINE
  8
0
  6
CONTINUOUS
 62
     5
 10
54.670775
 20
131.82568
 30
0.0
 11
54.30664
 21
131.82568
 31
0.0
  0
ARC
  8
0
  6
CONTINUOUS
 62
     5
 10
54.30664
 20
131.67236
 30
0.0
 40
0.15332
 50
90.0
 51
180.0
  0
LINE
  8
0
  6
CONTINUOUS
 62
     5
 10
54.15332
 20
131.67236
 30
0.0
 11
54.15332
 21
131.308225
 31
0.0
  0
LINE
  8
0
  6
CONTINUOUS
 62
     5
 10
54.15332
 20
131.308225
 30
0.0
 11
53.84668
 21
131.308225
 31
0.0
  0
LINE
  8
0
  6
CONTINUOUS
 62
     5
 10
53.84668
 20
131.308225
 30
0.0
 11
53.84668
 21
131.67236
 31
0.0
  0
ARC
  8
0
  6
CONTINUOUS
 62
     5
 10
53.69336
 20
131.67236
 30
0.0
 40
0.15332
 50
0.0
 51
90.0
  0
ARC
  8
0
  6
CONTINUOUS
 62
     5
 10
54.0
 20
131.979
 30
0.0
 40
1.1499
 50
176.772955224
 51
0.0
  0
ARC
  8
0
  6
CONTINUOUS
 62
     5
 10
54.0
 20
131.979
 30
0.0
 40
1.1499
 50
0.0
 51
78.364228834
  0
LINE
  8
0
  6
CONTINUOUS
 62
     5
 10
53.329225
 20
132.13232
 30
0.0
 11
53.69336
 21
132.13232
 31
0.0
  0
LINE
  8
0
  6
CONTINUOUS
 62
     5
 10
53.329225
 20
131.82568
 30
0.0
 11
53.329225
 21
132.13232
 31
0.0
  0
LINE
  8
0
  6
CONTINUOUS
 62
     5
 10
53.69336
 20
131.82568
 30
0.0
 11
53.329225
 21
131.82568
 31
0.0
  0
LINE
  8
0
  6
CONTINUOUS
 62
     5
 10
54.0
 20
133.5122
 30
0.0
 11
54.0
 21
130.4458
 31
0.0
  0
LINE
  8
0
  6
CONTINUOUS
 62
     5
 10
54.30664
 20
132.13232
 30
0.0
 11
54.670775
 21
132.13232
 31
0.0
  0
LINE
  8
0
  6
CONTINUOUS
 62
     5
 10
54.670775
 20
132.13232
 30
0.0
 11
54.670775
 21
131.82568
 31
0.0
  0
LINE
  8
0
  6
CONTINUOUS
 62
     5
 10
52.4668
 20
131.979
 30
0.0
 11
55.5332
 21
131.979
 31
0.0
  0
LINE
  8
0
  6
CONTINUOUS
 62
     5
 10
53.84668
 20
132.28564
 30
0.0
 11
53.84668
 21
132.649775
 31
0.0
  0
LINE
  8
0
  6
CONTINUOUS
 62
     5
 10
53.84668
 20
132.649775
 30
0.0
 11
54.15332
 21
132.649775
 31
0.0
  0
ARC
  8
0
  6
CONTINUOUS
 62
     5
 10
53.69336
 20
132.28564
 30
0.0
 40
0.15332
 50
270.0
 51
0.0
  0
LINE
  8
0
  6
CONTINUOUS
 62
     5
 10
54.15332
 20
132.649775
 30
0.0
 11
54.15332
 21
132.28564
 31
0.0
  0
ARC
  8
0
  6
CONTINUOUS
 62
     5
 10
54.30664
 20
132.28564
 30
0.0
 40
0.15332
 50
180.0
 51
270.0
  0
LINE
  8
0
  6
CONTINUOUS
 62
     5
 10
43.329225
 20
132.13232
 30
0.0
 11
43.69336
 21
132.13232
 31
0.0
  0
ARC
  8
0
  6
CONTINUOUS
 62
     5
 10
43.69336
 20
132.28564
 30
0.0
 40
0.15332
 50
270.0
 51
0.0
  0
LINE
  8
0
  6
CONTINUOUS
 62
     5
 10
43.84668
 20
132.28564
 30
0.0
 11
43.84668
 21
132.649775
 31
0.0
  0
LINE
  8
0
  6
CONTINUOUS
 62
     5
 10
43.84668
 20
132.649775
 30
0.0
 11
44.15332
 21
132.649775
 31
0.0
  0
LINE
  8
0
  6
CONTINUOUS
 62
     5
 10
44.15332
 20
132.649775
 30
0.0
 11
44.15332
 21
132.28564
 31
0.0
  0
ARC
  8
0
  6
CONTINUOUS
 62
     5
 10
44.30664
 20
132.28564
 30
0.0
 40
0.15332
 50
180.0
 51
270.0
  0
LINE
  8
0
  6
CONTINUOUS
 62
     5
 10
44.30664
 20
132.13232
 30
0.0
 11
44.670775
 21
132.13232
 31
0.0
  0
LINE
  8
0
  6
CONTINUOUS
 62
     5
 10
44.670775
 20
132.13232
 30
0.0
 11
44.670775
 21
131.82568
 31
0.0
  0
LINE
  8
0
  6
CONTINUOUS
 62
     5
 10
44.670775
 20
131.82568
 30
0.0
 11
44.30664
 21
131.82568
 31
0.0
  0
ARC
  8
0
  6
CONTINUOUS
 62
     5
 10
44.30664
 20
131.67236
 30
0.0
 40
0.15332
 50
90.0
 51
180.0
  0
LINE
  8
0
  6
CONTINUOUS
 62
     5
 10
44.15332
 20
131.67236
 30
0.0
 11
44.15332
 21
131.308225
 31
0.0
  0
LINE
  8
0
  6
CONTINUOUS
 62
     5
 10
44.15332
 20
131.308225
 30
0.0
 11
43.84668
 21
131.308225
 31
0.0
  0
LINE
  8
0
  6
CONTINUOUS
 62
     5
 10
43.84668
 20
131.308225
 30
0.0
 11
43.84668
 21
131.67236
 31
0.0
  0
ARC
  8
0
  6
CONTINUOUS
 62
     5
 10
43.69336
 20
131.67236
 30
0.0
 40
0.15332
 50
0.0
 51
90.0
  0
LINE
  8
0
  6
CONTINUOUS
 62
     5
 10
43.69336
 20
131.82568
 30
0.0
 11
43.329225
 21
131.82568
 31
0.0
  0
LINE
  8
0
  6
CONTINUOUS
 62
     5
 10
43.329225
 20
131.82568
 30
0.0
 11
43.329225
 21
132.13232
 31
0.0
  0
LINE
  8
0
  6
CONTINUOUS
 62
     5
 10
42.4668
 20
131.979
 30
0.0
 11
45.5332
 21
131.979
 31
0.0
  0
LINE
  8
0
  6
CONTINUOUS
 62
     5
 10
44.0
 20
133.5122
 30
0.0
 11
44.0
 21
130.4458
 31
0.0
  0
ARC
  8
0
  6
CONTINUOUS
 62
     5
 10
44.0
 20
131.979
 30
0.0
 40
1.1499
 50
101.635771167
 51
0.0
  0
ARC
  8
0
  6
CONTINUOUS
 62
     5
 10
44.0
 20
131.979
 30
0.0
 40
1.1499
 50
0.0
 51
5.706808691
  0
TEXT
  8
0
  6
CONTINUOUS
 62
     2
 10
193.25
 20
171.816598965
 30
0.3
 40
3.0
  1
計器入力端子キャップ
 50
0.0
 41
0.8
 51
0.0
  7
KANJI8
  0
LINE
  8
0
  6
CONTINUOUS
 62
     2
 10
160.25
 20
130.679
 30
0.0
 11
175.25
 21
130.679
 31
0.0
  0
LINE
  8
0
  6
CONTINUOUS
 62
     2
 10
175.25
 20
130.679
 30
0.0
 11
175.25
 21
133.679
 31
0.0
  0
LINE
  8
0
  6
CONTINUOUS
 62
     2
 10
175.25
 20
133.679
 30
0.0
 11
160.25
 21
133.679
 31
0.0
  0
LINE
  8
0
  6
CONTINUOUS
 62
     2
 10
160.25
 20
133.679
 30
0.0
 11
160.25
 21
130.679
 31
0.0
  0
LINE
  8
0
  6
CONTINUOUS
 62
     2
 10
160.75
 20
131.179
 30
0.0
 11
174.75
 21
131.179
 31
0.0
  0
LINE
  8
0
  6
CONTINUOUS
 62
     2
 10
174.75
 20
131.179
 30
0.0
 11
174.75
 21
133.179
 31
0.0
  0
LINE
  8
0
  6
CONTINUOUS
 62
     2
 10
174.75
 20
133.179
 30
0.0
 11
160.75
 21
133.179
 31
0.0
  0
LINE
  8
0
  6
CONTINUOUS
 62
     2
 10
160.75
 20
133.179
 30
0.0
 11
160.75
 21
131.179
 31
0.0
  0
CIRCLE
  8
0
  6
CONTINUOUS
 62
     2
 10
157.015706006
 20
129.224
 30
0.0
 40
1.5
  0
TEXT
  8
0
  6
CONTINUOUS
 62
     2
 10
156.315706006
 20
128.324
 30
0.2
 40
2.0
  1
Ｌ
 50
0.0
 41
0.8
 51
0.0
  7
KANJI9
  0
CIRCLE
  8
0
  6
CONTINUOUS
 62
     2
 10
178.378293994
 20
129.222
 30
0.0
 40
1.5
  0
TEXT
  8
0
  6
CONTINUOUS
 62
     2
 10
177.678293994
 20
128.322
 30
0.2
 40
2.0
  1
Ｌ
 50
0.0
 41
0.8
 51
0.0
  7
KANJI9
  0
TEXT
  8
0
  6
CONTINUOUS
 62
     2
 10
24.75
 20
167.829
 30
0.3
 40
3.0
  1
ＬＥＤ発光部
 50
0.0
 41
0.8
 51
0.0
  7
KANJI8
  0
TEXT
  8
0
  6
CONTINUOUS
 62
     5
 10
164.35
 20
131.604
 30
0.0
 40
1.2
  1
ＬＥＤ　ＤＣ　２４Ｖ
 50
0.0
 41
0.666666667
 51
0.0
  7
KANJI10
  0
CIRCLE
  8
0
  6
CONTINUOUS
 62
     2
 10
157.915706006
 20
132.924
 30
0.0
 40
1.5
  0
TEXT
  8
0
  6
CONTINUOUS
 62
     2
 10
157.215706006
 20
132.024
 30
0.2
 40
2.0
  1
＋
 50
0.0
 41
0.8
 51
0.0
  7
KANJI9
  0
LINE
  8
0
  6
LTYPE1
 62
     2
 10
63.4
 20
122.479
 30
0.0
 11
66.6
 21
122.479
 31
0.0
  0
LINE
  8
0
  6
LTYPE1
 62
     2
 10
65.0
 20
124.079
 30
0.0
 11
65.0
 21
120.879
 31
0.0
  0
CIRCLE
  8
0
  6
CONTINUOUS
 62
     2
 10
65.0
 20
122.479
 30
0.0
 40
1.2
  0
LINE
  8
0
  6
CONTINUOUS
 62
     2
 10
64.3
 20
122.639
 30
0.0
 11
64.68
 21
122.639
 31
0.0
  0
ARC
  8
0
  6
CONTINUOUS
 62
     2
 10
64.68
 20
122.799
 30
0.0
 40
0.16
 50
270.0
 51
0.0
  0
LINE
  8
0
  6
CONTINUOUS
 62
     2
 10
64.84
 20
122.799
 30
0.0
 11
64.84
 21
123.179
 31
0.0
  0
LINE
  8
0
  6
CONTINUOUS
 62
     2
 10
64.84
 20
123.179
 30
0.0
 11
65.16
 21
123.179
 31
0.0
  0
LINE
  8
0
  6
CONTINUOUS
 62
     2
 10
65.16
 20
123.179
 30
0.0
 11
65.16
 21
122.799
 31
0.0
  0
ARC
  8
0
  6
CONTINUOUS
 62
     2
 10
65.32
 20
122.799
 30
0.0
 40
0.16
 50
180.0
 51
270.0
  0
LINE
  8
0
  6
CONTINUOUS
 62
     2
 10
65.32
 20
122.639
 30
0.0
 11
65.7
 21
122.639
 31
0.0
  0
LINE
  8
0
  6
CONTINUOUS
 62
     2
 10
65.7
 20
122.639
 30
0.0
 11
65.7
 21
122.319
 31
0.0
  0
LINE
  8
0
  6
CONTINUOUS
 62
     2
 10
65.7
 20
122.319
 30
0.0
 11
65.32
 21
122.319
 31
0.0
  0
ARC
  8
0
  6
CONTINUOUS
 62
     2
 10
65.32
 20
122.159
 30
0.0
 40
0.16
 50
90.0
 51
180.0
  0
LINE
  8
0
  6
CONTINUOUS
 62
     2
 10
65.16
 20
122.159
 30
0.0
 11
65.16
 21
121.779
 31
0.0
  0
LINE
  8
0
  6
CONTINUOUS
 62
     2
 10
65.16
 20
121.779
 30
0.0
 11
64.84
 21
121.779
 31
0.0
  0
LINE
  8
0
  6
CONTINUOUS
 62
     2
 10
64.84
 20
121.779
 30
0.0
 11
64.84
 21
122.159
 31
0.0
  0
ARC
  8
0
  6
CONTINUOUS
 62
     2
 10
64.68
 20
122.159
 30
0.0
 40
0.16
 50
0.0
 51
90.0
  0
LINE
  8
0
  6
CONTINUOUS
 62
     2
 10
64.68
 20
122.319
 30
0.0
 11
64.3
 21
122.319
 31
0.0
  0
LINE
  8
0
  6
CONTINUOUS
 62
     2
 10
64.3
 20
122.319
 30
0.0
 11
64.3
 21
122.639
 31
0.0
  0
LINE
  8
0
  6
CONTINUOUS
 62
     1
 10
86.5
 20
118.479
 30
0.0
 11
89.0
 21
118.479
 31
0.0
  0
ARC
  8
0
  6
CONTINUOUS
 62
     1
 10
86.5
 20
119.479
 30
0.0
 40
1.0
 50
180.0
 51
270.0
  0
POINT
  8
0
  6
CONTINUOUS
 62
     2
 10
89.0
 20
119.979
 30
0.0
  0
LINE
  8
0
  6
CONTINUOUS
 62
     1
 10
82.937831543
 20
121.307122361
 30
0.0
 11
82.96215674
 21
120.689636592
 31
0.0
  0
ARC
  8
0
  6
CONTINUOUS
 62
     2
 10
83.566673333
 20
123.68714
 30
0.0
 40
0.04166
 50
0.0
 51
90.0
  0
LINE
  8
0
  6
CONTINUOUS
 62
     2
 10
83.608333333
 20
121.27086
 30
0.0
 11
83.608333333
 21
123.68714
 31
0.0
  0
ARC
  8
0
  6
CONTINUOUS
 62
     2
 10
83.566673333
 20
121.27086
 30
0.0
 40
0.04166
 50
270.0
 51
0.0
  0
LINE
  8
0
  6
CONTINUOUS
 62
     2
 10
83.191733333
 20
121.2292
 30
0.0
 11
83.566673333
 21
121.2292
 31
0.0
  0
ARC
  8
0
  6
CONTINUOUS
 62
     2
 10
83.191733333
 20
121.31252
 30
0.0
 40
0.08332
 50
180.0
 51
270.0
  0
LINE
  8
0
  6
CONTINUOUS
 62
     2
 10
83.566673333
 20
123.7288
 30
0.0
 11
83.191733333
 21
123.7288
 31
0.0
  0
ARC
  8
0
  6
CONTINUOUS
 62
     2
 10
83.191733333
 20
123.64548
 30
0.0
 40
0.08332
 50
90.0
 51
180.0
  0
LINE
  8
0
  6
CONTINUOUS
 62
     2
 10
83.150073333
 20
121.249336245
 30
0.0
 11
83.150073333
 21
123.696861245
 31
0.0
  0
LINE
  8
0
  6
CONTINUOUS
 62
     2
 10
82.816793333
 20
122.37485
 30
0.0
 11
82.900113333
 21
122.37485
 31
0.0
  0
LINE
  8
0
  6
CONTINUOUS
 62
     2
 10
82.900113333
 20
122.37485
 30
0.0
 11
82.900113333
 21
122.58315
 31
0.0
  0
LINE
  8
0
  6
CONTINUOUS
 62
     2
 10
82.900113333
 20
122.58315
 30
0.0
 11
82.816793333
 21
122.58315
 31
0.0
  0
ARC
  8
0
  6
CONTINUOUS
 62
     2
 10
85.316393333
 20
122.479
 30
0.0
 40
2.4996
 50
151.294758009
 51
177.611984537
  0
ARC
  8
0
  6
CONTINUOUS
 62
     2
 10
85.316393333
 20
122.479
 30
0.0
 40
2.4996
 50
182.388015463
 51
208.942689997
  0
ARC
  8
0
  6
CONTINUOUS
 62
     1
 10
83.961381701
 20
120.729
 30
0.0
 40
1.0
 50
182.255939964
 51
242.52369786
  0
LINE
  8
0
  6
CONTINUOUS
 62
     2
 10
30.0
 20
158.479
 30
0.0
 11
12.0
 21
158.479
 31
0.0
  0
LINE
  8
0
  6
CONTINUOUS
 62
     2
 10
14.0
 20
158.479
 30
0.0
 11
13.352952387
 21
156.064185434
 31
0.0
  0
LINE
  8
0
  6
CONTINUOUS
 62
     2
 10
14.0
 20
158.479
 30
0.0
 11
14.647047613
 21
156.064185434
 31
0.0
  0
LINE
  8
0
  6
CONTINUOUS
 62
     2
 10
14.0
 20
158.479
 30
0.0
 11
14.0
 21
114.085551227
 31
0.0
  0
LINE
  8
0
  6
CONTINUOUS
 62
     2
 10
14.0
 20
114.085551227
 30
0.0
 11
14.647047613
 21
116.500365793
 31
0.0
  0
LINE
  8
0
  6
CONTINUOUS
 62
     2
 10
14.0
 20
114.085551227
 30
0.0
 11
13.352952387
 21
116.500365793
 31
0.0
  0
LINE
  8
0
  6
CONTINUOUS
 62
     2
 10
57.0
 20
114.085551227
 30
0.0
 11
12.0
 21
114.085551227
 31
0.0
  0
TEXT
  8
0
  6
CONTINUOUS
 62
     2
 10
13.0
 20
134.332275614
 30
0.3
 40
3.0
  1
８９
 50
90.0
 41
0.6
 51
0.0
  7
KANJI2
  0
TEXT
  8
0
  6
CONTINUOUS
 62
     2
 10
12.95
 20
139.399
 30
0.18
 40
1.8
  1
±０．５
 50
90.0
 41
0.6
 51
0.0
  7
KANJI3
  0
LINE
  8
0
  6
CONTINUOUS
 62
     2
 10
30.0
 20
118.479
 30
0.0
 11
21.262724488
 21
118.479
 31
0.0
  0
LINE
  8
0
  6
CONTINUOUS
 62
     2
 10
23.262724488
 20
118.479
 30
0.0
 11
23.909772101
 21
120.893814566
 31
0.0
  0
LINE
  8
0
  6
CONTINUOUS
 62
     2
 10
23.262724488
 20
118.479
 30
0.0
 11
22.615676876
 21
120.893814566
 31
0.0
  0
LINE
  8
0
  6
CONTINUOUS
 62
     2
 10
23.262724488
 20
124.029
 30
0.0
 11
23.262724488
 21
118.479
 31
0.0
  0
LINE
  8
0
  6
CONTINUOUS
 62
     2
 10
23.262724488
 20
118.479
 30
0.0
 11
23.262724488
 21
114.085551227
 31
0.0
  0
LINE
  8
0
  6
CONTINUOUS
 62
     2
 10
23.262724488
 20
114.085551227
 30
0.0
 11
23.262724488
 21
110.335551227
 31
0.0
  0
LINE
  8
0
  6
CONTINUOUS
 62
     2
 10
23.262724488
 20
114.085551227
 30
0.0
 11
22.615676876
 21
111.670736662
 31
0.0
  0
LINE
  8
0
  6
CONTINUOUS
 62
     2
 10
23.262724488
 20
114.085551227
 30
0.0
 11
23.909772101
 21
111.670736662
 31
0.0
  0
LINE
  8
0
  6
CONTINUOUS
 62
     2
 10
22.5
 20
114.085551227
 30
0.0
 11
21.262724488
 21
114.085551227
 31
0.0
  0
TEXT
  8
0
  6
CONTINUOUS
 62
     2
 10
23.598729811
 20
104.679
 30
0.3
 40
3.0
  1
零位調整器
 50
0.0
 41
0.9
 51
0.0
  7
KANJI4
  0
TEXT
  8
0
  6
CONTINUOUS
 62
     2
 10
17.85
 20
98.816598965
 30
0.3
 40
3.0
  1
輝度調整用ボリュームツマミ
 50
0.0
 41
0.8
 51
0.0
  7
KANJI8
  0
TEXT
  8
0
  6
CONTINUOUS
 62
     2
 10
174.3
 20
102.579
 30
0.3
 40
3.0
  1
（ＬＥＤ照明用電源端子）
 50
0.0
 41
0.8
 51
0.0
  7
KANJI8
  0
LINE
  8
0
  6
LTYPE1
 62
     2
 10
170.45
 20
110.579
 30
0.0
 11
170.45
 21
108.579
 31
0.0
  0
LINE
  8
0
  6
CONTINUOUS
 62
     2
 10
49.0
 20
106.950759711
 30
0.0
 11
49.0
 21
105.490759711
 31
0.0
  0
TEXT
  8
0
  6
CONTINUOUS
 62
     2
 10
83.061278267
 20
179.479
 30
0.3
 40
3.0
  1
１７
 50
0.0
 41
0.6
 51
0.0
  7
KANJI2
  0
LINE
  8
0
  6
CONTINUOUS
 62
     2
 10
89.25
 20
178.479
 30
0.0
 11
86.835185434
 21
179.126047613
 31
0.0
  0
LINE
  8
0
  6
CONTINUOUS
 62
     2
 10
89.25
 20
178.479
 30
0.0
 11
86.835185434
 21
177.831952387
 31
0.0
  0
LINE
  8
0
  6
CONTINUOUS
 62
     2
 10
89.25
 20
178.479
 30
0.0
 11
80.772556533
 21
178.479
 31
0.0
  0
LINE
  8
0
  6
CONTINUOUS
 62
     2
 10
80.772556533
 20
178.479
 30
0.0
 11
83.187371099
 21
177.831952387
 31
0.0
  0
LINE
  8
0
  6
CONTINUOUS
 62
     2
 10
80.772556533
 20
178.479
 30
0.0
 11
83.187371099
 21
179.126047613
 31
0.0
  0
LINE
  8
0
  6
CONTINUOUS
 62
     2
 10
89.25
 20
178.479
 30
0.0
 11
91.664814566
 21
177.831952387
 31
0.0
  0
LINE
  8
0
  6
CONTINUOUS
 62
     2
 10
89.25
 20
178.479
 30
0.0
 11
91.664814566
 21
179.126047613
 31
0.0
  0
LINE
  8
0
  6
CONTINUOUS
 62
     2
 10
89.25
 20
166.479
 30
0.0
 11
89.25
 21
179.479
 31
0.0
  0
LINE
  8
0
  6
CONTINUOUS
 62
     2
 10
80.772556533
 20
139.929
 30
0.0
 11
80.772556533
 21
179.479
 31
0.0
  0
LINE
  8
0
  6
CONTINUOUS
 62
     2
 10
167.75
 20
168.479
 30
0.0
 11
165.335185434
 21
169.126047613
 31
0.0
  0
LINE
  8
0
  6
CONTINUOUS
 62
     2
 10
167.75
 20
168.479
 30
0.0
 11
165.335185434
 21
167.831952387
 31
0.0
  0
LINE
  8
0
  6
CONTINUOUS
 62
     2
 10
167.75
 20
168.479
 30
0.0
 11
170.164814566
 21
167.831952387
 31
0.0
  0
LINE
  8
0
  6
CONTINUOUS
 62
     2
 10
167.75
 20
168.479
 30
0.0
 11
170.164814566
 21
169.126047613
 31
0.0
  0
LINE
  8
0
  6
CONTINUOUS
 62
     2
 10
167.75
 20
167.479
 30
0.0
 11
167.75
 21
169.479
 31
0.0
  0
LINE
  8
0
  6
CONTINUOUS
 62
     2
 10
151.75
 20
168.479
 30
0.0
 11
154.164814566
 21
167.831952387
 31
0.0
  0
LINE
  8
0
  6
CONTINUOUS
 62
     2
 10
151.75
 20
168.479
 30
0.0
 11
154.164814566
 21
169.126047613
 31
0.0
  0
LINE
  8
0
  6
CONTINUOUS
 62
     2
 10
151.75
 20
159.479
 30
0.0
 11
151.75
 21
169.479
 31
0.0
  0
LINE
  8
0
  6
CONTINUOUS
 62
     2
 10
151.75
 20
168.479
 30
0.0
 11
167.75
 21
168.479
 31
0.0
  0
LINE
  8
0
  6
CONTINUOUS
 62
     2
 10
183.75
 20
168.479
 30
0.0
 11
181.335185434
 21
169.126047613
 31
0.0
  0
LINE
  8
0
  6
CONTINUOUS
 62
     2
 10
183.75
 20
168.479
 30
0.0
 11
181.335185434
 21
167.831952387
 31
0.0
  0
LINE
  8
0
  6
CONTINUOUS
 62
     2
 10
183.75
 20
159.479
 30
0.0
 11
183.75
 21
169.479
 31
0.0
  0
LINE
  8
0
  6
CONTINUOUS
 62
     2
 10
167.75
 20
168.479
 30
0.0
 11
183.75
 21
168.479
 31
0.0
  0
LINE
  8
0
  6
CONTINUOUS
 62
     2
 10
161.5
 20
163.479
 30
0.0
 11
163.914814566
 21
162.831952387
 31
0.0
  0
LINE
  8
0
  6
CONTINUOUS
 62
     2
 10
161.5
 20
163.479
 30
0.0
 11
163.914814566
 21
164.126047613
 31
0.0
  0
LINE
  8
0
  6
CONTINUOUS
 62
     2
 10
161.5
 20
152.229
 30
0.0
 11
161.5
 21
164.479
 31
0.0
  0
LINE
  8
0
  6
CONTINUOUS
 62
     2
 10
174.0
 20
163.479
 30
0.0
 11
171.585185434
 21
164.126047613
 31
0.0
  0
LINE
  8
0
  6
CONTINUOUS
 62
     2
 10
174.0
 20
163.479
 30
0.0
 11
171.585185434
 21
162.831952387
 31
0.0
  0
LINE
  8
0
  6
CONTINUOUS
 62
     2
 10
174.0
 20
149.829
 30
0.0
 11
174.0
 21
164.479
 31
0.0
  0
LINE
  8
0
  6
CONTINUOUS
 62
     2
 10
161.5
 20
163.479
 30
0.0
 11
174.0
 21
163.479
 31
0.0
  0
LINE
  8
0
  6
CONTINUOUS
 62
     2
 10
175.3
 20
148.916598965
 30
0.0
 11
177.331207346
 21
150.374061389
 31
0.0
  0
LINE
  8
0
  6
CONTINUOUS
 62
     2
 10
175.3
 20
148.916598965
 30
0.0
 11
176.33034595
 21
151.194402122
 31
0.0
  0
LINE
  8
0
  6
CONTINUOUS
 62
     2
 10
138.5
 20
178.479
 30
0.0
 11
140.914814566
 21
177.831952387
 31
0.0
  0
LINE
  8
0
  6
CONTINUOUS
 62
     2
 10
138.5
 20
178.479
 30
0.0
 11
140.914814566
 21
179.126047613
 31
0.0
  0
LINE
  8
0
  6
CONTINUOUS
 62
     2
 10
132.25
 20
178.479
 30
0.0
 11
132.25
 21
176.479
 31
0.0
  0
LINE
  8
0
  6
CONTINUOUS
 62
     2
 10
132.25
 20
178.479
 30
0.0
 11
129.835185434
 21
179.126047613
 31
0.0
  0
LINE
  8
0
  6
CONTINUOUS
 62
     2
 10
132.25
 20
178.479
 30
0.0
 11
129.835185434
 21
177.831952387
 31
0.0
  0
LINE
  8
0
  6
CONTINUOUS
 62
     2
 10
132.25
 20
178.479
 30
0.0
 11
143.5
 21
178.479
 31
0.0
  0
LINE
  8
0
  6
CONTINUOUS
 62
     2
 10
147.75
 20
178.479
 30
0.0
 11
150.164814566
 21
177.831952387
 31
0.0
  0
LINE
  8
0
  6
CONTINUOUS
 62
     2
 10
147.75
 20
178.479
 30
0.0
 11
150.164814566
 21
179.126047613
 31
0.0
  0
LINE
  8
0
  6
CONTINUOUS
 62
     2
 10
89.25
 20
178.479
 30
0.0
 11
132.25
 21
178.479
 31
0.0
  0
LINE
  8
0
  6
CONTINUOUS
 62
     2
 10
147.75
 20
158.679
 30
0.0
 11
147.75
 21
179.479
 31
0.0
  0
LINE
  8
0
  6
CONTINUOUS
 62
     2
 10
138.5
 20
130.479
 30
0.0
 11
138.5
 21
179.479
 31
0.0
  0
LINE
  8
0
  6
CONTINUOUS
 62
     2
 10
132.25
 20
155.229
 30
0.0
 11
132.25
 21
179.479
 31
0.0
  0
LINE
  8
0
  6
CONTINUOUS
 62
     2
 10
187.75
 20
158.779
 30
0.0
 11
187.75
 21
179.479
 31
0.0
  0
LINE
  8
0
  6
CONTINUOUS
 62
     2
 10
187.75
 20
178.479
 30
0.0
 11
185.335185434
 21
179.126047613
 31
0.0
  0
LINE
  8
0
  6
CONTINUOUS
 62
     2
 10
187.75
 20
178.479
 30
0.0
 11
185.335185434
 21
177.831952387
 31
0.0
  0
LINE
  8
0
  6
CONTINUOUS
 62
     2
 10
147.75
 20
178.479
 30
0.0
 11
187.75
 21
178.479
 31
0.0
  0
LINE
  8
0
  6
CONTINUOUS
 62
     2
 10
193.25
 20
170.816598965
 30
0.0
 11
219.995319519
 21
170.816598965
 31
0.0
  0
LINE
  8
0
  6
CONTINUOUS
 62
     2
 10
175.3
 20
148.916598965
 30
0.0
 11
193.25
 21
170.816598965
 31
0.0
  0
LINE
  8
0
  6
CONTINUOUS
 62
     2
 10
197.85
 20
154.479
 30
0.0
 11
197.202952387
 21
152.064185434
 31
0.0
  0
LINE
  8
0
  6
CONTINUOUS
 62
     2
 10
197.85
 20
154.479
 30
0.0
 11
198.497047613
 21
152.064185434
 31
0.0
  0
LINE
  8
0
  6
CONTINUOUS
 62
     2
 10
188.75
 20
154.479
 30
0.0
 11
198.85
 21
154.479
 31
0.0
  0
LINE
  8
0
  6
CONTINUOUS
 62
     2
 10
207.75
 20
158.479
 30
0.0
 11
207.102952387
 21
156.064185434
 31
0.0
  0
LINE
  8
0
  6
CONTINUOUS
 62
     2
 10
207.75
 20
158.479
 30
0.0
 11
208.397047613
 21
156.064185434
 31
0.0
  0
LINE
  8
0
  6
CONTINUOUS
 62
     2
 10
187.15
 20
158.479
 30
0.0
 11
208.75
 21
158.479
 31
0.0
  0
LINE
  8
0
  6
CONTINUOUS
 62
     2
 10
194.75
 20
138.479
 30
0.0
 11
199.85
 21
138.479
 31
0.0
  0
LINE
  8
0
  6
CONTINUOUS
 62
     2
 10
197.85
 20
138.479
 30
0.0
 11
197.202952387
 21
136.064185434
 31
0.0
  0
LINE
  8
0
  6
CONTINUOUS
 62
     2
 10
197.85
 20
138.479
 30
0.0
 11
198.497047613
 21
136.064185434
 31
0.0
  0
LINE
  8
0
  6
CONTINUOUS
 62
     2
 10
197.85
 20
138.479
 30
0.0
 11
198.497047613
 21
140.893814566
 31
0.0
  0
LINE
  8
0
  6
CONTINUOUS
 62
     2
 10
197.85
 20
138.479
 30
0.0
 11
197.202952387
 21
140.893814566
 31
0.0
  0
LINE
  8
0
  6
CONTINUOUS
 62
     2
 10
197.85
 20
154.479
 30
0.0
 11
197.85
 21
138.479
 31
0.0
  0
LINE
  8
0
  6
CONTINUOUS
 62
     2
 10
180.75
 20
122.479
 30
0.0
 11
186.75
 21
122.479
 31
0.0
  0
LINE
  8
0
  6
CONTINUOUS
 62
     2
 10
183.75
 20
125.479
 30
0.0
 11
183.75
 21
119.479
 31
0.0
  0
CIRCLE
  8
0
  6
CONTINUOUS
 62
     2
 10
183.75
 20
122.479
 30
0.0
 40
0.8
  0
CIRCLE
  8
0
  6
CONTINUOUS
 62
     2
 10
183.75
 20
122.479
 30
0.0
 40
1.0
  0
CIRCLE
  8
0
  6
CONTINUOUS
 62
     2
 10
183.75
 20
122.479
 30
0.0
 40
2.5
  0
LINE
  8
0
  6
CONTINUOUS
 62
     2
 10
177.5
 20
128.979
 30
0.0
 11
177.5
 21
123.479
 31
0.0
  0
LINE
  8
0
  6
CONTINUOUS
 62
     2
 10
175.25
 20
125.079
 30
0.0
 11
175.25
 21
122.079
 31
0.0
  0
LINE
  8
0
  6
CONTINUOUS
 62
     2
 10
188.75
 20
122.479
 30
0.0
 11
198.85
 21
122.479
 31
0.0
  0
TEXT
  8
0
  6
CONTINUOUS
 62
     2
 10
152.384759358
 20
107.779
 30
0.0
 40
3.0
  1
Ｍ４タ－ミナルネジ（計器入力端子）
 50
0.0
 41
0.833333333
 51
0.0
  7
KANJI11
  0
TEXT
  8
0
  6
CONTINUOUS
 62
     2
 10
152.366319519
 20
102.279
 30
0.0
 40
3.0
  1
Ｍ４タ－ミナルネジ
 50
0.0
 41
0.833333333
 51
0.0
  7
KANJI11
  0
TEXT
  8
0
  6
CONTINUOUS
 62
     2
 10
151.366319519
 20
95.779
 30
0.3
 40
3.0
  1
ＬＥＤ電源端子キャップ
 50
0.0
 41
0.8
 51
0.0
  7
KANJI8
  0
LINE
  8
0
  6
CONTINUOUS
 62
     2
 10
150.100376574
 20
106.779
 30
0.0
 11
192.884759358
 21
106.779
 31
0.0
  0
LINE
  8
0
  6
CONTINUOUS
 62
     2
 10
150.02321607
 20
101.279
 30
0.0
 11
205.3
 21
101.279
 31
0.0
  0
LINE
  8
0
  6
CONTINUOUS
 62
     2
 10
150.087505959
 20
94.779
 30
0.0
 11
181.716319519
 21
94.779
 31
0.0
  0
LINE
  8
0
  6
CONTINUOUS
 62
     2
 10
136.561268335
 20
144.079
 30
0.0
 11
136.776976537
 21
141.588323391
 31
0.0
  0
LINE
  8
0
  6
CONTINUOUS
 62
     2
 10
136.561268335
 20
144.079
 30
0.0
 11
137.993415423
 21
142.029864885
 31
0.0
  0
LINE
  8
0
  6
CONTINUOUS
 62
     2
 10
136.561268335
 20
144.079
 30
0.0
 11
150.100376574
 21
106.779
 31
0.0
  0
LINE
  8
0
  6
CONTINUOUS
 62
     2
 10
138.3
 20
127.479
 30
0.0
 11
138.3
 21
129.479
 31
0.0
  0
LINE
  8
0
  6
CONTINUOUS
 62
     2
 10
136.789189635
 20
127.679
 30
0.0
 11
138.5
 21
127.679
 31
0.0
  0
LINE
  8
0
  6
CONTINUOUS
 62
     2
 10
138.5
 20
129.279
 30
0.0
 11
136.845829759
 21
129.279
 31
0.0
  0
LINE
  8
0
  6
CONTINUOUS
 62
     2
 10
136.666319519
 20
126.679
 30
0.0
 11
137.217560051
 21
124.240530423
 31
0.0
  0
LINE
  8
0
  6
CONTINUOUS
 62
     2
 10
136.666319519
 20
126.679
 30
0.0
 11
138.362942612
 21
124.842843667
 31
0.0
  0
LINE
  8
0
  6
CONTINUOUS
 62
     2
 10
136.666319519
 20
126.679
 30
0.0
 11
150.02321607
 21
101.279
 31
0.0
  0
LINE
  8
0
  6
CONTINUOUS
 62
     2
 10
135.766319519
 20
120.579
 30
0.0
 11
136.37256305
 21
118.153619869
 31
0.0
  0
LINE
  8
0
  6
CONTINUOUS
 62
     2
 10
135.766319519
 20
120.579
 30
0.0
 11
137.504031884
 21
118.781680959
 31
0.0
  0
LINE
  8
0
  6
CONTINUOUS
 62
     2
 10
135.766319519
 20
120.579
 30
0.0
 11
150.087505959
 21
94.779
 31
0.0
  0
LINE
  8
0
  6
CONTINUOUS
 62
     2
 10
197.85
 20
122.479
 30
0.0
 11
198.497047613
 21
124.893814566
 31
0.0
  0
LINE
  8
0
  6
CONTINUOUS
 62
     2
 10
197.85
 20
122.479
 30
0.0
 11
197.202952387
 21
124.893814566
 31
0.0
  0
LINE
  8
0
  6
CONTINUOUS
 62
     2
 10
197.85
 20
138.479
 30
0.0
 11
197.85
 21
122.479
 31
0.0
  0
LINE
  8
0
  6
CONTINUOUS
 62
     2
 10
207.75
 20
118.479
 30
0.0
 11
208.397047613
 21
120.893814566
 31
0.0
  0
LINE
  8
0
  6
CONTINUOUS
 62
     2
 10
207.75
 20
118.479
 30
0.0
 11
207.102952387
 21
120.893814566
 31
0.0
  0
LINE
  8
0
  6
CONTINUOUS
 62
     2
 10
207.75
 20
158.479
 30
0.0
 11
207.75
 21
118.479
 31
0.0
  0
LINE
  8
0
  6
CONTINUOUS
 62
     2
 10
187.65
 20
118.479
 30
0.0
 11
208.75
 21
118.479
 31
0.0
  0
LINE
  8
0
  6
CONTINUOUS
 62
     2
 10
77.5
 20
119.729
 30
0.0
 11
78.147047613
 21
122.143814566
 31
0.0
  0
LINE
  8
0
  6
CONTINUOUS
 62
     2
 10
77.5
 20
119.729
 30
0.0
 11
76.852952387
 21
122.143814566
 31
0.0
  0
LINE
  8
0
  6
CONTINUOUS
 62
     2
 10
91.75
 20
121.685685
 30
0.0
 11
89.25
 21
121.685685
 31
0.0
  0
LINE
  8
0
  6
CONTINUOUS
 62
     2
 10
93.75
 20
121.685685
 30
0.0
 11
96.723334
 21
121.685685
 31
0.0
  0
LINE
  8
0
  6
CONTINUOUS
 62
     2
 10
95.95
 20
121.529
 30
0.0
 11
96.306511462
 21
119.054550652
 31
0.0
  0
LINE
  8
0
  6
CONTINUOUS
 62
     2
 10
95.95
 20
121.529
 30
0.0
 11
97.495972657
 21
119.564319735
 31
0.0
  0
LINE
  8
0
  6
CONTINUOUS
 62
     2
 10
95.95
 20
121.529
 30
0.0
 11
99.4
 21
113.479
 31
0.0
  0
LINE
  8
0
  6
CONTINUOUS
 62
     2
 10
92.3
 20
120.779
 30
0.0
 11
92.866409059
 21
118.344009081
 31
0.0
  0
LINE
  8
0
  6
CONTINUOUS
 62
     2
 10
92.3
 20
120.779
 30
0.0
 11
94.008020094
 21
118.953440535
 31
0.0
  0
LINE
  8
0
  6
CONTINUOUS
 62
     2
 10
92.3
 20
120.779
 30
0.0
 11
99.4
 21
107.479
 31
0.0
  0
LINE
  8
0
  6
CONTINUOUS
 62
     2
 10
96.748334
 20
123.335645
 30
0.0
 11
93.725
 21
123.335645
 31
0.0
  0
LINE
  8
0
  6
CONTINUOUS
 62
     2
 10
91.75
 20
123.335685
 30
0.0
 11
89.25
 21
123.335685
 31
0.0
  0
LINE
  8
0
  6
CONTINUOUS
 62
     2
 10
109.0
 20
122.179
 30
0.0
 11
109.647047613
 21
124.593814566
 31
0.0
  0
LINE
  8
0
  6
CONTINUOUS
 62
     2
 10
109.0
 20
122.179
 30
0.0
 11
108.352952387
 21
124.593814566
 31
0.0
  0
LINE
  8
0
  6
CONTINUOUS
 62
     2
 10
109.0
 20
154.729
 30
0.0
 11
108.352952387
 21
152.314185434
 31
0.0
  0
LINE
  8
0
  6
CONTINUOUS
 62
     2
 10
109.0
 20
154.729
 30
0.0
 11
109.647047613
 21
152.314185434
 31
0.0
  0
LINE
  8
0
  6
CONTINUOUS
 62
     2
 10
109.0
 20
122.179
 30
0.0
 11
109.0
 21
154.729
 31
0.0
  0
LINE
  8
0
  6
CONTINUOUS
 62
     2
 10
89.25
 20
164.479
 30
0.0
 11
91.664814566
 21
163.831952387
 31
0.0
  0
LINE
  8
0
  6
CONTINUOUS
 62
     2
 10
89.25
 20
164.479
 30
0.0
 11
91.664814566
 21
165.126047613
 31
0.0
  0
LINE
  8
0
  6
CONTINUOUS
 62
     2
 10
89.25
 20
164.479
 30
0.0
 11
91.664814566
 21
163.831952387
 31
0.0
  0
LINE
  8
0
  6
CONTINUOUS
 62
     2
 10
89.25
 20
164.479
 30
0.0
 11
91.664814566
 21
165.126047613
 31
0.0
  0
LINE
  8
0
  6
CONTINUOUS
 62
     2
 10
89.0
 20
164.479
 30
0.0
 11
86.585185434
 21
165.126047613
 31
0.0
  0
LINE
  8
0
  6
CONTINUOUS
 62
     2
 10
89.0
 20
164.479
 30
0.0
 11
86.585185434
 21
163.831952387
 31
0.0
  0
LINE
  8
0
  6
CONTINUOUS
 62
     2
 10
89.0
 20
164.479
 30
0.0
 11
81.75
 21
164.479
 31
0.0
  0
LINE
  8
0
  6
CONTINUOUS
 62
     2
 10
89.25
 20
157.979
 30
0.0
 11
89.25
 21
166.479
 31
0.0
  0
LINE
  8
0
  6
CONTINUOUS
 62
     2
 10
89.0
 20
159.479
 30
0.0
 11
89.0
 21
165.479
 31
0.0
  0
LINE
  8
0
  6
CONTINUOUS
 62
     2
 10
96.75
 20
164.479
 30
0.0
 11
94.335185434
 21
165.126047613
 31
0.0
  0
LINE
  8
0
  6
CONTINUOUS
 62
     2
 10
96.75
 20
164.479
 30
0.0
 11
94.335185434
 21
163.831952387
 31
0.0
  0
LINE
  8
0
  6
CONTINUOUS
 62
     2
 10
96.75
 20
155.7189725
 30
0.0
 11
96.75
 21
165.479
 31
0.0
  0
LINE
  8
0
  6
CONTINUOUS
 62
     2
 10
89.25
 20
164.479
 30
0.0
 11
96.75
 21
164.479
 31
0.0
  0
LINE
  8
0
  6
CONTINUOUS
 62
     2
 10
91.75
 20
155.3189725
 30
0.0
 11
89.25
 21
155.3189725
 31
0.0
  0
LINE
  8
0
  6
CONTINUOUS
 62
     2
 10
96.75
 20
155.3189725
 30
0.0
 11
93.7
 21
155.3189725
 31
0.0
  0
LINE
  8
0
  6
CONTINUOUS
 62
     2
 10
91.75
 20
153.68569
 30
0.0
 11
89.25
 21
153.68569
 31
0.0
  0
LINE
  8
0
  6
CONTINUOUS
 62
     2
 10
96.75
 20
153.68569
 30
0.0
 11
93.657433333
 21
153.68569
 31
0.0
  0
LINE
  8
0
  6
CONTINUOUS
 62
     2
 10
77.5
 20
157.229
 30
0.0
 11
76.852952387
 21
154.814185434
 31
0.0
  0
LINE
  8
0
  6
CONTINUOUS
 62
     2
 10
77.5
 20
157.229
 30
0.0
 11
78.147047613
 21
154.814185434
 31
0.0
  0
LINE
  8
0
  6
CONTINUOUS
 62
     2
 10
82.961268335
 20
157.229
 30
0.0
 11
76.5
 21
157.229
 31
0.0
  0
LINE
  8
0
  6
CONTINUOUS
 62
     2
 10
77.5
 20
157.229
 30
0.0
 11
77.5
 21
119.729
 31
0.0
  0
LINE
  8
0
  6
CONTINUOUS
 62
     2
 10
42.15
 20
166.829
 30
0.0
 11
24.75
 21
166.829
 31
0.0
  0
LINE
  8
0
  6
CONTINUOUS
 62
     2
 10
48.75
 20
150.429
 30
0.0
 11
47.248189628
 21
152.42764094
 31
0.0
  0
LINE
  8
0
  6
CONTINUOUS
 62
     2
 10
48.75
 20
150.429
 30
0.0
 11
48.448714537
 21
152.910779013
 31
0.0
  0
LINE
  8
0
  6
CONTINUOUS
 62
     2
 10
48.75
 20
150.429
 30
0.0
 11
42.15
 21
166.829
 31
0.0
  0
LINE
  8
0
  6
CONTINUOUS
 62
     2
 10
48.449295844
 20
137.079
 30
0.0
 11
48.449295844
 21
134.579
 31
0.0
  0
LINE
  8
0
  6
CONTINUOUS
 62
     2
 10
48.449295844
 20
137.079
 30
0.0
 11
47.199295844
 21
134.913936491
 31
0.0
  0
LINE
  8
0
  6
CONTINUOUS
 62
     2
 10
48.417245037
 20
137.029
 30
0.0
 11
39.481139469
 21
103.679
 31
0.0
  0
LINE
  8
0
  6
CONTINUOUS
 62
     2
 10
40.394554869
 20
132.879
 30
0.0
 11
33.99056917
 21
108.979
 31
0.0
  0
LINE
  8
0
  6
CONTINUOUS
 62
     2
 10
40.503142857
 20
133.179
 30
0.0
 11
39.253142857
 21
131.013936491
 31
0.0
  0
LINE
  8
0
  6
CONTINUOUS
 62
     2
 10
40.503142857
 20
133.179
 30
0.0
 11
40.503142857
 21
130.679
 31
0.0
  0
LINE
  8
0
  6
CONTINUOUS
 62
     2
 10
59.049295844
 20
115.679
 30
0.0
 11
59.049295844
 21
113.179
 31
0.0
  0
LINE
  8
0
  6
CONTINUOUS
 62
     2
 10
59.049295844
 20
115.679
 30
0.0
 11
57.799295844
 21
113.513936491
 31
0.0
  0
LINE
  8
0
  6
CONTINUOUS
 62
     2
 10
59.017245037
 20
115.629
 30
0.0
 11
54.234351952
 21
97.779
 31
0.0
  0
LINE
  8
0
  6
CONTINUOUS
 62
     2
 10
15.786671601
 20
97.779
 30
0.0
 11
54.234351952
 21
97.779
 31
0.0
  0
LINE
  8
0
  6
CONTINUOUS
 62
     2
 10
22.598729811
 20
103.679
 30
0.0
 11
39.481139469
 21
103.679
 31
0.0
  0
LINE
  8
0
  6
CONTINUOUS
 62
     2
 10
33.99056917
 20
108.979
 30
0.0
 11
26.975
 21
108.979
 31
0.0
  0
TEXT
  8
0
  6
CONTINUOUS
 62
     2
 10
100.4
 20
114.479
 30
0.0
 40
3.0
  1
Ｍ４取付ボルト
 50
0.0
 41
0.833333333
 51
0.0
  7
KANJI11
  0
LINE
  8
0
  6
CONTINUOUS
 62
     2
 10
99.4
 20
113.479
 30
0.0
 11
116.9
 21
113.479
 31
0.0
  0
TEXT
  8
0
  6
CONTINUOUS
 62
     2
 10
100.4
 20
108.479
 30
0.1
 40
3.0
  1
フランジ付六角ナット
 50
0.0
 41
0.6
 51
0.0
  7
KANJI12
  0
LINE
  8
0
  6
CONTINUOUS
 62
     2
 10
99.4
 20
107.479
 30
0.0
 11
119.3
 21
107.479
 31
0.0
  0
TEXT
  8
0
  6
CONTINUOUS
 62
     2
 10
22.162724488
 20
115.429
 30
0.3
 40
3.0
  1
９
 50
90.0
 41
0.6
 51
0.0
  7
KANJI2
  0
ARC
  8
0
  6
CONTINUOUS
 62
     1
 10
54.75
 20
114.229
 30
0.0
 40
0.25
 50
180.0
 51
270.0
  0
CIRCLE
  8
0
  6
CONTINUOUS
 62
     1
 10
59.5
 20
118.479
 30
0.0
 40
1.25
  0
LINE
  8
0
  6
CONTINUOUS
 62
     1
 10
31.0
 20
118.479
 30
0.0
 11
54.5
 21
118.479
 31
0.0
  0
CIRCLE
  8
0
  6
CONTINUOUS
 62
     2
 10
59.5
 20
118.479
 30
0.0
 40
1.25
  0
CIRCLE
  8
0
  6
CONTINUOUS
 62
     2
 10
59.5
 20
118.479
 30
0.0
 40
1.6
  0
LINE
  8
0
  6
CONTINUOUS
 62
     2
 10
58.633459324
 20
119.379892478
 30
0.0
 11
59.80378484
 21
117.352829223
 31
0.0
  0
LINE
  8
0
  6
CONTINUOUS
 62
     2
 10
60.330368418
 20
117.640759711
 30
0.0
 11
59.153074566
 21
119.679892478
 31
0.0
  0
LINE
  8
0
  6
CONTINUOUS
 62
     2
 10
59.80378484
 20
117.352829223
 30
0.0
 11
60.330368418
 21
117.640759711
 31
0.0
  0
LINE
  8
0
  6
CONTINUOUS
 62
     1
 10
80.848256501
 20
119.729
 30
0.0
 11
80.848256501
 21
117.229
 31
0.0
  0
LINE
  8
0
  6
CONTINUOUS
 62
     1
 10
83.5
 20
113.979
 30
0.0
 11
83.5
 21
127.729
 31
0.0
  0
LINE
  8
0
  6
CONTINUOUS
 62
     1
 10
83.5
 20
113.979
 30
0.0
 11
87.75
 21
113.979
 31
0.0
  0
LINE
  8
0
  6
CONTINUOUS
 62
     2
 10
82.461382655
 20
119.729
 30
0.0
 11
76.0
 21
119.729
 31
0.0
  0
LINE
  8
0
  6
CONTINUOUS
 62
     1
 10
88.3
 20
113.979
 30
0.0
 11
88.3
 21
118.479
 31
0.0
  0
LINE
  8
0
  6
CONTINUOUS
 62
     1
 10
88.3
 20
113.979
 30
0.0
 11
83.5
 21
113.979
 31
0.0
  0
LINE
  8
0
  6
CONTINUOUS
 62
     1
 10
83.5
 20
121.129
 30
0.0
 11
83.5
 21
127.729
 31
0.0
  0
LINE
  8
0
  6
CONTINUOUS
 62
     1
 10
83.5
 20
127.729
 30
0.0
 11
85.5
 21
127.729
 31
0.0
  0
LINE
  8
0
  6
CONTINUOUS
 62
     1
 10
83.5
 20
119.729
 30
0.0
 11
80.848256501
 21
119.729
 31
0.0
  0
LINE
  8
0
  6
CONTINUOUS
 62
     1
 10
80.848256501
 20
117.229
 30
0.0
 11
83.5
 21
117.229
 31
0.0
  0
ARC
  8
0
  6
CONTINUOUS
 62
     1
 10
162.0
 20
114.229
 30
0.0
 40
0.25
 50
270.0
 51
0.0
  0
LINE
  8
0
  6
CONTINUOUS
 62
     1
 10
162.25
 20
119.479
 30
0.0
 11
162.25
 21
114.229
 31
0.0
  0
LINE
  8
0
  6
CONTINUOUS
 62
     1
 10
162.25
 20
118.479
 30
0.0
 11
185.75
 21
118.479
 31
0.0
  0
LINE
  8
0
  6
CONTINUOUS
 62
     1
 10
83.5
 20
119.229
 30
0.0
 11
80.848256501
 21
119.229
 31
0.0
  0
LINE
  8
0
  6
CONTINUOUS
 62
     1
 10
80.848256501
 20
118.729
 30
0.0
 11
83.5
 21
118.729
 31
0.0
  0
LINE
  8
0
  6
CONTINUOUS
 62
     1
 10
83.5
 20
118.229
 30
0.0
 11
80.848256501
 21
118.229
 31
0.0
  0
LINE
  8
0
  6
CONTINUOUS
 62
     1
 10
80.848256501
 20
117.729
 30
0.0
 11
83.5
 21
117.729
 31
0.0
  0
ARC
  8
0
  6
CONTINUOUS
 62
     1
 10
68.75
 20
114.229
 30
0.0
 40
0.25
 50
270.0
 51
0.0
  0
LINE
  8
0
  6
CONTINUOUS
 62
     1
 10
69.0
 20
114.229
 30
0.0
 11
69.0
 21
127.479
 31
0.0
  0
ARC
  8
0
  6
CONTINUOUS
 62
     1
 10
68.75
 20
127.479
 30
0.0
 40
0.25
 50
0.0
 51
90.0
  0
LINE
  8
0
  6
CONTINUOUS
 62
     1
 10
54.75
 20
113.979
 30
0.0
 11
68.75
 21
113.979
 31
0.0
  0
LINE
  8
0
  6
CONTINUOUS
 62
     1
 10
64.362291496
 20
127.729
 30
0.0
 11
68.75
 21
127.729
 31
0.0
  0
LINE
  8
0
  6
CONTINUOUS
 62
     1
 10
54.5
 20
120.615478267
 30
0.0
 11
54.5
 21
114.229
 31
0.0
  0
ARC
  8
0
  6
CONTINUOUS
 62
     1
 10
148.0
 20
114.229
 30
0.0
 40
0.25
 50
180.0
 51
270.0
  0
LINE
  8
0
  6
CONTINUOUS
 62
     1
 10
147.75
 20
114.229
 30
0.0
 11
147.75
 21
120.479
 31
0.0
  0
LINE
  8
0
  6
CONTINUOUS
 62
     1
 10
162.0
 20
113.979
 30
0.0
 11
148.0
 21
113.979
 31
0.0
  0
LINE
  8
0
  6
CONTINUOUS
 62
     1
 10
147.75
 20
127.729
 30
0.0
 11
148.75
 21
127.729
 31
0.0
  0
LINE
  8
0
  6
CONTINUOUS
 62
     2
 10
69.0
 20
115.679
 30
0.0
 11
69.0
 21
104.285551227
 31
0.0
  0
LINE
  8
0
  6
CONTINUOUS
 62
     2
 10
69.0
 20
106.285551227
 30
0.0
 11
66.585185434
 21
106.93259884
 31
0.0
  0
LINE
  8
0
  6
CONTINUOUS
 62
     2
 10
69.0
 20
106.285551227
 30
0.0
 11
66.585185434
 21
105.638503615
 31
0.0
  0
LINE
  8
0
  6
CONTINUOUS
 62
     2
 10
69.0
 20
106.285551227
 30
0.0
 11
54.5
 21
106.285551227
 31
0.0
  0
LINE
  8
0
  6
CONTINUOUS
 62
     2
 10
54.5
 20
106.285551227
 30
0.0
 11
56.914814566
 21
105.638503615
 31
0.0
  0
LINE
  8
0
  6
CONTINUOUS
 62
     2
 10
54.5
 20
106.285551227
 30
0.0
 11
56.914814566
 21
106.93259884
 31
0.0
  0
LINE
  8
0
  6
CONTINUOUS
 62
     2
 10
54.5
 20
115.679
 30
0.0
 11
54.5
 21
104.285551227
 31
0.0
  0
LINE
  8
0
  6
CONTINUOUS
 62
     2
 10
68.1
 20
127.729
 30
0.0
 11
76.9
 21
127.729
 31
0.0
  0
LINE
  8
0
  6
CONTINUOUS
 62
     2
 10
74.9
 20
127.729
 30
0.0
 11
74.252952387
 21
125.314185434
 31
0.0
  0
LINE
  8
0
  6
CONTINUOUS
 62
     2
 10
74.9
 20
127.729
 30
0.0
 11
75.547047613
 21
125.314185434
 31
0.0
  0
LINE
  8
0
  6
CONTINUOUS
 62
     2
 10
74.9
 20
127.729
 30
0.0
 11
74.9
 21
113.979
 31
0.0
  0
LINE
  8
0
  6
CONTINUOUS
 62
     2
 10
74.9
 20
113.979
 30
0.0
 11
75.547047613
 21
116.393814566
 31
0.0
  0
LINE
  8
0
  6
CONTINUOUS
 62
     2
 10
74.9
 20
113.979
 30
0.0
 11
74.252952387
 21
116.393814566
 31
0.0
  0
LINE
  8
0
  6
CONTINUOUS
 62
     2
 10
68.1
 20
113.979
 30
0.0
 11
76.9
 21
113.979
 31
0.0
  0
TEXT
  8
0
  6
CONTINUOUS
 62
     2
 10
59.8
 20
107.285551227
 30
0.3
 40
3.0
  1
３１
 50
0.0
 41
0.6
 51
0.0
  7
KANJI2
  0
TEXT
  8
0
  6
CONTINUOUS
 62
     2
 10
73.9
 20
116.804
 30
0.3
 40
3.0
  1
２７．５
 50
90.0
 41
0.6
 51
0.0
  7
KANJI2
  0
LINE
  8
0
  6
CONTINUOUS
 62
     1
 10
147.75
 20
119.479
 30
0.0
 11
185.75
 21
119.479
 31
0.0
  0
TEXT
  8
0
  6
CONTINUOUS
 62
     2
 10
11.9
 20
90.439
 30
0.5
 40
3.0
  1
注１）計器入力が交流の場合，端子記号［＋］は表示しません。
 50
0.0
 41
0.9
 51
0.0
  7
KANJI13
  0
TEXT
  8
0
  6
CONTINUOUS
 62
     2
 10
15.1
 20
85.439
 30
0.5
 40
3.0
  1
２）照明用ＬＥＤの電源電圧は、表示ラベルどおりの電圧を印加して下さい。
 50
0.0
 41
0.9
 51
0.0
  7
KANJI13
  0
TEXT
  8
0
  6
CONTINUOUS
 62
     2
 10
13.354
 20
68.041
 30
0.3
 40
3.0
  1
項
 50
0.0
 41
0.9
 51
0.0
  7
KANJI4
  0
TEXT
  8
0
  6
CONTINUOUS
 62
     2
 10
13.354
 20
63.041
 30
0.3
 40
3.0
  1
１
 50
0.0
 41
0.9
 51
0.0
  7
KANJI4
  0
TEXT
  8
0
  6
CONTINUOUS
 62
     2
 10
13.354
 20
58.041
 30
0.3
 40
3.0
  1
２
 50
0.0
 41
0.9
 51
0.0
  7
KANJI4
  0
TEXT
  8
0
  6
CONTINUOUS
 62
     2
 10
13.354
 20
53.041
 30
0.3
 40
3.0
  1
３
 50
0.0
 41
0.9
 51
0.0
  7
KANJI4
  0
TEXT
  8
0
  6
CONTINUOUS
 62
     2
 10
13.354
 20
48.041
 30
0.3
 40
3.0
  1
４
 50
0.0
 41
0.9
 51
0.0
  7
KANJI4
  0
TEXT
  8
0
  6
CONTINUOUS
 62
     2
 10
22.354
 20
68.041
 30
1.0
 40
3.0
  1
計器形名
 50
0.0
 41
0.9
 51
0.0
  7
KANJI14
  0
LINE
  8
0
  6
CONTINUOUS
 62
     2
 10
17.354
 20
47.041
 30
0.0
 11
17.354
 21
72.041
 31
0.0
  0
LINE
  8
0
  6
CONTINUOUS
 62
     2
 10
12.354
 20
47.041
 30
0.0
 11
12.354
 21
72.041
 31
0.0
  0
LINE
  8
0
  6
CONTINUOUS
 62
     2
 10
12.354
 20
42.041
 30
0.0
 11
22.018213562
 21
42.041
 31
0.0
  0
LINE
  8
0
  6
CONTINUOUS
 62
     2
 10
17.354
 20
27.041
 30
0.0
 11
17.354
 21
47.041
 31
0.0
  0
LINE
  8
0
  6
CONTINUOUS
 62
     2
 10
12.354
 20
27.041
 30
0.0
 11
12.354
 21
47.041
 31
0.0
  0
TEXT
  8
0
  6
CONTINUOUS
 62
     2
 10
13.354
 20
43.041
 30
0.3
 40
3.0
  1
５
 50
0.0
 41
0.9
 51
0.0
  7
KANJI4
  0
TEXT
  8
0
  6
CONTINUOUS
 62
     2
 10
13.354
 20
38.041
 30
0.3
 40
3.0
  1
６
 50
0.0
 41
0.9
 51
0.0
  7
KANJI4
  0
TEXT
  8
0
  6
CONTINUOUS
 62
     2
 10
13.354
 20
33.041
 30
0.3
 40
3.0
  1
７
 50
0.0
 41
0.9
 51
0.0
  7
KANJI4
  0
TEXT
  8
0
  6
CONTINUOUS
 62
     2
 10
13.354
 20
28.041
 30
0.3
 40
3.0
  1
８
 50
0.0
 41
0.9
 51
0.0
  7
KANJI4
  0
LINE
  8
0
  6
CONTINUOUS
 62
     2
 10
158.173076211
 20
134.216598965
 30
0.0
 11
164.198076224
 21
144.652205103
 31
0.0
  0
LINE
  8
0
  6
CONTINUOUS
 62
     2
 10
159.088526342
 20
147.602205103
 30
0.0
 11
153.063526329
 21
137.166598965
 31
0.0
  0
ARC
  8
0
  6
CONTINUOUS
 62
     2
 10
161.14330127
 20
145.261179677
 30
0.0
 40
2.95
 50
150.0
 51
330.0
  0
ARC
  8
0
  6
CONTINUOUS
 62
     2
 10
161.64330127
 20
146.127205081
 30
0.0
 40
2.95
 50
330.0
 51
150.0
  0
ARC
  8
0
  6
CONTINUOUS
 62
     2
 10
173.94330127
 20
146.177205081
 30
0.0
 40
2.95
 50
30.0
 51
210.0
  0
LINE
  8
0
  6
CONTINUOUS
 62
     2
 10
171.388526316
 20
144.702205103
 30
0.0
 11
177.413526329
 21
134.266598965
 31
0.0
  0
ARC
  8
0
  6
CONTINUOUS
 62
     2
 10
174.44330127
 20
145.311179677
 30
0.0
 40
2.95
 50
210.0
 51
30.0
  0
LINE
  8
0
  6
CONTINUOUS
 62
     2
 10
182.523076211
 20
137.216598965
 30
0.0
 11
176.498076198
 21
147.652205103
 31
0.0
  0
LINE
  8
0
  6
CONTINUOUS
 62
     2
 10
177.413526329
 20
134.266598965
 30
0.0
 11
182.523076211
 21
137.216598965
 31
0.0
  0
ARC
  8
0
  6
CONTINUOUS
 62
     2
 10
174.5
 20
123.479
 30
0.0
 40
3.0
 50
270.0
 51
0.0
  0
LINE
  8
0
  6
CONTINUOUS
 62
     2
 10
174.5
 20
120.479
 30
0.0
 11
161.0
 21
120.479
 31
0.0
  0
ARC
  8
0
  6
CONTINUOUS
 62
     2
 10
161.0
 20
123.479
 30
0.0
 40
3.0
 50
180.0
 51
270.0
  0
ARC
  8
0
  6
CONTINUOUS
 62
     2
 10
174.5
 20
128.979
 30
0.0
 40
3.0
 50
0.0
 51
90.0
  0
ARC
  8
0
  6
CONTINUOUS
 62
     2
 10
161.0
 20
128.979
 30
0.0
 40
3.0
 50
90.0
 51
180.0
  0
LINE
  8
0
  6
CONTINUOUS
 62
     2
 10
158.0
 20
123.479
 30
0.0
 11
158.0
 21
128.979
 31
0.0
  0
LINE
  8
0
  6
CONTINUOUS
 62
     2
 10
140.809734362
 20
129.029
 30
0.0
 11
140.809734362
 21
123.529
 31
0.0
  0
LINE
  8
0
  6
CONTINUOUS
 62
     2
 10
137.809734362
 20
120.529
 30
0.0
 11
133.809734362
 21
120.529
 31
0.0
  0
ARC
  8
0
  6
CONTINUOUS
 62
     2
 10
137.809734362
 20
123.529
 30
0.0
 40
3.0
 50
270.0
 51
0.0
  0
LINE
  8
0
  6
CONTINUOUS
 62
     2
 10
133.809734362
 20
132.029
 30
0.0
 11
137.809734362
 21
132.029
 31
0.0
  0
ARC
  8
0
  6
CONTINUOUS
 62
     2
 10
137.809734362
 20
129.029
 30
0.0
 40
3.0
 50
0.0
 51
90.0
  0
LINE
  8
0
  6
CONTINUOUS
 62
     2
 10
133.809734362
 20
131.429
 30
0.0
 11
134.059734362
 21
131.429
 31
0.0
  0
LINE
  8
0
  6
CONTINUOUS
 62
     2
 10
134.059734362
 20
120.529
 30
0.0
 11
134.059734362
 21
131.429
 31
0.0
  0
LINE
  8
0
  6
CONTINUOUS
 62
     2
 10
133.809734362
 20
132.029
 30
0.0
 11
133.809734362
 21
120.529
 31
0.0
  0
LINE
  8
0
  6
CONTINUOUS
 62
     2
 10
136.309734362
 20
125.129
 30
0.0
 11
136.309734362
 21
122.129
 31
0.0
  0
LINE
  8
0
  6
CONTINUOUS
 62
     2
 10
134.709734362
 20
130.504
 30
0.0
 11
134.709734362
 21
125.129
 31
0.0
  0
LINE
  8
0
  6
CONTINUOUS
 62
     2
 10
133.809734362
 20
125.129
 30
0.0
 11
136.309734362
 21
125.129
 31
0.0
  0
LINE
  8
0
  6
CONTINUOUS
 62
     2
 10
134.309734362
 20
126.579
 30
0.0
 11
134.309734362
 21
125.129
 31
0.0
  0
TEXT
  8
0
  6
CONTINUOUS
 62
     2
 10
15.1
 20
80.439
 30
0.5
 40
3.0
  1
３）指示調整用ボリューム付の仕様は、付属品が外付となります。
 50
0.0
 41
0.9
 51
0.0
  7
KANJI13
  0
TEXT
  8
0
  6
CONTINUOUS
 62
     2
 10
15.1
 20
75.439
 30
0.5
 40
3.0
  1
４）端子キャップは付属品とします。
 50
0.0
 41
0.9
 51
0.0
  7
KANJI13
  0
LINE
  8
0
  6
CONTINUOUS
 62
     2
 10
153.063526329
 20
137.166598965
 30
0.0
 11
158.173076211
 21
134.216598965
 31
0.0
  0
TEXT
  8
0
  6
CONTINUOUS
 62
     3
 10
226.261
 20
74.603
 30
0.2
 40
5.8
  1
ＭＳ－１３１４４Ｅ
 50
0.0
 41
0.827586207
 51
0.0
  7
KANJI15
  0
TEXT
  8
0
  6
CONTINUOUS
 62
     2
 10
169.186275673
 20
52.086578776
 30
0.3
 40
3.0
  1
φ６７
 50
12.688467247
 41
0.6
 51
0.0
  7
KANJI2
  0
TEXT
  8
0
  6
CONTINUOUS
 62
     2
 10
175.039748328
 20
53.404477815
 30
0.18
 40
1.8
  1
±１
 50
12.688467247
 41
0.6
 51
0.0
  7
KANJI3
  0
TEXT
  8
0
  6
CONTINUOUS
 62
     2
 10
92.188213562
 20
68.226786438
 30
0.5
 40
3.0
  1
付属品の有無
 50
0.0
 41
0.9
 51
0.0
  7
KANJI13
  0
TEXT
  8
0
  6
CONTINUOUS
 62
     2
 10
88.481
 20
58.041
 30
0.5
 40
3.0
  1
仕様により付属品あり
 50
0.0
 41
0.9
 51
0.0
  7
KANJI13
  0
TEXT
  8
0
  6
CONTINUOUS
 62
     2
 10
88.481
 20
53.041
 30
0.5
 40
3.0
  1
仕様により付属品あり
 50
0.0
 41
0.9
 51
0.0
  7
KANJI13
  0
TEXT
  8
0
  6
CONTINUOUS
 62
     2
 10
88.481
 20
48.041
 30
0.5
 40
3.0
  1
周波数変換器ＦＭ－３付
 50
0.0
 41
0.9
 51
0.0
  7
KANJI13
  0
TEXT
  8
0
  6
CONTINUOUS
 62
     2
 10
88.481
 20
33.041
 30
0.5
 40
3.0
  1
電力変換器ＥＲＧ－３付
 50
0.0
 41
0.9
 51
0.0
  7
KANJI13
  0
TEXT
  8
0
  6
CONTINUOUS
 62
     2
 10
88.481
 20
28.041
 30
0.5
 40
3.0
  1
無効電力変換器ＲＲＧ－３付
 50
0.0
 41
0.9
 51
0.0
  7
KANJI13
  0
TEXT
  8
0
  6
CONTINUOUS
 62
     2
 10
88.481
 20
63.041
 30
0.5
 40
3.0
  1
仕様により付属品あり
 50
0.0
 41
0.9
 51
0.0
  7
KANJI13
  0
TEXT
  8
0
  6
CONTINUOUS
 62
     2
 10
88.481
 20
43.041
 30
0.5
 40
3.0
  1
仕様により付属品あり
 50
0.0
 41
0.9
 51
0.0
  7
KANJI13
  0
TEXT
  8
0
  6
CONTINUOUS
 62
     2
 10
88.481
 20
38.041
 30
0.5
 40
3.0
  1
仕様により付属品あり
 50
0.0
 41
0.9
 51
0.0
  7
KANJI13
  0
TEXT
  8
0
  6
CONTINUOUS
 62
     2
 10
59.974
 20
68.041
 30
1.0
 40
3.0
  1
動作原理
 50
0.0
 41
0.9
 51
0.0
  7
KANJI14
  0
TEXT
  8
0
  6
CONTINUOUS
 62
     2
 10
59.974
 20
58.041
 30
0.5
 40
3.0
  1
整流形
 50
0.0
 41
0.9
 51
0.0
  7
KANJI13
  0
TEXT
  8
0
  6
CONTINUOUS
 62
     2
 10
59.974
 20
63.041
 30
0.5
 40
3.0
  1
永久磁石可動コイル形
 50
0.0
 41
0.666666667
 51
0.0
  7
KANJI16
  0
TEXT
  8
0
  6
CONTINUOUS
 62
     2
 10
59.974
 20
53.041
 30
0.5
 40
3.0
  1
電子テ゛ハ゛イス形
 50
0.0
 41
0.666666667
 51
0.0
  7
KANJI16
  0
TEXT
  8
0
  6
CONTINUOUS
 62
     2
 10
59.974
 20
48.041
 30
0.5
 40
3.0
  1
電子テ゛ハ゛イス形
 50
0.0
 41
0.666666667
 51
0.0
  7
KANJI16
  0
TEXT
  8
0
  6
CONTINUOUS
 62
     2
 10
59.474
 20
43.041
 30
0.5
 40
3.0
  1
可動コイル形
 50
0.0
 41
0.9
 51
0.0
  7
KANJI13
  0
TEXT
  8
0
  6
CONTINUOUS
 62
     2
 10
59.474
 20
38.041
 30
0.5
 40
3.0
  1
整流形
 50
0.0
 41
0.9
 51
0.0
  7
KANJI13
  0
TEXT
  8
0
  6
CONTINUOUS
 62
     2
 10
59.974
 20
33.041
 30
0.5
 40
3.0
  1
電子テ゛ハ゛イス形
 50
0.0
 41
0.666666667
 51
0.0
  7
KANJI16
  0
TEXT
  8
0
  6
CONTINUOUS
 62
     2
 10
59.974
 20
28.041
 30
0.5
 40
3.0
  1
電子テ゛ハ゛イス形
 50
0.0
 41
0.666666667
 51
0.0
  7
KANJI16
  0
LINE
  8
0
  6
CONTINUOUS
 62
     2
 10
132.396
 20
62.041
 30
0.0
 11
40.608213562
 21
62.041
 31
0.0
  0
LINE
  8
0
  6
CONTINUOUS
 62
     2
 10
132.396
 20
72.041
 30
0.0
 11
132.396
 21
46.991
 31
0.0
  0
LINE
  8
0
  6
CONTINUOUS
 62
     2
 10
132.396
 20
47.041
 30
0.0
 11
132.396
 21
27.041
 31
0.0
  0
LINE
  8
0
  6
CONTINUOUS
 62
     2
 10
86.244
 20
47.041
 30
0.0
 11
86.244
 21
72.041
 31
0.0
  0
LINE
  8
0
  6
CONTINUOUS
 62
     2
 10
86.244
 20
27.041
 30
0.0
 11
86.244
 21
47.041
 31
0.0
  0
LINE
  8
0
  6
CONTINUOUS
 62
     2
 10
54.974
 20
72.041
 30
0.0
 11
54.974
 21
47.041
 31
0.0
  0
LINE
  8
0
  6
CONTINUOUS
 62
     2
 10
54.974
 20
47.041
 30
0.0
 11
54.974
 21
27.041
 31
0.0
  0
LINE
  8
0
  6
CONTINUOUS
 62
     2
 10
124.194
 20
47.041
 30
0.0
 11
12.354
 21
47.041
 31
0.0
  0
LINE
  8
0
  6
CONTINUOUS
 62
     2
 10
12.354
 20
67.041
 30
0.0
 11
132.396
 21
67.041
 31
0.0
  0
LINE
  8
0
  6
CONTINUOUS
 62
     2
 10
12.354
 20
72.041
 30
0.0
 11
132.396
 21
72.041
 31
0.0
  0
LINE
  8
0
  6
CONTINUOUS
 62
     2
 10
12.354
 20
57.041
 30
0.0
 11
132.396
 21
57.041
 31
0.0
  0
LINE
  8
0
  6
CONTINUOUS
 62
     2
 10
132.396
 20
52.041
 30
0.0
 11
12.354
 21
52.041
 31
0.0
  0
LINE
  8
0
  6
CONTINUOUS
 62
     2
 10
12.354
 20
47.041
 30
0.0
 11
132.396
 21
47.041
 31
0.0
  0
LINE
  8
0
  6
CONTINUOUS
 62
     2
 10
132.396
 20
37.041
 30
0.0
 11
12.354
 21
37.041
 31
0.0
  0
LINE
  8
0
  6
CONTINUOUS
 62
     2
 10
12.354
 20
32.041
 30
0.0
 11
132.396
 21
32.041
 31
0.0
  0
LINE
  8
0
  6
CONTINUOUS
 62
     2
 10
132.396
 20
27.041
 30
0.0
 11
12.354
 21
27.041
 31
0.0
  0
LINE
  8
0
  6
CONTINUOUS
 62
     2
 10
12.354
 20
42.041
 30
0.0
 11
132.396
 21
42.041
 31
0.0
  0
LINE
  8
0
  6
CONTINUOUS
 62
     2
 10
40.608213562
 20
62.041
 30
0.0
 11
12.354
 21
62.041
 31
0.0
  0
TEXT
  8
0
  6
CONTINUOUS
 62
     2
 10
19.814
 20
63.041
 30
0.5
 40
3.0
  1
ＤＶＦ－８ＮＬＥＤ
 50
0.0
 41
0.9
 51
0.0
  7
KANJI13
  0
TEXT
  8
0
  6
CONTINUOUS
 62
     2
 10
19.814
 20
59.541
 30
0.5
 40
3.0
  1
Ｓ
 50
0.0
 41
0.45
 51
0.0
  7
KANJI17
  0
TEXT
  8
0
  6
CONTINUOUS
 62
     2
 10
19.814
 20
57.041
 30
0.5
 40
3.0
  1
Ｃ
 50
0.0
 41
0.45
 51
0.0
  7
KANJI17
  0
TEXT
  8
0
  6
CONTINUOUS
 62
     2
 10
23.114
 20
58.041
 30
0.5
 40
3.0
  1
ＶＦ－８ＮＬＥＤ
 50
0.0
 41
0.9
 51
0.0
  7
KANJI13
  0
TEXT
  8
0
  6
CONTINUOUS
 62
     2
 10
20.014
 20
53.041
 30
0.5
 40
3.0
  1
ＳｅＶＦ－８ＮＬＥＤ
 50
0.0
 41
0.9
 51
0.0
  7
KANJI13
  0
TEXT
  8
0
  6
CONTINUOUS
 62
     2
 10
20.014
 20
48.041
 30
0.5
 40
3.0
  1
ＦＶＦ－８ＮＬＥＤ
 50
0.0
 41
0.9
 51
0.0
  7
KANJI13
  0
TEXT
  8
0
  6
CONTINUOUS
 62
     2
 10
20.014
 20
43.041
 30
0.5
 40
3.0
  1
ＤＶＦ－８ＮＬＥＤＶ
 50
0.0
 41
0.9
 51
0.0
  7
KANJI13
  0
TEXT
  8
0
  6
CONTINUOUS
 62
     2
 10
20.014
 20
39.541
 30
0.5
 40
3.0
  1
Ｓ
 50
0.0
 41
0.45
 51
0.0
  7
KANJI17
  0
TEXT
  8
0
  6
CONTINUOUS
 62
     2
 10
20.014
 20
37.041
 30
0.5
 40
3.0
  1
Ｃ　
 50
0.0
 41
0.45
 51
0.0
  7
KANJI17
  0
TEXT
  8
0
  6
CONTINUOUS
 62
     2
 10
23.014
 20
38.041
 30
0.5
 40
3.0
  1
ＶＦ－８ＮＬＥＤＶ
 50
0.0
 41
0.9
 51
0.0
  7
KANJI13
  0
TEXT
  8
0
  6
CONTINUOUS
 62
     2
 10
20.014
 20
33.041
 30
0.5
 40
3.0
  1
ＥＶＦ－８ＮＬＥＤ　
 50
0.0
 41
0.9
 51
0.0
  7
KANJI13
  0
TEXT
  8
0
  6
CONTINUOUS
 62
     2
 10
20.014
 20
28.041
 30
0.5
 40
3.0
  1
ＲＶＦ－８ＮＬＥＤ
 50
0.0
 41
0.9
 51
0.0
  7
KANJI13
  0
ENDSEC
  0
EOF
