  0
SECTION
  2
HEADER
  9
$ACADVER
  1
AC1009
  9
$DWGCODEPAGE
  3
dos932
  9
$EXTMIN
 10
0.0
 20
0.0
 30
0.0
  9
$EXTMAX
 10
297.0
 20
210.0
 30
0.0
  9
$LIMMIN
 10
0.0
 20
0.0
  9
$LIMMAX
 10
297.0
 20
210.0
  9
$LTSCALE
 40
1.0
  9
$PDMODE
 70
     0
  0
ENDSEC
  0
SECTION
  2
TABLES
  0
TABLE
  2
VPORT
 70
     1
  0
VPORT
  2
*ACTIVE
 70
     0
 10
0.0
 20
0.0
 11
1.0
 21
1.0
 12
148.5
 22
105.0
 13
0.0
 23
0.0
 14
10.0
 24
10.0
 15
10.0
 25
10.0
 16
0.0
 26
0.0
 36
1.0
 17
0.0
 27
0.0
 37
0.0
 40
297.0
 41
1.414285714
 42
50.0
 43
0.0
 44
0.0
 50
0.0
 51
0.0
 71
     0
 72
  1000
 73
     1
 74
     3
 75
     0
 76
     0
 77
     0
 78
     0
  0
ENDTAB
  0
TABLE
  2
LTYPE
 70
     6
  0
LTYPE
  2
CONTINUOUS
 70
    64
  3
Solid line
 72
    65
 73
     0
 40
0.0
  0
LTYPE
  2
LTYPE1
 70
    64
  3
HIDDEN
 72
    65
 73
     2
 40
1.0
 49
0.6
 49
-0.4
  0
LTYPE
  2
LTYPE2
 70
    64
  3
HIDDEN
 72
    65
 73
     2
 40
2.0
 49
1.2
 49
-0.8
  0
LTYPE
  2
LTYPE3
 70
    64
  3
HIDDEN
 72
    65
 73
     2
 40
1.5
 49
0.9
 49
-0.6
  0
LTYPE
  2
LTYPE4
 70
    64
  3
HIDDEN
 72
    65
 73
     2
 40
3.0
 49
1.8
 49
-1.2
  0
LTYPE
  2
LTYPE5
 70
    64
  3
CENTER
 72
    65
 73
     4
 40
0.5
 49
0.35
 49
-0.05
 49
0.05
 49
-0.05
  0
ENDTAB
  0
TABLE
  2
LAYER
 70
   128
  0
LAYER
  2
0
 70
     0
 62
     7
  6
CONTINUOUS
  0
LAYER
  2
2
 70
     0
 62
     7
  6
CONTINUOUS
  0
LAYER
  2
3
 70
     0
 62
     7
  6
CONTINUOUS
  0
LAYER
  2
4
 70
     0
 62
     7
  6
CONTINUOUS
  0
LAYER
  2
5
 70
     0
 62
     7
  6
CONTINUOUS
  0
LAYER
  2
6
 70
     0
 62
     7
  6
CONTINUOUS
  0
LAYER
  2
7
 70
     0
 62
     7
  6
CONTINUOUS
  0
LAYER
  2
8
 70
     0
 62
     7
  6
CONTINUOUS
  0
LAYER
  2
9
 70
     0
 62
     7
  6
CONTINUOUS
  0
LAYER
  2
10
 70
     0
 62
     7
  6
CONTINUOUS
  0
LAYER
  2
11
 70
     0
 62
     7
  6
CONTINUOUS
  0
LAYER
  2
12
 70
     0
 62
     7
  6
CONTINUOUS
  0
LAYER
  2
13
 70
     0
 62
     7
  6
CONTINUOUS
  0
LAYER
  2
14
 70
     0
 62
     7
  6
CONTINUOUS
  0
LAYER
  2
15
 70
     0
 62
     7
  6
CONTINUOUS
  0
LAYER
  2
16
 70
     0
 62
     7
  6
CONTINUOUS
  0
LAYER
  2
17
 70
     0
 62
     7
  6
CONTINUOUS
  0
LAYER
  2
18
 70
     0
 62
     7
  6
CONTINUOUS
  0
LAYER
  2
19
 70
     0
 62
     7
  6
CONTINUOUS
  0
LAYER
  2
20
 70
     0
 62
     7
  6
CONTINUOUS
  0
LAYER
  2
21
 70
     0
 62
     7
  6
CONTINUOUS
  0
LAYER
  2
22
 70
     0
 62
     7
  6
CONTINUOUS
  0
LAYER
  2
23
 70
     0
 62
     7
  6
CONTINUOUS
  0
LAYER
  2
24
 70
     0
 62
     7
  6
CONTINUOUS
  0
LAYER
  2
25
 70
     0
 62
     7
  6
CONTINUOUS
  0
LAYER
  2
26
 70
     0
 62
     7
  6
CONTINUOUS
  0
LAYER
  2
27
 70
     0
 62
     7
  6
CONTINUOUS
  0
LAYER
  2
28
 70
     0
 62
     7
  6
CONTINUOUS
  0
LAYER
  2
29
 70
     0
 62
     7
  6
CONTINUOUS
  0
LAYER
  2
30
 70
     0
 62
     7
  6
CONTINUOUS
  0
LAYER
  2
31
 70
     0
 62
     7
  6
CONTINUOUS
  0
LAYER
  2
32
 70
     0
 62
     7
  6
CONTINUOUS
  0
LAYER
  2
33
 70
     0
 62
     7
  6
CONTINUOUS
  0
LAYER
  2
34
 70
     0
 62
     7
  6
CONTINUOUS
  0
LAYER
  2
35
 70
     0
 62
     7
  6
CONTINUOUS
  0
LAYER
  2
36
 70
     0
 62
     7
  6
CONTINUOUS
  0
LAYER
  2
37
 70
     0
 62
     7
  6
CONTINUOUS
  0
LAYER
  2
38
 70
     0
 62
     7
  6
CONTINUOUS
  0
LAYER
  2
39
 70
     0
 62
     7
  6
CONTINUOUS
  0
LAYER
  2
40
 70
     0
 62
     7
  6
CONTINUOUS
  0
LAYER
  2
41
 70
     0
 62
     7
  6
CONTINUOUS
  0
LAYER
  2
42
 70
     0
 62
     7
  6
CONTINUOUS
  0
LAYER
  2
43
 70
     0
 62
     7
  6
CONTINUOUS
  0
LAYER
  2
44
 70
     0
 62
     7
  6
CONTINUOUS
  0
LAYER
  2
45
 70
     0
 62
     7
  6
CONTINUOUS
  0
LAYER
  2
46
 70
     0
 62
     7
  6
CONTINUOUS
  0
LAYER
  2
47
 70
     0
 62
     7
  6
CONTINUOUS
  0
LAYER
  2
48
 70
     0
 62
     7
  6
CONTINUOUS
  0
LAYER
  2
49
 70
     0
 62
     7
  6
CONTINUOUS
  0
LAYER
  2
50
 70
     0
 62
     7
  6
CONTINUOUS
  0
LAYER
  2
51
 70
     0
 62
     7
  6
CONTINUOUS
  0
LAYER
  2
52
 70
     0
 62
     7
  6
CONTINUOUS
  0
LAYER
  2
53
 70
     0
 62
     7
  6
CONTINUOUS
  0
LAYER
  2
54
 70
     0
 62
     7
  6
CONTINUOUS
  0
LAYER
  2
55
 70
     0
 62
     7
  6
CONTINUOUS
  0
LAYER
  2
56
 70
     0
 62
     7
  6
CONTINUOUS
  0
LAYER
  2
57
 70
     0
 62
     7
  6
CONTINUOUS
  0
LAYER
  2
58
 70
     0
 62
     7
  6
CONTINUOUS
  0
LAYER
  2
59
 70
     0
 62
     7
  6
CONTINUOUS
  0
LAYER
  2
60
 70
     0
 62
     7
  6
CONTINUOUS
  0
LAYER
  2
61
 70
     0
 62
     7
  6
CONTINUOUS
  0
LAYER
  2
62
 70
     0
 62
     7
  6
CONTINUOUS
  0
LAYER
  2
63
 70
     0
 62
     7
  6
CONTINUOUS
  0
LAYER
  2
64
 70
     0
 62
     7
  6
CONTINUOUS
  0
LAYER
  2
65
 70
     0
 62
     7
  6
CONTINUOUS
  0
LAYER
  2
66
 70
     0
 62
     7
  6
CONTINUOUS
  0
LAYER
  2
67
 70
     0
 62
     7
  6
CONTINUOUS
  0
LAYER
  2
68
 70
     0
 62
     7
  6
CONTINUOUS
  0
LAYER
  2
69
 70
     0
 62
     7
  6
CONTINUOUS
  0
LAYER
  2
70
 70
     0
 62
     7
  6
CONTINUOUS
  0
LAYER
  2
71
 70
     0
 62
     7
  6
CONTINUOUS
  0
LAYER
  2
72
 70
     0
 62
     7
  6
CONTINUOUS
  0
LAYER
  2
73
 70
     0
 62
     7
  6
CONTINUOUS
  0
LAYER
  2
74
 70
     0
 62
     7
  6
CONTINUOUS
  0
LAYER
  2
75
 70
     0
 62
     7
  6
CONTINUOUS
  0
LAYER
  2
76
 70
     0
 62
     7
  6
CONTINUOUS
  0
LAYER
  2
77
 70
     0
 62
     7
  6
CONTINUOUS
  0
LAYER
  2
78
 70
     0
 62
     7
  6
CONTINUOUS
  0
LAYER
  2
79
 70
     0
 62
     7
  6
CONTINUOUS
  0
LAYER
  2
80
 70
     0
 62
     7
  6
CONTINUOUS
  0
LAYER
  2
81
 70
     0
 62
     7
  6
CONTINUOUS
  0
LAYER
  2
82
 70
     0
 62
     7
  6
CONTINUOUS
  0
LAYER
  2
83
 70
     0
 62
     7
  6
CONTINUOUS
  0
LAYER
  2
84
 70
     0
 62
     7
  6
CONTINUOUS
  0
LAYER
  2
85
 70
     0
 62
     7
  6
CONTINUOUS
  0
LAYER
  2
86
 70
     0
 62
     7
  6
CONTINUOUS
  0
LAYER
  2
87
 70
     0
 62
     7
  6
CONTINUOUS
  0
LAYER
  2
88
 70
     0
 62
     7
  6
CONTINUOUS
  0
LAYER
  2
89
 70
     0
 62
     7
  6
CONTINUOUS
  0
LAYER
  2
90
 70
     0
 62
     7
  6
CONTINUOUS
  0
LAYER
  2
91
 70
     0
 62
     7
  6
CONTINUOUS
  0
LAYER
  2
92
 70
     0
 62
     7
  6
CONTINUOUS
  0
LAYER
  2
93
 70
     0
 62
     7
  6
CONTINUOUS
  0
LAYER
  2
94
 70
     0
 62
     7
  6
CONTINUOUS
  0
LAYER
  2
95
 70
     0
 62
     7
  6
CONTINUOUS
  0
LAYER
  2
96
 70
     0
 62
     7
  6
CONTINUOUS
  0
LAYER
  2
97
 70
     0
 62
     7
  6
CONTINUOUS
  0
LAYER
  2
98
 70
     0
 62
     7
  6
CONTINUOUS
  0
LAYER
  2
99
 70
     0
 62
     7
  6
CONTINUOUS
  0
LAYER
  2
100
 70
     0
 62
     7
  6
CONTINUOUS
  0
LAYER
  2
101
 70
     0
 62
     7
  6
CONTINUOUS
  0
LAYER
  2
102
 70
     0
 62
     7
  6
CONTINUOUS
  0
LAYER
  2
103
 70
     0
 62
     7
  6
CONTINUOUS
  0
LAYER
  2
104
 70
     0
 62
     7
  6
CONTINUOUS
  0
LAYER
  2
105
 70
     0
 62
     7
  6
CONTINUOUS
  0
LAYER
  2
106
 70
     0
 62
     7
  6
CONTINUOUS
  0
LAYER
  2
107
 70
     0
 62
     7
  6
CONTINUOUS
  0
LAYER
  2
108
 70
     0
 62
     7
  6
CONTINUOUS
  0
LAYER
  2
109
 70
     0
 62
     7
  6
CONTINUOUS
  0
LAYER
  2
110
 70
     0
 62
     7
  6
CONTINUOUS
  0
LAYER
  2
111
 70
     0
 62
     7
  6
CONTINUOUS
  0
LAYER
  2
112
 70
     0
 62
     7
  6
CONTINUOUS
  0
LAYER
  2
113
 70
     0
 62
     7
  6
CONTINUOUS
  0
LAYER
  2
114
 70
     0
 62
     7
  6
CONTINUOUS
  0
LAYER
  2
115
 70
     0
 62
     7
  6
CONTINUOUS
  0
LAYER
  2
116
 70
     0
 62
     7
  6
CONTINUOUS
  0
LAYER
  2
117
 70
     0
 62
     7
  6
CONTINUOUS
  0
LAYER
  2
118
 70
     0
 62
     7
  6
CONTINUOUS
  0
LAYER
  2
119
 70
     0
 62
     7
  6
CONTINUOUS
  0
LAYER
  2
120
 70
     0
 62
     7
  6
CONTINUOUS
  0
LAYER
  2
121
 70
     0
 62
     7
  6
CONTINUOUS
  0
LAYER
  2
122
 70
     0
 62
     7
  6
CONTINUOUS
  0
LAYER
  2
123
 70
     0
 62
     7
  6
CONTINUOUS
  0
LAYER
  2
124
 70
     0
 62
     7
  6
CONTINUOUS
  0
LAYER
  2
125
 70
     0
 62
     7
  6
CONTINUOUS
  0
LAYER
  2
126
 70
     0
 62
     7
  6
CONTINUOUS
  0
LAYER
  2
127
 70
     0
 62
     7
  6
CONTINUOUS
  0
LAYER
  2
128
 70
     0
 62
     7
  6
CONTINUOUS
  0
ENDTAB
  0
TABLE
  2
STYLE
 70
    16
  0
STYLE
  2
STANDARD
 70
     0
 40
0.0
 41
1.0
 50
0.0
 71
     0
 42
0.2
  3
txt.shx
  4
extfont.shx
  0
STYLE
  2
KANJI0
 70
     0
 40
4.0
 41
0.9
 50
0.0
 71
     0
 42
4.0
  3
txt.shx
  4
extfont.shx
  0
STYLE
  2
KANJI1
 70
     0
 40
3.0
 41
0.6
 50
0.0
 71
     0
 42
3.0
  3
txt.shx
  4
extfont.shx
  0
STYLE
  2
KANJI2
 70
     0
 40
1.8
 41
0.6
 50
0.0
 71
     0
 42
1.8
  3
txt.shx
  4
extfont.shx
  0
STYLE
  2
KANJI3
 70
     0
 40
3.0
 41
0.833333333
 50
0.0
 71
     0
 42
3.0
  3
txt.shx
  4
extfont.shx
  0
STYLE
  2
KANJI4
 70
     0
 40
3.0
 41
0.9
 50
0.0
 71
     0
 42
3.0
  3
txt.shx
  4
extfont.shx
  0
STYLE
  2
KANJI5
 70
     0
 40
2.0
 41
0.8
 50
0.0
 71
     0
 42
2.0
  3
txt.shx
  4
extfont.shx
  0
STYLE
  2
KANJI6
 70
     0
 40
3.0
 41
0.8
 50
0.0
 71
     0
 42
3.0
  3
txt.shx
  4
extfont.shx
  0
STYLE
  2
KANJI7
 70
     0
 40
3.0
 41
0.833333333
 50
0.0
 71
     0
 42
3.0
  3
txt.shx
  4
extfont.shx
  0
STYLE
  2
KANJI8
 70
     0
 40
3.0
 41
0.9
 50
0.0
 71
     0
 42
3.0
  3
txt.shx
  4
extfont.shx
  0
STYLE
  2
KANJI9
 70
     0
 40
2.2
 41
0.681818182
 50
0.0
 71
     0
 42
2.2
  3
txt.shx
  4
extfont.shx
  0
STYLE
  2
KANJI10
 70
     0
 40
1.2
 41
0.666666667
 50
0.0
 71
     0
 42
1.2
  3
txt.shx
  4
extfont.shx
  0
STYLE
  2
KANJI11
 70
     0
 40
3.0
 41
0.833333333
 50
0.0
 71
     0
 42
3.0
  3
txt.shx
  4
extfont.shx
  0
STYLE
  2
KANJI12
 70
     0
 40
3.6
 41
0.9
 50
0.0
 71
     0
 42
3.6
  3
txt.shx
  4
extfont.shx
  0
STYLE
  2
KANJI13
 70
     0
 40
5.0
 41
0.9
 50
0.0
 71
     0
 42
5.0
  3
txt.shx
  4
extfont.shx
  0
STYLE
  2
KANJI14
 70
     0
 40
5.8
 41
0.827586207
 50
0.0
 71
     0
 42
5.8
  3
txt.shx
  4
extfont.shx
  0
ENDTAB
  0
TABLE
  2
VIEW
 70
     0
  0
ENDTAB
  0
ENDSEC
  0
SECTION
  2
BLOCKS
  0
ENDSEC
  0
SECTION
  2
ENTITIES
  0
CIRCLE
  8
0
  6
CONTINUOUS
 62
     1
 10
179.75
 20
55.0
 30
0.0
 40
16.75
  0
CIRCLE
  8
0
  6
CONTINUOUS
 62
     1
 10
195.75
 20
71.0
 30
0.0
 40
1.25
  0
CIRCLE
  8
0
  6
CONTINUOUS
 62
     1
 10
163.75
 20
71.0
 30
0.0
 40
1.25
  0
CIRCLE
  8
0
  6
CONTINUOUS
 62
     1
 10
163.75
 20
39.0
 30
0.0
 40
1.25
  0
CIRCLE
  8
0
  6
CONTINUOUS
 62
     1
 10
195.75
 20
39.0
 30
0.0
 40
1.25
  0
TEXT
  8
0
  6
CONTINUOUS
 62
     1
 10
167.355925513
 20
23.875
 30
1.0
 40
4.0
  1
パネルカット
 50
0.0
 41
0.9
 51
0.0
  7
KANJI0
  0
LINE
  8
0
  6
CONTINUOUS
 62
     1
 10
166.255925513
 20
22.875
 30
0.0
 11
194.255925513
 21
22.875
 31
0.0
  0
LINE
  8
0
  6
CONTINUOUS
 62
     1
 10
99.0
 20
106.0
 30
0.0
 11
99.0
 21
146.0
 31
0.0
  0
LINE
  8
0
  6
CONTINUOUS
 62
     1
 10
96.5
 20
106.0
 30
0.0
 11
99.0
 21
106.0
 31
0.0
  0
ARC
  8
0
  6
CONTINUOUS
 62
     1
 10
96.5
 20
107.0
 30
0.0
 40
1.0
 50
180.0
 51
270.0
  0
LINE
  8
0
  6
CONTINUOUS
 62
     1
 10
99.0
 20
146.0
 30
0.0
 11
96.5
 21
146.0
 31
0.0
  0
LINE
  8
0
  6
CONTINUOUS
 62
     1
 10
95.5
 20
145.0
 30
0.0
 11
95.5
 21
107.0
 31
0.0
  0
ARC
  8
0
  6
CONTINUOUS
 62
     1
 10
96.5
 20
145.0
 30
0.0
 40
1.0
 50
90.0
 51
180.0
  0
LINE
  8
0
  6
CONTINUOUS
 62
     1
 10
91.5
 20
128.4
 30
0.0
 11
91.5
 21
123.6
 31
0.0
  0
LINE
  8
0
  6
CONTINUOUS
 62
     1
 10
90.8
 20
126.45
 30
0.0
 11
91.5
 21
126.45
 31
0.0
  0
LINE
  8
0
  6
CONTINUOUS
 62
     1
 10
90.8
 20
125.6
 30
0.0
 11
91.5
 21
125.6
 31
0.0
  0
LINE
  8
0
  6
CONTINUOUS
 62
     1
 10
91.5
 20
128.4
 30
0.0
 11
91.5
 21
128.75
 31
0.0
  0
ARC
  8
0
  6
CONTINUOUS
 62
     1
 10
91.75
 20
128.75
 30
0.0
 40
0.25
 50
90.0
 51
180.0
  0
LINE
  8
0
  6
CONTINUOUS
 62
     1
 10
91.5
 20
123.6
 30
0.0
 11
91.5
 21
123.25
 31
0.0
  0
ARC
  8
0
  6
CONTINUOUS
 62
     1
 10
91.75
 20
123.25
 30
0.0
 40
0.25
 50
180.0
 51
270.0
  0
LINE
  8
0
  6
CONTINUOUS
 62
     1
 10
91.75
 20
123.0
 30
0.0
 11
91.9
 21
123.0
 31
0.0
  0
ARC
  8
0
  6
CONTINUOUS
 62
     1
 10
91.9
 20
123.1
 30
0.0
 40
0.1
 50
270.0
 51
0.0
  0
LINE
  8
0
  6
CONTINUOUS
 62
     1
 10
91.9
 20
129.0
 30
0.0
 11
91.75
 21
129.0
 31
0.0
  0
ARC
  8
0
  6
CONTINUOUS
 62
     1
 10
91.9
 20
128.9
 30
0.0
 40
0.1
 50
0.0
 51
90.0
  0
ARC
  8
0
  6
CONTINUOUS
 62
     1
 10
95.25
 20
126.0
 30
0.0
 40
4.5
 50
185.07960786
 51
212.619243071
  0
ARC
  8
0
  6
CONTINUOUS
 62
     1
 10
95.25
 20
126.0
 30
0.0
 40
4.5
 50
147.380756929
 51
174.289406862
  0
LINE
  8
0
  6
CONTINUOUS
 62
     1
 10
92.35
 20
128.3
 30
0.0
 11
92.35
 21
123.75
 31
0.0
  0
LINE
  8
0
  6
CONTINUOUS
 62
     1
 10
95.5
 20
144.75
 30
0.0
 11
93.961266683
 21
144.75
 31
0.0
  0
LINE
  8
0
  6
CONTINUOUS
 62
     1
 10
92.35
 20
128.3
 30
0.0
 11
92.962046435
 21
143.789482867
 31
0.0
  0
ARC
  8
0
  6
CONTINUOUS
 62
     1
 10
93.961266683
 20
143.75
 30
0.0
 40
1.0
 50
90.0
 51
177.737210193
  0
LINE
  8
0
  6
CONTINUOUS
 62
     1
 10
95.5
 20
107.25
 30
0.0
 11
93.961381701
 21
107.25
 31
0.0
  0
LINE
  8
0
  6
CONTINUOUS
 62
     1
 10
92.35
 20
123.75
 30
0.0
 11
92.96215674
 21
108.210636592
 31
0.0
  0
ARC
  8
0
  6
CONTINUOUS
 62
     1
 10
93.961381701
 20
108.25
 30
0.0
 40
1.0
 50
182.255939964
 51
270.0
  0
LINE
  8
0
  6
CONTINUOUS
 62
     1
 10
105.350035
 20
107.9733825
 30
0.0
 11
105.616695
 21
108.2400425
 31
0.0
  0
LINE
  8
0
  6
CONTINUOUS
 62
     1
 10
105.350035
 20
107.9733825
 30
0.0
 11
104.016735
 21
107.9733825
 31
0.0
  0
LINE
  8
0
  6
CONTINUOUS
 62
     1
 10
105.350035
 20
112.1066125
 30
0.0
 11
105.616695
 21
111.8399525
 31
0.0
  0
LINE
  8
0
  6
CONTINUOUS
 62
     1
 10
104.016735
 20
112.1066125
 30
0.0
 11
105.350035
 21
112.1066125
 31
0.0
  0
LINE
  8
0
  6
CONTINUOUS
 62
     1
 10
104.016735
 20
107.9733825
 30
0.0
 11
104.016735
 21
112.1066125
 31
0.0
  0
LINE
  8
0
  6
CONTINUOUS
 62
     1
 10
105.616695
 20
111.8399525
 30
0.0
 11
105.616695
 21
108.2400425
 31
0.0
  0
LINE
  8
0
  6
CONTINUOUS
 62
     1
 10
105.350035
 20
139.9733825
 30
0.0
 11
105.616695
 21
140.2400425
 31
0.0
  0
LINE
  8
0
  6
CONTINUOUS
 62
     1
 10
105.350035
 20
139.9733825
 30
0.0
 11
104.016735
 21
139.9733825
 31
0.0
  0
LINE
  8
0
  6
CONTINUOUS
 62
     1
 10
105.350035
 20
144.1066125
 30
0.0
 11
105.616695
 21
143.8399525
 31
0.0
  0
LINE
  8
0
  6
CONTINUOUS
 62
     1
 10
104.016735
 20
144.1066125
 30
0.0
 11
105.350035
 21
144.1066125
 31
0.0
  0
LINE
  8
0
  6
CONTINUOUS
 62
     1
 10
104.016735
 20
139.9733825
 30
0.0
 11
104.016735
 21
144.1066125
 31
0.0
  0
LINE
  8
0
  6
CONTINUOUS
 62
     1
 10
105.616695
 20
143.8399525
 30
0.0
 11
105.616695
 21
140.2400425
 31
0.0
  0
LINE
  8
0
  6
CONTINUOUS
 62
     1
 10
117.75
 20
109.75
 30
0.0
 11
106.75
 21
109.75
 31
0.0
  0
ARC
  8
0
  6
CONTINUOUS
 62
     1
 10
117.75
 20
110.25
 30
0.0
 40
0.5
 50
270.0
 51
0.0
  0
LINE
  8
0
  6
CONTINUOUS
 62
     1
 10
106.75
 20
142.25
 30
0.0
 11
117.75
 21
142.25
 31
0.0
  0
LINE
  8
0
  6
CONTINUOUS
 62
     1
 10
118.25
 20
141.75
 30
0.0
 11
118.25
 21
110.25
 31
0.0
  0
ARC
  8
0
  6
CONTINUOUS
 62
     1
 10
117.75
 20
141.75
 30
0.0
 40
0.5
 50
0.0
 51
90.0
  0
LINE
  8
0
  6
CONTINUOUS
 62
     1
 10
118.25
 20
118.25
 30
0.0
 11
118.75
 21
118.5
 31
0.0
  0
LINE
  8
0
  6
CONTINUOUS
 62
     1
 10
122.850035
 20
119.0166925
 30
0.0
 11
123.116695
 21
119.2833525
 31
0.0
  0
LINE
  8
0
  6
CONTINUOUS
 62
     1
 10
122.850035
 20
119.0166925
 30
0.0
 11
121.516735
 21
119.0166925
 31
0.0
  0
LINE
  8
0
  6
CONTINUOUS
 62
     1
 10
103.516735
 20
139.5
 30
0.0
 11
103.516735
 21
144.5
 31
0.0
  0
LINE
  8
0
  6
CONTINUOUS
 62
     1
 10
103.516735
 20
144.5
 30
0.0
 11
104.016735
 21
144.1066125
 31
0.0
  0
LINE
  8
0
  6
CONTINUOUS
 62
     1
 10
104.016735
 20
139.9733825
 30
0.0
 11
103.516735
 21
139.5
 31
0.0
  0
LINE
  8
0
  6
CONTINUOUS
 62
     1
 10
104.016735
 20
107.9733825
 30
0.0
 11
104.016735
 21
112.1066125
 31
0.0
  0
LINE
  8
0
  6
CONTINUOUS
 62
     1
 10
103.516735
 20
107.5
 30
0.0
 11
103.516735
 21
112.5
 31
0.0
  0
LINE
  8
0
  6
CONTINUOUS
 62
     1
 10
103.516735
 20
112.5
 30
0.0
 11
104.016735
 21
112.1066125
 31
0.0
  0
LINE
  8
0
  6
CONTINUOUS
 62
     1
 10
104.016735
 20
107.9733825
 30
0.0
 11
103.516735
 21
107.5
 31
0.0
  0
LINE
  8
0
  6
CONTINUOUS
 62
     1
 10
118.75
 20
118.5
 30
0.0
 11
118.75
 21
121.5
 31
0.0
  0
LINE
  8
0
  6
CONTINUOUS
 62
     1
 10
121.516735
 20
119.0166925
 30
0.0
 11
121.516735
 21
121.25
 31
0.0
  0
ARC
  8
0
  6
CONTINUOUS
 62
     1
 10
197.75
 20
144.0
 30
0.0
 40
1.0
 50
0.0
 51
90.0
  0
LINE
  8
0
  6
CONTINUOUS
 62
     1
 10
197.75
 20
145.0
 30
0.0
 11
161.75
 21
145.0
 31
0.0
  0
ARC
  8
0
  6
CONTINUOUS
 62
     1
 10
161.75
 20
144.0
 30
0.0
 40
1.0
 50
90.0
 51
180.0
  0
LINE
  8
0
  6
CONTINUOUS
 62
     1
 10
160.75
 20
144.0
 30
0.0
 11
160.75
 21
108.0
 31
0.0
  0
ARC
  8
0
  6
CONTINUOUS
 62
     1
 10
161.75
 20
108.0
 30
0.0
 40
1.0
 50
180.0
 51
270.0
  0
LINE
  8
0
  6
CONTINUOUS
 62
     1
 10
198.75
 20
108.0
 30
0.0
 11
198.75
 21
144.0
 31
0.0
  0
LINE
  8
0
  6
CONTINUOUS
 62
     1
 10
161.75
 20
107.0
 30
0.0
 11
197.75
 21
107.0
 31
0.0
  0
ARC
  8
0
  6
CONTINUOUS
 62
     1
 10
197.75
 20
108.0
 30
0.0
 40
1.0
 50
270.0
 51
0.0
  0
ARC
  8
0
  6
CONTINUOUS
 62
     1
 10
197.75
 20
108.0
 30
0.0
 40
2.0
 50
270.0
 51
0.0
  0
LINE
  8
0
  6
CONTINUOUS
 62
     1
 10
161.75
 20
106.0
 30
0.0
 11
197.75
 21
106.0
 31
0.0
  0
ARC
  8
0
  6
CONTINUOUS
 62
     1
 10
161.75
 20
108.0
 30
0.0
 40
2.0
 50
180.0
 51
270.0
  0
LINE
  8
0
  6
CONTINUOUS
 62
     1
 10
159.75
 20
144.0
 30
0.0
 11
159.75
 21
108.0
 31
0.0
  0
ARC
  8
0
  6
CONTINUOUS
 62
     1
 10
161.75
 20
144.0
 30
0.0
 40
2.0
 50
90.0
 51
180.0
  0
LINE
  8
0
  6
CONTINUOUS
 62
     1
 10
199.75
 20
108.0
 30
0.0
 11
199.75
 21
144.0
 31
0.0
  0
LINE
  8
0
  6
CONTINUOUS
 62
     1
 10
197.75
 20
146.0
 30
0.0
 11
161.75
 21
146.0
 31
0.0
  0
ARC
  8
0
  6
CONTINUOUS
 62
     1
 10
197.75
 20
144.0
 30
0.0
 40
2.0
 50
0.0
 51
90.0
  0
CIRCLE
  8
0
  6
CONTINUOUS
 62
     1
 10
179.75
 20
126.0
 30
0.0
 40
16.25
  0
LINE
  8
0
  6
CONTINUOUS
 62
     1
 10
163.75
 20
112.025
 30
0.0
 11
161.996298557
 21
111.0125
 31
0.0
  0
LINE
  8
0
  6
CONTINUOUS
 62
     1
 10
161.996298557
 20
111.0125
 30
0.0
 11
161.996298557
 21
108.9875
 31
0.0
  0
LINE
  8
0
  6
CONTINUOUS
 62
     1
 10
161.996298557
 20
108.9875
 30
0.0
 11
163.75
 21
107.975
 31
0.0
  0
LINE
  8
0
  6
CONTINUOUS
 62
     1
 10
163.75
 20
107.975
 30
0.0
 11
165.503701443
 21
108.9875
 31
0.0
  0
LINE
  8
0
  6
CONTINUOUS
 62
     1
 10
165.503701443
 20
108.9875
 30
0.0
 11
165.503701443
 21
111.0125
 31
0.0
  0
LINE
  8
0
  6
CONTINUOUS
 62
     1
 10
165.503701443
 20
111.0125
 30
0.0
 11
163.75
 21
112.025
 31
0.0
  0
LINE
  8
0
  6
CONTINUOUS
 62
     1
 10
195.75
 20
112.025
 30
0.0
 11
193.996298557
 21
111.0125
 31
0.0
  0
LINE
  8
0
  6
CONTINUOUS
 62
     1
 10
193.996298557
 20
111.0125
 30
0.0
 11
193.996298557
 21
108.9875
 31
0.0
  0
LINE
  8
0
  6
CONTINUOUS
 62
     1
 10
193.996298557
 20
108.9875
 30
0.0
 11
195.75
 21
107.975
 31
0.0
  0
LINE
  8
0
  6
CONTINUOUS
 62
     1
 10
195.75
 20
107.975
 30
0.0
 11
197.503701443
 21
108.9875
 31
0.0
  0
LINE
  8
0
  6
CONTINUOUS
 62
     1
 10
197.503701443
 20
108.9875
 30
0.0
 11
197.503701443
 21
111.0125
 31
0.0
  0
LINE
  8
0
  6
CONTINUOUS
 62
     1
 10
197.503701443
 20
111.0125
 30
0.0
 11
195.75
 21
112.025
 31
0.0
  0
LINE
  8
0
  6
CONTINUOUS
 62
     1
 10
163.75
 20
144.025
 30
0.0
 11
161.996298557
 21
143.0125
 31
0.0
  0
LINE
  8
0
  6
CONTINUOUS
 62
     1
 10
161.996298557
 20
143.0125
 30
0.0
 11
161.996298557
 21
140.9875
 31
0.0
  0
LINE
  8
0
  6
CONTINUOUS
 62
     1
 10
161.996298557
 20
140.9875
 30
0.0
 11
163.75
 21
139.975
 31
0.0
  0
LINE
  8
0
  6
CONTINUOUS
 62
     1
 10
163.75
 20
139.975
 30
0.0
 11
165.503701443
 21
140.9875
 31
0.0
  0
LINE
  8
0
  6
CONTINUOUS
 62
     1
 10
165.503701443
 20
140.9875
 30
0.0
 11
165.503701443
 21
143.0125
 31
0.0
  0
LINE
  8
0
  6
CONTINUOUS
 62
     1
 10
165.503701443
 20
143.0125
 30
0.0
 11
163.75
 21
144.025
 31
0.0
  0
LINE
  8
0
  6
CONTINUOUS
 62
     1
 10
195.75
 20
144.025
 30
0.0
 11
193.996298557
 21
143.0125
 31
0.0
  0
LINE
  8
0
  6
CONTINUOUS
 62
     1
 10
193.996298557
 20
143.0125
 30
0.0
 11
193.996298557
 21
140.9875
 31
0.0
  0
LINE
  8
0
  6
CONTINUOUS
 62
     1
 10
193.996298557
 20
140.9875
 30
0.0
 11
195.75
 21
139.975
 31
0.0
  0
LINE
  8
0
  6
CONTINUOUS
 62
     1
 10
195.75
 20
139.975
 30
0.0
 11
197.503701443
 21
140.9875
 31
0.0
  0
LINE
  8
0
  6
CONTINUOUS
 62
     1
 10
197.503701443
 20
140.9875
 30
0.0
 11
197.503701443
 21
143.0125
 31
0.0
  0
LINE
  8
0
  6
CONTINUOUS
 62
     1
 10
197.503701443
 20
143.0125
 30
0.0
 11
195.75
 21
144.025
 31
0.0
  0
LINE
  8
0
  6
CONTINUOUS
 62
     1
 10
173.5
 20
123.025
 30
0.0
 11
171.746298557
 21
122.0125
 31
0.0
  0
LINE
  8
0
  6
CONTINUOUS
 62
     1
 10
171.746298557
 20
122.0125
 30
0.0
 11
171.746298557
 21
119.9875
 31
0.0
  0
LINE
  8
0
  6
CONTINUOUS
 62
     1
 10
171.746298557
 20
119.9875
 30
0.0
 11
173.5
 21
118.975
 31
0.0
  0
LINE
  8
0
  6
CONTINUOUS
 62
     1
 10
173.5
 20
118.975
 30
0.0
 11
175.253701443
 21
119.9875
 31
0.0
  0
LINE
  8
0
  6
CONTINUOUS
 62
     1
 10
175.253701443
 20
119.9875
 30
0.0
 11
175.253701443
 21
122.0125
 31
0.0
  0
LINE
  8
0
  6
CONTINUOUS
 62
     1
 10
175.253701443
 20
122.0125
 30
0.0
 11
173.5
 21
123.025
 31
0.0
  0
CIRCLE
  8
0
  6
CONTINUOUS
 62
     1
 10
173.5
 20
121.0
 30
0.0
 40
1.0
  0
LINE
  8
0
  6
CONTINUOUS
 62
     1
 10
186.0
 20
123.025
 30
0.0
 11
184.246298557
 21
122.0125
 31
0.0
  0
LINE
  8
0
  6
CONTINUOUS
 62
     1
 10
184.246298557
 20
122.0125
 30
0.0
 11
184.246298557
 21
119.9875
 31
0.0
  0
LINE
  8
0
  6
CONTINUOUS
 62
     1
 10
184.246298557
 20
119.9875
 30
0.0
 11
186.0
 21
118.975
 31
0.0
  0
LINE
  8
0
  6
CONTINUOUS
 62
     1
 10
186.0
 20
118.975
 30
0.0
 11
187.753701443
 21
119.9875
 31
0.0
  0
LINE
  8
0
  6
CONTINUOUS
 62
     1
 10
187.753701443
 20
119.9875
 30
0.0
 11
187.753701443
 21
122.0125
 31
0.0
  0
LINE
  8
0
  6
CONTINUOUS
 62
     1
 10
187.753701443
 20
122.0125
 30
0.0
 11
186.0
 21
123.025
 31
0.0
  0
CIRCLE
  8
0
  6
CONTINUOUS
 62
     1
 10
186.0
 20
121.0
 30
0.0
 40
1.0
  0
CIRCLE
  8
0
  6
CONTINUOUS
 62
     1
 10
186.0
 20
121.0
 30
0.0
 40
2.75
  0
CIRCLE
  8
0
  6
CONTINUOUS
 62
     1
 10
173.5
 20
121.0
 30
0.0
 40
2.75
  0
CIRCLE
  8
0
  6
CONTINUOUS
 62
     1
 10
167.5
 20
123.0
 30
0.0
 40
1.75
  0
CIRCLE
  8
0
  6
CONTINUOUS
 62
     1
 10
192.0
 20
123.0
 30
0.0
 40
1.75
  0
CIRCLE
  8
0
  6
CONTINUOUS
 62
     1
 10
39.0
 20
126.0
 30
0.0
 40
18.75
  0
CIRCLE
  8
0
  6
CONTINUOUS
 62
     1
 10
39.0
 20
126.0
 30
0.0
 40
3.0
  0
LINE
  8
0
  6
CONTINUOUS
 62
     1
 10
36.65
 20
126.45
 30
0.0
 11
41.35
 21
126.45
 31
0.0
  0
LINE
  8
0
  6
CONTINUOUS
 62
     1
 10
41.35
 20
125.6
 30
0.0
 11
36.65
 21
125.6
 31
0.0
  0
ARC
  8
0
  6
CONTINUOUS
 62
     1
 10
21.0
 20
144.0
 30
0.0
 40
2.0
 50
90.0
 51
180.0
  0
LINE
  8
0
  6
CONTINUOUS
 62
     1
 10
57.0
 20
146.0
 30
0.0
 11
21.0
 21
146.0
 31
0.0
  0
ARC
  8
0
  6
CONTINUOUS
 62
     1
 10
57.0
 20
144.0
 30
0.0
 40
2.0
 50
0.0
 51
90.0
  0
LINE
  8
0
  6
CONTINUOUS
 62
     1
 10
59.0
 20
108.0
 30
0.0
 11
59.0
 21
144.0
 31
0.0
  0
ARC
  8
0
  6
CONTINUOUS
 62
     1
 10
57.0
 20
108.0
 30
0.0
 40
2.0
 50
270.0
 51
0.0
  0
LINE
  8
0
  6
CONTINUOUS
 62
     1
 10
19.0
 20
144.0
 30
0.0
 11
19.0
 21
108.0
 31
0.0
  0
LINE
  8
0
  6
CONTINUOUS
 62
     1
 10
21.0
 20
106.0
 30
0.0
 11
57.0
 21
106.0
 31
0.0
  0
ARC
  8
0
  6
CONTINUOUS
 62
     1
 10
21.0
 20
108.0
 30
0.0
 40
2.0
 50
180.0
 51
270.0
  0
LINE
  8
0
  6
CONTINUOUS
 62
     1
 10
122.85
 20
124.75
 30
0.0
 11
122.85
 21
121.25
 31
0.0
  0
LINE
  8
0
  6
CONTINUOUS
 62
     1
 10
122.85
 20
121.25
 30
0.0
 11
123.339512163
 21
121.25
 31
0.0
  0
ARC
  8
0
  6
CONTINUOUS
 62
     1
 10
123.339512163
 20
124.1
 30
0.0
 40
0.65
 50
16.601549599
 51
90.0
  0
LINE
  8
0
  6
CONTINUOUS
 62
     1
 10
124.15
 20
123.25
 30
0.0
 11
123.45
 21
123.25
 31
0.0
  0
LINE
  8
0
  6
CONTINUOUS
 62
     1
 10
123.45
 20
123.25
 30
0.0
 11
123.45
 21
122.75
 31
0.0
  0
LINE
  8
0
  6
CONTINUOUS
 62
     1
 10
123.45
 20
122.75
 30
0.0
 11
124.15
 21
122.75
 31
0.0
  0
ARC
  8
0
  6
CONTINUOUS
 62
     1
 10
119.65
 20
123.0
 30
0.0
 40
4.5
 50
3.17983012
 51
16.601549599
  0
ARC
  8
0
  6
CONTINUOUS
 62
     1
 10
119.65
 20
123.0
 30
0.0
 40
4.5
 50
343.398450401
 51
356.82016988
  0
LINE
  8
0
  6
CONTINUOUS
 62
     1
 10
122.85
 20
124.75
 30
0.0
 11
123.339512163
 21
124.75
 31
0.0
  0
ARC
  8
0
  6
CONTINUOUS
 62
     1
 10
123.339512163
 20
121.9
 30
0.0
 40
0.65
 50
270.0
 51
343.398450401
  0
LINE
  8
0
  6
CONTINUOUS
 62
     1
 10
122.35
 20
121.5
 30
0.0
 11
118.25
 21
121.5
 31
0.0
  0
LINE
  8
0
  6
CONTINUOUS
 62
     1
 10
118.25
 20
124.5
 30
0.0
 11
122.35
 21
124.5
 31
0.0
  0
LINE
  8
0
  6
CONTINUOUS
 62
     1
 10
123.116695
 20
121.25
 30
0.0
 11
123.116695
 21
119.2833525
 31
0.0
  0
TEXT
  8
0
  6
CONTINUOUS
 62
     2
 10
167.37
 20
82.0
 30
0.3
 40
3.0
  1
３２
 50
0.0
 41
0.6
 51
0.0
  7
KANJI1
  0
TEXT
  8
0
  6
CONTINUOUS
 62
     2
 10
171.27
 20
82.0
 30
0.18
 40
1.8
  1
±０．５
 50
0.0
 41
0.6
 51
0.0
  7
KANJI2
  0
TEXT
  8
0
  6
CONTINUOUS
 62
     2
 10
183.37
 20
82.0
 30
0.3
 40
3.0
  1
３２
 50
0.0
 41
0.6
 51
0.0
  7
KANJI1
  0
TEXT
  8
0
  6
CONTINUOUS
 62
     2
 10
187.27
 20
82.0
 30
0.18
 40
1.8
  1
±０．５
 50
0.0
 41
0.6
 51
0.0
  7
KANJI2
  0
TEXT
  8
0
  6
CONTINUOUS
 62
     2
 10
204.75
 20
58.62
 30
0.3
 40
3.0
  1
３２
 50
90.0
 41
0.6
 51
0.0
  7
KANJI1
  0
TEXT
  8
0
  6
CONTINUOUS
 62
     2
 10
204.75
 20
62.52
 30
0.18
 40
1.8
  1
±０．５
 50
90.0
 41
0.6
 51
0.0
  7
KANJI2
  0
TEXT
  8
0
  6
CONTINUOUS
 62
     2
 10
204.75
 20
42.62
 30
0.3
 40
3.0
  1
３２
 50
90.0
 41
0.6
 51
0.0
  7
KANJI1
  0
TEXT
  8
0
  6
CONTINUOUS
 62
     2
 10
204.75
 20
46.52
 30
0.18
 40
1.8
  1
±０．５
 50
90.0
 41
0.6
 51
0.0
  7
KANJI2
  0
TEXT
  8
0
  6
CONTINUOUS
 62
     2
 10
170.536275673
 20
53.950578776
 30
0.3
 40
3.0
  1
φ６７
 50
12.688467247
 41
0.6
 51
0.0
  7
KANJI1
  0
TEXT
  8
0
  6
CONTINUOUS
 62
     2
 10
176.389748328
 20
55.268477815
 30
0.18
 40
1.8
  1
±１
 50
12.688467247
 41
0.6
 51
0.0
  7
KANJI2
  0
TEXT
  8
0
  6
CONTINUOUS
 62
     2
 10
136.530925513
 20
31.475
 30
0.0
 40
3.0
  1
４－φ５穴
 50
0.0
 41
0.833333333
 51
0.0
  7
KANJI3
  0
TEXT
  8
0
  6
CONTINUOUS
 62
     2
 10
81.5
 20
123.0
 30
0.3
 40
3.0
  1
φ７５
 50
90.0
 41
0.6
 51
0.0
  7
KANJI1
  0
TEXT
  8
0
  6
CONTINUOUS
 62
     2
 10
101.05
 20
153.0
 30
0.3
 40
3.0
  1
１５
 50
0.0
 41
0.6
 51
0.0
  7
KANJI1
  0
TEXT
  8
0
  6
CONTINUOUS
 62
     2
 10
110.55
 20
122.975
 30
0.3
 40
3.0
  1
φ６５
 50
90.0
 41
0.6
 51
0.0
  7
KANJI1
  0
TEXT
  8
0
  6
CONTINUOUS
 62
     2
 10
92.1
 20
153.0
 30
0.3
 40
3.0
  1
０．５
 50
0.0
 41
0.6
 51
0.0
  7
KANJI1
  0
LINE
  8
0
  6
LTYPE1
 62
     2
 10
119.75
 20
119.30831
 30
0.0
 11
119.75
 21
117.58331
 31
0.0
  0
LINE
  8
0
  6
LTYPE1
 62
     2
 10
119.25
 20
117.58331
 30
0.0
 11
121.75
 21
117.58331
 31
0.0
  0
LINE
  8
0
  6
LTYPE1
 62
     2
 10
121.75
 20
117.58331
 30
0.0
 11
121.75
 21
114.58331
 31
0.0
  0
LINE
  8
0
  6
LTYPE1
 62
     2
 10
119.25
 20
117.58331
 30
0.0
 11
119.25
 21
114.58331
 31
0.0
  0
TEXT
  8
0
  6
CONTINUOUS
 62
     2
 10
128.95
 20
113.3
 30
0.3
 40
3.0
  1
端子キャップ
 50
0.0
 41
0.9
 51
0.0
  7
KANJI4
  0
TEXT
  8
0
  6
CONTINUOUS
 62
     2
 10
126.95
 20
108.5
 30
0.3
 40
3.0
  1
（オプション）
 50
0.0
 41
0.9
 51
0.0
  7
KANJI4
  0
LINE
  8
0
  6
LTYPE1
 62
     2
 10
120.15
 20
121.5
 30
0.0
 11
120.15
 21
117.58331
 31
0.0
  0
ARC
  8
0
  6
LTYPE2
 62
     2
 10
124.5
 20
123.9
 30
0.0
 40
2.25
 50
0.0
 51
90.0
  0
LINE
  8
0
  6
LTYPE2
 62
     2
 10
126.75
 20
123.9
 30
0.0
 11
126.75
 21
121.5
 31
0.0
  0
ARC
  8
0
  6
LTYPE2
 62
     2
 10
124.5
 20
121.5
 30
0.0
 40
2.25
 50
303.748988596
 51
0.0
  0
ARC
  8
0
  6
LTYPE2
 62
     2
 10
123.543240868
 20
120.068163486
 30
0.0
 40
2.25
 50
348.748988596
 51
45.0
  0
LINE
  8
0
  6
LTYPE2
 62
     2
 10
118.25
 20
126.15
 30
0.0
 11
124.5
 21
126.15
 31
0.0
  0
LINE
  8
0
  6
LTYPE2
 62
     2
 10
125.75
 20
119.629171307
 30
0.0
 11
125.75
 21
114.187598965
 31
0.0
  0
LINE
  8
0
  6
LTYPE3
 62
     2
 10
118.25
 20
114.187598965
 30
0.0
 11
124.75
 21
114.187598965
 31
0.0
  0
ARC
  8
0
  6
LTYPE3
 62
     2
 10
124.75
 20
113.187598965
 30
0.0
 40
1.0
 50
0.0
 51
90.0
  0
LINE
  8
0
  6
LTYPE2
 62
     2
 10
124.75
 20
111.15
 30
0.0
 11
118.25
 21
111.15
 31
0.0
  0
LINE
  8
0
  6
LTYPE2
 62
     2
 10
125.75
 20
113.187598965
 30
0.0
 11
125.75
 21
112.15
 31
0.0
  0
ARC
  8
0
  6
LTYPE2
 62
     2
 10
124.75
 20
112.15
 30
0.0
 40
1.0
 50
270.0
 51
0.0
  0
LINE
  8
0
  6
CONTINUOUS
 62
     2
 10
119.6234765
 20
121.5
 30
0.0
 11
119.6234765
 21
118.730033
 31
0.0
  0
LINE
  8
0
  6
CONTINUOUS
 62
     2
 10
119.9568015
 20
118.730033
 30
0.0
 11
119.9568015
 21
121.5
 31
0.0
  0
LINE
  8
0
  6
CONTINUOUS
 62
     2
 10
119.6234765
 20
118.730033
 30
0.0
 11
119.9568015
 21
118.730033
 31
0.0
  0
LINE
  8
0
  6
CONTINUOUS
 62
     2
 10
121.2767685
 20
120.84998
 30
0.0
 11
120.8634455
 21
120.84998
 31
0.0
  0
LINE
  8
0
  6
CONTINUOUS
 62
     2
 10
120.8367795
 20
120.863313
 30
0.0
 11
120.4767885
 21
119.25002
 31
0.0
  0
LINE
  8
0
  6
CONTINUOUS
 62
     2
 10
120.9434435
 20
119.25002
 30
0.0
 11
121.2767685
 21
120.84998
 31
0.0
  0
LINE
  8
0
  6
CONTINUOUS
 62
     2
 10
120.4767885
 20
119.25002
 30
0.0
 11
120.9434435
 21
119.25002
 31
0.0
  0
LINE
  8
0
  6
CONTINUOUS
 62
     2
 10
122.8167025
 20
120.05
 30
0.0
 11
123.0833625
 21
120.31666
 31
0.0
  0
LINE
  8
0
  6
CONTINUOUS
 62
     2
 10
123.0833625
 20
119.78334
 30
0.0
 11
122.8167025
 21
120.05
 31
0.0
  0
LINE
  8
0
  6
CONTINUOUS
 62
     2
 10
121.516735
 20
120.05
 30
0.0
 11
122.8167025
 21
120.05
 31
0.0
  0
TEXT
  8
0
  6
CONTINUOUS
 62
     2
 10
93.061278267
 20
163.75
 30
0.3
 40
3.0
  1
１７
 50
0.0
 41
0.6
 51
0.0
  7
KANJI1
  0
TEXT
  8
0
  6
CONTINUOUS
 62
     2
 10
106.8
 20
163.75
 30
0.3
 40
3.0
  1
３８
 50
0.0
 41
0.6
 51
0.0
  7
KANJI1
  0
TEXT
  8
0
  6
CONTINUOUS
 62
     2
 10
119.3
 20
163.75
 30
0.3
 40
3.0
  1
１２
 50
0.0
 41
0.6
 51
0.0
  7
KANJI1
  0
CIRCLE
  8
0
  6
CONTINUOUS
 62
     2
 10
173.5
 20
116.0
 30
0.0
 40
1.25
  0
LINE
  8
0
  6
CONTINUOUS
 62
     2
 10
172.5
 20
116.0
 30
0.0
 11
174.5
 21
116.0
 31
0.0
  0
LINE
  8
0
  6
CONTINUOUS
 62
     2
 10
173.5
 20
117.0
 30
0.0
 11
173.5
 21
115.0
 31
0.0
  0
TEXT
  8
0
  6
CONTINUOUS
 62
     2
 10
167.37
 20
157.0
 30
0.3
 40
3.0
  1
３２
 50
0.0
 41
0.6
 51
0.0
  7
KANJI1
  0
TEXT
  8
0
  6
CONTINUOUS
 62
     2
 10
171.27
 20
157.0
 30
0.18
 40
1.8
  1
±０．５
 50
0.0
 41
0.6
 51
0.0
  7
KANJI2
  0
TEXT
  8
0
  6
CONTINUOUS
 62
     2
 10
183.37
 20
157.0
 30
0.3
 40
3.0
  1
３２
 50
0.0
 41
0.6
 51
0.0
  7
KANJI1
  0
TEXT
  8
0
  6
CONTINUOUS
 62
     2
 10
187.27
 20
157.0
 30
0.18
 40
1.8
  1
±０．５
 50
0.0
 41
0.6
 51
0.0
  7
KANJI2
  0
POINT
  8
0
  6
LTYPE1
 62
     2
 10
174.75
 20
117.6
 30
0.0
  0
LINE
  8
0
  6
LTYPE1
 62
     2
 10
174.75
 20
117.6
 30
0.0
 11
172.25
 21
117.6
 31
0.0
  0
LINE
  8
0
  6
LTYPE1
 62
     2
 10
174.75
 20
117.6
 30
0.0
 11
174.75
 21
114.6
 31
0.0
  0
LINE
  8
0
  6
LTYPE1
 62
     2
 10
172.25
 20
117.6
 30
0.0
 11
172.25
 21
114.6
 31
0.0
  0
POINT
  8
0
  6
LTYPE1
 62
     2
 10
187.25
 20
117.6
 30
0.0
  0
LINE
  8
0
  6
LTYPE1
 62
     2
 10
187.25
 20
117.6
 30
0.0
 11
184.75
 21
117.6
 31
0.0
  0
LINE
  8
0
  6
LTYPE1
 62
     2
 10
187.25
 20
117.6
 30
0.0
 11
187.25
 21
114.6
 31
0.0
  0
LINE
  8
0
  6
LTYPE1
 62
     2
 10
184.75
 20
117.6
 30
0.0
 11
184.75
 21
114.6
 31
0.0
  0
ARC
  8
0
  6
LTYPE1
 62
     2
 10
173.0
 20
121.5
 30
0.0
 40
3.0
 50
90.0
 51
180.0
  0
LINE
  8
0
  6
LTYPE1
 62
     2
 10
170.0
 20
116.0
 30
0.0
 11
170.0
 21
121.5
 31
0.0
  0
LINE
  8
0
  6
LTYPE1
 62
     2
 10
186.5
 20
113.0
 30
0.0
 11
173.0
 21
113.0
 31
0.0
  0
ARC
  8
0
  6
LTYPE1
 62
     2
 10
173.0
 20
116.0
 30
0.0
 40
3.0
 50
180.0
 51
270.0
  0
LINE
  8
0
  6
LTYPE1
 62
     2
 10
173.025
 20
124.5
 30
0.0
 11
186.5
 21
124.5
 31
0.0
  0
ARC
  8
0
  6
LTYPE1
 62
     2
 10
186.5
 20
121.5
 30
0.0
 40
3.0
 50
0.0
 51
90.0
  0
ARC
  8
0
  6
LTYPE1
 62
     2
 10
186.5
 20
116.0
 30
0.0
 40
3.0
 50
270.0
 51
0.0
  0
LINE
  8
0
  6
LTYPE1
 62
     2
 10
189.5
 20
121.5
 30
0.0
 11
189.5
 21
116.0
 31
0.0
  0
ARC
  8
0
  6
LTYPE1
 62
     2
 10
173.5
 20
121.0
 30
0.0
 40
1.975
 50
328.025496594
 51
217.415803658
  0
LINE
  8
0
  6
LTYPE1
 62
     2
 10
171.931362056
 20
119.8
 30
0.0
 11
172.588529527
 21
118.850758098
 31
0.0
  0
ARC
  8
0
  6
LTYPE1
 62
     2
 10
170.944145143
 20
117.71233814
 30
0.0
 40
2.0
 50
10.612929601
 51
34.695153531
  0
ARC
  8
0
  6
LTYPE1
 62
     2
 10
176.055858303
 20
117.712343118
 30
0.0
 40
2.0
 50
145.304846469
 51
169.387402194
  0
LINE
  8
0
  6
LTYPE1
 62
     2
 10
174.090068544
 20
118.080678053
 30
0.0
 11
174.000002697
 21
117.6
 31
0.0
  0
LINE
  8
0
  6
LTYPE1
 62
     2
 10
172.909932769
 20
118.080684458
 30
0.0
 11
173.000002697
 21
117.6
 31
0.0
  0
CIRCLE
  8
0
  6
CONTINUOUS
 62
     2
 10
173.5
 20
121.0
 30
0.0
 40
2.25
  0
ARC
  8
0
  6
LTYPE1
 62
     2
 10
186.0
 20
121.0
 30
0.0
 40
1.975
 50
328.025496594
 51
217.415803658
  0
LINE
  8
0
  6
LTYPE1
 62
     2
 10
187.568637944
 20
119.8
 30
0.0
 11
186.91147392
 21
118.850763076
 31
0.0
  0
LINE
  8
0
  6
LTYPE1
 62
     2
 10
184.431362056
 20
119.8
 30
0.0
 11
185.088529527
 21
118.850758098
 31
0.0
  0
ARC
  8
0
  6
LTYPE1
 62
     2
 10
183.444145143
 20
117.71233814
 30
0.0
 40
2.0
 50
10.612929601
 51
34.695153531
  0
ARC
  8
0
  6
LTYPE1
 62
     2
 10
188.555858303
 20
117.712343118
 30
0.0
 40
2.0
 50
145.304846469
 51
169.387402194
  0
LINE
  8
0
  6
LTYPE1
 62
     2
 10
186.590068544
 20
118.080678053
 30
0.0
 11
186.500002697
 21
117.6
 31
0.0
  0
LINE
  8
0
  6
LTYPE1
 62
     2
 10
185.409932769
 20
118.080684458
 30
0.0
 11
185.500002697
 21
117.6
 31
0.0
  0
CIRCLE
  8
0
  6
CONTINUOUS
 62
     2
 10
186.0
 20
121.0
 30
0.0
 40
2.25
  0
LINE
  8
0
  6
LTYPE1
 62
     2
 10
175.068637944
 20
119.8
 30
0.0
 11
174.41147392
 21
118.850763076
 31
0.0
  0
TEXT
  8
0
  6
CONTINUOUS
 62
     2
 10
202.3
 20
121.55
 30
0.3
 40
3.0
  1
１０
 50
90.0
 41
0.6
 51
0.0
  7
KANJI1
  0
LINE
  8
0
  6
CONTINUOUS
 62
     2
 10
191.75
 20
124.025
 30
0.0
 11
192.25
 21
124.025
 31
0.0
  0
LINE
  8
0
  6
CONTINUOUS
 62
     2
 10
190.267949192
 20
123.25
 30
0.0
 11
191.45
 21
123.25
 31
0.0
  0
LINE
  8
0
  6
CONTINUOUS
 62
     2
 10
191.75
 20
123.55
 30
0.0
 11
191.75
 21
124.025
 31
0.0
  0
ARC
  8
0
  6
CONTINUOUS
 62
     2
 10
191.45
 20
123.55
 30
0.0
 40
0.3
 50
270.0
 51
0.0
  0
LINE
  8
0
  6
CONTINUOUS
 62
     2
 10
192.25
 20
124.025
 30
0.0
 11
192.25
 21
123.55
 31
0.0
  0
LINE
  8
0
  6
CONTINUOUS
 62
     2
 10
192.55
 20
123.25
 30
0.0
 11
193.732050808
 21
123.25
 31
0.0
  0
ARC
  8
0
  6
CONTINUOUS
 62
     2
 10
192.55
 20
123.55
 30
0.0
 40
0.3
 50
180.0
 51
270.0
  0
LINE
  8
0
  6
CONTINUOUS
 62
     2
 10
191.75
 20
121.975
 30
0.0
 11
192.25
 21
121.975
 31
0.0
  0
LINE
  8
0
  6
CONTINUOUS
 62
     2
 10
190.267949192
 20
122.75
 30
0.0
 11
191.45
 21
122.75
 31
0.0
  0
LINE
  8
0
  6
CONTINUOUS
 62
     2
 10
191.75
 20
122.45
 30
0.0
 11
191.75
 21
121.975
 31
0.0
  0
ARC
  8
0
  6
CONTINUOUS
 62
     2
 10
191.45
 20
122.45
 30
0.0
 40
0.3
 50
0.0
 51
90.0
  0
LINE
  8
0
  6
CONTINUOUS
 62
     2
 10
192.25
 20
121.975
 30
0.0
 11
192.25
 21
122.45
 31
0.0
  0
LINE
  8
0
  6
CONTINUOUS
 62
     2
 10
192.55
 20
122.75
 30
0.0
 11
193.732050808
 21
122.75
 31
0.0
  0
ARC
  8
0
  6
CONTINUOUS
 62
     2
 10
192.55
 20
122.45
 30
0.0
 40
0.3
 50
90.0
 51
180.0
  0
LINE
  8
0
  6
CONTINUOUS
 62
     2
 10
167.25
 20
124.025
 30
0.0
 11
167.75
 21
124.025
 31
0.0
  0
LINE
  8
0
  6
CONTINUOUS
 62
     2
 10
165.767949192
 20
123.25
 30
0.0
 11
166.95
 21
123.25
 31
0.0
  0
LINE
  8
0
  6
CONTINUOUS
 62
     2
 10
167.25
 20
123.55
 30
0.0
 11
167.25
 21
124.025
 31
0.0
  0
ARC
  8
0
  6
CONTINUOUS
 62
     2
 10
166.95
 20
123.55
 30
0.0
 40
0.3
 50
270.0
 51
0.0
  0
LINE
  8
0
  6
CONTINUOUS
 62
     2
 10
167.75
 20
124.025
 30
0.0
 11
167.75
 21
123.55
 31
0.0
  0
LINE
  8
0
  6
CONTINUOUS
 62
     2
 10
168.05
 20
123.25
 30
0.0
 11
169.232050808
 21
123.25
 31
0.0
  0
ARC
  8
0
  6
CONTINUOUS
 62
     2
 10
168.05
 20
123.55
 30
0.0
 40
0.3
 50
180.0
 51
270.0
  0
LINE
  8
0
  6
CONTINUOUS
 62
     2
 10
167.25
 20
121.975
 30
0.0
 11
167.75
 21
121.975
 31
0.0
  0
LINE
  8
0
  6
CONTINUOUS
 62
     2
 10
165.767949192
 20
122.75
 30
0.0
 11
166.95
 21
122.75
 31
0.0
  0
LINE
  8
0
  6
CONTINUOUS
 62
     2
 10
167.25
 20
122.45
 30
0.0
 11
167.25
 21
121.975
 31
0.0
  0
ARC
  8
0
  6
CONTINUOUS
 62
     2
 10
166.95
 20
122.45
 30
0.0
 40
0.3
 50
0.0
 51
90.0
  0
LINE
  8
0
  6
CONTINUOUS
 62
     2
 10
167.75
 20
121.975
 30
0.0
 11
167.75
 21
122.45
 31
0.0
  0
LINE
  8
0
  6
CONTINUOUS
 62
     2
 10
168.05
 20
122.75
 30
0.0
 11
169.232050808
 21
122.75
 31
0.0
  0
ARC
  8
0
  6
CONTINUOUS
 62
     2
 10
168.05
 20
122.45
 30
0.0
 40
0.3
 50
90.0
 51
180.0
  0
CIRCLE
  8
0
  6
CONTINUOUS
 62
     2
 10
167.5
 20
126.7
 30
0.0
 40
1.5
  0
TEXT
  8
0
  6
CONTINUOUS
 62
     2
 10
166.8
 20
125.8
 30
0.2
 40
2.0
  1
Ｌ
 50
0.0
 41
0.8
 51
0.0
  7
KANJI5
  0
CIRCLE
  8
0
  6
CONTINUOUS
 62
     2
 10
192.0
 20
126.7
 30
0.0
 40
1.5
  0
TEXT
  8
0
  6
CONTINUOUS
 62
     2
 10
191.3
 20
125.8
 30
0.2
 40
2.0
  1
Ｌ
 50
0.0
 41
0.8
 51
0.0
  7
KANJI5
  0
LINE
  8
0
  6
LTYPE4
 62
     2
 10
195.413526329
 20
111.287598965
 30
0.0
 11
200.523076211
 21
114.237598965
 31
0.0
  0
ARC
  8
0
  6
LTYPE4
 62
     2
 10
191.94330127
 20
123.198205081
 30
0.0
 40
2.95
 50
30.0
 51
210.0
  0
LINE
  8
0
  6
LTYPE4
 62
     2
 10
189.388526316
 20
121.723205103
 30
0.0
 11
195.413526329
 21
111.287598965
 31
0.0
  0
LINE
  8
0
  6
LTYPE4
 62
     2
 10
200.523076211
 20
114.237598965
 30
0.0
 11
194.498076198
 21
124.673205103
 31
0.0
  0
ARC
  8
0
  6
LTYPE4
 62
     2
 10
192.44330127
 20
122.332179677
 30
0.0
 40
2.95
 50
210.0
 51
30.0
  0
LINE
  8
0
  6
LTYPE4
 62
     2
 10
159.013526329
 20
114.187598965
 30
0.0
 11
164.123076211
 21
111.237598965
 31
0.0
  0
ARC
  8
0
  6
LTYPE4
 62
     2
 10
167.59330127
 20
123.148205081
 30
0.0
 40
2.95
 50
330.0
 51
150.0
  0
LINE
  8
0
  6
LTYPE4
 62
     2
 10
165.038526342
 20
124.623205103
 30
0.0
 11
159.013526329
 21
114.187598965
 31
0.0
  0
LINE
  8
0
  6
LTYPE4
 62
     2
 10
164.123076211
 20
111.237598965
 30
0.0
 11
170.148076224
 21
121.673205103
 31
0.0
  0
ARC
  8
0
  6
LTYPE4
 62
     2
 10
167.09330127
 20
122.282179677
 30
0.0
 40
2.95
 50
150.0
 51
330.0
  0
CIRCLE
  8
0
  6
CONTINUOUS
 62
     2
 10
173.5
 20
121.0
 30
0.0
 40
0.8
  0
CIRCLE
  8
0
  6
CONTINUOUS
 62
     2
 10
186.0
 20
121.0
 30
0.0
 40
0.8
  0
TEXT
  8
0
  6
CONTINUOUS
 62
     2
 10
177.85
 20
148.5
 30
0.3
 40
3.0
  1
２５
 50
0.0
 41
0.6
 51
0.0
  7
KANJI1
  0
CIRCLE
  8
0
  6
CONTINUOUS
 62
     2
 10
195.75
 20
110.0
 30
0.0
 40
2.5
  0
CIRCLE
  8
0
  6
CONTINUOUS
 62
     2
 10
163.75
 20
110.0
 30
0.0
 40
2.5
  0
CIRCLE
  8
0
  6
CONTINUOUS
 62
     2
 10
163.75
 20
142.0
 30
0.0
 40
2.5
  0
CIRCLE
  8
0
  6
CONTINUOUS
 62
     2
 10
195.75
 20
142.0
 30
0.0
 40
2.5
  0
TEXT
  8
0
  6
CONTINUOUS
 62
     2
 10
153.4125
 20
123.3
 30
0.2
 40
3.0
  1
３
 50
90.0
 41
0.8
 51
0.0
  7
KANJI6
  0
TEXT
  8
0
  6
CONTINUOUS
 62
     2
 10
177.25
 20
102.15
 30
0.2
 40
3.0
  1
４９
 50
0.0
 41
0.8
 51
0.0
  7
KANJI6
  0
TEXT
  8
0
  6
CONTINUOUS
 62
     2
 10
177.8
 20
163.75
 30
0.3
 40
3.0
  1
８０
 50
0.0
 41
0.6
 51
0.0
  7
KANJI1
  0
TEXT
  8
0
  6
CONTINUOUS
 62
     2
 10
206.85
 20
129.62
 30
0.3
 40
3.0
  1
３２
 50
90.0
 41
0.6
 51
0.0
  7
KANJI1
  0
TEXT
  8
0
  6
CONTINUOUS
 62
     2
 10
206.85
 20
133.52
 30
0.18
 40
1.8
  1
±０．５
 50
90.0
 41
0.6
 51
0.0
  7
KANJI2
  0
TEXT
  8
0
  6
CONTINUOUS
 62
     2
 10
206.85
 20
113.62
 30
0.3
 40
3.0
  1
３２
 50
90.0
 41
0.6
 51
0.0
  7
KANJI1
  0
TEXT
  8
0
  6
CONTINUOUS
 62
     2
 10
206.85
 20
117.52
 30
0.18
 40
1.8
  1
±０．５
 50
90.0
 41
0.6
 51
0.0
  7
KANJI2
  0
TEXT
  8
0
  6
CONTINUOUS
 62
     2
 10
213.75
 20
124.05
 30
0.3
 40
3.0
  1
８０
 50
90.0
 41
0.6
 51
0.0
  7
KANJI1
  0
CIRCLE
  8
0
  6
CONTINUOUS
 62
     2
 10
39.0
 20
126.0
 30
0.0
 40
7.5
  0
CIRCLE
  8
0
  6
CONTINUOUS
 62
     2
 10
39.0
 20
126.0
 30
0.0
 40
7.0
  0
CIRCLE
  8
0
  6
CONTINUOUS
 62
     2
 10
39.0
 20
126.0
 30
0.0
 40
6.5
  0
CIRCLE
  8
0
  6
CONTINUOUS
 62
     2
 10
39.0
 20
126.0
 30
0.0
 40
6.0
  0
CIRCLE
  8
0
  6
CONTINUOUS
 62
     2
 10
39.0
 20
126.0
 30
0.0
 40
6.0
  0
CIRCLE
  8
0
  6
CONTINUOUS
 62
     2
 10
39.0
 20
126.0
 30
0.0
 40
5.5
  0
CIRCLE
  8
0
  6
CONTINUOUS
 62
     2
 10
39.0
 20
126.0
 30
0.0
 40
5.0
  0
CIRCLE
  8
0
  6
CONTINUOUS
 62
     2
 10
39.0
 20
126.0
 30
0.0
 40
4.5
  0
CIRCLE
  8
0
  6
CONTINUOUS
 62
     2
 10
39.0
 20
126.0
 30
0.0
 40
4.0
  0
CIRCLE
  8
0
  6
CONTINUOUS
 62
     2
 10
39.0
 20
126.0
 30
0.0
 40
3.5
  0
CIRCLE
  8
0
  6
CONTINUOUS
 62
     2
 10
39.0
 20
126.0
 30
0.0
 40
17.5
  0
CIRCLE
  8
0
  6
CONTINUOUS
 62
     2
 10
39.0
 20
126.0
 30
0.0
 40
17.0
  0
CIRCLE
  8
0
  6
CONTINUOUS
 62
     2
 10
39.0
 20
126.0
 30
0.0
 40
14.75
  0
LINE
  8
0
  6
CONTINUOUS
 62
     2
 10
33.329225
 20
119.65332
 30
0.0
 11
33.69336
 21
119.65332
 31
0.0
  0
ARC
  8
0
  6
CONTINUOUS
 62
     2
 10
33.69336
 20
119.80664
 30
0.0
 40
0.15332
 50
270.0
 51
0.0
  0
LINE
  8
0
  6
CONTINUOUS
 62
     2
 10
33.84668
 20
119.80664
 30
0.0
 11
33.84668
 21
120.170775
 31
0.0
  0
LINE
  8
0
  6
CONTINUOUS
 62
     2
 10
33.84668
 20
120.170775
 30
0.0
 11
34.15332
 21
120.170775
 31
0.0
  0
LINE
  8
0
  6
CONTINUOUS
 62
     2
 10
34.15332
 20
120.170775
 30
0.0
 11
34.15332
 21
119.80664
 31
0.0
  0
ARC
  8
0
  6
CONTINUOUS
 62
     2
 10
34.30664
 20
119.80664
 30
0.0
 40
0.15332
 50
180.0
 51
270.0
  0
LINE
  8
0
  6
CONTINUOUS
 62
     2
 10
34.30664
 20
119.65332
 30
0.0
 11
34.670775
 21
119.65332
 31
0.0
  0
LINE
  8
0
  6
CONTINUOUS
 62
     2
 10
34.670775
 20
119.65332
 30
0.0
 11
34.670775
 21
119.34668
 31
0.0
  0
LINE
  8
0
  6
CONTINUOUS
 62
     2
 10
34.670775
 20
119.34668
 30
0.0
 11
34.30664
 21
119.34668
 31
0.0
  0
ARC
  8
0
  6
CONTINUOUS
 62
     2
 10
34.30664
 20
119.19336
 30
0.0
 40
0.15332
 50
90.0
 51
180.0
  0
LINE
  8
0
  6
CONTINUOUS
 62
     2
 10
34.15332
 20
119.19336
 30
0.0
 11
34.15332
 21
118.829225
 31
0.0
  0
LINE
  8
0
  6
CONTINUOUS
 62
     2
 10
34.15332
 20
118.829225
 30
0.0
 11
33.84668
 21
118.829225
 31
0.0
  0
LINE
  8
0
  6
CONTINUOUS
 62
     2
 10
33.84668
 20
118.829225
 30
0.0
 11
33.84668
 21
119.19336
 31
0.0
  0
ARC
  8
0
  6
CONTINUOUS
 62
     2
 10
33.69336
 20
119.19336
 30
0.0
 40
0.15332
 50
0.0
 51
90.0
  0
LINE
  8
0
  6
CONTINUOUS
 62
     2
 10
33.69336
 20
119.34668
 30
0.0
 11
33.329225
 21
119.34668
 31
0.0
  0
LINE
  8
0
  6
CONTINUOUS
 62
     2
 10
33.329225
 20
119.34668
 30
0.0
 11
33.329225
 21
119.65332
 31
0.0
  0
LINE
  8
0
  6
CONTINUOUS
 62
     2
 10
43.329225
 20
119.65332
 30
0.0
 11
43.69336
 21
119.65332
 31
0.0
  0
ARC
  8
0
  6
CONTINUOUS
 62
     2
 10
43.69336
 20
119.80664
 30
0.0
 40
0.15332
 50
270.0
 51
0.0
  0
LINE
  8
0
  6
CONTINUOUS
 62
     2
 10
43.84668
 20
119.80664
 30
0.0
 11
43.84668
 21
120.170775
 31
0.0
  0
LINE
  8
0
  6
CONTINUOUS
 62
     2
 10
43.84668
 20
120.170775
 30
0.0
 11
44.15332
 21
120.170775
 31
0.0
  0
LINE
  8
0
  6
CONTINUOUS
 62
     2
 10
44.15332
 20
120.170775
 30
0.0
 11
44.15332
 21
119.80664
 31
0.0
  0
ARC
  8
0
  6
CONTINUOUS
 62
     2
 10
44.30664
 20
119.80664
 30
0.0
 40
0.15332
 50
180.0
 51
270.0
  0
LINE
  8
0
  6
CONTINUOUS
 62
     2
 10
44.30664
 20
119.65332
 30
0.0
 11
44.670775
 21
119.65332
 31
0.0
  0
LINE
  8
0
  6
CONTINUOUS
 62
     2
 10
44.670775
 20
119.65332
 30
0.0
 11
44.670775
 21
119.34668
 31
0.0
  0
LINE
  8
0
  6
CONTINUOUS
 62
     2
 10
44.670775
 20
119.34668
 30
0.0
 11
44.30664
 21
119.34668
 31
0.0
  0
ARC
  8
0
  6
CONTINUOUS
 62
     2
 10
44.30664
 20
119.19336
 30
0.0
 40
0.15332
 50
90.0
 51
180.0
  0
LINE
  8
0
  6
CONTINUOUS
 62
     2
 10
44.15332
 20
119.19336
 30
0.0
 11
44.15332
 21
118.829225
 31
0.0
  0
LINE
  8
0
  6
CONTINUOUS
 62
     2
 10
44.15332
 20
118.829225
 30
0.0
 11
43.84668
 21
118.829225
 31
0.0
  0
LINE
  8
0
  6
CONTINUOUS
 62
     2
 10
43.84668
 20
118.829225
 30
0.0
 11
43.84668
 21
119.19336
 31
0.0
  0
ARC
  8
0
  6
CONTINUOUS
 62
     2
 10
43.69336
 20
119.19336
 30
0.0
 40
0.15332
 50
0.0
 51
90.0
  0
LINE
  8
0
  6
CONTINUOUS
 62
     2
 10
43.69336
 20
119.34668
 30
0.0
 11
43.329225
 21
119.34668
 31
0.0
  0
LINE
  8
0
  6
CONTINUOUS
 62
     2
 10
43.329225
 20
119.34668
 30
0.0
 11
43.329225
 21
119.65332
 31
0.0
  0
ARC
  8
0
  6
CONTINUOUS
 62
     2
 10
44.0
 20
119.5
 30
0.0
 40
1.1499
 50
176.772955224
 51
0.0
  0
ARC
  8
0
  6
CONTINUOUS
 62
     2
 10
44.0
 20
119.5
 30
0.0
 40
1.1499
 50
0.0
 51
78.364228834
  0
ARC
  8
0
  6
CONTINUOUS
 62
     2
 10
34.0
 20
119.5
 30
0.0
 40
1.1499
 50
101.635771167
 51
0.0
  0
ARC
  8
0
  6
CONTINUOUS
 62
     2
 10
34.0
 20
119.5
 30
0.0
 40
1.1499
 50
0.0
 51
5.706808691
  0
TEXT
  8
0
  6
CONTINUOUS
 62
     2
 10
17.7
 20
156.05
 30
0.2
 40
3.0
  1
ＥＬ板　発光部
 50
0.0
 41
0.8
 51
0.0
  7
KANJI6
  0
LINE
  8
0
  6
CONTINUOUS
 62
     2
 10
22.3
 20
142.16
 30
0.0
 11
22.68
 21
142.16
 31
0.0
  0
ARC
  8
0
  6
CONTINUOUS
 62
     2
 10
22.68
 20
142.32
 30
0.0
 40
0.16
 50
270.0
 51
0.0
  0
LINE
  8
0
  6
CONTINUOUS
 62
     2
 10
22.84
 20
142.32
 30
0.0
 11
22.84
 21
142.7
 31
0.0
  0
LINE
  8
0
  6
CONTINUOUS
 62
     2
 10
22.84
 20
142.7
 30
0.0
 11
23.16
 21
142.7
 31
0.0
  0
LINE
  8
0
  6
CONTINUOUS
 62
     2
 10
23.16
 20
142.7
 30
0.0
 11
23.16
 21
142.32
 31
0.0
  0
ARC
  8
0
  6
CONTINUOUS
 62
     2
 10
23.32
 20
142.32
 30
0.0
 40
0.16
 50
180.0
 51
270.0
  0
LINE
  8
0
  6
CONTINUOUS
 62
     2
 10
23.32
 20
142.16
 30
0.0
 11
23.7
 21
142.16
 31
0.0
  0
LINE
  8
0
  6
CONTINUOUS
 62
     2
 10
23.7
 20
142.16
 30
0.0
 11
23.7
 21
141.84
 31
0.0
  0
LINE
  8
0
  6
CONTINUOUS
 62
     2
 10
23.7
 20
141.84
 30
0.0
 11
23.32
 21
141.84
 31
0.0
  0
ARC
  8
0
  6
CONTINUOUS
 62
     2
 10
23.32
 20
141.68
 30
0.0
 40
0.16
 50
90.0
 51
180.0
  0
LINE
  8
0
  6
CONTINUOUS
 62
     2
 10
23.16
 20
141.68
 30
0.0
 11
23.16
 21
141.3
 31
0.0
  0
LINE
  8
0
  6
CONTINUOUS
 62
     2
 10
23.16
 20
141.3
 30
0.0
 11
22.84
 21
141.3
 31
0.0
  0
LINE
  8
0
  6
CONTINUOUS
 62
     2
 10
22.84
 20
141.3
 30
0.0
 11
22.84
 21
141.68
 31
0.0
  0
ARC
  8
0
  6
CONTINUOUS
 62
     2
 10
22.68
 20
141.68
 30
0.0
 40
0.16
 50
0.0
 51
90.0
  0
LINE
  8
0
  6
CONTINUOUS
 62
     2
 10
22.68
 20
141.84
 30
0.0
 11
22.3
 21
141.84
 31
0.0
  0
LINE
  8
0
  6
CONTINUOUS
 62
     2
 10
22.3
 20
141.84
 30
0.0
 11
22.3
 21
142.16
 31
0.0
  0
LINE
  8
0
  6
CONTINUOUS
 62
     2
 10
54.3
 20
142.16
 30
0.0
 11
54.68
 21
142.16
 31
0.0
  0
ARC
  8
0
  6
CONTINUOUS
 62
     2
 10
54.68
 20
142.32
 30
0.0
 40
0.16
 50
270.0
 51
0.0
  0
LINE
  8
0
  6
CONTINUOUS
 62
     2
 10
54.84
 20
142.32
 30
0.0
 11
54.84
 21
142.7
 31
0.0
  0
LINE
  8
0
  6
CONTINUOUS
 62
     2
 10
54.84
 20
142.7
 30
0.0
 11
55.16
 21
142.7
 31
0.0
  0
LINE
  8
0
  6
CONTINUOUS
 62
     2
 10
55.16
 20
142.7
 30
0.0
 11
55.16
 21
142.32
 31
0.0
  0
ARC
  8
0
  6
CONTINUOUS
 62
     2
 10
55.32
 20
142.32
 30
0.0
 40
0.16
 50
180.0
 51
270.0
  0
LINE
  8
0
  6
CONTINUOUS
 62
     2
 10
55.32
 20
142.16
 30
0.0
 11
55.7
 21
142.16
 31
0.0
  0
LINE
  8
0
  6
CONTINUOUS
 62
     2
 10
55.7
 20
142.16
 30
0.0
 11
55.7
 21
141.84
 31
0.0
  0
LINE
  8
0
  6
CONTINUOUS
 62
     2
 10
55.7
 20
141.84
 30
0.0
 11
55.32
 21
141.84
 31
0.0
  0
ARC
  8
0
  6
CONTINUOUS
 62
     2
 10
55.32
 20
141.68
 30
0.0
 40
0.16
 50
90.0
 51
180.0
  0
LINE
  8
0
  6
CONTINUOUS
 62
     2
 10
55.16
 20
141.68
 30
0.0
 11
55.16
 21
141.3
 31
0.0
  0
LINE
  8
0
  6
CONTINUOUS
 62
     2
 10
55.16
 20
141.3
 30
0.0
 11
54.84
 21
141.3
 31
0.0
  0
LINE
  8
0
  6
CONTINUOUS
 62
     2
 10
54.84
 20
141.3
 30
0.0
 11
54.84
 21
141.68
 31
0.0
  0
ARC
  8
0
  6
CONTINUOUS
 62
     2
 10
54.68
 20
141.68
 30
0.0
 40
0.16
 50
0.0
 51
90.0
  0
LINE
  8
0
  6
CONTINUOUS
 62
     2
 10
54.68
 20
141.84
 30
0.0
 11
54.3
 21
141.84
 31
0.0
  0
LINE
  8
0
  6
CONTINUOUS
 62
     2
 10
54.3
 20
141.84
 30
0.0
 11
54.3
 21
142.16
 31
0.0
  0
LINE
  8
0
  6
CONTINUOUS
 62
     2
 10
54.3
 20
110.16
 30
0.0
 11
54.68
 21
110.16
 31
0.0
  0
ARC
  8
0
  6
CONTINUOUS
 62
     2
 10
54.68
 20
110.32
 30
0.0
 40
0.16
 50
270.0
 51
0.0
  0
LINE
  8
0
  6
CONTINUOUS
 62
     2
 10
54.84
 20
110.32
 30
0.0
 11
54.84
 21
110.7
 31
0.0
  0
LINE
  8
0
  6
CONTINUOUS
 62
     2
 10
54.84
 20
110.7
 30
0.0
 11
55.16
 21
110.7
 31
0.0
  0
LINE
  8
0
  6
CONTINUOUS
 62
     2
 10
55.16
 20
110.7
 30
0.0
 11
55.16
 21
110.32
 31
0.0
  0
ARC
  8
0
  6
CONTINUOUS
 62
     2
 10
55.32
 20
110.32
 30
0.0
 40
0.16
 50
180.0
 51
270.0
  0
LINE
  8
0
  6
CONTINUOUS
 62
     2
 10
55.32
 20
110.16
 30
0.0
 11
55.7
 21
110.16
 31
0.0
  0
LINE
  8
0
  6
CONTINUOUS
 62
     2
 10
55.7
 20
110.16
 30
0.0
 11
55.7
 21
109.84
 31
0.0
  0
LINE
  8
0
  6
CONTINUOUS
 62
     2
 10
55.7
 20
109.84
 30
0.0
 11
55.32
 21
109.84
 31
0.0
  0
ARC
  8
0
  6
CONTINUOUS
 62
     2
 10
55.32
 20
109.68
 30
0.0
 40
0.16
 50
90.0
 51
180.0
  0
LINE
  8
0
  6
CONTINUOUS
 62
     2
 10
55.16
 20
109.68
 30
0.0
 11
55.16
 21
109.3
 31
0.0
  0
LINE
  8
0
  6
CONTINUOUS
 62
     2
 10
55.16
 20
109.3
 30
0.0
 11
54.84
 21
109.3
 31
0.0
  0
LINE
  8
0
  6
CONTINUOUS
 62
     2
 10
54.84
 20
109.3
 30
0.0
 11
54.84
 21
109.68
 31
0.0
  0
ARC
  8
0
  6
CONTINUOUS
 62
     2
 10
54.68
 20
109.68
 30
0.0
 40
0.16
 50
0.0
 51
90.0
  0
LINE
  8
0
  6
CONTINUOUS
 62
     2
 10
54.68
 20
109.84
 30
0.0
 11
54.3
 21
109.84
 31
0.0
  0
LINE
  8
0
  6
CONTINUOUS
 62
     2
 10
54.3
 20
109.84
 30
0.0
 11
54.3
 21
110.16
 31
0.0
  0
LINE
  8
0
  6
CONTINUOUS
 62
     2
 10
22.3
 20
110.16
 30
0.0
 11
22.68
 21
110.16
 31
0.0
  0
ARC
  8
0
  6
CONTINUOUS
 62
     2
 10
22.68
 20
110.32
 30
0.0
 40
0.16
 50
270.0
 51
0.0
  0
LINE
  8
0
  6
CONTINUOUS
 62
     2
 10
22.84
 20
110.32
 30
0.0
 11
22.84
 21
110.7
 31
0.0
  0
LINE
  8
0
  6
CONTINUOUS
 62
     2
 10
22.84
 20
110.7
 30
0.0
 11
23.16
 21
110.7
 31
0.0
  0
LINE
  8
0
  6
CONTINUOUS
 62
     2
 10
23.16
 20
110.7
 30
0.0
 11
23.16
 21
110.32
 31
0.0
  0
ARC
  8
0
  6
CONTINUOUS
 62
     2
 10
23.32
 20
110.32
 30
0.0
 40
0.16
 50
180.0
 51
270.0
  0
LINE
  8
0
  6
CONTINUOUS
 62
     2
 10
23.32
 20
110.16
 30
0.0
 11
23.7
 21
110.16
 31
0.0
  0
LINE
  8
0
  6
CONTINUOUS
 62
     2
 10
23.7
 20
110.16
 30
0.0
 11
23.7
 21
109.84
 31
0.0
  0
LINE
  8
0
  6
CONTINUOUS
 62
     2
 10
23.7
 20
109.84
 30
0.0
 11
23.32
 21
109.84
 31
0.0
  0
ARC
  8
0
  6
CONTINUOUS
 62
     2
 10
23.32
 20
109.68
 30
0.0
 40
0.16
 50
90.0
 51
180.0
  0
LINE
  8
0
  6
CONTINUOUS
 62
     2
 10
23.16
 20
109.68
 30
0.0
 11
23.16
 21
109.3
 31
0.0
  0
LINE
  8
0
  6
CONTINUOUS
 62
     2
 10
23.16
 20
109.3
 30
0.0
 11
22.84
 21
109.3
 31
0.0
  0
LINE
  8
0
  6
CONTINUOUS
 62
     2
 10
22.84
 20
109.3
 30
0.0
 11
22.84
 21
109.68
 31
0.0
  0
ARC
  8
0
  6
CONTINUOUS
 62
     2
 10
22.68
 20
109.68
 30
0.0
 40
0.16
 50
0.0
 51
90.0
  0
LINE
  8
0
  6
CONTINUOUS
 62
     2
 10
22.68
 20
109.84
 30
0.0
 11
22.3
 21
109.84
 31
0.0
  0
LINE
  8
0
  6
CONTINUOUS
 62
     2
 10
22.3
 20
109.84
 30
0.0
 11
22.3
 21
110.16
 31
0.0
  0
CIRCLE
  8
0
  6
CONTINUOUS
 62
     2
 10
39.0
 20
126.0
 30
0.0
 40
2.4
  0
TEXT
  8
0
  6
CONTINUOUS
 62
     2
 10
81.25
 20
94.35
 30
0.2
 40
3.0
  1
Ｍ４取付ボルト
 50
0.0
 41
0.8
 51
0.0
  7
KANJI6
  0
TEXT
  8
0
  6
CONTINUOUS
 62
     2
 10
128.5
 20
135.5
 30
0.2
 40
3.0
  1
（ＥＬ板電源端子）
 50
0.0
 41
0.8
 51
0.0
  7
KANJI6
  0
TEXT
  8
0
  6
CONTINUOUS
 62
     2
 10
127.375
 20
140.5
 30
0.2
 40
3.0
  1
Ｍ４ターミナルネジ
 50
0.0
 41
0.8
 51
0.0
  7
KANJI6
  0
TEXT
  8
0
  6
CONTINUOUS
 62
     2
 10
129.65
 20
94.35
 30
0.2
 40
3.0
  1
Ｍ４ターミナルネジ（計器入力端子）
 50
0.0
 41
0.8
 51
0.0
  7
KANJI6
  0
LINE
  8
0
  6
CONTINUOUS
 62
     2
 10
122.0434435
 20
121.24997
 30
0.0
 11
121.5767885
 21
121.24997
 31
0.0
  0
LINE
  8
0
  6
CONTINUOUS
 62
     2
 10
121.5767885
 20
121.24997
 30
0.0
 11
121.633517996
 21
121.5
 31
0.0
  0
LINE
  8
0
  6
CONTINUOUS
 62
     2
 10
122.101783833
 20
121.5
 30
0.0
 11
122.0434435
 21
121.24997
 31
0.0
  0
LINE
  8
0
  6
CONTINUOUS
 62
     2
 10
122.35
 20
124.5
 30
0.0
 11
122.35
 21
121.5
 31
0.0
  0
LINE
  8
0
  6
CONTINUOUS
 62
     2
 10
122.35
 20
122.711324865
 30
0.0
 11
122.85
 21
123.0
 31
0.0
  0
LINE
  8
0
  6
CONTINUOUS
 62
     2
 10
122.35
 20
123.0
 30
0.0
 11
122.85
 21
123.288675135
 31
0.0
  0
LINE
  8
0
  6
CONTINUOUS
 62
     2
 10
122.35
 20
124.5
 30
0.0
 11
122.35
 21
124.75
 31
0.0
  0
LINE
  8
0
  6
CONTINUOUS
 62
     2
 10
122.35
 20
124.75
 30
0.0
 11
122.85
 21
124.75
 31
0.0
  0
LINE
  8
0
  6
CONTINUOUS
 62
     2
 10
122.85
 20
121.25
 30
0.0
 11
122.35
 21
121.25
 31
0.0
  0
LINE
  8
0
  6
CONTINUOUS
 62
     2
 10
122.35
 20
121.25
 30
0.0
 11
122.35
 21
121.5
 31
0.0
  0
TEXT
  8
0
  6
CONTINUOUS
 62
     2
 10
13.05
 20
94.45
 30
3.0
 40
3.0
  1
指針
 50
0.0
 41
0.833333333
 51
0.0
  7
KANJI7
  0
ARC
  8
0
  6
CONTINUOUS
 62
     2
 10
95.45834
 20
111.20814
 30
0.0
 40
0.04166
 50
0.0
 51
90.0
  0
LINE
  8
0
  6
CONTINUOUS
 62
     2
 10
95.5
 20
108.79186
 30
0.0
 11
95.5
 21
111.20814
 31
0.0
  0
ARC
  8
0
  6
CONTINUOUS
 62
     2
 10
95.45834
 20
108.79186
 30
0.0
 40
0.04166
 50
270.0
 51
0.0
  0
LINE
  8
0
  6
CONTINUOUS
 62
     2
 10
95.0834
 20
108.7502
 30
0.0
 11
95.45834
 21
108.7502
 31
0.0
  0
ARC
  8
0
  6
CONTINUOUS
 62
     2
 10
95.0834
 20
108.83352
 30
0.0
 40
0.08332
 50
180.0
 51
270.0
  0
LINE
  8
0
  6
CONTINUOUS
 62
     2
 10
95.45834
 20
111.2498
 30
0.0
 11
95.0834
 21
111.2498
 31
0.0
  0
ARC
  8
0
  6
CONTINUOUS
 62
     2
 10
95.0834
 20
111.16648
 30
0.0
 40
0.08332
 50
90.0
 51
180.0
  0
LINE
  8
0
  6
CONTINUOUS
 62
     2
 10
94.70846
 20
109.89585
 30
0.0
 11
94.79178
 21
109.89585
 31
0.0
  0
LINE
  8
0
  6
CONTINUOUS
 62
     2
 10
94.79178
 20
109.89585
 30
0.0
 11
94.79178
 21
110.10415
 31
0.0
  0
LINE
  8
0
  6
CONTINUOUS
 62
     2
 10
94.79178
 20
110.10415
 30
0.0
 11
94.70846
 21
110.10415
 31
0.0
  0
ARC
  8
0
  6
CONTINUOUS
 62
     2
 10
97.20806
 20
110.0
 30
0.0
 40
2.4996
 50
151.294758009
 51
177.611984537
  0
ARC
  8
0
  6
CONTINUOUS
 62
     2
 10
97.20806
 20
110.0
 30
0.0
 40
2.4996
 50
182.388015463
 51
208.942689997
  0
LINE
  8
0
  6
CONTINUOUS
 62
     2
 10
95.04174
 20
108.770336245
 30
0.0
 11
95.04174
 21
111.217861245
 31
0.0
  0
ARC
  8
0
  6
CONTINUOUS
 62
     2
 10
95.45834
 20
143.20814
 30
0.0
 40
0.04166
 50
0.0
 51
90.0
  0
LINE
  8
0
  6
CONTINUOUS
 62
     2
 10
95.5
 20
140.79186
 30
0.0
 11
95.5
 21
143.20814
 31
0.0
  0
ARC
  8
0
  6
CONTINUOUS
 62
     2
 10
95.45834
 20
140.79186
 30
0.0
 40
0.04166
 50
270.0
 51
0.0
  0
LINE
  8
0
  6
CONTINUOUS
 62
     2
 10
95.0834
 20
140.7502
 30
0.0
 11
95.45834
 21
140.7502
 31
0.0
  0
ARC
  8
0
  6
CONTINUOUS
 62
     2
 10
95.0834
 20
140.83352
 30
0.0
 40
0.08332
 50
180.0
 51
270.0
  0
LINE
  8
0
  6
CONTINUOUS
 62
     2
 10
95.45834
 20
143.2498
 30
0.0
 11
95.0834
 21
143.2498
 31
0.0
  0
ARC
  8
0
  6
CONTINUOUS
 62
     2
 10
95.0834
 20
143.16648
 30
0.0
 40
0.08332
 50
90.0
 51
180.0
  0
LINE
  8
0
  6
CONTINUOUS
 62
     2
 10
94.70846
 20
141.89585
 30
0.0
 11
94.79178
 21
141.89585
 31
0.0
  0
LINE
  8
0
  6
CONTINUOUS
 62
     2
 10
94.79178
 20
141.89585
 30
0.0
 11
94.79178
 21
142.10415
 31
0.0
  0
LINE
  8
0
  6
CONTINUOUS
 62
     2
 10
94.79178
 20
142.10415
 30
0.0
 11
94.70846
 21
142.10415
 31
0.0
  0
ARC
  8
0
  6
CONTINUOUS
 62
     2
 10
97.20806
 20
142.0
 30
0.0
 40
2.4996
 50
151.294758009
 51
177.611984537
  0
ARC
  8
0
  6
CONTINUOUS
 62
     2
 10
97.20806
 20
142.0
 30
0.0
 40
2.4996
 50
182.388015463
 51
208.942689997
  0
LINE
  8
0
  6
CONTINUOUS
 62
     2
 10
95.04174
 20
140.770336245
 30
0.0
 11
95.04174
 21
143.217861245
 31
0.0
  0
LINE
  8
0
  6
CONTINUOUS
 62
     2
 10
99.0
 20
144.5
 30
0.0
 11
99.25
 21
144.5
 31
0.0
  0
LINE
  8
0
  6
CONTINUOUS
 62
     2
 10
99.25
 20
144.5
 30
0.0
 11
99.25
 21
139.5
 31
0.0
  0
LINE
  8
0
  6
CONTINUOUS
 62
     2
 10
99.25
 20
139.5
 30
0.0
 11
99.0
 21
139.5
 31
0.0
  0
LINE
  8
0
  6
CONTINUOUS
 62
     2
 10
105.3167025
 20
143.00664
 30
0.0
 11
105.5833625
 21
143.2733
 31
0.0
  0
LINE
  8
0
  6
CONTINUOUS
 62
     2
 10
105.5833625
 20
142.73998
 30
0.0
 11
105.3167025
 21
143.00664
 31
0.0
  0
LINE
  8
0
  6
CONTINUOUS
 62
     2
 10
104.016735
 20
143.00664
 30
0.0
 11
105.3167025
 21
143.00664
 31
0.0
  0
LINE
  8
0
  6
CONTINUOUS
 62
     2
 10
105.3167025
 20
141.00669
 30
0.0
 11
105.5833625
 21
141.27335
 31
0.0
  0
LINE
  8
0
  6
CONTINUOUS
 62
     2
 10
105.5833625
 20
140.74003
 30
0.0
 11
105.3167025
 21
141.00669
 31
0.0
  0
LINE
  8
0
  6
CONTINUOUS
 62
     2
 10
104.016735
 20
141.00669
 30
0.0
 11
105.3167025
 21
141.00669
 31
0.0
  0
LINE
  8
0
  6
CONTINUOUS
 62
     2
 10
103.516735
 20
141.00669
 30
0.0
 11
99.25
 21
141.00669
 31
0.0
  0
LINE
  8
0
  6
CONTINUOUS
 62
     2
 10
99.25
 20
143.00664
 30
0.0
 11
103.516735
 21
143.00664
 31
0.0
  0
LINE
  8
0
  6
CONTINUOUS
 62
     2
 10
105.616695
 20
143.0399725
 30
0.0
 11
106.75
 21
143.0399725
 31
0.0
  0
LINE
  8
0
  6
CONTINUOUS
 62
     2
 10
105.616735
 20
141.00669
 30
0.0
 11
106.746735
 21
141.00669
 31
0.0
  0
LINE
  8
0
  6
CONTINUOUS
 62
     2
 10
106.75
 20
141.2266845
 30
0.0
 11
106.75
 21
141.0266895
 31
0.0
  0
LINE
  8
0
  6
CONTINUOUS
 62
     2
 10
106.75
 20
143.0399725
 30
0.0
 11
106.75
 21
141.2266845
 31
0.0
  0
POINT
  8
0
  6
CONTINUOUS
 62
     2
 10
99.0
 20
107.5
 30
0.0
  0
LINE
  8
0
  6
CONTINUOUS
 62
     2
 10
99.0
 20
107.5
 30
0.0
 11
99.25
 21
107.5
 31
0.0
  0
LINE
  8
0
  6
CONTINUOUS
 62
     2
 10
99.25
 20
107.5
 30
0.0
 11
99.25
 21
112.5
 31
0.0
  0
LINE
  8
0
  6
CONTINUOUS
 62
     2
 10
99.25
 20
112.5
 30
0.0
 11
99.0
 21
112.5
 31
0.0
  0
LINE
  8
0
  6
CONTINUOUS
 62
     2
 10
105.3167025
 20
111.00664
 30
0.0
 11
105.5833625
 21
111.2733
 31
0.0
  0
LINE
  8
0
  6
CONTINUOUS
 62
     2
 10
104.016735
 20
111.00664
 30
0.0
 11
105.3167025
 21
111.00664
 31
0.0
  0
LINE
  8
0
  6
CONTINUOUS
 62
     2
 10
99.25
 20
111.00664
 30
0.0
 11
103.516735
 21
111.00664
 31
0.0
  0
LINE
  8
0
  6
CONTINUOUS
 62
     2
 10
105.5833625
 20
110.73998
 30
0.0
 11
105.3167025
 21
111.00664
 31
0.0
  0
LINE
  8
0
  6
CONTINUOUS
 62
     2
 10
105.616695
 20
111.0399725
 30
0.0
 11
106.75
 21
111.0399725
 31
0.0
  0
LINE
  8
0
  6
CONTINUOUS
 62
     2
 10
106.75
 20
111.0399725
 30
0.0
 11
106.75
 21
109.2266845
 31
0.0
  0
LINE
  8
0
  6
CONTINUOUS
 62
     2
 10
105.616735
 20
109.00669
 30
0.0
 11
106.746735
 21
109.00669
 31
0.0
  0
LINE
  8
0
  6
CONTINUOUS
 62
     2
 10
105.3167025
 20
109.00669
 30
0.0
 11
105.5833625
 21
109.27335
 31
0.0
  0
LINE
  8
0
  6
CONTINUOUS
 62
     2
 10
105.5833625
 20
108.74003
 30
0.0
 11
105.3167025
 21
109.00669
 31
0.0
  0
LINE
  8
0
  6
CONTINUOUS
 62
     2
 10
104.016735
 20
109.00669
 30
0.0
 11
105.3167025
 21
109.00669
 31
0.0
  0
LINE
  8
0
  6
CONTINUOUS
 62
     2
 10
106.75
 20
109.2866845
 30
0.0
 11
106.75
 21
109.0866895
 31
0.0
  0
LINE
  8
0
  6
CONTINUOUS
 62
     2
 10
106.75
 20
109.2266845
 30
0.0
 11
106.75
 21
109.0266895
 31
0.0
  0
LINE
  8
0
  6
CONTINUOUS
 62
     2
 10
103.516735
 20
109.00669
 30
0.0
 11
99.25
 21
109.00669
 31
0.0
  0
LINE
  8
0
  6
CONTINUOUS
 62
     2
 10
124.25
 20
120.2699945
 30
0.0
 11
124.25
 21
120.0699995
 31
0.0
  0
LINE
  8
0
  6
CONTINUOUS
 62
     2
 10
123.116735
 20
120.05
 30
0.0
 11
124.246735
 21
120.05
 31
0.0
  0
LINE
  8
0
  6
CONTINUOUS
 62
     2
 10
124.25
 20
122.0832825
 30
0.0
 11
124.25
 21
120.2699945
 31
0.0
  0
LINE
  8
0
  6
CONTINUOUS
 62
     2
 10
124.055636052
 20
122.0832825
 30
0.0
 11
124.25
 21
122.0832825
 31
0.0
  0
LINE
  8
0
  6
CONTINUOUS
 62
     2
 10
119.6
 20
120.05
 30
0.0
 11
118.75
 21
120.05
 31
0.0
  0
LINE
  8
0
  6
CONTINUOUS
 62
     2
 10
120.655296434
 20
120.05
 30
0.0
 11
120.010106
 21
120.05
 31
0.0
  0
LINE
  8
0
  6
CONTINUOUS
 62
     2
 10
121.516735
 20
120.05
 30
0.0
 11
121.110106
 21
120.05
 31
0.0
  0
CIRCLE
  8
0
  6
CONTINUOUS
 62
     2
 10
195.75
 20
110.0
 30
0.0
 40
1.0
  0
CIRCLE
  8
0
  6
CONTINUOUS
 62
     2
 10
195.75
 20
142.0
 30
0.0
 40
1.0
  0
CIRCLE
  8
0
  6
CONTINUOUS
 62
     2
 10
163.75
 20
142.0
 30
0.0
 40
1.0
  0
CIRCLE
  8
0
  6
CONTINUOUS
 62
     2
 10
163.75
 20
110.0
 30
0.0
 40
1.0
  0
CIRCLE
  8
0
  6
CONTINUOUS
 62
     2
 10
55.0
 20
142.0
 30
0.0
 40
1.2
  0
CIRCLE
  8
0
  6
CONTINUOUS
 62
     2
 10
23.0
 20
142.0
 30
0.0
 40
1.2
  0
CIRCLE
  8
0
  6
CONTINUOUS
 62
     2
 10
55.0
 20
110.0
 30
0.0
 40
1.2
  0
CIRCLE
  8
0
  6
CONTINUOUS
 62
     2
 10
23.0
 20
110.0
 30
0.0
 40
1.2
  0
LINE
  8
0
  6
CONTINUOUS
 62
     2
 10
26.572726737
 20
120.094461985
 30
0.0
 11
32.001107291
 21
123.202143526
 31
0.0
  0
LINE
  8
0
  6
CONTINUOUS
 62
     2
 10
32.693730211
 20
121.871627276
 30
0.0
 11
27.03447535
 21
119.207451151
 31
0.0
  0
LINE
  8
0
  6
CONTINUOUS
 62
     2
 10
26.138342919
 20
119.304645108
 30
0.0
 11
27.03447535
 21
119.207451151
 31
0.0
  0
LINE
  8
0
  6
CONTINUOUS
 62
     2
 10
26.138342919
 20
119.304645108
 30
0.0
 11
26.572726737
 21
120.094461985
 31
0.0
  0
LINE
  8
0
  6
CONTINUOUS
 62
     2
 10
92.0
 20
123.1
 30
0.0
 11
92.0
 21
128.9
 31
0.0
  0
LINE
  8
0
  6
CONTINUOUS
 62
     2
 10
92.35
 20
123.75
 30
0.0
 11
92.05
 21
123.75
 31
0.0
  0
LINE
  8
0
  6
CONTINUOUS
 62
     2
 10
92.35
 20
128.3
 30
0.0
 11
92.05
 21
128.3
 31
0.0
  0
LINE
  8
0
  6
CONTINUOUS
 62
     5
 10
163.75
 20
75.5
 30
0.0
 11
163.75
 21
83.0
 31
0.0
  0
LINE
  8
0
  6
CONTINUOUS
 62
     5
 10
163.75
 20
81.0
 30
0.0
 11
166.164814566
 21
80.352952387
 31
0.0
  0
LINE
  8
0
  6
CONTINUOUS
 62
     5
 10
163.75
 20
81.0
 30
0.0
 11
166.164814566
 21
81.647047613
 31
0.0
  0
LINE
  8
0
  6
CONTINUOUS
 62
     5
 10
179.75
 20
81.0
 30
0.0
 11
177.335185434
 21
81.647047613
 31
0.0
  0
LINE
  8
0
  6
CONTINUOUS
 62
     5
 10
179.75
 20
81.0
 30
0.0
 11
177.335185434
 21
80.352952387
 31
0.0
  0
LINE
  8
0
  6
CONTINUOUS
 62
     5
 10
163.75
 20
81.0
 30
0.0
 11
179.75
 21
81.0
 31
0.0
  0
LINE
  8
0
  6
CONTINUOUS
 62
     5
 10
179.75
 20
81.0
 30
0.0
 11
182.164814566
 21
80.352952387
 31
0.0
  0
LINE
  8
0
  6
CONTINUOUS
 62
     5
 10
179.75
 20
81.0
 30
0.0
 11
182.164814566
 21
81.647047613
 31
0.0
  0
LINE
  8
0
  6
CONTINUOUS
 62
     5
 10
195.75
 20
81.0
 30
0.0
 11
193.335185434
 21
81.647047613
 31
0.0
  0
LINE
  8
0
  6
CONTINUOUS
 62
     5
 10
195.75
 20
81.0
 30
0.0
 11
193.335185434
 21
80.352952387
 31
0.0
  0
LINE
  8
0
  6
CONTINUOUS
 62
     5
 10
179.75
 20
81.0
 30
0.0
 11
195.75
 21
81.0
 31
0.0
  0
LINE
  8
0
  6
CONTINUOUS
 62
     5
 10
205.75
 20
71.0
 30
0.0
 11
205.102952387
 21
68.585185434
 31
0.0
  0
LINE
  8
0
  6
CONTINUOUS
 62
     5
 10
205.75
 20
71.0
 30
0.0
 11
206.397047613
 21
68.585185434
 31
0.0
  0
LINE
  8
0
  6
CONTINUOUS
 62
     5
 10
205.75
 20
55.0
 30
0.0
 11
206.397047613
 21
57.414814566
 31
0.0
  0
LINE
  8
0
  6
CONTINUOUS
 62
     5
 10
205.75
 20
55.0
 30
0.0
 11
205.102952387
 21
57.414814566
 31
0.0
  0
LINE
  8
0
  6
CONTINUOUS
 62
     5
 10
205.75
 20
71.0
 30
0.0
 11
205.75
 21
55.0
 31
0.0
  0
LINE
  8
0
  6
CONTINUOUS
 62
     5
 10
205.75
 20
55.0
 30
0.0
 11
205.102952387
 21
52.585185434
 31
0.0
  0
LINE
  8
0
  6
CONTINUOUS
 62
     5
 10
205.75
 20
55.0
 30
0.0
 11
206.397047613
 21
52.585185434
 31
0.0
  0
LINE
  8
0
  6
CONTINUOUS
 62
     5
 10
205.75
 20
39.0
 30
0.0
 11
205.102952387
 21
41.414814566
 31
0.0
  0
LINE
  8
0
  6
CONTINUOUS
 62
     5
 10
205.75
 20
55.0
 30
0.0
 11
205.75
 21
39.0
 31
0.0
  0
LINE
  8
0
  6
CONTINUOUS
 62
     5
 10
200.75
 20
39.0
 30
0.0
 11
207.75
 21
39.0
 31
0.0
  0
LINE
  8
0
  6
CONTINUOUS
 62
     5
 10
205.75
 20
39.0
 30
0.0
 11
206.397047613
 21
41.414814566
 31
0.0
  0
LINE
  8
0
  6
CONTINUOUS
 62
     5
 10
196.090944495
 20
58.679134818
 30
0.0
 11
193.592978753
 21
58.779967104
 31
0.0
  0
LINE
  8
0
  6
CONTINUOUS
 62
     5
 10
196.090944495
 20
58.679134818
 30
0.0
 11
193.877226562
 21
57.517475268
 31
0.0
  0
LINE
  8
0
  6
CONTINUOUS
 62
     5
 10
163.409055505
 20
51.320865182
 30
0.0
 11
165.907021247
 21
51.220032896
 31
0.0
  0
LINE
  8
0
  6
CONTINUOUS
 62
     5
 10
163.409055505
 20
51.320865182
 30
0.0
 11
165.622773438
 21
52.482524732
 31
0.0
  0
LINE
  8
0
  6
CONTINUOUS
 62
     5
 10
163.409055505
 20
51.320865182
 30
0.0
 11
196.090944495
 21
58.679134818
 31
0.0
  0
LINE
  8
0
  6
CONTINUOUS
 62
     5
 10
149.030925513
 20
30.475
 30
0.0
 11
136.530925513
 21
30.475
 31
0.0
  0
LINE
  8
0
  6
CONTINUOUS
 62
     5
 10
162.667468245
 20
38.375
 30
0.0
 11
160.253614165
 21
37.724378389
 31
0.0
  0
LINE
  8
0
  6
CONTINUOUS
 62
     5
 10
162.667468245
 20
38.375
 30
0.0
 11
160.902320097
 21
36.604618117
 31
0.0
  0
LINE
  8
0
  6
CONTINUOUS
 62
     5
 10
162.667468245
 20
38.375
 30
0.0
 11
149.030925513
 21
30.475
 31
0.0
  0
LINE
  8
0
  6
LTYPE5
 62
     5
 10
195.75
 20
43.0
 30
0.0
 11
195.75
 21
33.5
 31
0.0
  0
LINE
  8
0
  6
LTYPE5
 62
     5
 10
191.75
 20
39.0
 30
0.0
 11
200.75
 21
39.0
 31
0.0
  0
LINE
  8
0
  6
LTYPE5
 62
     5
 10
163.75
 20
33.5
 30
0.0
 11
163.75
 21
43.5
 31
0.0
  0
LINE
  8
0
  6
LTYPE5
 62
     5
 10
159.75
 20
39.0
 30
0.0
 11
167.25
 21
39.0
 31
0.0
  0
LINE
  8
0
  6
LTYPE5
 62
     5
 10
163.75
 20
66.5
 30
0.0
 11
163.75
 21
75.5
 31
0.0
  0
LINE
  8
0
  6
LTYPE5
 62
     5
 10
159.25
 20
71.0
 30
0.0
 11
167.75
 21
71.0
 31
0.0
  0
LINE
  8
0
  6
LTYPE5
 62
     5
 10
191.75
 20
71.0
 30
0.0
 11
200.75
 21
71.0
 31
0.0
  0
LINE
  8
0
  6
LTYPE5
 62
     5
 10
195.75
 20
75.0
 30
0.0
 11
195.75
 21
66.5
 31
0.0
  0
LINE
  8
0
  6
CONTINUOUS
 62
     5
 10
195.75
 20
75.0
 30
0.0
 11
195.75
 21
83.0
 31
0.0
  0
LINE
  8
0
  6
CONTINUOUS
 62
     5
 10
200.75
 20
71.0
 30
0.0
 11
207.75
 21
71.0
 31
0.0
  0
LINE
  8
0
  6
CONTINUOUS
 62
     5
 10
99.25
 20
144.7
 30
0.0
 11
99.25
 21
154.0
 31
0.0
  0
LINE
  8
0
  6
CONTINUOUS
 62
     5
 10
99.25
 20
152.0
 30
0.0
 11
101.664814566
 21
151.352952387
 31
0.0
  0
LINE
  8
0
  6
CONTINUOUS
 62
     5
 10
99.25
 20
152.0
 30
0.0
 11
101.664814566
 21
152.647047613
 31
0.0
  0
LINE
  8
0
  6
CONTINUOUS
 62
     5
 10
99.25
 20
152.0
 30
0.0
 11
101.664814566
 21
151.352952387
 31
0.0
  0
LINE
  8
0
  6
CONTINUOUS
 62
     5
 10
99.25
 20
152.0
 30
0.0
 11
101.664814566
 21
152.647047613
 31
0.0
  0
LINE
  8
0
  6
CONTINUOUS
 62
     5
 10
99.0
 20
152.0
 30
0.0
 11
96.585185434
 21
152.647047613
 31
0.0
  0
LINE
  8
0
  6
CONTINUOUS
 62
     5
 10
99.0
 20
152.0
 30
0.0
 11
96.585185434
 21
151.352952387
 31
0.0
  0
LINE
  8
0
  6
CONTINUOUS
 62
     5
 10
99.0
 20
146.2
 30
0.0
 11
99.0
 21
154.0
 31
0.0
  0
LINE
  8
0
  6
CONTINUOUS
 62
     5
 10
99.0
 20
152.0
 30
0.0
 11
91.75
 21
152.0
 31
0.0
  0
LINE
  8
0
  6
CONTINUOUS
 62
     5
 10
106.75
 20
152.0
 30
0.0
 11
104.335185434
 21
152.647047613
 31
0.0
  0
LINE
  8
0
  6
CONTINUOUS
 62
     5
 10
106.75
 20
152.0
 30
0.0
 11
104.335185434
 21
151.352952387
 31
0.0
  0
LINE
  8
0
  6
CONTINUOUS
 62
     5
 10
106.75
 20
143.2399725
 30
0.0
 11
106.75
 21
154.0
 31
0.0
  0
LINE
  8
0
  6
CONTINUOUS
 62
     5
 10
99.25
 20
152.0
 30
0.0
 11
106.75
 21
152.0
 31
0.0
  0
LINE
  8
0
  6
CONTINUOUS
 62
     5
 10
93.6
 20
144.75
 30
0.0
 11
80.5
 21
144.75
 31
0.0
  0
LINE
  8
0
  6
CONTINUOUS
 62
     5
 10
82.5
 20
144.75
 30
0.0
 11
81.852952387
 21
142.335185434
 31
0.0
  0
LINE
  8
0
  6
CONTINUOUS
 62
     5
 10
82.5
 20
144.75
 30
0.0
 11
83.147047613
 21
142.335185434
 31
0.0
  0
LINE
  8
0
  6
CONTINUOUS
 62
     5
 10
82.5
 20
107.25
 30
0.0
 11
83.147047613
 21
109.664814566
 31
0.0
  0
LINE
  8
0
  6
CONTINUOUS
 62
     5
 10
82.5
 20
107.25
 30
0.0
 11
81.852952387
 21
109.664814566
 31
0.0
  0
LINE
  8
0
  6
CONTINUOUS
 62
     5
 10
93.561381701
 20
107.25
 30
0.0
 11
80.5
 21
107.25
 31
0.0
  0
LINE
  8
0
  6
CONTINUOUS
 62
     5
 10
82.5
 20
144.75
 30
0.0
 11
82.5
 21
107.25
 31
0.0
  0
LINE
  8
0
  6
CONTINUOUS
 62
     5
 10
111.55
 20
109.7
 30
0.0
 11
112.197047613
 21
112.114814566
 31
0.0
  0
LINE
  8
0
  6
CONTINUOUS
 62
     5
 10
111.55
 20
109.7
 30
0.0
 11
110.902952387
 21
112.114814566
 31
0.0
  0
LINE
  8
0
  6
CONTINUOUS
 62
     5
 10
111.55
 20
142.25
 30
0.0
 11
110.902952387
 21
139.835185434
 31
0.0
  0
LINE
  8
0
  6
CONTINUOUS
 62
     5
 10
111.55
 20
142.25
 30
0.0
 11
112.197047613
 21
139.835185434
 31
0.0
  0
LINE
  8
0
  6
CONTINUOUS
 62
     5
 10
111.55
 20
109.7
 30
0.0
 11
111.55
 21
142.25
 31
0.0
  0
LINE
  8
0
  6
LTYPE5
 62
     5
 10
94.06
 20
142.0
 30
0.0
 11
108.549955
 21
142.0
 31
0.0
  0
LINE
  8
0
  6
LTYPE5
 62
     5
 10
94.08
 20
110.0
 30
0.0
 11
108.549955
 21
110.0
 31
0.0
  0
LINE
  8
0
  6
LTYPE5
 62
     5
 10
116.183535
 20
120.98331
 30
0.0
 11
126.049955
 21
120.98331
 31
0.0
  0
LINE
  8
0
  6
CONTINUOUS
 62
     5
 10
127.086363636
 20
112.3
 30
0.0
 11
146.65
 21
112.3
 31
0.0
  0
LINE
  8
0
  6
CONTINUOUS
 62
     5
 10
124.85
 20
118.3
 30
0.0
 11
127.086363636
 21
112.3
 31
0.0
  0
LINE
  8
0
  6
CONTINUOUS
 62
     5
 10
124.85
 20
118.3
 30
0.0
 11
126.299689109
 21
116.263237499
 31
0.0
  0
LINE
  8
0
  6
CONTINUOUS
 62
     5
 10
124.85
 20
118.3
 30
0.0
 11
125.087086346
 21
115.811267378
 31
0.0
  0
LINE
  8
0
  6
LTYPE5
 62
     5
 10
116.25
 20
123.0
 30
0.0
 11
125.25
 21
123.0
 31
0.0
  0
LINE
  8
0
  6
CONTINUOUS
 62
     5
 10
124.25
 20
162.75
 30
0.0
 11
126.664814566
 21
162.102952387
 31
0.0
  0
LINE
  8
0
  6
CONTINUOUS
 62
     5
 10
124.25
 20
162.75
 30
0.0
 11
126.664814566
 21
163.397047613
 31
0.0
  0
LINE
  8
0
  6
CONTINUOUS
 62
     5
 10
118.25
 20
162.75
 30
0.0
 11
129.25
 21
162.75
 31
0.0
  0
LINE
  8
0
  6
CONTINUOUS
 62
     5
 10
118.25
 20
162.75
 30
0.0
 11
115.835185434
 21
163.397047613
 31
0.0
  0
LINE
  8
0
  6
CONTINUOUS
 62
     5
 10
118.25
 20
162.75
 30
0.0
 11
115.835185434
 21
162.102952387
 31
0.0
  0
LINE
  8
0
  6
CONTINUOUS
 62
     5
 10
99.25
 20
162.75
 30
0.0
 11
96.835185434
 21
163.397047613
 31
0.0
  0
LINE
  8
0
  6
CONTINUOUS
 62
     5
 10
99.25
 20
162.75
 30
0.0
 11
96.835185434
 21
162.102952387
 31
0.0
  0
LINE
  8
0
  6
CONTINUOUS
 62
     5
 10
99.25
 20
162.75
 30
0.0
 11
90.772556533
 21
162.75
 31
0.0
  0
LINE
  8
0
  6
CONTINUOUS
 62
     5
 10
90.772556533
 20
162.75
 30
0.0
 11
93.187371099
 21
162.102952387
 31
0.0
  0
LINE
  8
0
  6
CONTINUOUS
 62
     5
 10
90.772556533
 20
162.75
 30
0.0
 11
93.187371099
 21
163.397047613
 31
0.0
  0
LINE
  8
0
  6
CONTINUOUS
 62
     5
 10
99.25
 20
162.75
 30
0.0
 11
101.664814566
 21
162.102952387
 31
0.0
  0
LINE
  8
0
  6
CONTINUOUS
 62
     5
 10
99.25
 20
162.75
 30
0.0
 11
101.664814566
 21
163.397047613
 31
0.0
  0
LINE
  8
0
  6
CONTINUOUS
 62
     5
 10
99.25
 20
162.75
 30
0.0
 11
118.25
 21
162.75
 31
0.0
  0
LINE
  8
0
  6
CONTINUOUS
 62
     5
 10
124.25
 20
122.2832825
 30
0.0
 11
124.25
 21
163.75
 31
0.0
  0
LINE
  8
0
  6
CONTINUOUS
 62
     5
 10
118.25
 20
142.150001907
 30
0.0
 11
118.25
 21
163.75
 31
0.0
  0
LINE
  8
0
  6
CONTINUOUS
 62
     5
 10
99.25
 20
154.0
 30
0.0
 11
99.25
 21
163.75
 31
0.0
  0
LINE
  8
0
  6
CONTINUOUS
 62
     5
 10
90.772556533
 20
126.85
 30
0.0
 11
90.772556533
 21
163.75
 31
0.0
  0
LINE
  8
0
  6
LTYPE5
 62
     5
 10
192.75
 20
110.0
 30
0.0
 11
198.75
 21
110.0
 31
0.0
  0
LINE
  8
0
  6
LTYPE5
 62
     5
 10
195.75
 20
113.0
 30
0.0
 11
195.75
 21
107.0
 31
0.0
  0
LINE
  8
0
  6
LTYPE5
 62
     5
 10
163.75
 20
113.0
 30
0.0
 11
163.75
 21
107.0
 31
0.0
  0
LINE
  8
0
  6
LTYPE5
 62
     5
 10
160.75
 20
110.0
 30
0.0
 11
166.75
 21
110.0
 31
0.0
  0
LINE
  8
0
  6
LTYPE5
 62
     5
 10
170.5
 20
121.0
 30
0.0
 11
176.5
 21
121.0
 31
0.0
  0
LINE
  8
0
  6
LTYPE5
 62
     5
 10
173.5
 20
124.0
 30
0.0
 11
173.5
 21
118.0
 31
0.0
  0
LINE
  8
0
  6
LTYPE5
 62
     5
 10
183.0
 20
121.0
 30
0.0
 11
189.0
 21
121.0
 31
0.0
  0
LINE
  8
0
  6
LTYPE5
 62
     5
 10
186.0
 20
124.0
 30
0.0
 11
186.0
 21
118.0
 31
0.0
  0
LINE
  8
0
  6
LTYPE5
 62
     5
 10
160.75
 20
142.0
 30
0.0
 11
166.75
 21
142.0
 31
0.0
  0
LINE
  8
0
  6
LTYPE5
 62
     5
 10
163.75
 20
145.0
 30
0.0
 11
163.75
 21
139.0
 31
0.0
  0
LINE
  8
0
  6
LTYPE5
 62
     5
 10
192.75
 20
142.0
 30
0.0
 11
198.75
 21
142.0
 31
0.0
  0
LINE
  8
0
  6
LTYPE5
 62
     5
 10
195.75
 20
145.0
 30
0.0
 11
195.75
 21
139.0
 31
0.0
  0
LINE
  8
0
  6
CONTINUOUS
 62
     5
 10
163.75
 20
145.2
 30
0.0
 11
163.75
 21
158.0
 31
0.0
  0
LINE
  8
0
  6
CONTINUOUS
 62
     5
 10
163.75
 20
156.0
 30
0.0
 11
166.164814566
 21
155.352952387
 31
0.0
  0
LINE
  8
0
  6
CONTINUOUS
 62
     5
 10
163.75
 20
156.0
 30
0.0
 11
166.164814566
 21
156.647047613
 31
0.0
  0
LINE
  8
0
  6
CONTINUOUS
 62
     5
 10
179.75
 20
156.0
 30
0.0
 11
177.335185434
 21
156.647047613
 31
0.0
  0
LINE
  8
0
  6
CONTINUOUS
 62
     5
 10
179.75
 20
156.0
 30
0.0
 11
177.335185434
 21
155.352952387
 31
0.0
  0
LINE
  8
0
  6
CONTINUOUS
 62
     5
 10
179.75
 20
150.5
 30
0.0
 11
179.75
 21
158.0
 31
0.0
  0
LINE
  8
0
  6
CONTINUOUS
 62
     5
 10
179.75
 20
156.0
 30
0.0
 11
182.164814566
 21
155.352952387
 31
0.0
  0
LINE
  8
0
  6
CONTINUOUS
 62
     5
 10
179.75
 20
156.0
 30
0.0
 11
182.164814566
 21
156.647047613
 31
0.0
  0
LINE
  8
0
  6
CONTINUOUS
 62
     5
 10
163.75
 20
156.0
 30
0.0
 11
179.75
 21
156.0
 31
0.0
  0
LINE
  8
0
  6
CONTINUOUS
 62
     5
 10
195.75
 20
156.0
 30
0.0
 11
193.335185434
 21
156.647047613
 31
0.0
  0
LINE
  8
0
  6
CONTINUOUS
 62
     5
 10
195.75
 20
156.0
 30
0.0
 11
193.335185434
 21
155.352952387
 31
0.0
  0
LINE
  8
0
  6
CONTINUOUS
 62
     5
 10
195.75
 20
145.0
 30
0.0
 11
195.75
 21
158.0
 31
0.0
  0
LINE
  8
0
  6
CONTINUOUS
 62
     5
 10
179.75
 20
156.0
 30
0.0
 11
195.75
 21
156.0
 31
0.0
  0
LINE
  8
0
  6
CONTINUOUS
 62
     5
 10
203.3
 20
121.0
 30
0.0
 11
202.764101615
 21
123.0
 31
0.0
  0
LINE
  8
0
  6
CONTINUOUS
 62
     5
 10
203.3
 20
121.0
 30
0.0
 11
203.835898385
 21
123.0
 31
0.0
  0
LINE
  8
0
  6
CONTINUOUS
 62
     5
 10
189.2
 20
121.0
 30
0.0
 11
204.15
 21
121.0
 31
0.0
  0
LINE
  8
0
  6
CONTINUOUS
 62
     5
 10
203.3
 20
126.0
 30
0.0
 11
203.835898385
 21
124.0
 31
0.0
  0
LINE
  8
0
  6
CONTINUOUS
 62
     5
 10
203.3
 20
126.0
 30
0.0
 11
202.764101615
 21
124.0
 31
0.0
  0
LINE
  8
0
  6
CONTINUOUS
 62
     5
 10
203.3
 20
121.0
 30
0.0
 11
203.3
 21
126.0
 31
0.0
  0
LINE
  8
0
  6
LTYPE5
 62
     5
 10
167.5
 20
125.0
 30
0.0
 11
167.5
 21
120.25
 31
0.0
  0
LINE
  8
0
  6
LTYPE5
 62
     5
 10
164.7
 20
123.0
 30
0.0
 11
170.4
 21
123.0
 31
0.0
  0
LINE
  8
0
  6
LTYPE5
 62
     5
 10
192.0
 20
125.0
 30
0.0
 11
192.0
 21
120.25
 31
0.0
  0
LINE
  8
0
  6
LTYPE5
 62
     5
 10
189.2
 20
123.0
 30
0.0
 11
194.9
 21
123.0
 31
0.0
  0
LINE
  8
0
  6
CONTINUOUS
 62
     5
 10
173.5
 20
124.4
 30
0.0
 11
173.5
 21
148.75
 31
0.0
  0
LINE
  8
0
  6
CONTINUOUS
 62
     5
 10
186.0
 20
124.3
 30
0.0
 11
186.0
 21
149.05
 31
0.0
  0
LINE
  8
0
  6
CONTINUOUS
 62
     5
 10
186.0
 20
148.0
 30
0.0
 11
183.585185434
 21
148.647047613
 31
0.0
  0
LINE
  8
0
  6
CONTINUOUS
 62
     5
 10
186.0
 20
148.0
 30
0.0
 11
183.585185434
 21
147.352952387
 31
0.0
  0
LINE
  8
0
  6
CONTINUOUS
 62
     5
 10
173.5
 20
148.0
 30
0.0
 11
175.914814566
 21
147.352952387
 31
0.0
  0
LINE
  8
0
  6
CONTINUOUS
 62
     5
 10
173.5
 20
148.0
 30
0.0
 11
175.914814566
 21
148.647047613
 31
0.0
  0
LINE
  8
0
  6
CONTINUOUS
 62
     5
 10
173.5
 20
148.0
 30
0.0
 11
186.0
 21
148.0
 31
0.0
  0
LINE
  8
0
  6
CONTINUOUS
 62
     5
 10
154.4125
 20
123.0
 30
0.0
 11
153.765452387
 21
120.585185434
 31
0.0
  0
LINE
  8
0
  6
CONTINUOUS
 62
     5
 10
154.4125
 20
123.0
 30
0.0
 11
155.059547613
 21
120.585185434
 31
0.0
  0
LINE
  8
0
  6
CONTINUOUS
 62
     5
 10
154.4125
 20
118.0
 30
0.0
 11
154.4125
 21
131.0
 31
0.0
  0
LINE
  8
0
  6
CONTINUOUS
 62
     5
 10
154.4125
 20
126.0
 30
0.0
 11
155.059547613
 21
128.414814566
 31
0.0
  0
LINE
  8
0
  6
CONTINUOUS
 62
     5
 10
154.4125
 20
126.0
 30
0.0
 11
153.765452387
 21
128.414814566
 31
0.0
  0
LINE
  8
0
  6
CONTINUOUS
 62
     5
 10
167.5
 20
101.15
 30
0.0
 11
169.914814566
 21
100.502952387
 31
0.0
  0
LINE
  8
0
  6
CONTINUOUS
 62
     5
 10
167.5
 20
101.15
 30
0.0
 11
169.914814566
 21
101.797047613
 31
0.0
  0
LINE
  8
0
  6
CONTINUOUS
 62
     5
 10
167.5
 20
101.15
 30
0.0
 11
192.0
 21
101.15
 31
0.0
  0
LINE
  8
0
  6
CONTINUOUS
 62
     5
 10
192.0
 20
101.15
 30
0.0
 11
189.585185434
 21
101.797047613
 31
0.0
  0
LINE
  8
0
  6
CONTINUOUS
 62
     5
 10
192.0
 20
101.15
 30
0.0
 11
189.585185434
 21
100.502952387
 31
0.0
  0
LINE
  8
0
  6
CONTINUOUS
 62
     5
 10
192.0
 20
119.75
 30
0.0
 11
192.0
 21
100.15
 31
0.0
  0
LINE
  8
0
  6
CONTINUOUS
 62
     5
 10
167.5
 20
119.75
 30
0.0
 11
167.5
 21
100.25
 31
0.0
  0
LINE
  8
0
  6
CONTINUOUS
 62
     5
 10
159.75
 20
162.75
 30
0.0
 11
162.164814566
 21
162.102952387
 31
0.0
  0
LINE
  8
0
  6
CONTINUOUS
 62
     5
 10
159.75
 20
162.75
 30
0.0
 11
162.164814566
 21
163.397047613
 31
0.0
  0
LINE
  8
0
  6
CONTINUOUS
 62
     5
 10
199.75
 20
162.75
 30
0.0
 11
197.335185434
 21
163.397047613
 31
0.0
  0
LINE
  8
0
  6
CONTINUOUS
 62
     5
 10
199.75
 20
162.75
 30
0.0
 11
197.335185434
 21
162.102952387
 31
0.0
  0
LINE
  8
0
  6
CONTINUOUS
 62
     5
 10
159.75
 20
162.75
 30
0.0
 11
199.75
 21
162.75
 31
0.0
  0
LINE
  8
0
  6
CONTINUOUS
 62
     5
 10
159.75
 20
144.4
 30
0.0
 11
159.75
 21
163.75
 31
0.0
  0
LINE
  8
0
  6
CONTINUOUS
 62
     5
 10
199.75
 20
144.4
 30
0.0
 11
199.75
 21
163.75
 31
0.0
  0
LINE
  8
0
  6
CONTINUOUS
 62
     5
 10
207.85
 20
142.0
 30
0.0
 11
207.202952387
 21
139.585185434
 31
0.0
  0
LINE
  8
0
  6
CONTINUOUS
 62
     5
 10
207.85
 20
142.0
 30
0.0
 11
208.497047613
 21
139.585185434
 31
0.0
  0
LINE
  8
0
  6
CONTINUOUS
 62
     5
 10
207.85
 20
126.0
 30
0.0
 11
208.497047613
 21
128.414814566
 31
0.0
  0
LINE
  8
0
  6
CONTINUOUS
 62
     5
 10
207.85
 20
126.0
 30
0.0
 11
207.202952387
 21
128.414814566
 31
0.0
  0
LINE
  8
0
  6
CONTINUOUS
 62
     5
 10
207.85
 20
126.0
 30
0.0
 11
207.202952387
 21
123.585185434
 31
0.0
  0
LINE
  8
0
  6
CONTINUOUS
 62
     5
 10
207.85
 20
126.0
 30
0.0
 11
208.497047613
 21
123.585185434
 31
0.0
  0
LINE
  8
0
  6
CONTINUOUS
 62
     5
 10
207.85
 20
142.0
 30
0.0
 11
207.85
 21
126.0
 31
0.0
  0
LINE
  8
0
  6
CONTINUOUS
 62
     5
 10
207.85
 20
110.0
 30
0.0
 11
208.497047613
 21
112.414814566
 31
0.0
  0
LINE
  8
0
  6
CONTINUOUS
 62
     5
 10
207.85
 20
110.0
 30
0.0
 11
207.202952387
 21
112.414814566
 31
0.0
  0
LINE
  8
0
  6
CONTINUOUS
 62
     5
 10
207.85
 20
126.0
 30
0.0
 11
207.85
 21
110.0
 31
0.0
  0
LINE
  8
0
  6
CONTINUOUS
 62
     5
 10
214.75
 20
146.0
 30
0.0
 11
214.102952387
 21
143.585185434
 31
0.0
  0
LINE
  8
0
  6
CONTINUOUS
 62
     5
 10
214.75
 20
146.0
 30
0.0
 11
215.397047613
 21
143.585185434
 31
0.0
  0
LINE
  8
0
  6
CONTINUOUS
 62
     5
 10
214.75
 20
106.0
 30
0.0
 11
215.397047613
 21
108.414814566
 31
0.0
  0
LINE
  8
0
  6
CONTINUOUS
 62
     5
 10
214.75
 20
106.0
 30
0.0
 11
214.102952387
 21
108.414814566
 31
0.0
  0
LINE
  8
0
  6
CONTINUOUS
 62
     5
 10
214.75
 20
146.0
 30
0.0
 11
214.75
 21
106.0
 31
0.0
  0
LINE
  8
0
  6
CONTINUOUS
 62
     5
 10
198.75
 20
142.0
 30
0.0
 11
208.85
 21
142.0
 31
0.0
  0
LINE
  8
0
  6
CONTINUOUS
 62
     5
 10
198.25
 20
146.0
 30
0.0
 11
215.75
 21
146.0
 31
0.0
  0
LINE
  8
0
  6
CONTINUOUS
 62
     5
 10
198.75
 20
110.0
 30
0.0
 11
208.85
 21
110.0
 31
0.0
  0
LINE
  8
0
  6
CONTINUOUS
 62
     5
 10
198.35
 20
106.0
 30
0.0
 11
215.75
 21
106.0
 31
0.0
  0
LINE
  8
0
  6
CONTINUOUS
 62
     5
 10
204.75
 20
126.0
 30
0.0
 11
208.85
 21
126.0
 31
0.0
  0
LINE
  8
0
  6
LTYPE5
 62
     5
 10
21.4
 20
142.0
 30
0.0
 11
24.6
 21
142.0
 31
0.0
  0
LINE
  8
0
  6
LTYPE5
 62
     5
 10
23.0
 20
143.6
 30
0.0
 11
23.0
 21
140.4
 31
0.0
  0
LINE
  8
0
  6
LTYPE5
 62
     5
 10
53.4
 20
142.0
 30
0.0
 11
56.6
 21
142.0
 31
0.0
  0
LINE
  8
0
  6
LTYPE5
 62
     5
 10
55.0
 20
143.6
 30
0.0
 11
55.0
 21
140.4
 31
0.0
  0
LINE
  8
0
  6
LTYPE5
 62
     5
 10
21.4
 20
110.0
 30
0.0
 11
24.6
 21
110.0
 31
0.0
  0
LINE
  8
0
  6
LTYPE5
 62
     5
 10
23.0
 20
111.6
 30
0.0
 11
23.0
 21
108.4
 31
0.0
  0
LINE
  8
0
  6
LTYPE5
 62
     5
 10
53.4
 20
110.0
 30
0.0
 11
56.6
 21
110.0
 31
0.0
  0
LINE
  8
0
  6
LTYPE5
 62
     5
 10
55.0
 20
111.6
 30
0.0
 11
55.0
 21
108.4
 31
0.0
  0
LINE
  8
0
  6
CONTINUOUS
 62
     5
 10
42.7
 20
136.85
 30
0.0
 11
42.297974781
 21
139.317463419
 31
0.0
  0
LINE
  8
0
  6
CONTINUOUS
 62
     5
 10
42.7
 20
136.85
 30
0.0
 11
41.118104238
 21
138.785873394
 31
0.0
  0
LINE
  8
0
  6
CONTINUOUS
 62
     5
 10
42.7
 20
136.85
 30
0.0
 11
34.5
 21
155.05
 31
0.0
  0
LINE
  8
0
  6
CONTINUOUS
 62
     5
 10
34.5
 20
155.05
 30
0.0
 11
17.7
 21
155.05
 31
0.0
  0
LINE
  8
0
  6
CONTINUOUS
 62
     5
 10
27.35
 20
119.7
 30
0.0
 11
26.229650587
 21
117.465091234
 31
0.0
  0
LINE
  8
0
  6
CONTINUOUS
 62
     5
 10
27.35
 20
119.7
 30
0.0
 11
27.49720333
 21
117.204337527
 31
0.0
  0
LINE
  8
0
  6
CONTINUOUS
 62
     5
 10
27.35
 20
119.7
 30
0.0
 11
21.95
 21
93.45
 31
0.0
  0
LINE
  8
0
  6
CONTINUOUS
 62
     5
 10
39.45
 20
124.7
 30
0.0
 11
39.517535139
 21
122.200912365
 31
0.0
  0
LINE
  8
0
  6
CONTINUOUS
 62
     5
 10
39.45
 20
124.7
 30
0.0
 11
40.758030964
 21
122.569494192
 31
0.0
  0
LINE
  8
0
  6
CONTINUOUS
 62
     5
 10
39.45
 20
124.7
 30
0.0
 11
48.75
 21
93.4
 31
0.0
  0
LINE
  8
0
  6
LTYPE5
 62
     5
 10
32.4668
 20
119.5
 30
0.0
 11
35.5332
 21
119.5
 31
0.0
  0
LINE
  8
0
  6
LTYPE5
 62
     5
 10
34.0
 20
121.0332
 30
0.0
 11
34.0
 21
117.9668
 31
0.0
  0
LINE
  8
0
  6
LTYPE5
 62
     5
 10
42.4668
 20
119.5
 30
0.0
 11
45.5332
 21
119.5
 31
0.0
  0
LINE
  8
0
  6
LTYPE5
 62
     5
 10
44.0
 20
121.0332
 30
0.0
 11
44.0
 21
117.9668
 31
0.0
  0
LINE
  8
0
  6
LTYPE5
 62
     5
 10
15.55
 20
126.0
 30
0.0
 11
63.35
 21
126.0
 31
0.0
  0
LINE
  8
0
  6
CONTINUOUS
 62
     5
 10
164.2
 20
123.0
 30
0.0
 11
153.4125
 21
123.0
 31
0.0
  0
LINE
  8
0
  6
CONTINUOUS
 62
     5
 10
102.95
 20
109.0
 30
0.0
 11
101.764713305
 21
106.798842247
 31
0.0
  0
LINE
  8
0
  6
CONTINUOUS
 62
     5
 10
102.95
 20
109.0
 30
0.0
 11
103.024090488
 21
106.501098121
 31
0.0
  0
LINE
  8
0
  6
CONTINUOUS
 62
     5
 10
102.95
 20
109.0
 30
0.0
 11
99.25
 21
93.35
 31
0.0
  0
LINE
  8
0
  6
CONTINUOUS
 62
     5
 10
99.25
 20
93.35
 30
0.0
 11
81.25
 21
93.35
 31
0.0
  0
LINE
  8
0
  6
CONTINUOUS
 62
     5
 10
122.05
 20
118.95
 30
0.0
 11
122.026296838
 21
116.450112371
 31
0.0
  0
LINE
  8
0
  6
CONTINUOUS
 62
     5
 10
122.05
 20
118.95
 30
0.0
 11
123.279416274
 21
116.773182225
 31
0.0
  0
LINE
  8
0
  6
CONTINUOUS
 62
     5
 10
122.05
 20
118.95
 30
0.0
 11
128.65
 21
93.35
 31
0.0
  0
LINE
  8
0
  6
CONTINUOUS
 62
     5
 10
128.65
 20
93.35
 30
0.0
 11
172.65
 21
93.35
 31
0.0
  0
LINE
  8
0
  6
CONTINUOUS
 62
     5
 10
122.275
 20
124.2
 30
0.0
 11
123.652474679
 21
126.286279825
 31
0.0
  0
LINE
  8
0
  6
CONTINUOUS
 62
     5
 10
122.275
 20
124.2
 30
0.0
 11
122.424788152
 21
126.695508667
 31
0.0
  0
LINE
  8
0
  6
CONTINUOUS
 62
     5
 10
122.275
 20
124.2
 30
0.0
 11
127.375
 21
139.5
 31
0.0
  0
LINE
  8
0
  6
CONTINUOUS
 62
     5
 10
127.375
 20
139.5
 30
0.0
 11
150.8
 21
139.5
 31
0.0
  0
LINE
  8
0
  6
LTYPE5
 62
     5
 10
159.6
 20
55.0
 30
0.0
 11
207.95
 21
55.0
 31
0.0
  0
LINE
  8
0
  6
CONTINUOUS
 62
     5
 10
21.95
 20
93.45
 30
0.0
 11
12.4125
 21
93.45
 31
0.0
  0
LINE
  8
0
  6
LTYPE5
 62
     5
 10
39.0
 20
153.45
 30
0.0
 11
39.0
 21
100.0
 31
0.0
  0
LINE
  8
0
  6
CONTINUOUS
 62
     5
 10
99.25
 20
109.206685
 30
0.0
 11
103.516735
 21
109.206685
 31
0.0
  0
LINE
  8
0
  6
CONTINUOUS
 62
     5
 10
103.516735
 20
110.806645
 30
0.0
 11
99.25
 21
110.806645
 31
0.0
  0
LINE
  8
0
  6
CONTINUOUS
 62
     5
 10
106.723334
 20
110.806645
 30
0.0
 11
105.643361
 21
110.806645
 31
0.0
  0
LINE
  8
0
  6
CONTINUOUS
 62
     5
 10
105.643361
 20
109.206685
 30
0.0
 11
106.723334
 21
109.206685
 31
0.0
  0
LINE
  8
0
  6
CONTINUOUS
 62
     5
 10
103.516735
 20
142.806645
 30
0.0
 11
99.25
 21
142.806645
 31
0.0
  0
LINE
  8
0
  6
CONTINUOUS
 62
     5
 10
99.25
 20
141.206685
 30
0.0
 11
103.516735
 21
141.206685
 31
0.0
  0
LINE
  8
0
  6
CONTINUOUS
 62
     5
 10
105.643361
 20
141.206685
 30
0.0
 11
106.723334
 21
141.206685
 31
0.0
  0
LINE
  8
0
  6
CONTINUOUS
 62
     5
 10
106.723334
 20
142.806645
 30
0.0
 11
105.643361
 21
142.806645
 31
0.0
  0
LINE
  8
0
  6
CONTINUOUS
 62
     5
 10
118.75
 20
120.249995
 30
0.0
 11
119.6
 21
120.249995
 31
0.0
  0
LINE
  8
0
  6
CONTINUOUS
 62
     5
 10
119.9568015
 20
120.249995
 30
0.0
 11
120.699923417
 21
120.249995
 31
0.0
  0
LINE
  8
0
  6
CONTINUOUS
 62
     5
 10
121.151771625
 20
120.249995
 30
0.0
 11
121.490069
 21
120.249995
 31
0.0
  0
LINE
  8
0
  6
CONTINUOUS
 62
     5
 10
123.143361
 20
120.249995
 30
0.0
 11
124.223334
 21
120.249995
 31
0.0
  0
LINE
  8
0
  6
CONTINUOUS
 62
     5
 10
124.223334
 20
121.849955
 30
0.0
 11
123.962417718
 21
121.849955
 31
0.0
  0
CIRCLE
  8
0
  6
CONTINUOUS
 62
     5
 10
163.75
 20
142.0
 30
0.0
 40
0.8
  0
CIRCLE
  8
0
  6
CONTINUOUS
 62
     5
 10
195.75
 20
142.0
 30
0.0
 40
0.8
  0
CIRCLE
  8
0
  6
CONTINUOUS
 62
     5
 10
163.75
 20
110.0
 30
0.0
 40
0.8
  0
CIRCLE
  8
0
  6
CONTINUOUS
 62
     5
 10
195.75
 20
110.0
 30
0.0
 40
0.8
  0
LINE
  8
0
  6
CONTINUOUS
 62
     5
 10
104.62
 20
106.813
 30
0.0
 11
105.805286695
 21
104.611842247
 31
0.0
  0
LINE
  8
0
  6
CONTINUOUS
 62
     5
 10
104.62
 20
106.813
 30
0.0
 11
104.545909512
 21
104.314098121
 31
0.0
  0
TEXT
  8
0
  6
CONTINUOUS
 62
     2
 10
11.9
 20
64.9
 30
0.5
 40
3.0
  1
注１）計器入力が交流の場合，端子記号［＋］は表示しません。
 50
0.0
 41
0.9
 51
0.0
  7
KANJI8
  0
TEXT
  8
0
  6
CONTINUOUS
 62
     2
 10
15.1
 20
59.9
 30
0.5
 40
3.0
  1
２）照明用ＥＬ板の電源電圧は、表示ラベルどおりの電圧を印加して下さい。
 50
0.0
 41
0.9
 51
0.0
  7
KANJI8
  0
TEXT
  8
0
  6
CONTINUOUS
 62
     2
 10
15.1
 20
54.9
 30
0.5
 40
3.0
  1
３）指示調整用ボリーム付き仕様は、付属品が外付となります。
 50
0.0
 41
0.9
 51
0.0
  7
KANJI8
  0
TEXT
  8
0
  6
CONTINUOUS
 62
     2
 10
15.1
 20
49.9
 30
0.5
 40
3.0
  1
４）整流形および電子デバイス形交流電流計はＣ－３（電流変換器）が外付けとなります。
 50
0.0
 41
0.9
 51
0.0
  7
KANJI8
  0
CIRCLE
  8
0
  6
CONTINUOUS
 62
     2
 10
179.75
 20
128.75
 30
0.0
 40
4.25
  0
TEXT
  8
0
  6
CONTINUOUS
 62
     5
 10
177.9
 20
127.925
 30
0.2
 40
2.2
  1
Ｎ．Ｐ．
 50
0.0
 41
0.681818182
 51
0.0
  7
KANJI9
  0
LINE
  8
0
  6
CONTINUOUS
 62
     2
 10
187.25
 20
136.5
 30
0.0
 11
172.25
 21
136.5
 31
0.0
  0
LINE
  8
0
  6
CONTINUOUS
 62
     2
 10
172.75
 20
134.0
 30
0.0
 11
186.75
 21
134.0
 31
0.0
  0
LINE
  8
0
  6
CONTINUOUS
 62
     2
 10
186.75
 20
134.0
 30
0.0
 11
186.75
 21
136.0
 31
0.0
  0
LINE
  8
0
  6
CONTINUOUS
 62
     2
 10
186.75
 20
136.0
 30
0.0
 11
172.75
 21
136.0
 31
0.0
  0
LINE
  8
0
  6
CONTINUOUS
 62
     2
 10
172.75
 20
136.0
 30
0.0
 11
172.75
 21
134.0
 31
0.0
  0
TEXT
  8
0
  6
CONTINUOUS
 62
     5
 10
173.25
 20
134.425
 30
0.0
 40
1.2
  1
ＥＬ　ＡＣ０００Ｖ～０００Ｖ　　　□
 50
0.0
 41
0.666666667
 51
0.0
  7
KANJI10
  0
LINE
  8
0
  6
CONTINUOUS
 62
     2
 10
172.25
 20
136.5
 30
0.0
 11
172.25
 21
133.5
 31
0.0
  0
POLYLINE
  8
0
  6
CONTINUOUS
 62
     2
 66
     1
  0
VERTEX
  8
0
  6
CONTINUOUS
 62
     2
 10
172.25
 20
133.5
 30
0.0
  0
VERTEX
  8
0
  6
CONTINUOUS
 62
     2
 10
187.25
 20
133.5
 30
0.0
  0
VERTEX
  8
0
  6
CONTINUOUS
 62
     2
 10
187.25
 20
136.5
 30
0.0
  0
SEQEND
  0
TEXT
  8
0
  6
CONTINUOUS
 62
     2
 10
48.75
 20
94.4
 30
1.0
 40
3.0
  1
零位調整器
 50
0.0
 41
0.833333333
 51
0.0
  7
KANJI11
  0
LINE
  8
0
  6
CONTINUOUS
 62
     5
 10
48.75
 20
93.4
 30
0.0
 11
65.422
 21
93.4
 31
0.0
  0
TEXT
  8
0
  6
CONTINUOUS
 62
     2
 10
48.794
 20
97.682
 30
1.0
 40
3.0
  1
機械的
 50
0.0
 41
0.833333333
 51
0.0
  7
KANJI11
  0
TEXT
  8
0
  6
CONTINUOUS
 62
     1
 10
32.05
 20
9.5
 30
0.36
 40
3.6
  1
ＥＬ照明付広角度計器　外形図
 50
0.0
 41
0.9
 51
0.0
  7
KANJI12
  0
TEXT
  8
0
  6
CONTINUOUS
 62
     2
 10
33.78
 20
14.46
 30
0.3
 40
3.0
  1
端子キャップ付（オプション）
 50
0.0
 41
0.9
 51
0.0
  7
KANJI4
  0
TEXT
  8
0
  6
CONTINUOUS
 62
     6
 10
38.18
 20
19.96
 30
1.0
 40
5.0
  1
□ＶＦ－８Ｅ
 50
0.0
 41
0.9
 51
0.0
  7
KANJI13
  0
TEXT
  8
0
  6
CONTINUOUS
 62
     3
 10
96.325
 20
8.68
 30
0.2
 40
5.8
  1
ＭＳ－１３１７１
 50
0.0
 41
0.827586207
 51
0.0
  7
KANJI14
  0
LINE
  8
0
  6
LTYPE5
 62
     5
 10
179.75
 20
163.5
 30
0.0
 11
179.75
 21
105.28
 31
0.0
  0
LINE
  8
0
  6
LTYPE5
 62
     5
 10
179.75
 20
86.83
 30
0.0
 11
179.75
 21
34.5
 31
0.0
  0
TEXT
  8
0
  6
CONTINUOUS
 62
     2
 10
110.86
 20
87.083
 30
0.2
 40
3.0
  1
フランシ゛付六角ナット
 50
0.0
 41
0.8
 51
0.0
  7
KANJI6
  0
LINE
  8
0
  6
CONTINUOUS
 62
     5
 10
104.62
 20
106.813
 30
0.0
 11
109.521022364
 21
86.083
 31
0.0
  0
LINE
  8
0
  6
CONTINUOUS
 62
     5
 10
109.521022364
 20
86.083
 30
0.0
 11
141.56
 21
86.083
 31
0.0
  0
LINE
  8
0
  6
LTYPE5
 62
     5
 10
147.91
 20
126.0
 30
0.0
 11
204.75
 21
126.0
 31
0.0
  0
LINE
  8
0
  6
LTYPE5
 62
     5
 10
85.25
 20
126.0
 30
0.0
 11
135.21
 21
126.0
 31
0.0
  0
ENDSEC
  0
EOF
