  0
SECTION
  2
HEADER
  9
$ACADVER
  1
AC1009
  9
$DWGCODEPAGE
  3
dos932
  9
$EXTMIN
 10
0.0
 20
0.0
 30
0.0
  9
$EXTMAX
 10
297.0
 20
210.0
 30
0.0
  9
$LIMMIN
 10
0.0
 20
0.0
  9
$LIMMAX
 10
297.0
 20
210.0
  9
$LTSCALE
 40
1.0
  9
$PDMODE
 70
     0
  0
ENDSEC
  0
SECTION
  2
TABLES
  0
TABLE
  2
VPORT
 70
     1
  0
VPORT
  2
*ACTIVE
 70
     0
 10
0.0
 20
0.0
 11
1.0
 21
1.0
 12
148.5
 22
105.0
 13
0.0
 23
0.0
 14
10.0
 24
10.0
 15
10.0
 25
10.0
 16
0.0
 26
0.0
 36
1.0
 17
0.0
 27
0.0
 37
0.0
 40
297.0
 41
1.414285714
 42
50.0
 43
0.0
 44
0.0
 50
0.0
 51
0.0
 71
     0
 72
  1000
 73
     1
 74
     3
 75
     0
 76
     0
 77
     0
 78
     0
  0
ENDTAB
  0
TABLE
  2
LTYPE
 70
     6
  0
LTYPE
  2
CONTINUOUS
 70
    64
  3
Solid line
 72
    65
 73
     0
 40
0.0
  0
LTYPE
  2
LTYPE1
 70
    64
  3
HIDDEN
 72
    65
 73
     2
 40
1.0
 49
0.6
 49
-0.4
  0
LTYPE
  2
LTYPE2
 70
    64
  3
HIDDEN
 72
    65
 73
     2
 40
2.0
 49
1.2
 49
-0.8
  0
LTYPE
  2
LTYPE3
 70
    64
  3
CENTERX2
 72
    65
 73
     4
 40
15.0
 49
12.75
 49
-0.75
 49
0.75
 49
-0.75
  0
LTYPE
  2
LTYPE4
 70
    64
  3
CENTER
 72
    65
 73
     4
 40
15.0
 49
10.5
 49
-1.5
 49
1.5
 49
-1.5
  0
LTYPE
  2
LTYPE5
 70
    64
  3
CENTER
 72
    65
 73
     4
 40
5.0
 49
3.5
 49
-0.5
 49
0.5
 49
-0.5
  0
ENDTAB
  0
TABLE
  2
LAYER
 70
   128
  0
LAYER
  2
0
 70
     0
 62
     7
  6
CONTINUOUS
  0
LAYER
  2
2
 70
     0
 62
     7
  6
CONTINUOUS
  0
LAYER
  2
3
 70
     0
 62
     7
  6
CONTINUOUS
  0
LAYER
  2
4
 70
     0
 62
     7
  6
CONTINUOUS
  0
LAYER
  2
5
 70
     0
 62
     7
  6
CONTINUOUS
  0
LAYER
  2
6
 70
     0
 62
     7
  6
CONTINUOUS
  0
LAYER
  2
7
 70
     0
 62
     7
  6
CONTINUOUS
  0
LAYER
  2
8
 70
     0
 62
     7
  6
CONTINUOUS
  0
LAYER
  2
9
 70
     0
 62
     7
  6
CONTINUOUS
  0
LAYER
  2
10
 70
     0
 62
     7
  6
CONTINUOUS
  0
LAYER
  2
11
 70
     0
 62
     7
  6
CONTINUOUS
  0
LAYER
  2
12
 70
     0
 62
     7
  6
CONTINUOUS
  0
LAYER
  2
13
 70
     0
 62
     7
  6
CONTINUOUS
  0
LAYER
  2
14
 70
     0
 62
     7
  6
CONTINUOUS
  0
LAYER
  2
15
 70
     0
 62
     7
  6
CONTINUOUS
  0
LAYER
  2
16
 70
     0
 62
     7
  6
CONTINUOUS
  0
LAYER
  2
17
 70
     0
 62
     7
  6
CONTINUOUS
  0
LAYER
  2
18
 70
     0
 62
     7
  6
CONTINUOUS
  0
LAYER
  2
19
 70
     0
 62
     7
  6
CONTINUOUS
  0
LAYER
  2
20
 70
     0
 62
     7
  6
CONTINUOUS
  0
LAYER
  2
21
 70
     0
 62
     7
  6
CONTINUOUS
  0
LAYER
  2
22
 70
     0
 62
     7
  6
CONTINUOUS
  0
LAYER
  2
23
 70
     0
 62
     7
  6
CONTINUOUS
  0
LAYER
  2
24
 70
     0
 62
     7
  6
CONTINUOUS
  0
LAYER
  2
25
 70
     0
 62
     7
  6
CONTINUOUS
  0
LAYER
  2
26
 70
     0
 62
     7
  6
CONTINUOUS
  0
LAYER
  2
27
 70
     0
 62
     7
  6
CONTINUOUS
  0
LAYER
  2
28
 70
     0
 62
     7
  6
CONTINUOUS
  0
LAYER
  2
29
 70
     0
 62
     7
  6
CONTINUOUS
  0
LAYER
  2
30
 70
     0
 62
     7
  6
CONTINUOUS
  0
LAYER
  2
31
 70
     0
 62
     7
  6
CONTINUOUS
  0
LAYER
  2
32
 70
     0
 62
     7
  6
CONTINUOUS
  0
LAYER
  2
33
 70
     0
 62
     7
  6
CONTINUOUS
  0
LAYER
  2
34
 70
     0
 62
     7
  6
CONTINUOUS
  0
LAYER
  2
35
 70
     0
 62
     7
  6
CONTINUOUS
  0
LAYER
  2
36
 70
     0
 62
     7
  6
CONTINUOUS
  0
LAYER
  2
37
 70
     0
 62
     7
  6
CONTINUOUS
  0
LAYER
  2
38
 70
     0
 62
     7
  6
CONTINUOUS
  0
LAYER
  2
39
 70
     0
 62
     7
  6
CONTINUOUS
  0
LAYER
  2
40
 70
     0
 62
     7
  6
CONTINUOUS
  0
LAYER
  2
41
 70
     0
 62
     7
  6
CONTINUOUS
  0
LAYER
  2
42
 70
     0
 62
     7
  6
CONTINUOUS
  0
LAYER
  2
43
 70
     0
 62
     7
  6
CONTINUOUS
  0
LAYER
  2
44
 70
     0
 62
     7
  6
CONTINUOUS
  0
LAYER
  2
45
 70
     0
 62
     7
  6
CONTINUOUS
  0
LAYER
  2
46
 70
     0
 62
     7
  6
CONTINUOUS
  0
LAYER
  2
47
 70
     0
 62
     7
  6
CONTINUOUS
  0
LAYER
  2
48
 70
     0
 62
     7
  6
CONTINUOUS
  0
LAYER
  2
49
 70
     0
 62
     7
  6
CONTINUOUS
  0
LAYER
  2
50
 70
     0
 62
     7
  6
CONTINUOUS
  0
LAYER
  2
51
 70
     0
 62
     7
  6
CONTINUOUS
  0
LAYER
  2
52
 70
     0
 62
     7
  6
CONTINUOUS
  0
LAYER
  2
53
 70
     0
 62
     7
  6
CONTINUOUS
  0
LAYER
  2
54
 70
     0
 62
     7
  6
CONTINUOUS
  0
LAYER
  2
55
 70
     0
 62
     7
  6
CONTINUOUS
  0
LAYER
  2
56
 70
     0
 62
     7
  6
CONTINUOUS
  0
LAYER
  2
57
 70
     0
 62
     7
  6
CONTINUOUS
  0
LAYER
  2
58
 70
     0
 62
     7
  6
CONTINUOUS
  0
LAYER
  2
59
 70
     0
 62
     7
  6
CONTINUOUS
  0
LAYER
  2
60
 70
     0
 62
     7
  6
CONTINUOUS
  0
LAYER
  2
61
 70
     0
 62
     7
  6
CONTINUOUS
  0
LAYER
  2
62
 70
     0
 62
     7
  6
CONTINUOUS
  0
LAYER
  2
63
 70
     0
 62
     7
  6
CONTINUOUS
  0
LAYER
  2
64
 70
     0
 62
     7
  6
CONTINUOUS
  0
LAYER
  2
65
 70
     0
 62
     7
  6
CONTINUOUS
  0
LAYER
  2
66
 70
     0
 62
     7
  6
CONTINUOUS
  0
LAYER
  2
67
 70
     0
 62
     7
  6
CONTINUOUS
  0
LAYER
  2
68
 70
     0
 62
     7
  6
CONTINUOUS
  0
LAYER
  2
69
 70
     0
 62
     7
  6
CONTINUOUS
  0
LAYER
  2
70
 70
     0
 62
     7
  6
CONTINUOUS
  0
LAYER
  2
71
 70
     0
 62
     7
  6
CONTINUOUS
  0
LAYER
  2
72
 70
     0
 62
     7
  6
CONTINUOUS
  0
LAYER
  2
73
 70
     0
 62
     7
  6
CONTINUOUS
  0
LAYER
  2
74
 70
     0
 62
     7
  6
CONTINUOUS
  0
LAYER
  2
75
 70
     0
 62
     7
  6
CONTINUOUS
  0
LAYER
  2
76
 70
     0
 62
     7
  6
CONTINUOUS
  0
LAYER
  2
77
 70
     0
 62
     7
  6
CONTINUOUS
  0
LAYER
  2
78
 70
     0
 62
     7
  6
CONTINUOUS
  0
LAYER
  2
79
 70
     0
 62
     7
  6
CONTINUOUS
  0
LAYER
  2
80
 70
     0
 62
     7
  6
CONTINUOUS
  0
LAYER
  2
81
 70
     0
 62
     7
  6
CONTINUOUS
  0
LAYER
  2
82
 70
     0
 62
     7
  6
CONTINUOUS
  0
LAYER
  2
83
 70
     0
 62
     7
  6
CONTINUOUS
  0
LAYER
  2
84
 70
     0
 62
     7
  6
CONTINUOUS
  0
LAYER
  2
85
 70
     0
 62
     7
  6
CONTINUOUS
  0
LAYER
  2
86
 70
     0
 62
     7
  6
CONTINUOUS
  0
LAYER
  2
87
 70
     0
 62
     7
  6
CONTINUOUS
  0
LAYER
  2
88
 70
     0
 62
     7
  6
CONTINUOUS
  0
LAYER
  2
89
 70
     0
 62
     7
  6
CONTINUOUS
  0
LAYER
  2
90
 70
     0
 62
     7
  6
CONTINUOUS
  0
LAYER
  2
91
 70
     0
 62
     7
  6
CONTINUOUS
  0
LAYER
  2
92
 70
     0
 62
     7
  6
CONTINUOUS
  0
LAYER
  2
93
 70
     0
 62
     7
  6
CONTINUOUS
  0
LAYER
  2
94
 70
     0
 62
     7
  6
CONTINUOUS
  0
LAYER
  2
95
 70
     0
 62
     7
  6
CONTINUOUS
  0
LAYER
  2
96
 70
     0
 62
     7
  6
CONTINUOUS
  0
LAYER
  2
97
 70
     0
 62
     7
  6
CONTINUOUS
  0
LAYER
  2
98
 70
     0
 62
     7
  6
CONTINUOUS
  0
LAYER
  2
99
 70
     0
 62
     7
  6
CONTINUOUS
  0
LAYER
  2
100
 70
     0
 62
     7
  6
CONTINUOUS
  0
LAYER
  2
101
 70
     0
 62
     7
  6
CONTINUOUS
  0
LAYER
  2
102
 70
     0
 62
     7
  6
CONTINUOUS
  0
LAYER
  2
103
 70
     0
 62
     7
  6
CONTINUOUS
  0
LAYER
  2
104
 70
     0
 62
     7
  6
CONTINUOUS
  0
LAYER
  2
105
 70
     0
 62
     7
  6
CONTINUOUS
  0
LAYER
  2
106
 70
     0
 62
     7
  6
CONTINUOUS
  0
LAYER
  2
107
 70
     0
 62
     7
  6
CONTINUOUS
  0
LAYER
  2
108
 70
     0
 62
     7
  6
CONTINUOUS
  0
LAYER
  2
109
 70
     0
 62
     7
  6
CONTINUOUS
  0
LAYER
  2
110
 70
     0
 62
     7
  6
CONTINUOUS
  0
LAYER
  2
111
 70
     0
 62
     7
  6
CONTINUOUS
  0
LAYER
  2
112
 70
     0
 62
     7
  6
CONTINUOUS
  0
LAYER
  2
113
 70
     0
 62
     7
  6
CONTINUOUS
  0
LAYER
  2
114
 70
     0
 62
     7
  6
CONTINUOUS
  0
LAYER
  2
115
 70
     0
 62
     7
  6
CONTINUOUS
  0
LAYER
  2
116
 70
     0
 62
     7
  6
CONTINUOUS
  0
LAYER
  2
117
 70
     0
 62
     7
  6
CONTINUOUS
  0
LAYER
  2
118
 70
     0
 62
     7
  6
CONTINUOUS
  0
LAYER
  2
119
 70
     0
 62
     7
  6
CONTINUOUS
  0
LAYER
  2
120
 70
     0
 62
     7
  6
CONTINUOUS
  0
LAYER
  2
121
 70
     0
 62
     7
  6
CONTINUOUS
  0
LAYER
  2
122
 70
     0
 62
     7
  6
CONTINUOUS
  0
LAYER
  2
123
 70
     0
 62
     7
  6
CONTINUOUS
  0
LAYER
  2
124
 70
     0
 62
     7
  6
CONTINUOUS
  0
LAYER
  2
125
 70
     0
 62
     7
  6
CONTINUOUS
  0
LAYER
  2
126
 70
     0
 62
     7
  6
CONTINUOUS
  0
LAYER
  2
127
 70
     0
 62
     7
  6
CONTINUOUS
  0
LAYER
  2
128
 70
     0
 62
     7
  6
CONTINUOUS
  0
ENDTAB
  0
TABLE
  2
STYLE
 70
    20
  0
STYLE
  2
STANDARD
 70
     0
 40
0.0
 41
1.0
 50
0.0
 71
     0
 42
0.2
  3
txt.shx
  4
extfont.shx
  0
STYLE
  2
KANJI0
 70
     0
 40
3.0
 41
0.9
 50
0.0
 71
     0
 42
3.0
  3
txt.shx
  4
extfont.shx
  0
STYLE
  2
KANJI1
 70
     0
 40
3.0
 41
0.9
 50
0.0
 71
     0
 42
3.0
  3
txt.shx
  4
extfont.shx
  0
STYLE
  2
KANJI2
 70
     0
 40
3.0
 41
0.7
 50
0.0
 71
     0
 42
3.0
  3
txt.shx
  4
extfont.shx
  0
STYLE
  2
KANJI3
 70
     0
 40
3.0
 41
0.9
 50
0.0
 71
     0
 42
3.0
  3
txt.shx
  4
extfont.shx
  0
STYLE
  2
KANJI4
 70
     0
 40
3.0
 41
0.6
 50
0.0
 71
     0
 42
3.0
  3
txt.shx
  4
extfont.shx
  0
STYLE
  2
KANJI5
 70
     0
 40
4.0
 41
0.9
 50
0.0
 71
     0
 42
4.0
  3
txt.shx
  4
extfont.shx
  0
STYLE
  2
KANJI6
 70
     0
 40
3.0
 41
0.6
 50
0.0
 71
     0
 42
3.0
  3
txt.shx
  4
extfont.shx
  0
STYLE
  2
KANJI7
 70
     0
 40
3.0
 41
0.8
 50
0.0
 71
     0
 42
3.0
  3
txt.shx
  4
extfont.shx
  0
STYLE
  2
KANJI8
 70
     0
 40
3.0
 41
0.8
 50
0.0
 71
     0
 42
3.0
  3
txt.shx
  4
extfont.shx
  0
STYLE
  2
KANJI9
 70
     0
 40
3.0
 41
0.733333333
 50
0.0
 71
     0
 42
3.0
  3
txt.shx
  4
extfont.shx
  0
STYLE
  2
KANJI10
 70
     0
 40
3.0
 41
0.9
 50
0.0
 71
     0
 42
3.0
  3
txt.shx
  4
extfont.shx
  0
STYLE
  2
KANJI11
 70
     0
 40
1.8
 41
0.6
 50
0.0
 71
     0
 42
1.8
  3
txt.shx
  4
extfont.shx
  0
STYLE
  2
KANJI12
 70
     0
 40
3.0
 41
0.8
 50
0.0
 71
     0
 42
3.0
  3
txt.shx
  4
extfont.shx
  0
STYLE
  2
KANJI13
 70
     0
 40
3.0
 41
0.9
 50
0.0
 71
     0
 42
3.0
  3
txt.shx
  4
extfont.shx
  0
STYLE
  2
KANJI14
 70
     0
 40
2.8
 41
0.428571429
 50
0.0
 71
     0
 42
2.8
  3
txt.shx
  4
extfont.shx
  0
STYLE
  2
KANJI15
 70
     0
 40
3.0
 41
1.0
 50
0.0
 71
     0
 42
3.0
  3
txt.shx
  4
extfont.shx
  0
STYLE
  2
KANJI16
 70
     0
 40
3.0
 41
0.833333333
 50
0.0
 71
     0
 42
3.0
  3
txt.shx
  4
extfont.shx
  0
STYLE
  2
KANJI17
 70
     0
 40
5.0
 41
0.9
 50
0.0
 71
     0
 42
5.0
  3
txt.shx
  4
extfont.shx
  0
STYLE
  2
KANJI18
 70
     0
 40
6.0
 41
0.833333333
 50
0.0
 71
     0
 42
6.0
  3
txt.shx
  4
extfont.shx
  0
ENDTAB
  0
TABLE
  2
VIEW
 70
     0
  0
ENDTAB
  0
ENDSEC
  0
SECTION
  2
BLOCKS
  0
ENDSEC
  0
SECTION
  2
ENTITIES
  0
LINE
  8
0
  6
CONTINUOUS
 62
     2
 10
215.9
 20
53.0
 30
0.0
 11
222.5
 21
53.0
 31
0.0
  0
TEXT
  8
0
  6
CONTINUOUS
 62
     2
 10
16.0
 20
71.0
 30
0.3
 40
3.0
  1
項
 50
0.0
 41
0.9
 51
0.0
  7
KANJI0
  0
TEXT
  8
0
  6
CONTINUOUS
 62
     2
 10
16.0
 20
66.0
 30
0.3
 40
3.0
  1
１
 50
0.0
 41
0.9
 51
0.0
  7
KANJI0
  0
TEXT
  8
0
  6
CONTINUOUS
 62
     2
 10
16.0
 20
61.0
 30
0.3
 40
3.0
  1
２
 50
0.0
 41
0.9
 51
0.0
  7
KANJI0
  0
TEXT
  8
0
  6
CONTINUOUS
 62
     2
 10
16.0
 20
56.0
 30
0.3
 40
3.0
  1
３
 50
0.0
 41
0.9
 51
0.0
  7
KANJI0
  0
TEXT
  8
0
  6
CONTINUOUS
 62
     2
 10
16.0
 20
46.0
 30
0.3
 40
3.0
  1
５
 50
0.0
 41
0.9
 51
0.0
  7
KANJI0
  0
TEXT
  8
0
  6
CONTINUOUS
 62
     2
 10
16.0
 20
51.0
 30
0.3
 40
3.0
  1
４
 50
0.0
 41
0.9
 51
0.0
  7
KANJI0
  0
TEXT
  8
0
  6
CONTINUOUS
 62
     2
 10
30.0
 20
71.0
 30
5.0
 40
3.0
  1
品名
 50
0.0
 41
0.9
 51
0.0
  7
KANJI1
  0
TEXT
  8
0
  6
CONTINUOUS
 62
     2
 10
22.0
 20
51.0
 30
0.3
 40
3.0
  1
周波数計
 50
0.0
 41
0.7
 51
0.0
  7
KANJI2
  0
TEXT
  8
0
  6
CONTINUOUS
 62
     2
 10
22.0
 20
66.0
 30
0.3
 40
3.0
  1
直流電圧計または電流計　　
 50
0.0
 41
0.7
 51
0.0
  7
KANJI2
  0
TEXT
  8
0
  6
CONTINUOUS
 62
     2
 10
22.0
 20
61.0
 30
0.3
 40
3.0
  1
交流電圧計または電流計
 50
0.0
 41
0.7
 51
0.0
  7
KANJI2
  0
TEXT
  8
0
  6
CONTINUOUS
 62
     2
 10
22.0
 20
56.0
 30
0.3
 40
3.0
  1
交流電圧計または電流計
 50
0.0
 41
0.7
 51
0.0
  7
KANJI2
  0
TEXT
  8
0
  6
CONTINUOUS
 62
     2
 10
22.0
 20
46.0
 30
0.3
 40
3.0
  1
交流電圧計または電流計
 50
0.0
 41
0.7
 51
0.0
  7
KANJI2
  0
LINE
  8
0
  6
CONTINUOUS
 62
     2
 10
215.4
 20
53.0
 30
0.0
 11
222.0
 21
53.0
 31
0.0
  0
LINE
  8
0
  6
CONTINUOUS
 62
     1
 10
100.5
 20
159.5
 30
0.0
 11
100.5
 21
104.5
 31
0.0
  0
ARC
  8
0
  6
CONTINUOUS
 62
     2
 10
101.5005
 20
109.5
 30
0.0
 40
4.165
 50
343.5
 51
16.5
  0
ARC
  8
0
  6
CONTINUOUS
 62
     2
 10
107.748
 20
109.5
 30
0.0
 40
4.165
 50
163.7
 51
196.5
  0
ARC
  8
0
  6
CONTINUOUS
 62
     2
 10
104.62425
 20
107.729875
 30
0.0
 40
1.04125
 50
325.0
 51
35.0
  0
ARC
  8
0
  6
CONTINUOUS
 62
     2
 10
104.62425
 20
107.729875
 30
0.0
 40
1.04125
 50
145.0
 51
215.0
  0
ARC
  8
0
  6
CONTINUOUS
 62
     2
 10
104.62425
 20
111.270125
 30
0.0
 40
1.04125
 50
145.0
 51
215.0
  0
ARC
  8
0
  6
CONTINUOUS
 62
     2
 10
104.62425
 20
111.270125
 30
0.0
 40
1.04125
 50
325.0
 51
35.0
  0
LINE
  8
0
  6
CONTINUOUS
 62
     2
 10
103.750410959
 20
110.668976843
 30
0.0
 11
105.478885959
 21
110.668976843
 31
0.0
  0
LINE
  8
0
  6
CONTINUOUS
 62
     2
 10
105.493984196
 20
108.317076089
 30
0.0
 11
103.754515804
 21
108.317076089
 31
0.0
  0
LINE
  8
0
  6
CONTINUOUS
 62
     2
 10
105.6655
 20
111.270125
 30
0.0
 11
105.6655
 21
107.729875
 31
0.0
  0
LINE
  8
0
  6
CONTINUOUS
 62
     2
 10
105.482990804
 20
107.12595
 30
0.0
 11
103.583
 21
107.12595
 31
0.0
  0
LINE
  8
0
  6
CONTINUOUS
 62
     2
 10
103.583
 20
111.87405
 30
0.0
 11
105.478075
 21
111.87405
 31
0.0
  0
LINE
  8
0
  6
CONTINUOUS
 62
     2
 10
103.583
 20
107.12595
 30
0.0
 11
103.583
 21
111.87405
 31
0.0
  0
LINE
  8
0
  6
CONTINUOUS
 62
     2
 10
102.75
 20
106.70945
 30
0.0
 11
103.583
 21
107.12595
 31
0.0
  0
LINE
  8
0
  6
CONTINUOUS
 62
     2
 10
102.75
 20
112.29055
 30
0.0
 11
103.583
 21
111.87405
 31
0.0
  0
LINE
  8
0
  6
CONTINUOUS
 62
     2
 10
102.75
 20
106.70945
 30
0.0
 11
102.75
 21
112.29055
 31
0.0
  0
LINE
  8
0
  6
CONTINUOUS
 62
     1
 10
102.75
 20
107.25
 30
0.0
 11
100.75
 21
107.25
 31
0.0
  0
LINE
  8
0
  6
CONTINUOUS
 62
     2
 10
100.75
 20
112.5
 30
0.0
 11
100.5
 21
112.5
 31
0.0
  0
LINE
  8
0
  6
CONTINUOUS
 62
     2
 10
100.75
 20
110.645375
 30
0.0
 11
102.75
 21
110.645375
 31
0.0
  0
LINE
  8
0
  6
CONTINUOUS
 62
     2
 10
102.75
 20
110.7495
 30
0.0
 11
100.75
 21
110.7495
 31
0.0
  0
LINE
  8
0
  6
CONTINUOUS
 62
     2
 10
100.75
 20
108.2505
 30
0.0
 11
102.75
 21
108.2505
 31
0.0
  0
LINE
  8
0
  6
CONTINUOUS
 62
     2
 10
102.75
 20
108.346295
 30
0.0
 11
100.75
 21
108.346295
 31
0.0
  0
LINE
  8
0
  6
CONTINUOUS
 62
     2
 10
100.5
 20
106.5
 30
0.0
 11
100.75
 21
106.5
 31
0.0
  0
LINE
  8
0
  6
CONTINUOUS
 62
     2
 10
100.75
 20
106.5
 30
0.0
 11
100.75
 21
112.5
 31
0.0
  0
LINE
  8
0
  6
CONTINUOUS
 62
     2
 10
108.25
 20
108.2505
 30
0.0
 11
108.25
 21
110.7495
 31
0.0
  0
ARC
  8
0
  6
CONTINUOUS
 62
     2
 10
101.5005
 20
154.5
 30
0.0
 40
4.165
 50
343.5
 51
16.5
  0
ARC
  8
0
  6
CONTINUOUS
 62
     2
 10
107.748
 20
154.5
 30
0.0
 40
4.165
 50
163.5
 51
196.3
  0
ARC
  8
0
  6
CONTINUOUS
 62
     2
 10
104.62425
 20
156.270125
 30
0.0
 40
1.04125
 50
325.0
 51
35.0
  0
ARC
  8
0
  6
CONTINUOUS
 62
     2
 10
104.62425
 20
156.270125
 30
0.0
 40
1.04125
 50
145.0
 51
215.0
  0
ARC
  8
0
  6
CONTINUOUS
 62
     2
 10
104.62425
 20
152.729875
 30
0.0
 40
1.04125
 50
145.0
 51
215.0
  0
ARC
  8
0
  6
CONTINUOUS
 62
     2
 10
104.62425
 20
152.729875
 30
0.0
 40
1.04125
 50
325.0
 51
35.0
  0
LINE
  8
0
  6
CONTINUOUS
 62
     2
 10
103.750410959
 20
153.331023157
 30
0.0
 11
105.478885959
 21
153.331023157
 31
0.0
  0
LINE
  8
0
  6
CONTINUOUS
 62
     2
 10
105.493984196
 20
155.682923911
 30
0.0
 11
103.754515804
 21
155.682923911
 31
0.0
  0
LINE
  8
0
  6
CONTINUOUS
 62
     2
 10
105.6655
 20
152.729875
 30
0.0
 11
105.6655
 21
156.270125
 31
0.0
  0
LINE
  8
0
  6
CONTINUOUS
 62
     2
 10
105.482990804
 20
156.87405
 30
0.0
 11
103.583
 21
156.87405
 31
0.0
  0
LINE
  8
0
  6
CONTINUOUS
 62
     2
 10
103.583
 20
152.12595
 30
0.0
 11
105.478075
 21
152.12595
 31
0.0
  0
LINE
  8
0
  6
CONTINUOUS
 62
     2
 10
103.583
 20
156.87405
 30
0.0
 11
103.583
 21
152.12595
 31
0.0
  0
LINE
  8
0
  6
CONTINUOUS
 62
     2
 10
102.75
 20
157.29055
 30
0.0
 11
103.583
 21
156.87405
 31
0.0
  0
LINE
  8
0
  6
CONTINUOUS
 62
     2
 10
102.75
 20
151.70945
 30
0.0
 11
103.583
 21
152.12595
 31
0.0
  0
LINE
  8
0
  6
CONTINUOUS
 62
     2
 10
102.75
 20
157.29055
 30
0.0
 11
102.75
 21
151.70945
 31
0.0
  0
LINE
  8
0
  6
CONTINUOUS
 62
     1
 10
102.75
 20
156.75
 30
0.0
 11
100.75
 21
156.75
 31
0.0
  0
LINE
  8
0
  6
CONTINUOUS
 62
     2
 10
100.75
 20
157.5
 30
0.0
 11
100.5
 21
157.5
 31
0.0
  0
LINE
  8
0
  6
CONTINUOUS
 62
     2
 10
100.75
 20
155.7495
 30
0.0
 11
102.75
 21
155.7495
 31
0.0
  0
LINE
  8
0
  6
CONTINUOUS
 62
     2
 10
102.75
 20
155.653705
 30
0.0
 11
100.75
 21
155.653705
 31
0.0
  0
LINE
  8
0
  6
CONTINUOUS
 62
     2
 10
108.25
 20
155.7495
 30
0.0
 11
108.25
 21
153.2505
 31
0.0
  0
LINE
  8
0
  6
CONTINUOUS
 62
     2
 10
100.75
 20
153.354625
 30
0.0
 11
102.75
 21
153.354625
 31
0.0
  0
LINE
  8
0
  6
CONTINUOUS
 62
     2
 10
102.75
 20
153.2505
 30
0.0
 11
100.75
 21
153.2505
 31
0.0
  0
LINE
  8
0
  6
CONTINUOUS
 62
     2
 10
100.5
 20
151.5
 30
0.0
 11
100.75
 21
151.5
 31
0.0
  0
LINE
  8
0
  6
CONTINUOUS
 62
     2
 10
100.75
 20
151.5
 30
0.0
 11
100.75
 21
157.5
 31
0.0
  0
LINE
  8
0
  6
CONTINUOUS
 62
     2
 10
105.6655
 20
155.7495
 30
0.0
 11
108.25
 21
155.7495
 31
0.0
  0
LINE
  8
0
  6
CONTINUOUS
 62
     2
 10
108.25
 20
155.653705
 30
0.0
 11
105.6655
 21
155.653705
 31
0.0
  0
LINE
  8
0
  6
CONTINUOUS
 62
     2
 10
105.6655
 20
153.354625
 30
0.0
 11
108.25
 21
153.354625
 31
0.0
  0
LINE
  8
0
  6
CONTINUOUS
 62
     2
 10
108.25
 20
153.2505
 30
0.0
 11
105.6655
 21
153.2505
 31
0.0
  0
LINE
  8
0
  6
CONTINUOUS
 62
     2
 10
117.0
 20
156.75
 30
0.0
 11
116.352952387
 21
154.335185434
 31
0.0
  0
LINE
  8
0
  6
CONTINUOUS
 62
     2
 10
117.0
 20
156.75
 30
0.0
 11
117.647047613
 21
154.335185434
 31
0.0
  0
LINE
  8
0
  6
CONTINUOUS
 62
     2
 10
117.0
 20
107.25
 30
0.0
 11
117.0
 21
156.75
 31
0.0
  0
LINE
  8
0
  6
CONTINUOUS
 62
     2
 10
117.0
 20
107.25
 30
0.0
 11
117.647047613
 21
109.664814566
 31
0.0
  0
LINE
  8
0
  6
CONTINUOUS
 62
     2
 10
117.0
 20
107.25
 30
0.0
 11
116.352952387
 21
109.664814566
 31
0.0
  0
LINE
  8
0
  6
CONTINUOUS
 62
     1
 10
140.5
 20
107.5
 30
0.0
 11
140.5
 21
109.0
 31
0.0
  0
LINE
  8
0
  6
CONTINUOUS
 62
     1
 10
140.5
 20
155.0
 30
0.0
 11
140.5
 21
156.5
 31
0.0
  0
LINE
  8
0
  6
CONTINUOUS
 62
     1
 10
140.5
 20
155.0
 30
0.0
 11
140.5
 21
107.5
 31
0.0
  0
LINE
  8
0
  6
CONTINUOUS
 62
     1
 10
143.0
 20
155.879100809
 30
0.0
 11
143.0
 21
139.75
 31
0.0
  0
LINE
  8
0
  6
CONTINUOUS
 62
     1
 10
140.5
 20
156.5
 30
0.0
 11
142.529946145
 21
156.378203231
 31
0.0
  0
ARC
  8
0
  6
CONTINUOUS
 62
     1
 10
142.5
 20
155.879100809
 30
0.0
 40
0.5
 50
0.0
 51
86.566369638
  0
LINE
  8
0
  6
CONTINUOUS
 62
     1
 10
143.0
 20
129.25
 30
0.0
 11
143.0
 21
108.120899191
 31
0.0
  0
LINE
  8
0
  6
CONTINUOUS
 62
     1
 10
140.5
 20
107.5
 30
0.0
 11
142.529946145
 21
107.621796769
 31
0.0
  0
ARC
  8
0
  6
CONTINUOUS
 62
     1
 10
142.5
 20
108.120899191
 30
0.0
 40
0.5
 50
273.433630362
 51
0.0
  0
LINE
  8
0
  6
CONTINUOUS
 62
     1
 10
105.545368686
 20
156.780657624
 30
0.0
 11
140.5
 21
156.5
 31
0.0
  0
LINE
  8
0
  6
CONTINUOUS
 62
     1
 10
105.548328756
 20
107.275
 30
0.0
 11
140.5
 21
107.5
 31
0.0
  0
ARC
  8
0
  6
CONTINUOUS
 62
     1
 10
143.25
 20
129.25
 30
0.0
 40
0.25
 50
90.0
 51
180.0
  0
ARC
  8
0
  6
CONTINUOUS
 62
     1
 10
143.25
 20
139.75
 30
0.0
 40
0.25
 50
180.0
 51
270.0
  0
LINE
  8
0
  6
CONTINUOUS
 62
     1
 10
143.0
 20
139.75
 30
0.0
 11
143.0
 21
129.25
 31
0.0
  0
ARC
  8
0
  6
LTYPE1
 62
     2
 10
126.5
 20
154.5
 30
0.0
 40
1.0
 50
0.0
 51
180.0
  0
ARC
  8
0
  6
LTYPE1
 62
     2
 10
130.0
 20
154.5
 30
0.0
 40
1.0
 50
0.0
 51
180.0
  0
ARC
  8
0
  6
LTYPE1
 62
     2
 10
133.5
 20
154.5
 30
0.0
 40
1.0
 50
0.0
 51
180.0
  0
ARC
  8
0
  6
LTYPE1
 62
     2
 10
137.0
 20
154.5
 30
0.0
 40
1.0
 50
0.0
 51
180.0
  0
ARC
  8
0
  6
LTYPE1
 62
     2
 10
137.0
 20
152.0
 30
0.0
 40
1.0
 50
180.0
 51
0.0
  0
ARC
  8
0
  6
LTYPE1
 62
     2
 10
133.5
 20
152.0
 30
0.0
 40
1.0
 50
180.0
 51
0.0
  0
ARC
  8
0
  6
LTYPE1
 62
     2
 10
130.0
 20
152.0
 30
0.0
 40
1.0
 50
180.0
 51
0.0
  0
ARC
  8
0
  6
LTYPE1
 62
     2
 10
126.5
 20
152.0
 30
0.0
 40
1.0
 50
180.0
 51
0.0
  0
LINE
  8
0
  6
LTYPE1
 62
     2
 10
125.5
 20
154.5
 30
0.0
 11
125.5
 21
152.0
 31
0.0
  0
LINE
  8
0
  6
LTYPE1
 62
     2
 10
127.5
 20
152.0
 30
0.0
 11
127.5
 21
154.5
 31
0.0
  0
LINE
  8
0
  6
LTYPE1
 62
     2
 10
129.0
 20
154.5
 30
0.0
 11
129.0
 21
152.0
 31
0.0
  0
POINT
  8
0
  6
LTYPE1
 62
     2
 10
131.0
 20
152.0
 30
0.0
  0
LINE
  8
0
  6
LTYPE1
 62
     2
 10
131.0
 20
152.0
 30
0.0
 11
131.0
 21
154.5
 31
0.0
  0
LINE
  8
0
  6
LTYPE1
 62
     2
 10
132.5
 20
154.5
 30
0.0
 11
132.5
 21
152.0
 31
0.0
  0
LINE
  8
0
  6
LTYPE1
 62
     2
 10
134.5
 20
152.0
 30
0.0
 11
134.5
 21
154.5
 31
0.0
  0
LINE
  8
0
  6
LTYPE1
 62
     2
 10
136.0
 20
154.5
 30
0.0
 11
136.0
 21
152.0
 31
0.0
  0
LINE
  8
0
  6
LTYPE1
 62
     2
 10
138.0
 20
152.0
 30
0.0
 11
138.0
 21
154.5
 31
0.0
  0
ARC
  8
0
  6
LTYPE1
 62
     2
 10
126.5
 20
112.1
 30
0.0
 40
1.0
 50
0.0
 51
180.0
  0
ARC
  8
0
  6
LTYPE1
 62
     2
 10
130.0
 20
112.1
 30
0.0
 40
1.0
 50
0.0
 51
180.0
  0
ARC
  8
0
  6
LTYPE1
 62
     2
 10
133.5
 20
112.1
 30
0.0
 40
1.0
 50
0.0
 51
180.0
  0
ARC
  8
0
  6
LTYPE1
 62
     2
 10
137.0
 20
112.1
 30
0.0
 40
1.0
 50
0.0
 51
180.0
  0
ARC
  8
0
  6
LTYPE1
 62
     2
 10
137.0
 20
109.5
 30
0.0
 40
1.0
 50
180.0
 51
0.0
  0
ARC
  8
0
  6
LTYPE1
 62
     2
 10
133.5
 20
109.5
 30
0.0
 40
1.0
 50
180.0
 51
0.0
  0
ARC
  8
0
  6
LTYPE1
 62
     2
 10
130.0
 20
109.5
 30
0.0
 40
1.0
 50
180.0
 51
0.0
  0
ARC
  8
0
  6
LTYPE1
 62
     2
 10
126.5
 20
109.5
 30
0.0
 40
1.0
 50
180.0
 51
0.0
  0
LINE
  8
0
  6
LTYPE1
 62
     2
 10
138.0
 20
109.5
 30
0.0
 11
138.0
 21
112.1
 31
0.0
  0
LINE
  8
0
  6
LTYPE1
 62
     2
 10
136.0
 20
112.1
 30
0.0
 11
136.0
 21
109.5
 31
0.0
  0
POINT
  8
0
  6
LTYPE1
 62
     2
 10
134.5
 20
109.5
 30
0.0
  0
LINE
  8
0
  6
LTYPE1
 62
     2
 10
134.5
 20
109.5
 30
0.0
 11
134.5
 21
112.1
 31
0.0
  0
LINE
  8
0
  6
LTYPE1
 62
     2
 10
132.5
 20
112.1
 30
0.0
 11
132.5
 21
109.5
 31
0.0
  0
POINT
  8
0
  6
LTYPE1
 62
     2
 10
131.0
 20
109.5
 30
0.0
  0
LINE
  8
0
  6
LTYPE1
 62
     2
 10
131.0
 20
109.5
 30
0.0
 11
131.0
 21
112.1
 31
0.0
  0
LINE
  8
0
  6
LTYPE1
 62
     2
 10
129.0
 20
112.1
 30
0.0
 11
129.0
 21
109.5
 31
0.0
  0
LINE
  8
0
  6
LTYPE1
 62
     2
 10
127.5
 20
109.5
 30
0.0
 11
127.5
 21
112.1
 31
0.0
  0
LINE
  8
0
  6
LTYPE1
 62
     2
 10
125.5
 20
112.1
 30
0.0
 11
125.5
 21
109.5
 31
0.0
  0
ARC
  8
0
  6
CONTINUOUS
 62
     1
 10
150.5
 20
130.0
 30
0.0
 40
0.5
 50
270.0
 51
0.0
  0
LINE
  8
0
  6
CONTINUOUS
 62
     1
 10
151.0
 20
139.0
 30
0.0
 11
151.0
 21
130.0
 31
0.0
  0
ARC
  8
0
  6
CONTINUOUS
 62
     1
 10
150.5
 20
139.0
 30
0.0
 40
0.5
 50
0.0
 51
90.0
  0
LINE
  8
0
  6
CONTINUOUS
 62
     1
 10
150.0
 20
136.5
 30
0.0
 11
150.0
 21
132.5
 31
0.0
  0
LINE
  8
0
  6
CONTINUOUS
 62
     1
 10
150.0
 20
136.5
 30
0.0
 11
149.5
 21
136.5
 31
0.0
  0
LINE
  8
0
  6
CONTINUOUS
 62
     1
 10
150.0
 20
132.5
 30
0.0
 11
149.5
 21
132.5
 31
0.0
  0
LINE
  8
0
  6
CONTINUOUS
 62
     1
 10
149.5
 20
136.5
 30
0.0
 11
149.5
 21
132.5
 31
0.0
  0
LINE
  8
0
  6
CONTINUOUS
 62
     1
 10
143.25
 20
139.5
 30
0.0
 11
150.5
 21
139.5
 31
0.0
  0
LINE
  8
0
  6
CONTINUOUS
 62
     1
 10
143.25
 20
129.5
 30
0.0
 11
150.5
 21
129.5
 31
0.0
  0
LINE
  8
0
  6
CONTINUOUS
 62
     2
 10
170.570094052
 20
34.730876358
 30
0.0
 11
172.705182511
 21
36.031413659
 31
0.0
  0
LINE
  8
0
  6
CONTINUOUS
 62
     2
 10
170.570094052
 20
34.730876358
 30
0.0
 11
171.768866247
 21
36.924718929
 31
0.0
  0
LINE
  8
0
  6
CONTINUOUS
 62
     2
 10
170.570094052
 20
34.730876358
 30
0.0
 11
205.429905948
 21
71.269123642
 31
0.0
  0
LINE
  8
0
  6
CONTINUOUS
 62
     2
 10
205.429905948
 20
71.269123642
 30
0.0
 11
203.294817489
 21
69.968586341
 31
0.0
  0
LINE
  8
0
  6
CONTINUOUS
 62
     2
 10
205.429905948
 20
71.269123642
 30
0.0
 11
204.231133753
 21
69.075281071
 31
0.0
  0
CIRCLE
  8
0
  6
CONTINUOUS
 62
     1
 10
188.0
 20
53.0
 30
0.0
 40
25.25
  0
TEXT
  8
0
  6
CONTINUOUS
 62
     1
 10
178.85
 20
19.749876358
 30
0.5
 40
3.0
  1
パネルカット
 50
0.0
 41
0.9
 51
0.0
  7
KANJI3
  0
LINE
  8
0
  6
CONTINUOUS
 62
     1
 10
177.6
 20
18.899876358
 30
0.0
 11
198.5
 21
18.899876358
 31
0.0
  0
CIRCLE
  8
0
  6
CONTINUOUS
 62
     1
 10
165.5
 20
30.5
 30
0.0
 40
1.5
  0
LINE
  8
0
  6
CONTINUOUS
 62
     2
 10
164.503053791
 20
29.379242106
 30
0.0
 11
162.92278155
 21
27.442043189
 31
0.0
  0
LINE
  8
0
  6
CONTINUOUS
 62
     2
 10
164.503053791
 20
29.379242106
 30
0.0
 11
164.103097343
 21
26.911442512
 31
0.0
  0
CIRCLE
  8
0
  6
CONTINUOUS
 62
     1
 10
165.5
 20
75.5
 30
0.0
 40
1.5
  0
CIRCLE
  8
0
  6
CONTINUOUS
 62
     1
 10
210.5
 20
75.5
 30
0.0
 40
1.5
  0
CIRCLE
  8
0
  6
CONTINUOUS
 62
     1
 10
210.5
 20
30.5
 30
0.0
 40
1.5
  0
ARC
  8
0
  6
CONTINUOUS
 62
     1
 10
212.5
 20
107.5
 30
0.0
 40
3.0
 50
270.0
 51
0.0
  0
LINE
  8
0
  6
CONTINUOUS
 62
     1
 10
163.5
 20
104.5
 30
0.0
 11
212.5
 21
104.5
 31
0.0
  0
ARC
  8
0
  6
CONTINUOUS
 62
     1
 10
163.5
 20
107.5
 30
0.0
 40
3.0
 50
180.0
 51
270.0
  0
LINE
  8
0
  6
CONTINUOUS
 62
     1
 10
160.5
 20
156.5
 30
0.0
 11
160.5
 21
107.5
 31
0.0
  0
ARC
  8
0
  6
CONTINUOUS
 62
     1
 10
163.5
 20
156.5
 30
0.0
 40
3.0
 50
90.0
 51
180.0
  0
LINE
  8
0
  6
CONTINUOUS
 62
     1
 10
215.5
 20
107.5
 30
0.0
 11
215.5
 21
156.5
 31
0.0
  0
LINE
  8
0
  6
CONTINUOUS
 62
     1
 10
212.5
 20
159.5
 30
0.0
 11
163.5
 21
159.5
 31
0.0
  0
ARC
  8
0
  6
CONTINUOUS
 62
     1
 10
212.5
 20
156.5
 30
0.0
 40
3.0
 50
360.0
 51
90.0
  0
CIRCLE
  8
0
  6
CONTINUOUS
 62
     1
 10
188.0
 20
132.0
 30
0.0
 40
24.75
  0
ARC
  8
0
  6
CONTINUOUS
 62
     2
 10
163.25
 20
107.25
 30
0.0
 40
1.5
 50
180.0
 51
270.0
  0
LINE
  8
0
  6
CONTINUOUS
 62
     2
 10
161.75
 20
156.75
 30
0.0
 11
161.75
 21
107.25
 31
0.0
  0
ARC
  8
0
  6
CONTINUOUS
 62
     2
 10
163.25
 20
156.75
 30
0.0
 40
1.5
 50
90.0
 51
180.0
  0
LINE
  8
0
  6
CONTINUOUS
 62
     2
 10
212.75
 20
158.25
 30
0.0
 11
163.25
 21
158.25
 31
0.0
  0
ARC
  8
0
  6
CONTINUOUS
 62
     2
 10
212.75
 20
156.75
 30
0.0
 40
1.5
 50
0.0
 51
90.0
  0
LINE
  8
0
  6
CONTINUOUS
 62
     2
 10
163.25
 20
105.75
 30
0.0
 11
212.75
 21
105.75
 31
0.0
  0
LINE
  8
0
  6
CONTINUOUS
 62
     2
 10
214.25
 20
107.25
 30
0.0
 11
214.25
 21
156.75
 31
0.0
  0
ARC
  8
0
  6
CONTINUOUS
 62
     2
 10
212.75
 20
107.25
 30
0.0
 40
1.5
 50
270.0
 51
360.0
  0
CIRCLE
  8
0
  6
CONTINUOUS
 62
     2
 10
207.052558883
 20
121.0
 30
0.0
 40
1.75
  0
CIRCLE
  8
0
  6
CONTINUOUS
 62
     2
 10
188.0
 20
154.0
 30
0.0
 40
1.75
  0
CIRCLE
  8
0
  6
CONTINUOUS
 62
     2
 10
168.947441117
 20
121.0
 30
0.0
 40
1.75
  0
CIRCLE
  8
0
  6
CONTINUOUS
 62
     2
 10
168.947441117
 20
121.0
 30
0.0
 40
1.5
  0
LINE
  8
0
  6
CONTINUOUS
 62
     2
 10
168.072441117
 20
121.2
 30
0.0
 11
168.547441117
 21
121.2
 31
0.0
  0
ARC
  8
0
  6
CONTINUOUS
 62
     2
 10
168.547441117
 20
121.4
 30
0.0
 40
0.2
 50
270.0
 51
0.0
  0
LINE
  8
0
  6
CONTINUOUS
 62
     2
 10
168.747441117
 20
121.4
 30
0.0
 11
168.747441117
 21
121.875
 31
0.0
  0
LINE
  8
0
  6
CONTINUOUS
 62
     2
 10
168.747441117
 20
121.875
 30
0.0
 11
169.147441117
 21
121.875
 31
0.0
  0
LINE
  8
0
  6
CONTINUOUS
 62
     2
 10
169.147441117
 20
121.875
 30
0.0
 11
169.147441117
 21
121.4
 31
0.0
  0
ARC
  8
0
  6
CONTINUOUS
 62
     2
 10
169.347441117
 20
121.4
 30
0.0
 40
0.2
 50
180.0
 51
270.0
  0
LINE
  8
0
  6
CONTINUOUS
 62
     2
 10
169.347441117
 20
121.2
 30
0.0
 11
169.822441117
 21
121.2
 31
0.0
  0
LINE
  8
0
  6
CONTINUOUS
 62
     2
 10
169.822441117
 20
121.2
 30
0.0
 11
169.822441117
 21
120.8
 31
0.0
  0
LINE
  8
0
  6
CONTINUOUS
 62
     2
 10
169.822441117
 20
120.8
 30
0.0
 11
169.347441117
 21
120.8
 31
0.0
  0
ARC
  8
0
  6
CONTINUOUS
 62
     2
 10
169.347441117
 20
120.6
 30
0.0
 40
0.2
 50
90.0
 51
180.0
  0
LINE
  8
0
  6
CONTINUOUS
 62
     2
 10
169.147441117
 20
120.6
 30
0.0
 11
169.147441117
 21
120.125
 31
0.0
  0
LINE
  8
0
  6
CONTINUOUS
 62
     2
 10
169.147441117
 20
120.125
 30
0.0
 11
168.747441117
 21
120.125
 31
0.0
  0
LINE
  8
0
  6
CONTINUOUS
 62
     2
 10
168.747441117
 20
120.125
 30
0.0
 11
168.747441117
 21
120.6
 31
0.0
  0
ARC
  8
0
  6
CONTINUOUS
 62
     2
 10
168.547441117
 20
120.6
 30
0.0
 40
0.2
 50
0.0
 51
90.0
  0
LINE
  8
0
  6
CONTINUOUS
 62
     2
 10
168.547441117
 20
120.8
 30
0.0
 11
168.072441117
 21
120.8
 31
0.0
  0
LINE
  8
0
  6
CONTINUOUS
 62
     2
 10
168.072441117
 20
120.8
 30
0.0
 11
168.072441117
 21
121.2
 31
0.0
  0
CIRCLE
  8
0
  6
CONTINUOUS
 62
     2
 10
188.0
 20
154.0
 30
0.0
 40
1.5
  0
LINE
  8
0
  6
CONTINUOUS
 62
     2
 10
187.125
 20
154.2
 30
0.0
 11
187.6
 21
154.2
 31
0.0
  0
ARC
  8
0
  6
CONTINUOUS
 62
     2
 10
187.6
 20
154.4
 30
0.0
 40
0.2
 50
270.0
 51
0.0
  0
LINE
  8
0
  6
CONTINUOUS
 62
     2
 10
187.8
 20
154.4
 30
0.0
 11
187.8
 21
154.875
 31
0.0
  0
LINE
  8
0
  6
CONTINUOUS
 62
     2
 10
187.8
 20
154.875
 30
0.0
 11
188.2
 21
154.875
 31
0.0
  0
LINE
  8
0
  6
CONTINUOUS
 62
     2
 10
188.2
 20
154.875
 30
0.0
 11
188.2
 21
154.4
 31
0.0
  0
ARC
  8
0
  6
CONTINUOUS
 62
     2
 10
188.4
 20
154.4
 30
0.0
 40
0.2
 50
180.0
 51
270.0
  0
LINE
  8
0
  6
CONTINUOUS
 62
     2
 10
188.4
 20
154.2
 30
0.0
 11
188.875
 21
154.2
 31
0.0
  0
LINE
  8
0
  6
CONTINUOUS
 62
     2
 10
188.875
 20
154.2
 30
0.0
 11
188.875
 21
153.8
 31
0.0
  0
LINE
  8
0
  6
CONTINUOUS
 62
     2
 10
188.875
 20
153.8
 30
0.0
 11
188.4
 21
153.8
 31
0.0
  0
ARC
  8
0
  6
CONTINUOUS
 62
     2
 10
188.4
 20
153.6
 30
0.0
 40
0.2
 50
90.0
 51
180.0
  0
LINE
  8
0
  6
CONTINUOUS
 62
     2
 10
188.2
 20
153.6
 30
0.0
 11
188.2
 21
153.125
 31
0.0
  0
LINE
  8
0
  6
CONTINUOUS
 62
     2
 10
188.2
 20
153.125
 30
0.0
 11
187.8
 21
153.125
 31
0.0
  0
LINE
  8
0
  6
CONTINUOUS
 62
     2
 10
187.8
 20
153.125
 30
0.0
 11
187.8
 21
153.6
 31
0.0
  0
ARC
  8
0
  6
CONTINUOUS
 62
     2
 10
187.6
 20
153.6
 30
0.0
 40
0.2
 50
0.0
 51
90.0
  0
LINE
  8
0
  6
CONTINUOUS
 62
     2
 10
187.6
 20
153.8
 30
0.0
 11
187.125
 21
153.8
 31
0.0
  0
LINE
  8
0
  6
CONTINUOUS
 62
     2
 10
187.125
 20
153.8
 30
0.0
 11
187.125
 21
154.2
 31
0.0
  0
CIRCLE
  8
0
  6
CONTINUOUS
 62
     2
 10
207.052558883
 20
121.0
 30
0.0
 40
1.5
  0
LINE
  8
0
  6
CONTINUOUS
 62
     2
 10
206.177558883
 20
121.2
 30
0.0
 11
206.652558883
 21
121.2
 31
0.0
  0
ARC
  8
0
  6
CONTINUOUS
 62
     2
 10
206.652558883
 20
121.4
 30
0.0
 40
0.2
 50
270.0
 51
0.0
  0
LINE
  8
0
  6
CONTINUOUS
 62
     2
 10
206.852558883
 20
121.4
 30
0.0
 11
206.852558883
 21
121.875
 31
0.0
  0
LINE
  8
0
  6
CONTINUOUS
 62
     2
 10
206.852558883
 20
121.875
 30
0.0
 11
207.252558883
 21
121.875
 31
0.0
  0
LINE
  8
0
  6
CONTINUOUS
 62
     2
 10
207.252558883
 20
121.875
 30
0.0
 11
207.252558883
 21
121.4
 31
0.0
  0
ARC
  8
0
  6
CONTINUOUS
 62
     2
 10
207.452558883
 20
121.4
 30
0.0
 40
0.2
 50
180.0
 51
270.0
  0
LINE
  8
0
  6
CONTINUOUS
 62
     2
 10
207.452558883
 20
121.2
 30
0.0
 11
207.927558883
 21
121.2
 31
0.0
  0
LINE
  8
0
  6
CONTINUOUS
 62
     2
 10
207.927558883
 20
121.2
 30
0.0
 11
207.927558883
 21
120.8
 31
0.0
  0
LINE
  8
0
  6
CONTINUOUS
 62
     2
 10
207.927558883
 20
120.8
 30
0.0
 11
207.452558883
 21
120.8
 31
0.0
  0
ARC
  8
0
  6
CONTINUOUS
 62
     2
 10
207.452558883
 20
120.6
 30
0.0
 40
0.2
 50
90.0
 51
180.0
  0
LINE
  8
0
  6
CONTINUOUS
 62
     2
 10
207.252558883
 20
120.6
 30
0.0
 11
207.252558883
 21
120.125
 31
0.0
  0
LINE
  8
0
  6
CONTINUOUS
 62
     2
 10
207.252558883
 20
120.125
 30
0.0
 11
206.852558883
 21
120.125
 31
0.0
  0
LINE
  8
0
  6
CONTINUOUS
 62
     2
 10
206.852558883
 20
120.125
 30
0.0
 11
206.852558883
 21
120.6
 31
0.0
  0
ARC
  8
0
  6
CONTINUOUS
 62
     2
 10
206.652558883
 20
120.6
 30
0.0
 40
0.2
 50
0.0
 51
90.0
  0
LINE
  8
0
  6
CONTINUOUS
 62
     2
 10
206.652558883
 20
120.8
 30
0.0
 11
206.177558883
 21
120.8
 31
0.0
  0
LINE
  8
0
  6
CONTINUOUS
 62
     2
 10
206.177558883
 20
120.8
 30
0.0
 11
206.177558883
 21
121.2
 31
0.0
  0
LINE
  8
0
  6
CONTINUOUS
 62
     2
 10
167.512643038
 20
155.662
 30
0.0
 11
165.5
 21
156.824
 31
0.0
  0
LINE
  8
0
  6
CONTINUOUS
 62
     2
 10
165.5
 20
156.824
 30
0.0
 11
163.487356962
 21
155.662
 31
0.0
  0
LINE
  8
0
  6
CONTINUOUS
 62
     2
 10
163.487356962
 20
155.662
 30
0.0
 11
163.487356962
 21
153.338
 31
0.0
  0
LINE
  8
0
  6
CONTINUOUS
 62
     2
 10
163.487356962
 20
153.338
 30
0.0
 11
165.5
 21
152.176
 31
0.0
  0
LINE
  8
0
  6
CONTINUOUS
 62
     2
 10
165.5
 20
152.176
 30
0.0
 11
167.512643038
 21
153.338
 31
0.0
  0
LINE
  8
0
  6
CONTINUOUS
 62
     2
 10
167.512643038
 20
153.338
 30
0.0
 11
167.512643038
 21
155.662
 31
0.0
  0
CIRCLE
  8
0
  6
CONTINUOUS
 62
     2
 10
165.5
 20
154.5
 30
0.0
 40
1.245
  0
CIRCLE
  8
0
  6
CONTINUOUS
 62
     2
 10
165.5
 20
154.5
 30
0.0
 40
1.162
  0
CIRCLE
  8
0
  6
CONTINUOUS
 62
     2
 10
165.5
 20
154.5
 30
0.0
 40
2.49
  0
CIRCLE
  8
0
  6
CONTINUOUS
 62
     2
 10
165.5
 20
154.5
 30
0.0
 40
2.075
  0
LINE
  8
0
  6
CONTINUOUS
 62
     2
 10
212.512643038
 20
155.662
 30
0.0
 11
210.5
 21
156.824
 31
0.0
  0
LINE
  8
0
  6
CONTINUOUS
 62
     2
 10
210.5
 20
156.824
 30
0.0
 11
208.487356962
 21
155.662
 31
0.0
  0
LINE
  8
0
  6
CONTINUOUS
 62
     2
 10
208.487356962
 20
155.662
 30
0.0
 11
208.487356962
 21
153.338
 31
0.0
  0
LINE
  8
0
  6
CONTINUOUS
 62
     2
 10
208.487356962
 20
153.338
 30
0.0
 11
210.5
 21
152.176
 31
0.0
  0
LINE
  8
0
  6
CONTINUOUS
 62
     2
 10
210.5
 20
152.176
 30
0.0
 11
212.512643038
 21
153.338
 31
0.0
  0
LINE
  8
0
  6
CONTINUOUS
 62
     2
 10
212.512643038
 20
153.338
 30
0.0
 11
212.512643038
 21
155.662
 31
0.0
  0
CIRCLE
  8
0
  6
CONTINUOUS
 62
     2
 10
210.5
 20
154.5
 30
0.0
 40
1.245
  0
CIRCLE
  8
0
  6
CONTINUOUS
 62
     2
 10
210.5
 20
154.5
 30
0.0
 40
1.162
  0
CIRCLE
  8
0
  6
CONTINUOUS
 62
     2
 10
210.5
 20
154.5
 30
0.0
 40
2.49
  0
CIRCLE
  8
0
  6
CONTINUOUS
 62
     2
 10
210.5
 20
154.5
 30
0.0
 40
2.075
  0
LINE
  8
0
  6
CONTINUOUS
 62
     2
 10
167.512643038
 20
110.662
 30
0.0
 11
165.5
 21
111.824
 31
0.0
  0
LINE
  8
0
  6
CONTINUOUS
 62
     2
 10
165.5
 20
111.824
 30
0.0
 11
163.487356962
 21
110.662
 31
0.0
  0
LINE
  8
0
  6
CONTINUOUS
 62
     2
 10
163.487356962
 20
110.662
 30
0.0
 11
163.487356962
 21
108.338
 31
0.0
  0
LINE
  8
0
  6
CONTINUOUS
 62
     2
 10
163.487356962
 20
108.338
 30
0.0
 11
165.5
 21
107.176
 31
0.0
  0
LINE
  8
0
  6
CONTINUOUS
 62
     2
 10
165.5
 20
107.176
 30
0.0
 11
167.512643038
 21
108.338
 31
0.0
  0
LINE
  8
0
  6
CONTINUOUS
 62
     2
 10
167.512643038
 20
108.338
 30
0.0
 11
167.512643038
 21
110.662
 31
0.0
  0
CIRCLE
  8
0
  6
CONTINUOUS
 62
     2
 10
165.5
 20
109.5
 30
0.0
 40
1.245
  0
CIRCLE
  8
0
  6
CONTINUOUS
 62
     2
 10
165.5
 20
109.5
 30
0.0
 40
1.162
  0
CIRCLE
  8
0
  6
CONTINUOUS
 62
     2
 10
165.5
 20
109.5
 30
0.0
 40
2.49
  0
CIRCLE
  8
0
  6
CONTINUOUS
 62
     2
 10
165.5
 20
109.5
 30
0.0
 40
2.075
  0
LINE
  8
0
  6
CONTINUOUS
 62
     2
 10
212.512643038
 20
110.662
 30
0.0
 11
210.5
 21
111.824
 31
0.0
  0
LINE
  8
0
  6
CONTINUOUS
 62
     2
 10
210.5
 20
111.824
 30
0.0
 11
208.487356962
 21
110.662
 31
0.0
  0
LINE
  8
0
  6
CONTINUOUS
 62
     2
 10
208.487356962
 20
110.662
 30
0.0
 11
208.487356962
 21
108.338
 31
0.0
  0
LINE
  8
0
  6
CONTINUOUS
 62
     2
 10
208.487356962
 20
108.338
 30
0.0
 11
210.5
 21
107.176
 31
0.0
  0
LINE
  8
0
  6
CONTINUOUS
 62
     2
 10
210.5
 20
107.176
 30
0.0
 11
212.512643038
 21
108.338
 31
0.0
  0
LINE
  8
0
  6
CONTINUOUS
 62
     2
 10
212.512643038
 20
108.338
 30
0.0
 11
212.512643038
 21
110.662
 31
0.0
  0
CIRCLE
  8
0
  6
CONTINUOUS
 62
     2
 10
210.5
 20
109.5
 30
0.0
 40
1.245
  0
CIRCLE
  8
0
  6
CONTINUOUS
 62
     2
 10
210.5
 20
109.5
 30
0.0
 40
1.162
  0
CIRCLE
  8
0
  6
CONTINUOUS
 62
     2
 10
210.5
 20
109.5
 30
0.0
 40
2.49
  0
CIRCLE
  8
0
  6
CONTINUOUS
 62
     2
 10
210.5
 20
109.5
 30
0.0
 40
2.075
  0
LINE
  8
0
  6
CONTINUOUS
 62
     2
 10
181.26725
 20
133.585625
 30
0.0
 11
181.73275
 21
133.585625
 31
0.0
  0
LINE
  8
0
  6
CONTINUOUS
 62
     2
 10
181.73275
 20
135.414375
 30
0.0
 11
181.26725
 21
135.414375
 31
0.0
  0
LINE
  8
0
  6
CONTINUOUS
 62
     2
 10
181.73275
 20
133.585625
 30
0.0
 11
181.73275
 21
133.7685
 31
0.0
  0
LINE
  8
0
  6
CONTINUOUS
 62
     2
 10
182.2315
 20
134.26725
 30
0.0
 11
183.146126875
 21
134.26725
 31
0.0
  0
ARC
  8
0
  6
CONTINUOUS
 62
     2
 10
182.2315
 20
133.7685
 30
0.0
 40
0.49875
 50
90.0
 51
180.0
  0
LINE
  8
0
  6
CONTINUOUS
 62
     2
 10
181.26725
 20
133.7685
 30
0.0
 11
181.26725
 21
133.585625
 31
0.0
  0
LINE
  8
0
  6
CONTINUOUS
 62
     2
 10
179.87075
 20
134.26725
 30
0.0
 11
180.7685
 21
134.26725
 31
0.0
  0
ARC
  8
0
  6
CONTINUOUS
 62
     2
 10
180.7685
 20
133.7685
 30
0.0
 40
0.49875
 50
0.0
 51
90.0
  0
LINE
  8
0
  6
CONTINUOUS
 62
     2
 10
181.26725
 20
135.414375
 30
0.0
 11
181.26725
 21
135.2315
 31
0.0
  0
LINE
  8
0
  6
CONTINUOUS
 62
     2
 10
180.7685
 20
134.73275
 30
0.0
 11
179.853873125
 21
134.73275
 31
0.0
  0
ARC
  8
0
  6
CONTINUOUS
 62
     2
 10
180.7685
 20
135.2315
 30
0.0
 40
0.49875
 50
270.0
 51
0.0
  0
LINE
  8
0
  6
CONTINUOUS
 62
     2
 10
181.73275
 20
135.2315
 30
0.0
 11
181.73275
 21
135.414375
 31
0.0
  0
LINE
  8
0
  6
CONTINUOUS
 62
     2
 10
183.146126875
 20
134.73275
 30
0.0
 11
182.2315
 21
134.73275
 31
0.0
  0
ARC
  8
0
  6
CONTINUOUS
 62
     2
 10
182.2315
 20
135.2315
 30
0.0
 40
0.49875
 50
180.0
 51
270.0
  0
CIRCLE
  8
0
  6
CONTINUOUS
 62
     2
 10
194.5
 20
134.5
 30
0.0
 40
1.6625
  0
LINE
  8
0
  6
CONTINUOUS
 62
     2
 10
194.26725
 20
133.585625
 30
0.0
 11
194.73275
 21
133.585625
 31
0.0
  0
LINE
  8
0
  6
CONTINUOUS
 62
     2
 10
194.73275
 20
135.414375
 30
0.0
 11
194.26725
 21
135.414375
 31
0.0
  0
LINE
  8
0
  6
CONTINUOUS
 62
     2
 10
194.73275
 20
133.585625
 30
0.0
 11
194.73275
 21
133.7685
 31
0.0
  0
LINE
  8
0
  6
CONTINUOUS
 62
     2
 10
195.2315
 20
134.26725
 30
0.0
 11
196.146126875
 21
134.26725
 31
0.0
  0
ARC
  8
0
  6
CONTINUOUS
 62
     2
 10
195.2315
 20
133.7685
 30
0.0
 40
0.49875
 50
90.0
 51
180.0
  0
LINE
  8
0
  6
CONTINUOUS
 62
     2
 10
194.26725
 20
133.7685
 30
0.0
 11
194.26725
 21
133.585625
 31
0.0
  0
LINE
  8
0
  6
CONTINUOUS
 62
     2
 10
192.87075
 20
134.26725
 30
0.0
 11
193.7685
 21
134.26725
 31
0.0
  0
ARC
  8
0
  6
CONTINUOUS
 62
     2
 10
193.7685
 20
133.7685
 30
0.0
 40
0.49875
 50
0.0
 51
90.0
  0
LINE
  8
0
  6
CONTINUOUS
 62
     2
 10
194.26725
 20
135.414375
 30
0.0
 11
194.26725
 21
135.2315
 31
0.0
  0
LINE
  8
0
  6
CONTINUOUS
 62
     2
 10
193.7685
 20
134.73275
 30
0.0
 11
192.853873125
 21
134.73275
 31
0.0
  0
ARC
  8
0
  6
CONTINUOUS
 62
     2
 10
193.7685
 20
135.2315
 30
0.0
 40
0.49875
 50
270.0
 51
0.0
  0
LINE
  8
0
  6
CONTINUOUS
 62
     2
 10
194.73275
 20
135.2315
 30
0.0
 11
194.73275
 21
135.414375
 31
0.0
  0
LINE
  8
0
  6
CONTINUOUS
 62
     2
 10
196.146126875
 20
134.73275
 30
0.0
 11
195.2315
 21
134.73275
 31
0.0
  0
ARC
  8
0
  6
CONTINUOUS
 62
     2
 10
195.2315
 20
135.2315
 30
0.0
 40
0.49875
 50
180.0
 51
270.0
  0
LINE
  8
0
  6
CONTINUOUS
 62
     2
 10
193.7685
 20
134.73275
 30
0.0
 11
192.853873125
 21
134.73275
 31
0.0
  0
CIRCLE
  8
0
  6
CONTINUOUS
 62
     2
 10
181.5
 20
134.5
 30
0.0
 40
1.6625
  0
LINE
  8
0
  6
LTYPE2
 62
     1
 10
204.500002697
 20
129.5
 30
0.0
 11
171.500001907
 21
129.5
 31
0.0
  0
LINE
  8
0
  6
LTYPE2
 62
     1
 10
171.500001907
 20
139.5
 30
0.0
 11
204.500002697
 21
139.5
 31
0.0
  0
LINE
  8
0
  6
CONTINUOUS
 62
     2
 10
172.25
 20
130.250001349
 30
0.0
 11
172.25
 21
138.75
 31
0.0
  0
ARC
  8
0
  6
CONTINUOUS
 62
     2
 10
171.25
 20
139.0
 30
0.0
 40
0.5
 50
0.0
 51
180.0
  0
ARC
  8
0
  6
CONTINUOUS
 62
     2
 10
171.5
 20
138.75
 30
0.0
 40
0.75
 50
0.0
 51
100.584224424
  0
ARC
  8
0
  6
CONTINUOUS
 62
     2
 10
171.5
 20
130.25
 30
0.0
 40
0.75
 50
259.415775576
 51
0.0
  0
ARC
  8
0
  6
CONTINUOUS
 62
     2
 10
171.25
 20
130.0
 30
0.0
 40
0.5
 50
180.0
 51
360.0
  0
LINE
  8
0
  6
CONTINUOUS
 62
     2
 10
170.75
 20
139.0
 30
0.0
 11
170.75
 21
130.0
 31
0.0
  0
LINE
  8
0
  6
CONTINUOUS
 62
     2
 10
171.75
 20
130.0
 30
0.0
 11
171.75
 21
139.0
 31
0.0
  0
CIRCLE
  8
0
  6
CONTINUOUS
 62
     2
 10
175.0
 20
134.5
 30
0.0
 40
1.375
  0
LINE
  8
0
  6
CONTINUOUS
 62
     2
 10
176.8
 20
137.45
 30
0.0
 11
173.2
 21
137.45
 31
0.0
  0
ARC
  8
0
  6
CONTINUOUS
 62
     2
 10
176.8
 20
137.25
 30
0.0
 40
0.2
 50
270.0
 51
0.0
  0
ARC
  8
0
  6
CONTINUOUS
 62
     2
 10
176.8
 20
137.25
 30
0.0
 40
0.2
 50
0.0
 51
90.0
  0
LINE
  8
0
  6
CONTINUOUS
 62
     2
 10
177.75
 20
137.05
 30
0.0
 11
172.25
 21
137.05
 31
0.0
  0
ARC
  8
0
  6
CONTINUOUS
 62
     2
 10
173.2
 20
137.25
 30
0.0
 40
0.2
 50
90.000278953
 51
269.999721047
  0
ARC
  8
0
  6
CONTINUOUS
 62
     2
 10
178.25
 20
139.0
 30
0.0
 40
0.5
 50
0.0
 51
180.0
  0
LINE
  8
0
  6
CONTINUOUS
 62
     2
 10
178.75
 20
139.0
 30
0.0
 11
178.75
 21
131.5
 31
0.0
  0
LINE
  8
0
  6
CONTINUOUS
 62
     2
 10
177.75
 20
139.0
 30
0.0
 11
177.75
 21
131.5
 31
0.0
  0
ARC
  8
0
  6
CONTINUOUS
 62
     2
 10
178.25
 20
130.0
 30
0.0
 40
0.5
 50
180.0
 51
0.0
  0
LINE
  8
0
  6
CONTINUOUS
 62
     2
 10
178.75
 20
130.0
 30
0.0
 11
178.75
 21
137.5
 31
0.0
  0
LINE
  8
0
  6
CONTINUOUS
 62
     2
 10
177.75
 20
130.0
 30
0.0
 11
177.75
 21
137.5
 31
0.0
  0
LINE
  8
0
  6
CONTINUOUS
 62
     2
 10
184.25
 20
137.45
 30
0.0
 11
178.75
 21
137.45
 31
0.0
  0
ARC
  8
0
  6
CONTINUOUS
 62
     2
 10
184.75
 20
139.0
 30
0.0
 40
0.5
 50
0.0
 51
180.0
  0
LINE
  8
0
  6
CONTINUOUS
 62
     2
 10
185.25
 20
131.5
 30
0.0
 11
185.25
 21
139.0
 31
0.0
  0
ARC
  8
0
  6
CONTINUOUS
 62
     2
 10
184.75
 20
130.0
 30
0.0
 40
0.5
 50
180.0
 51
0.0
  0
LINE
  8
0
  6
CONTINUOUS
 62
     2
 10
185.25
 20
137.5
 30
0.0
 11
185.25
 21
130.0
 31
0.0
  0
LINE
  8
0
  6
CONTINUOUS
 62
     2
 10
184.25
 20
130.0
 30
0.0
 11
184.25
 21
139.0
 31
0.0
  0
LINE
  8
0
  6
CONTINUOUS
 62
     2
 10
190.15
 20
131.55
 30
0.0
 11
185.85
 21
131.55
 31
0.0
  0
ARC
  8
0
  6
CONTINUOUS
 62
     2
 10
185.85
 20
131.75
 30
0.0
 40
0.2
 50
90.000477039
 51
269.99952394
  0
LINE
  8
0
  6
CONTINUOUS
 62
     2
 10
185.25
 20
131.95
 30
0.0
 11
190.75
 21
131.95
 31
0.0
  0
LINE
  8
0
  6
CONTINUOUS
 62
     2
 10
190.75
 20
131.95
 30
0.0
 11
185.25
 21
131.95
 31
0.0
  0
LINE
  8
0
  6
CONTINUOUS
 62
     2
 10
184.25
 20
131.55
 30
0.0
 11
178.75
 21
131.55
 31
0.0
  0
CIRCLE
  8
0
  6
CONTINUOUS
 62
     2
 10
188.0
 20
134.5
 30
0.0
 40
1.375
  0
LINE
  8
0
  6
CONTINUOUS
 62
     2
 10
189.8
 20
131.55
 30
0.0
 11
186.2
 21
131.55
 31
0.0
  0
LINE
  8
0
  6
CONTINUOUS
 62
     2
 10
190.75
 20
137.05
 30
0.0
 11
185.25
 21
137.05
 31
0.0
  0
LINE
  8
0
  6
CONTINUOUS
 62
     2
 10
189.8
 20
137.45
 30
0.0
 11
186.2
 21
137.45
 31
0.0
  0
ARC
  8
0
  6
CONTINUOUS
 62
     2
 10
186.2
 20
137.25
 30
0.0
 40
0.2
 50
90.000278953
 51
269.999721047
  0
ARC
  8
0
  6
CONTINUOUS
 62
     2
 10
191.25
 20
139.0
 30
0.0
 40
0.5
 50
0.0
 51
180.0
  0
LINE
  8
0
  6
CONTINUOUS
 62
     2
 10
191.75
 20
131.95
 30
0.0
 11
191.75
 21
139.0
 31
0.0
  0
LINE
  8
0
  6
CONTINUOUS
 62
     2
 10
190.75
 20
139.0
 30
0.0
 11
190.75
 21
131.95
 31
0.0
  0
ARC
  8
0
  6
CONTINUOUS
 62
     2
 10
191.25
 20
130.0
 30
0.0
 40
0.5
 50
180.0
 51
0.0
  0
LINE
  8
0
  6
CONTINUOUS
 62
     2
 10
191.75
 20
137.05
 30
0.0
 11
191.75
 21
130.0
 31
0.0
  0
LINE
  8
0
  6
CONTINUOUS
 62
     2
 10
190.75
 20
130.0
 30
0.0
 11
190.75
 21
137.05
 31
0.0
  0
ARC
  8
0
  6
CONTINUOUS
 62
     2
 10
190.15
 20
131.75
 30
0.0
 40
0.2
 50
0.0
 51
90.0
  0
ARC
  8
0
  6
CONTINUOUS
 62
     2
 10
190.15
 20
131.75
 30
0.0
 40
0.2
 50
270.0
 51
0.0
  0
ARC
  8
0
  6
CONTINUOUS
 62
     2
 10
189.8
 20
137.25
 30
0.0
 40
0.2
 50
270.0
 51
0.0
  0
ARC
  8
0
  6
CONTINUOUS
 62
     2
 10
189.8
 20
137.25
 30
0.0
 40
0.2
 50
0.0
 51
90.0
  0
LINE
  8
0
  6
CONTINUOUS
 62
     2
 10
202.8
 20
137.45
 30
0.0
 11
199.2
 21
137.45
 31
0.0
  0
ARC
  8
0
  6
CONTINUOUS
 62
     2
 10
202.8
 20
137.25
 30
0.0
 40
0.2
 50
270.0
 51
0.0
  0
ARC
  8
0
  6
CONTINUOUS
 62
     2
 10
202.8
 20
137.25
 30
0.0
 40
0.2
 50
0.0
 51
90.0
  0
LINE
  8
0
  6
CONTINUOUS
 62
     2
 10
203.75
 20
137.05
 30
0.0
 11
198.25
 21
137.05
 31
0.0
  0
LINE
  8
0
  6
CONTINUOUS
 62
     2
 10
197.25
 20
137.45
 30
0.0
 11
191.75
 21
137.45
 31
0.0
  0
LINE
  8
0
  6
CONTINUOUS
 62
     2
 10
203.75
 20
130.250001349
 30
0.0
 11
203.75
 21
138.75
 31
0.0
  0
ARC
  8
0
  6
CONTINUOUS
 62
     2
 10
204.75
 20
139.0
 30
0.0
 40
0.5
 50
0.0
 51
180.0
  0
ARC
  8
0
  6
CONTINUOUS
 62
     2
 10
204.5
 20
138.75
 30
0.0
 40
0.75
 50
79.415775576
 51
180.0
  0
ARC
  8
0
  6
CONTINUOUS
 62
     2
 10
204.5
 20
130.25
 30
0.0
 40
0.75
 50
180.0
 51
280.584224424
  0
ARC
  8
0
  6
CONTINUOUS
 62
     2
 10
204.75
 20
130.0
 30
0.0
 40
0.5
 50
180.0
 51
360.0
  0
LINE
  8
0
  6
CONTINUOUS
 62
     2
 10
205.25
 20
139.0
 30
0.0
 11
205.25
 21
130.0
 31
0.0
  0
LINE
  8
0
  6
CONTINUOUS
 62
     2
 10
204.25
 20
130.0
 30
0.0
 11
204.25
 21
139.0
 31
0.0
  0
CIRCLE
  8
0
  6
CONTINUOUS
 62
     2
 10
201.0
 20
134.5
 30
0.0
 40
1.375
  0
LINE
  8
0
  6
CONTINUOUS
 62
     2
 10
203.15
 20
131.55
 30
0.0
 11
198.85
 21
131.55
 31
0.0
  0
ARC
  8
0
  6
CONTINUOUS
 62
     2
 10
203.15
 20
131.75
 30
0.0
 40
0.2
 50
0.0
 51
90.0
  0
ARC
  8
0
  6
CONTINUOUS
 62
     2
 10
203.15
 20
131.75
 30
0.0
 40
0.2
 50
270.0
 51
0.0
  0
LINE
  8
0
  6
CONTINUOUS
 62
     2
 10
198.25
 20
131.95
 30
0.0
 11
203.75
 21
131.95
 31
0.0
  0
LINE
  8
0
  6
CONTINUOUS
 62
     2
 10
202.8
 20
131.55
 30
0.0
 11
199.2
 21
131.55
 31
0.0
  0
LINE
  8
0
  6
CONTINUOUS
 62
     2
 10
203.75
 20
131.95
 30
0.0
 11
198.25
 21
131.95
 31
0.0
  0
LINE
  8
0
  6
CONTINUOUS
 62
     2
 10
191.75
 20
131.55
 30
0.0
 11
197.25
 21
131.55
 31
0.0
  0
ARC
  8
0
  6
CONTINUOUS
 62
     2
 10
197.75
 20
139.0
 30
0.0
 40
0.5
 50
0.0
 51
180.0
  0
LINE
  8
0
  6
CONTINUOUS
 62
     2
 10
198.25
 20
139.0
 30
0.0
 11
198.25
 21
131.95
 31
0.0
  0
LINE
  8
0
  6
CONTINUOUS
 62
     2
 10
197.25
 20
131.95
 30
0.0
 11
197.25
 21
139.0
 31
0.0
  0
ARC
  8
0
  6
CONTINUOUS
 62
     2
 10
197.75
 20
130.0
 30
0.0
 40
0.5
 50
180.0
 51
0.0
  0
LINE
  8
0
  6
CONTINUOUS
 62
     2
 10
198.25
 20
130.0
 30
0.0
 11
198.25
 21
137.05
 31
0.0
  0
LINE
  8
0
  6
CONTINUOUS
 62
     2
 10
197.25
 20
137.05
 30
0.0
 11
197.25
 21
130.0
 31
0.0
  0
ARC
  8
0
  6
CONTINUOUS
 62
     2
 10
199.2
 20
137.25
 30
0.0
 40
0.2
 50
90.000278953
 51
269.999721047
  0
ARC
  8
0
  6
CONTINUOUS
 62
     2
 10
198.85
 20
131.75
 30
0.0
 40
0.2
 50
90.000477039
 51
269.99952394
  0
LINE
  8
0
  6
CONTINUOUS
 62
     2
 10
172.25
 20
131.95
 30
0.0
 11
177.75
 21
131.95
 31
0.0
  0
LINE
  8
0
  6
CONTINUOUS
 62
     2
 10
177.75
 20
131.95
 30
0.0
 11
172.25
 21
131.95
 31
0.0
  0
LINE
  8
0
  6
CONTINUOUS
 62
     2
 10
177.15
 20
131.55
 30
0.0
 11
172.85
 21
131.55
 31
0.0
  0
LINE
  8
0
  6
CONTINUOUS
 62
     2
 10
176.8
 20
131.55
 30
0.0
 11
173.2
 21
131.55
 31
0.0
  0
ARC
  8
0
  6
CONTINUOUS
 62
     2
 10
172.85
 20
131.75
 30
0.0
 40
0.2
 50
90.000477039
 51
269.99952394
  0
ARC
  8
0
  6
CONTINUOUS
 62
     2
 10
177.15
 20
131.75
 30
0.0
 40
0.2
 50
0.0
 51
90.0
  0
ARC
  8
0
  6
CONTINUOUS
 62
     2
 10
177.15
 20
131.75
 30
0.0
 40
0.2
 50
270.0
 51
0.0
  0
CIRCLE
  8
0
  6
LTYPE1
 62
     2
 10
188.0
 20
147.0
 30
0.0
 40
1.75
  0
LINE
  8
0
  6
CONTINUOUS
 62
     2
 10
172.25
 20
130.95
 30
0.0
 11
177.75
 21
130.95
 31
0.0
  0
LINE
  8
0
  6
CONTINUOUS
 62
     2
 10
178.75
 20
130.95
 30
0.0
 11
184.25
 21
130.95
 31
0.0
  0
LINE
  8
0
  6
CONTINUOUS
 62
     2
 10
185.25
 20
130.95
 30
0.0
 11
190.75
 21
130.95
 31
0.0
  0
LINE
  8
0
  6
CONTINUOUS
 62
     2
 10
191.75
 20
130.95
 30
0.0
 11
197.25
 21
130.95
 31
0.0
  0
LINE
  8
0
  6
CONTINUOUS
 62
     2
 10
198.25
 20
130.95
 30
0.0
 11
203.75
 21
130.95
 31
0.0
  0
LINE
  8
0
  6
CONTINUOUS
 62
     2
 10
172.25
 20
138.05
 30
0.0
 11
177.75
 21
138.05
 31
0.0
  0
LINE
  8
0
  6
CONTINUOUS
 62
     2
 10
178.75
 20
138.05
 30
0.0
 11
184.25
 21
138.05
 31
0.0
  0
LINE
  8
0
  6
CONTINUOUS
 62
     2
 10
185.25
 20
138.05
 30
0.0
 11
190.75
 21
138.05
 31
0.0
  0
LINE
  8
0
  6
CONTINUOUS
 62
     2
 10
191.75
 20
138.05
 30
0.0
 11
197.25
 21
138.05
 31
0.0
  0
LINE
  8
0
  6
CONTINUOUS
 62
     2
 10
198.25
 20
138.05
 30
0.0
 11
203.75
 21
138.05
 31
0.0
  0
LINE
  8
0
  6
LTYPE3
 62
     2
 10
161.0
 20
75.5
 30
0.0
 11
170.0
 21
75.5
 31
0.0
  0
LINE
  8
0
  6
LTYPE3
 62
     2
 10
165.5
 20
71.0
 30
0.0
 11
165.5
 21
80.0
 31
0.0
  0
LINE
  8
0
  6
LTYPE3
 62
     2
 10
161.0
 20
30.5
 30
0.0
 11
170.0
 21
30.5
 31
0.0
  0
LINE
  8
0
  6
LTYPE3
 62
     2
 10
165.5
 20
26.0
 30
0.0
 11
165.5
 21
35.0
 31
0.0
  0
LINE
  8
0
  6
LTYPE3
 62
     2
 10
206.0
 20
75.5
 30
0.0
 11
215.0
 21
75.5
 31
0.0
  0
LINE
  8
0
  6
LTYPE3
 62
     2
 10
210.5
 20
71.0
 30
0.0
 11
210.5
 21
80.0
 31
0.0
  0
LINE
  8
0
  6
LTYPE3
 62
     2
 10
206.0
 20
30.5
 30
0.0
 11
215.0
 21
30.5
 31
0.0
  0
LINE
  8
0
  6
LTYPE3
 62
     2
 10
210.5
 20
26.0
 30
0.0
 11
210.5
 21
35.0
 31
0.0
  0
TEXT
  8
0
  6
CONTINUOUS
 62
     2
 10
155.2
 20
137.061
 30
0.3
 40
3.0
  1
５
 50
90.0
 41
0.6
 51
0.0
  7
KANJI4
  0
LINE
  8
0
  6
CONTINUOUS
 62
     2
 10
156.0
 20
134.5
 30
0.0
 11
156.647047613
 21
136.914814566
 31
0.0
  0
LINE
  8
0
  6
CONTINUOUS
 62
     2
 10
156.0
 20
134.5
 30
0.0
 11
155.352952387
 21
136.914814566
 31
0.0
  0
LINE
  8
0
  6
CONTINUOUS
 62
     2
 10
156.0
 20
132.0
 30
0.0
 11
155.352952387
 21
129.585185434
 31
0.0
  0
LINE
  8
0
  6
CONTINUOUS
 62
     2
 10
156.0
 20
132.0
 30
0.0
 11
156.647047613
 21
129.585185434
 31
0.0
  0
LINE
  8
0
  6
CONTINUOUS
 62
     2
 10
156.0
 20
128.5185
 30
0.0
 11
156.0
 21
139.6115
 31
0.0
  0
LINE
  8
0
  6
LTYPE4
 62
     2
 10
138.5
 20
134.5
 30
0.0
 11
158.0
 21
134.5
 31
0.0
  0
LINE
  8
0
  6
CONTINUOUS
 62
     2
 10
143.0
 20
166.0
 30
0.0
 11
145.414814566
 21
165.352952387
 31
0.0
  0
LINE
  8
0
  6
CONTINUOUS
 62
     2
 10
143.0
 20
166.0
 30
0.0
 11
145.414814566
 21
166.647047613
 31
0.0
  0
LINE
  8
0
  6
CONTINUOUS
 62
     2
 10
151.0
 20
166.0
 30
0.0
 11
148.585185434
 21
166.647047613
 31
0.0
  0
LINE
  8
0
  6
CONTINUOUS
 62
     2
 10
151.0
 20
166.0
 30
0.0
 11
148.585185434
 21
165.352952387
 31
0.0
  0
LINE
  8
0
  6
CONTINUOUS
 62
     2
 10
143.0
 20
166.0
 30
0.0
 11
151.0
 21
166.0
 31
0.0
  0
TEXT
  8
0
  6
CONTINUOUS
 62
     2
 10
145.0
 20
166.8
 30
0.3
 40
3.0
  1
１６
 50
0.0
 41
0.6
 51
0.0
  7
KANJI4
  0
LINE
  8
0
  6
CONTINUOUS
 62
     2
 10
143.0
 20
155.879100809
 30
0.0
 11
143.0
 21
168.0
 31
0.0
  0
LINE
  8
0
  6
CONTINUOUS
 62
     2
 10
100.5
 20
166.0
 30
0.0
 11
98.085185434
 21
166.647047613
 31
0.0
  0
LINE
  8
0
  6
CONTINUOUS
 62
     2
 10
100.5
 20
166.0
 30
0.0
 11
98.085185434
 21
165.352952387
 31
0.0
  0
LINE
  8
0
  6
CONTINUOUS
 62
     2
 10
100.75
 20
166.0
 30
0.0
 11
103.164814566
 21
165.352952387
 31
0.0
  0
LINE
  8
0
  6
CONTINUOUS
 62
     2
 10
100.75
 20
166.0
 30
0.0
 11
103.164814566
 21
166.647047613
 31
0.0
  0
LINE
  8
0
  6
CONTINUOUS
 62
     2
 10
100.75
 20
166.0
 30
0.0
 11
108.25
 21
166.0
 31
0.0
  0
LINE
  8
0
  6
CONTINUOUS
 62
     2
 10
108.25
 20
166.0
 30
0.0
 11
105.835185434
 21
166.647047613
 31
0.0
  0
LINE
  8
0
  6
CONTINUOUS
 62
     2
 10
108.25
 20
166.0
 30
0.0
 11
105.835185434
 21
165.352952387
 31
0.0
  0
TEXT
  8
0
  6
CONTINUOUS
 62
     2
 10
102.55
 20
167.0
 30
0.3
 40
3.0
  1
１５
 50
0.0
 41
0.6
 51
0.0
  7
KANJI4
  0
LINE
  8
0
  6
CONTINUOUS
 62
     2
 10
100.75
 20
157.775
 30
0.0
 11
100.75
 21
168.0
 31
0.0
  0
LINE
  8
0
  6
CONTINUOUS
 62
     2
 10
108.25
 20
156.275
 30
0.0
 11
108.25
 21
168.0
 31
0.0
  0
LINE
  8
0
  6
LTYPE3
 62
     2
 10
159.75
 20
53.0
 30
0.0
 11
216.25
 21
53.0
 31
0.0
  0
LINE
  8
0
  6
CONTINUOUS
 62
     2
 10
100.5
 20
179.0
 30
0.0
 11
98.085185434
 21
179.647047613
 31
0.0
  0
LINE
  8
0
  6
CONTINUOUS
 62
     2
 10
100.5
 20
179.0
 30
0.0
 11
98.085185434
 21
178.352952387
 31
0.0
  0
LINE
  8
0
  6
CONTINUOUS
 62
     2
 10
100.5
 20
179.0
 30
0.0
 11
102.914814566
 21
178.352952387
 31
0.0
  0
LINE
  8
0
  6
CONTINUOUS
 62
     2
 10
100.5
 20
179.0
 30
0.0
 11
102.914814566
 21
179.647047613
 31
0.0
  0
TEXT
  8
0
  6
CONTINUOUS
 62
     2
 10
121.1625
 20
179.075
 30
0.4
 40
4.0
  1
ι
 50
0.0
 41
0.9
 51
0.0
  7
KANJI5
  0
CIRCLE
  8
0
  6
CONTINUOUS
 62
     2
 10
122.95
 20
182.274998093
 30
0.0
 40
0.2
  0
LINE
  8
0
  6
CONTINUOUS
 62
     2
 10
151.0
 20
179.0
 30
0.0
 11
148.585185434
 21
179.647047613
 31
0.0
  0
LINE
  8
0
  6
CONTINUOUS
 62
     2
 10
151.0
 20
179.0
 30
0.0
 11
148.585185434
 21
178.352952387
 31
0.0
  0
LINE
  8
0
  6
CONTINUOUS
 62
     2
 10
151.0
 20
179.0
 30
0.0
 11
100.5
 21
179.0
 31
0.0
  0
LINE
  8
0
  6
CONTINUOUS
 62
     2
 10
100.5
 20
159.725
 30
0.0
 11
100.5
 21
181.0
 31
0.0
  0
LINE
  8
0
  6
CONTINUOUS
 62
     2
 10
151.0
 20
138.75
 30
0.0
 11
151.0
 21
181.0
 31
0.0
  0
LINE
  8
0
  6
CONTINUOUS
 62
     2
 10
132.0
 20
172.5
 30
0.0
 11
103.8
 21
172.5
 31
0.0
  0
TEXT
  8
0
  6
CONTINUOUS
 62
     2
 10
103.8
 20
173.5
 30
0.2
 40
3.0
  1
ＡＶＦ－１１Ｍ形電圧計放熱穴
 50
0.0
 41
0.6
 51
0.0
  7
KANJI6
  0
LINE
  8
0
  6
CONTINUOUS
 62
     2
 10
137.0
 20
155.35
 30
0.0
 11
136.945297455
 21
157.849401455
 31
0.0
  0
LINE
  8
0
  6
CONTINUOUS
 62
     2
 10
137.0
 20
155.35
 30
0.0
 11
135.702925479
 21
157.487193881
 31
0.0
  0
LINE
  8
0
  6
CONTINUOUS
 62
     2
 10
137.0
 20
155.35
 30
0.0
 11
132.0
 21
172.5
 31
0.0
  0
LINE
  8
0
  6
CONTINUOUS
 62
     2
 10
175.0
 20
97.5
 30
0.0
 11
176.7
 21
97.044486373
 31
0.0
  0
LINE
  8
0
  6
CONTINUOUS
 62
     2
 10
175.0
 20
97.5
 30
0.0
 11
176.7
 21
97.955513627
 31
0.0
  0
LINE
  8
0
  6
CONTINUOUS
 62
     2
 10
181.5
 20
97.5
 30
0.0
 11
179.8
 21
97.044486373
 31
0.0
  0
LINE
  8
0
  6
CONTINUOUS
 62
     2
 10
181.5
 20
97.5
 30
0.0
 11
179.8
 21
97.955513627
 31
0.0
  0
LINE
  8
0
  6
CONTINUOUS
 62
     2
 10
181.5
 20
97.5
 30
0.0
 11
175.0
 21
97.5
 31
0.0
  0
TEXT
  8
0
  6
CONTINUOUS
 62
     2
 10
175.6
 20
98.5
 30
0.2
 40
3.0
  1
１３
 50
0.0
 41
0.8
 51
0.0
  7
KANJI7
  0
LINE
  8
0
  6
CONTINUOUS
 62
     2
 10
185.25
 20
97.5
 30
0.0
 11
186.95
 21
97.044486373
 31
0.0
  0
LINE
  8
0
  6
CONTINUOUS
 62
     2
 10
185.25
 20
97.5
 30
0.0
 11
186.95
 21
97.955513627
 31
0.0
  0
LINE
  8
0
  6
CONTINUOUS
 62
     2
 10
185.25
 20
97.5
 30
0.0
 11
190.75
 21
97.5
 31
0.0
  0
TEXT
  8
0
  6
CONTINUOUS
 62
     2
 10
185.5
 20
98.5
 30
0.2
 40
3.0
  1
１１
 50
0.0
 41
0.8
 51
0.0
  7
KANJI7
  0
LINE
  8
0
  6
CONTINUOUS
 62
     2
 10
190.75
 20
97.5
 30
0.0
 11
189.05
 21
97.044486373
 31
0.0
  0
LINE
  8
0
  6
CONTINUOUS
 62
     2
 10
190.75
 20
97.5
 30
0.0
 11
189.05
 21
97.955513627
 31
0.0
  0
TEXT
  8
0
  6
CONTINUOUS
 62
     2
 10
144.0
 20
98.5
 30
0.3
 40
3.0
  1
Ｍ４ターミナルネジ
 50
0.0
 41
0.8
 51
0.0
  7
KANJI8
  0
LINE
  8
0
  6
CONTINUOUS
 62
     2
 10
168.0
 20
97.5
 30
0.0
 11
144.0
 21
97.5
 31
0.0
  0
LINE
  8
0
  6
CONTINUOUS
 62
     2
 10
180.902023773
 20
132.948764788
 30
0.0
 11
179.46809653
 21
130.900874981
 31
0.0
  0
LINE
  8
0
  6
CONTINUOUS
 62
     2
 10
180.902023773
 20
132.948764788
 30
0.0
 11
180.684151257
 21
130.45827657
 31
0.0
  0
LINE
  8
0
  6
CONTINUOUS
 62
     2
 10
180.902023773
 20
132.948764788
 30
0.0
 11
168.0
 21
97.5
 31
0.0
  0
TEXT
  8
0
  6
CONTINUOUS
 62
     2
 10
196.868
 20
98.5
 30
0.2
 40
3.0
  1
端子カバー（透明樹脂）
 50
0.0
 41
0.733333333
 51
0.0
  7
KANJI9
  0
LINE
  8
0
  6
CONTINUOUS
 62
     2
 10
196.0
 20
97.5
 30
0.0
 11
221.961
 21
97.5
 31
0.0
  0
LINE
  8
0
  6
CONTINUOUS
 62
     2
 10
195.0
 20
129.5
 30
0.0
 11
194.428694232
 21
127.066153308
 31
0.0
  0
LINE
  8
0
  6
CONTINUOUS
 62
     2
 10
195.0
 20
129.5
 30
0.0
 11
195.722158038
 21
127.106574052
 31
0.0
  0
LINE
  8
0
  6
CONTINUOUS
 62
     2
 10
195.0
 20
129.5
 30
0.0
 11
196.0
 21
97.5
 31
0.0
  0
LINE
  8
0
  6
CONTINUOUS
 62
     2
 10
175.0
 20
129.5
 30
0.0
 11
175.0
 21
95.5
 31
0.0
  0
LINE
  8
0
  6
CONTINUOUS
 62
     2
 10
181.5
 20
129.5
 30
0.0
 11
181.5
 21
95.5
 31
0.0
  0
LINE
  8
0
  6
CONTINUOUS
 62
     2
 10
185.25
 20
130.0
 30
0.0
 11
185.25
 21
95.5
 31
0.0
  0
LINE
  8
0
  6
CONTINUOUS
 62
     2
 10
190.75
 20
130.0
 30
0.0
 11
190.75
 21
95.5
 31
0.0
  0
LINE
  8
0
  6
LTYPE3
 62
     2
 10
185.25
 20
147.0
 30
0.0
 11
190.75
 21
147.0
 31
0.0
  0
LINE
  8
0
  6
LTYPE3
 62
     2
 10
207.01
 20
154.5
 30
0.0
 11
213.99
 21
154.5
 31
0.0
  0
LINE
  8
0
  6
LTYPE3
 62
     2
 10
210.5
 20
151.01
 30
0.0
 11
210.5
 21
157.99
 31
0.0
  0
LINE
  8
0
  6
LTYPE3
 62
     2
 10
162.01
 20
154.5
 30
0.0
 11
168.99
 21
154.5
 31
0.0
  0
LINE
  8
0
  6
LTYPE3
 62
     2
 10
165.5
 20
151.01
 30
0.0
 11
165.5
 21
157.99
 31
0.0
  0
LINE
  8
0
  6
LTYPE3
 62
     2
 10
162.01
 20
109.5
 30
0.0
 11
168.99
 21
109.5
 31
0.0
  0
LINE
  8
0
  6
LTYPE3
 62
     2
 10
165.5
 20
106.01
 30
0.0
 11
165.5
 21
112.99
 31
0.0
  0
LINE
  8
0
  6
LTYPE3
 62
     2
 10
207.01
 20
109.5
 30
0.0
 11
213.99
 21
109.5
 31
0.0
  0
LINE
  8
0
  6
LTYPE3
 62
     2
 10
210.5
 20
106.01
 30
0.0
 11
210.5
 21
112.99
 31
0.0
  0
LINE
  8
0
  6
LTYPE4
 62
     2
 10
99.5
 20
154.5
 30
0.0
 11
109.25
 21
154.5
 31
0.0
  0
LINE
  8
0
  6
LTYPE4
 62
     2
 10
99.5
 20
109.5
 30
0.0
 11
109.25
 21
109.5
 31
0.0
  0
LINE
  8
0
  6
LTYPE5
 62
     2
 10
185.75
 20
154.0
 30
0.0
 11
190.25
 21
154.0
 31
0.0
  0
LINE
  8
0
  6
LTYPE5
 62
     2
 10
166.697441117
 20
121.0
 30
0.0
 11
171.197441117
 21
121.0
 31
0.0
  0
LINE
  8
0
  6
LTYPE5
 62
     2
 10
168.947441117
 20
118.75
 30
0.0
 11
168.947441117
 21
123.25
 31
0.0
  0
LINE
  8
0
  6
LTYPE5
 62
     2
 10
204.802558883
 20
121.0
 30
0.0
 11
209.302558883
 21
121.0
 31
0.0
  0
LINE
  8
0
  6
LTYPE5
 62
     2
 10
207.052558883
 20
118.75
 30
0.0
 11
207.052558883
 21
123.25
 31
0.0
  0
LINE
  8
0
  6
CONTINUOUS
 62
     2
 10
175.0
 20
137.675
 30
0.0
 11
175.0
 21
131.32525
 31
0.0
  0
LINE
  8
0
  6
LTYPE5
 62
     2
 10
181.5
 20
137.675
 30
0.0
 11
181.5
 21
131.32525
 31
0.0
  0
LINE
  8
0
  6
LTYPE5
 62
     2
 10
194.5
 20
137.675
 30
0.0
 11
194.5
 21
131.32525
 31
0.0
  0
LINE
  8
0
  6
LTYPE5
 62
     2
 10
201.0
 20
137.675
 30
0.0
 11
201.0
 21
131.32525
 31
0.0
  0
LINE
  8
0
  6
LTYPE5
 62
     2
 10
171.5
 20
134.5
 30
0.0
 11
204.5
 21
134.5
 31
0.0
  0
LINE
  8
0
  6
CONTINUOUS
 62
     2
 10
31.0
 20
94.5
 30
0.0
 11
25.5
 21
94.5
 31
0.0
  0
TEXT
  8
0
  6
CONTINUOUS
 62
     2
 10
25.5
 20
95.5
 30
0.1
 40
3.0
  1
指針
 50
0.0
 41
0.9
 51
0.0
  7
KANJI10
  0
LINE
  8
0
  6
CONTINUOUS
 62
     2
 10
57.5
 20
94.5
 30
0.0
 11
81.0
 21
94.5
 31
0.0
  0
LINE
  8
0
  6
CONTINUOUS
 62
     2
 10
220.5
 20
154.5
 30
0.0
 11
219.852952387
 21
152.085185434
 31
0.0
  0
LINE
  8
0
  6
CONTINUOUS
 62
     2
 10
220.5
 20
154.5
 30
0.0
 11
221.147047613
 21
152.085185434
 31
0.0
  0
TEXT
  8
0
  6
CONTINUOUS
 62
     2
 10
219.5
 20
138.87
 30
0.3
 40
3.0
  1
４５
 50
90.0
 41
0.6
 51
0.0
  7
KANJI4
  0
TEXT
  8
0
  6
CONTINUOUS
 62
     2
 10
219.5
 20
142.77
 30
0.18
 40
1.8
  1
±０．５
 50
90.0
 41
0.6
 51
0.0
  7
KANJI11
  0
LINE
  8
0
  6
CONTINUOUS
 62
     2
 10
220.5
 20
132.0
 30
0.0
 11
221.147047613
 21
134.414814566
 31
0.0
  0
LINE
  8
0
  6
CONTINUOUS
 62
     2
 10
220.5
 20
132.0
 30
0.0
 11
219.852952387
 21
134.414814566
 31
0.0
  0
LINE
  8
0
  6
CONTINUOUS
 62
     2
 10
220.5
 20
109.5
 30
0.0
 11
221.147047613
 21
111.914814566
 31
0.0
  0
LINE
  8
0
  6
CONTINUOUS
 62
     2
 10
220.5
 20
109.5
 30
0.0
 11
219.852952387
 21
111.914814566
 31
0.0
  0
LINE
  8
0
  6
CONTINUOUS
 62
     2
 10
220.5
 20
109.5
 30
0.0
 11
220.5
 21
132.0
 31
0.0
  0
LINE
  8
0
  6
CONTINUOUS
 62
     2
 10
220.5
 20
132.0
 30
0.0
 11
219.852952387
 21
129.585185434
 31
0.0
  0
LINE
  8
0
  6
CONTINUOUS
 62
     2
 10
220.5
 20
132.0
 30
0.0
 11
221.147047613
 21
129.585185434
 31
0.0
  0
TEXT
  8
0
  6
CONTINUOUS
 62
     2
 10
219.5
 20
116.37
 30
0.3
 40
3.0
  1
４５
 50
90.0
 41
0.6
 51
0.0
  7
KANJI4
  0
TEXT
  8
0
  6
CONTINUOUS
 62
     2
 10
219.5
 20
120.27
 30
0.18
 40
1.8
  1
±０．５
 50
90.0
 41
0.6
 51
0.0
  7
KANJI11
  0
LINE
  8
0
  6
CONTINUOUS
 62
     2
 10
220.5
 20
132.0
 30
0.0
 11
220.5
 21
154.5
 31
0.0
  0
LINE
  8
0
  6
CONTINUOUS
 62
     2
 10
220.5
 20
53.0
 30
0.0
 11
221.147047613
 21
55.414814566
 31
0.0
  0
LINE
  8
0
  6
CONTINUOUS
 62
     2
 10
220.5
 20
53.0
 30
0.0
 11
219.852952387
 21
55.414814566
 31
0.0
  0
LINE
  8
0
  6
CONTINUOUS
 62
     2
 10
220.5
 20
53.0
 30
0.0
 11
220.5
 21
75.5
 31
0.0
  0
LINE
  8
0
  6
CONTINUOUS
 62
     2
 10
220.5
 20
75.5
 30
0.0
 11
219.852952387
 21
73.085185434
 31
0.0
  0
LINE
  8
0
  6
CONTINUOUS
 62
     2
 10
220.5
 20
75.5
 30
0.0
 11
221.147047613
 21
73.085185434
 31
0.0
  0
LINE
  8
0
  6
CONTINUOUS
 62
     2
 10
216.25
 20
75.5
 30
0.0
 11
222.5
 21
75.5
 31
0.0
  0
TEXT
  8
0
  6
CONTINUOUS
 62
     2
 10
219.5
 20
59.87
 30
0.3
 40
3.0
  1
４５
 50
90.0
 41
0.6
 51
0.0
  7
KANJI4
  0
TEXT
  8
0
  6
CONTINUOUS
 62
     2
 10
219.5
 20
63.77
 30
0.18
 40
1.8
  1
±０．５
 50
90.0
 41
0.6
 51
0.0
  7
KANJI11
  0
LINE
  8
0
  6
CONTINUOUS
 62
     2
 10
214.05
 20
30.5
 30
0.0
 11
222.5
 21
30.5
 31
0.0
  0
LINE
  8
0
  6
CONTINUOUS
 62
     2
 10
220.5
 20
30.5
 30
0.0
 11
221.147047613
 21
32.914814566
 31
0.0
  0
LINE
  8
0
  6
CONTINUOUS
 62
     2
 10
220.5
 20
30.5
 30
0.0
 11
219.852952387
 21
32.914814566
 31
0.0
  0
LINE
  8
0
  6
CONTINUOUS
 62
     2
 10
220.5
 20
53.0
 30
0.0
 11
219.852952387
 21
50.585185434
 31
0.0
  0
LINE
  8
0
  6
CONTINUOUS
 62
     2
 10
220.5
 20
53.0
 30
0.0
 11
221.147047613
 21
50.585185434
 31
0.0
  0
LINE
  8
0
  6
CONTINUOUS
 62
     2
 10
220.5
 20
30.5
 30
0.0
 11
220.5
 21
53.0
 31
0.0
  0
TEXT
  8
0
  6
CONTINUOUS
 62
     2
 10
219.5
 20
37.37
 30
0.3
 40
3.0
  1
４５
 50
90.0
 41
0.6
 51
0.0
  7
KANJI4
  0
TEXT
  8
0
  6
CONTINUOUS
 62
     2
 10
219.5
 20
41.27
 30
0.18
 40
1.8
  1
±０．５
 50
90.0
 41
0.6
 51
0.0
  7
KANJI11
  0
LINE
  8
0
  6
CONTINUOUS
 62
     2
 10
165.5
 20
172.5
 30
0.0
 11
167.914814566
 21
171.852952387
 31
0.0
  0
LINE
  8
0
  6
CONTINUOUS
 62
     2
 10
165.5
 20
172.5
 30
0.0
 11
167.914814566
 21
173.147047613
 31
0.0
  0
LINE
  8
0
  6
CONTINUOUS
 62
     2
 10
165.5
 20
159.0
 30
0.0
 11
165.5
 21
174.5
 31
0.0
  0
LINE
  8
0
  6
CONTINUOUS
 62
     2
 10
188.0
 20
172.5
 30
0.0
 11
185.585185434
 21
173.147047613
 31
0.0
  0
LINE
  8
0
  6
CONTINUOUS
 62
     2
 10
188.0
 20
172.5
 30
0.0
 11
185.585185434
 21
171.852952387
 31
0.0
  0
LINE
  8
0
  6
CONTINUOUS
 62
     2
 10
188.0
 20
165.5
 30
0.0
 11
188.0
 21
174.5
 31
0.0
  0
LINE
  8
0
  6
CONTINUOUS
 62
     2
 10
188.0
 20
172.5
 30
0.0
 11
190.414814566
 21
171.852952387
 31
0.0
  0
LINE
  8
0
  6
CONTINUOUS
 62
     2
 10
188.0
 20
172.5
 30
0.0
 11
190.414814566
 21
173.147047613
 31
0.0
  0
TEXT
  8
0
  6
CONTINUOUS
 62
     2
 10
194.87
 20
173.5
 30
0.3
 40
3.0
  1
４５
 50
0.0
 41
0.6
 51
0.0
  7
KANJI4
  0
LINE
  8
0
  6
CONTINUOUS
 62
     2
 10
210.5
 20
172.5
 30
0.0
 11
208.085185434
 21
173.147047613
 31
0.0
  0
LINE
  8
0
  6
CONTINUOUS
 62
     2
 10
210.5
 20
172.5
 30
0.0
 11
208.085185434
 21
171.852952387
 31
0.0
  0
LINE
  8
0
  6
CONTINUOUS
 62
     2
 10
210.5
 20
159.0
 30
0.0
 11
210.5
 21
174.5
 31
0.0
  0
LINE
  8
0
  6
CONTINUOUS
 62
     2
 10
188.0
 20
172.5
 30
0.0
 11
210.5
 21
172.5
 31
0.0
  0
TEXT
  8
0
  6
CONTINUOUS
 62
     2
 10
198.77
 20
173.5
 30
0.18
 40
1.8
  1
±０．５
 50
0.0
 41
0.6
 51
0.0
  7
KANJI11
  0
LINE
  8
0
  6
CONTINUOUS
 62
     2
 10
189.237436867
 20
148.237436867
 30
0.0
 11
191.62026542
 21
148.993828359
 31
0.0
  0
LINE
  8
0
  6
CONTINUOUS
 62
     2
 10
189.237436867
 20
148.237436867
 30
0.0
 11
190.922831181
 21
150.08390539
 31
0.0
  0
LINE
  8
0
  6
CONTINUOUS
 62
     2
 10
189.237436867
 20
148.237436867
 30
0.0
 11
217.0
 21
166.0
 31
0.0
  0
LINE
  8
0
  6
CONTINUOUS
 62
     2
 10
165.5
 20
83.5
 30
0.0
 11
167.914814566
 21
82.852952387
 31
0.0
  0
LINE
  8
0
  6
CONTINUOUS
 62
     2
 10
165.5
 20
83.5
 30
0.0
 11
167.914814566
 21
84.147047613
 31
0.0
  0
LINE
  8
0
  6
CONTINUOUS
 62
     2
 10
165.5
 20
83.5
 30
0.0
 11
188.0
 21
83.5
 31
0.0
  0
LINE
  8
0
  6
CONTINUOUS
 62
     2
 10
188.0
 20
83.5
 30
0.0
 11
185.585185434
 21
84.147047613
 31
0.0
  0
LINE
  8
0
  6
CONTINUOUS
 62
     2
 10
188.0
 20
83.5
 30
0.0
 11
185.585185434
 21
82.852952387
 31
0.0
  0
TEXT
  8
0
  6
CONTINUOUS
 62
     2
 10
172.37
 20
84.5
 30
0.3
 40
3.0
  1
４５
 50
0.0
 41
0.6
 51
0.0
  7
KANJI4
  0
TEXT
  8
0
  6
CONTINUOUS
 62
     2
 10
176.27
 20
84.5
 30
0.18
 40
1.8
  1
±０．５
 50
0.0
 41
0.6
 51
0.0
  7
KANJI11
  0
LINE
  8
0
  6
CONTINUOUS
 62
     2
 10
165.5
 20
80.25
 30
0.0
 11
165.5
 21
85.5
 31
0.0
  0
LINE
  8
0
  6
CONTINUOUS
 62
     2
 10
188.0
 20
83.5
 30
0.0
 11
190.414814566
 21
82.852952387
 31
0.0
  0
LINE
  8
0
  6
CONTINUOUS
 62
     2
 10
188.0
 20
83.5
 30
0.0
 11
190.414814566
 21
84.147047613
 31
0.0
  0
LINE
  8
0
  6
CONTINUOUS
 62
     2
 10
188.0
 20
83.5
 30
0.0
 11
210.5
 21
83.5
 31
0.0
  0
LINE
  8
0
  6
CONTINUOUS
 62
     2
 10
210.5
 20
83.5
 30
0.0
 11
208.085185434
 21
84.147047613
 31
0.0
  0
LINE
  8
0
  6
CONTINUOUS
 62
     2
 10
210.5
 20
83.5
 30
0.0
 11
208.085185434
 21
82.852952387
 31
0.0
  0
TEXT
  8
0
  6
CONTINUOUS
 62
     2
 10
194.87
 20
84.5
 30
0.3
 40
3.0
  1
４５
 50
0.0
 41
0.6
 51
0.0
  7
KANJI4
  0
TEXT
  8
0
  6
CONTINUOUS
 62
     2
 10
198.77
 20
84.5
 30
0.18
 40
1.8
  1
±０．５
 50
0.0
 41
0.6
 51
0.0
  7
KANJI11
  0
LINE
  8
0
  6
CONTINUOUS
 62
     2
 10
210.5
 20
80.25
 30
0.0
 11
210.5
 21
85.5
 31
0.0
  0
TEXT
  8
0
  6
CONTINUOUS
 62
     2
 10
172.37
 20
173.5
 30
0.3
 40
3.0
  1
４５
 50
0.0
 41
0.6
 51
0.0
  7
KANJI4
  0
TEXT
  8
0
  6
CONTINUOUS
 62
     2
 10
176.27
 20
173.5
 30
0.18
 40
1.8
  1
±０．５
 50
0.0
 41
0.6
 51
0.0
  7
KANJI11
  0
LINE
  8
0
  6
CONTINUOUS
 62
     2
 10
165.5
 20
172.5
 30
0.0
 11
188.0
 21
172.5
 31
0.0
  0
LINE
  8
0
  6
CONTINUOUS
 62
     2
 10
217.0
 20
166.0
 30
0.0
 11
239.3
 21
166.0
 31
0.0
  0
TEXT
  8
0
  6
CONTINUOUS
 62
     2
 10
217.0
 20
167.0
 30
0.1
 40
3.0
  1
感度調整用抵抗器
 50
0.0
 41
0.9
 51
0.0
  7
KANJI10
  0
TEXT
  8
0
  6
CONTINUOUS
 62
     2
 10
216.5
 20
170.2
 30
0.5
 40
3.0
  1
※
 50
0.0
 41
0.9
 51
0.0
  7
KANJI3
  0
LINE
  8
0
  6
CONTINUOUS
 62
     2
 10
214.75
 20
109.5
 30
0.0
 11
222.5
 21
109.5
 31
0.0
  0
LINE
  8
0
  6
CONTINUOUS
 62
     2
 10
214.7
 20
154.5
 30
0.0
 11
222.5
 21
154.5
 31
0.0
  0
LINE
  8
0
  6
CONTINUOUS
 62
     2
 10
218.5
 20
132.0
 30
0.0
 11
222.5
 21
132.0
 31
0.0
  0
TEXT
  8
0
  6
CONTINUOUS
 62
     2
 10
116.0
 20
134.0
 30
0.3
 40
3.0
  1
φ９９
 50
90.0
 41
0.6
 51
0.0
  7
KANJI4
  0
TEXT
  8
0
  6
CONTINUOUS
 62
     2
 10
116.0
 20
140.0
 30
0.18
 40
1.8
  1
±１
 50
90.0
 41
0.6
 51
0.0
  7
KANJI11
  0
ARC
  8
0
  6
CONTINUOUS
 62
     1
 10
75.5
 20
107.5
 30
0.0
 40
3.0
 50
270.0
 51
0.0
  0
LINE
  8
0
  6
CONTINUOUS
 62
     1
 10
78.5
 20
107.5
 30
0.0
 11
78.5
 21
156.5
 31
0.0
  0
ARC
  8
0
  6
CONTINUOUS
 62
     1
 10
75.5
 20
156.5
 30
0.0
 40
3.0
 50
0.0
 51
90.0
  0
LINE
  8
0
  6
CONTINUOUS
 62
     1
 10
75.5
 20
159.5
 30
0.0
 11
26.5
 21
159.5
 31
0.0
  0
ARC
  8
0
  6
CONTINUOUS
 62
     1
 10
26.5
 20
156.5
 30
0.0
 40
3.0
 50
90.0
 51
180.0
  0
LINE
  8
0
  6
CONTINUOUS
 62
     1
 10
26.5
 20
104.5
 30
0.0
 11
75.5
 21
104.5
 31
0.0
  0
LINE
  8
0
  6
CONTINUOUS
 62
     1
 10
23.5
 20
156.5
 30
0.0
 11
23.5
 21
107.5
 31
0.0
  0
ARC
  8
0
  6
CONTINUOUS
 62
     1
 10
26.5
 20
107.5
 30
0.0
 40
3.0
 50
180.0
 51
270.0
  0
CIRCLE
  8
0
  6
CONTINUOUS
 62
     1
 10
51.0
 20
132.0
 30
0.0
 40
25.5
  0
CIRCLE
  8
0
  6
CONTINUOUS
 62
     2
 10
73.5
 20
154.5
 30
0.0
 40
1.5
  0
LINE
  8
0
  6
CONTINUOUS
 62
     2
 10
72.625
 20
154.7
 30
0.0
 11
73.1
 21
154.7
 31
0.0
  0
ARC
  8
0
  6
CONTINUOUS
 62
     2
 10
73.1
 20
154.9
 30
0.0
 40
0.2
 50
270.0
 51
0.0
  0
LINE
  8
0
  6
CONTINUOUS
 62
     2
 10
73.3
 20
154.9
 30
0.0
 11
73.3
 21
155.375
 31
0.0
  0
LINE
  8
0
  6
CONTINUOUS
 62
     2
 10
73.3
 20
155.375
 30
0.0
 11
73.7
 21
155.375
 31
0.0
  0
LINE
  8
0
  6
CONTINUOUS
 62
     2
 10
73.7
 20
155.375
 30
0.0
 11
73.7
 21
154.9
 31
0.0
  0
ARC
  8
0
  6
CONTINUOUS
 62
     2
 10
73.9
 20
154.9
 30
0.0
 40
0.2
 50
180.0
 51
270.0
  0
LINE
  8
0
  6
CONTINUOUS
 62
     2
 10
73.9
 20
154.7
 30
0.0
 11
74.375
 21
154.7
 31
0.0
  0
LINE
  8
0
  6
CONTINUOUS
 62
     2
 10
74.375
 20
154.7
 30
0.0
 11
74.375
 21
154.3
 31
0.0
  0
LINE
  8
0
  6
CONTINUOUS
 62
     2
 10
74.375
 20
154.3
 30
0.0
 11
73.9
 21
154.3
 31
0.0
  0
ARC
  8
0
  6
CONTINUOUS
 62
     2
 10
73.9
 20
154.1
 30
0.0
 40
0.2
 50
90.0
 51
180.0
  0
LINE
  8
0
  6
CONTINUOUS
 62
     2
 10
73.7
 20
154.1
 30
0.0
 11
73.7
 21
153.625
 31
0.0
  0
LINE
  8
0
  6
CONTINUOUS
 62
     2
 10
73.7
 20
153.625
 30
0.0
 11
73.3
 21
153.625
 31
0.0
  0
LINE
  8
0
  6
CONTINUOUS
 62
     2
 10
73.3
 20
153.625
 30
0.0
 11
73.3
 21
154.1
 31
0.0
  0
ARC
  8
0
  6
CONTINUOUS
 62
     2
 10
73.1
 20
154.1
 30
0.0
 40
0.2
 50
0.0
 51
90.0
  0
LINE
  8
0
  6
CONTINUOUS
 62
     2
 10
73.1
 20
154.3
 30
0.0
 11
72.625
 21
154.3
 31
0.0
  0
LINE
  8
0
  6
CONTINUOUS
 62
     2
 10
72.625
 20
154.3
 30
0.0
 11
72.625
 21
154.7
 31
0.0
  0
LINE
  8
0
  6
LTYPE5
 62
     2
 10
71.5
 20
154.5
 30
0.0
 11
75.5
 21
154.5
 31
0.0
  0
LINE
  8
0
  6
LTYPE5
 62
     2
 10
73.5
 20
156.5
 30
0.0
 11
73.5
 21
152.5
 31
0.0
  0
CIRCLE
  8
0
  6
CONTINUOUS
 62
     2
 10
28.5
 20
154.5
 30
0.0
 40
1.5
  0
LINE
  8
0
  6
CONTINUOUS
 62
     2
 10
27.625
 20
154.7
 30
0.0
 11
28.1
 21
154.7
 31
0.0
  0
ARC
  8
0
  6
CONTINUOUS
 62
     2
 10
28.1
 20
154.9
 30
0.0
 40
0.2
 50
270.0
 51
0.0
  0
LINE
  8
0
  6
CONTINUOUS
 62
     2
 10
28.3
 20
154.9
 30
0.0
 11
28.3
 21
155.375
 31
0.0
  0
LINE
  8
0
  6
CONTINUOUS
 62
     2
 10
28.3
 20
155.375
 30
0.0
 11
28.7
 21
155.375
 31
0.0
  0
LINE
  8
0
  6
CONTINUOUS
 62
     2
 10
28.7
 20
155.375
 30
0.0
 11
28.7
 21
154.9
 31
0.0
  0
ARC
  8
0
  6
CONTINUOUS
 62
     2
 10
28.9
 20
154.9
 30
0.0
 40
0.2
 50
180.0
 51
270.0
  0
LINE
  8
0
  6
CONTINUOUS
 62
     2
 10
28.9
 20
154.7
 30
0.0
 11
29.375
 21
154.7
 31
0.0
  0
LINE
  8
0
  6
CONTINUOUS
 62
     2
 10
29.375
 20
154.7
 30
0.0
 11
29.375
 21
154.3
 31
0.0
  0
LINE
  8
0
  6
CONTINUOUS
 62
     2
 10
29.375
 20
154.3
 30
0.0
 11
28.9
 21
154.3
 31
0.0
  0
ARC
  8
0
  6
CONTINUOUS
 62
     2
 10
28.9
 20
154.1
 30
0.0
 40
0.2
 50
90.0
 51
180.0
  0
LINE
  8
0
  6
CONTINUOUS
 62
     2
 10
28.7
 20
154.1
 30
0.0
 11
28.7
 21
153.625
 31
0.0
  0
LINE
  8
0
  6
CONTINUOUS
 62
     2
 10
28.7
 20
153.625
 30
0.0
 11
28.3
 21
153.625
 31
0.0
  0
LINE
  8
0
  6
CONTINUOUS
 62
     2
 10
28.3
 20
153.625
 30
0.0
 11
28.3
 21
154.1
 31
0.0
  0
ARC
  8
0
  6
CONTINUOUS
 62
     2
 10
28.1
 20
154.1
 30
0.0
 40
0.2
 50
0.0
 51
90.0
  0
LINE
  8
0
  6
CONTINUOUS
 62
     2
 10
28.1
 20
154.3
 30
0.0
 11
27.625
 21
154.3
 31
0.0
  0
LINE
  8
0
  6
CONTINUOUS
 62
     2
 10
27.625
 20
154.3
 30
0.0
 11
27.625
 21
154.7
 31
0.0
  0
LINE
  8
0
  6
LTYPE5
 62
     2
 10
26.5
 20
154.5
 30
0.0
 11
30.5
 21
154.5
 31
0.0
  0
LINE
  8
0
  6
LTYPE5
 62
     2
 10
28.5
 20
156.5
 30
0.0
 11
28.5
 21
152.5
 31
0.0
  0
CIRCLE
  8
0
  6
CONTINUOUS
 62
     2
 10
28.5
 20
109.5
 30
0.0
 40
1.5
  0
LINE
  8
0
  6
CONTINUOUS
 62
     2
 10
27.625
 20
109.7
 30
0.0
 11
28.1
 21
109.7
 31
0.0
  0
ARC
  8
0
  6
CONTINUOUS
 62
     2
 10
28.1
 20
109.9
 30
0.0
 40
0.2
 50
270.0
 51
0.0
  0
LINE
  8
0
  6
CONTINUOUS
 62
     2
 10
28.3
 20
109.9
 30
0.0
 11
28.3
 21
110.375
 31
0.0
  0
LINE
  8
0
  6
CONTINUOUS
 62
     2
 10
28.3
 20
110.375
 30
0.0
 11
28.7
 21
110.375
 31
0.0
  0
LINE
  8
0
  6
CONTINUOUS
 62
     2
 10
28.7
 20
110.375
 30
0.0
 11
28.7
 21
109.9
 31
0.0
  0
ARC
  8
0
  6
CONTINUOUS
 62
     2
 10
28.9
 20
109.9
 30
0.0
 40
0.2
 50
180.0
 51
270.0
  0
LINE
  8
0
  6
CONTINUOUS
 62
     2
 10
28.9
 20
109.7
 30
0.0
 11
29.375
 21
109.7
 31
0.0
  0
LINE
  8
0
  6
CONTINUOUS
 62
     2
 10
29.375
 20
109.7
 30
0.0
 11
29.375
 21
109.3
 31
0.0
  0
LINE
  8
0
  6
CONTINUOUS
 62
     2
 10
29.375
 20
109.3
 30
0.0
 11
28.9
 21
109.3
 31
0.0
  0
ARC
  8
0
  6
CONTINUOUS
 62
     2
 10
28.9
 20
109.1
 30
0.0
 40
0.2
 50
90.0
 51
180.0
  0
LINE
  8
0
  6
CONTINUOUS
 62
     2
 10
28.7
 20
109.1
 30
0.0
 11
28.7
 21
108.625
 31
0.0
  0
LINE
  8
0
  6
CONTINUOUS
 62
     2
 10
28.7
 20
108.625
 30
0.0
 11
28.3
 21
108.625
 31
0.0
  0
LINE
  8
0
  6
CONTINUOUS
 62
     2
 10
28.3
 20
108.625
 30
0.0
 11
28.3
 21
109.1
 31
0.0
  0
ARC
  8
0
  6
CONTINUOUS
 62
     2
 10
28.1
 20
109.1
 30
0.0
 40
0.2
 50
0.0
 51
90.0
  0
LINE
  8
0
  6
CONTINUOUS
 62
     2
 10
28.1
 20
109.3
 30
0.0
 11
27.625
 21
109.3
 31
0.0
  0
LINE
  8
0
  6
CONTINUOUS
 62
     2
 10
27.625
 20
109.3
 30
0.0
 11
27.625
 21
109.7
 31
0.0
  0
LINE
  8
0
  6
LTYPE5
 62
     2
 10
26.5
 20
109.5
 30
0.0
 11
30.5
 21
109.5
 31
0.0
  0
LINE
  8
0
  6
LTYPE5
 62
     2
 10
28.5
 20
111.5
 30
0.0
 11
28.5
 21
107.5
 31
0.0
  0
CIRCLE
  8
0
  6
CONTINUOUS
 62
     2
 10
73.5
 20
109.5
 30
0.0
 40
1.5
  0
LINE
  8
0
  6
CONTINUOUS
 62
     2
 10
72.625
 20
109.7
 30
0.0
 11
73.1
 21
109.7
 31
0.0
  0
ARC
  8
0
  6
CONTINUOUS
 62
     2
 10
73.1
 20
109.9
 30
0.0
 40
0.2
 50
270.0
 51
0.0
  0
LINE
  8
0
  6
CONTINUOUS
 62
     2
 10
73.3
 20
109.9
 30
0.0
 11
73.3
 21
110.375
 31
0.0
  0
LINE
  8
0
  6
CONTINUOUS
 62
     2
 10
73.3
 20
110.375
 30
0.0
 11
73.7
 21
110.375
 31
0.0
  0
LINE
  8
0
  6
CONTINUOUS
 62
     2
 10
73.7
 20
110.375
 30
0.0
 11
73.7
 21
109.9
 31
0.0
  0
ARC
  8
0
  6
CONTINUOUS
 62
     2
 10
73.9
 20
109.9
 30
0.0
 40
0.2
 50
180.0
 51
270.0
  0
LINE
  8
0
  6
CONTINUOUS
 62
     2
 10
73.9
 20
109.7
 30
0.0
 11
74.375
 21
109.7
 31
0.0
  0
LINE
  8
0
  6
CONTINUOUS
 62
     2
 10
74.375
 20
109.7
 30
0.0
 11
74.375
 21
109.3
 31
0.0
  0
LINE
  8
0
  6
CONTINUOUS
 62
     2
 10
74.375
 20
109.3
 30
0.0
 11
73.9
 21
109.3
 31
0.0
  0
ARC
  8
0
  6
CONTINUOUS
 62
     2
 10
73.9
 20
109.1
 30
0.0
 40
0.2
 50
90.0
 51
180.0
  0
LINE
  8
0
  6
CONTINUOUS
 62
     2
 10
73.7
 20
109.1
 30
0.0
 11
73.7
 21
108.625
 31
0.0
  0
LINE
  8
0
  6
CONTINUOUS
 62
     2
 10
73.7
 20
108.625
 30
0.0
 11
73.3
 21
108.625
 31
0.0
  0
LINE
  8
0
  6
CONTINUOUS
 62
     2
 10
73.3
 20
108.625
 30
0.0
 11
73.3
 21
109.1
 31
0.0
  0
ARC
  8
0
  6
CONTINUOUS
 62
     2
 10
73.1
 20
109.1
 30
0.0
 40
0.2
 50
0.0
 51
90.0
  0
LINE
  8
0
  6
CONTINUOUS
 62
     2
 10
73.1
 20
109.3
 30
0.0
 11
72.625
 21
109.3
 31
0.0
  0
LINE
  8
0
  6
CONTINUOUS
 62
     2
 10
72.625
 20
109.3
 30
0.0
 11
72.625
 21
109.7
 31
0.0
  0
LINE
  8
0
  6
LTYPE5
 62
     2
 10
71.5
 20
109.5
 30
0.0
 11
75.5
 21
109.5
 31
0.0
  0
LINE
  8
0
  6
LTYPE5
 62
     2
 10
73.5
 20
111.5
 30
0.0
 11
73.5
 21
107.5
 31
0.0
  0
CIRCLE
  8
0
  6
CONTINUOUS
 62
     2
 10
51.0
 20
132.0
 30
0.0
 40
24.25
  0
CIRCLE
  8
0
  6
CONTINUOUS
 62
     2
 10
51.0
 20
132.0
 30
0.0
 40
21.0
  0
CIRCLE
  8
0
  6
CONTINUOUS
 62
     2
 10
42.5
 20
116.5
 30
0.0
 40
1.5
  0
LINE
  8
0
  6
CONTINUOUS
 62
     2
 10
41.73986021
 20
116.022702923
 30
0.0
 11
42.075735931
 21
116.358578644
 31
0.0
  0
ARC
  8
0
  6
CONTINUOUS
 62
     2
 10
41.934314575
 20
116.5
 30
0.0
 40
0.2
 50
315.0
 51
45.0
  0
LINE
  8
0
  6
CONTINUOUS
 62
     2
 10
42.075735931
 20
116.641421356
 30
0.0
 11
41.73986021
 21
116.977297077
 31
0.0
  0
LINE
  8
0
  6
CONTINUOUS
 62
     2
 10
41.73986021
 20
116.977297077
 30
0.0
 11
42.022702923
 21
117.26013979
 31
0.0
  0
LINE
  8
0
  6
CONTINUOUS
 62
     2
 10
42.022702923
 20
117.26013979
 30
0.0
 11
42.358578644
 21
116.924264069
 31
0.0
  0
ARC
  8
0
  6
CONTINUOUS
 62
     2
 10
42.5
 20
117.065685425
 30
0.0
 40
0.2
 50
225.0
 51
315.0
  0
LINE
  8
0
  6
CONTINUOUS
 62
     2
 10
42.641421356
 20
116.924264069
 30
0.0
 11
42.977297077
 21
117.26013979
 31
0.0
  0
LINE
  8
0
  6
CONTINUOUS
 62
     2
 10
42.977297077
 20
117.26013979
 30
0.0
 11
43.26013979
 21
116.977297077
 31
0.0
  0
LINE
  8
0
  6
CONTINUOUS
 62
     2
 10
43.26013979
 20
116.977297077
 30
0.0
 11
42.924264069
 21
116.641421356
 31
0.0
  0
ARC
  8
0
  6
CONTINUOUS
 62
     2
 10
43.065685425
 20
116.5
 30
0.0
 40
0.2
 50
135.0
 51
225.0
  0
LINE
  8
0
  6
CONTINUOUS
 62
     2
 10
42.924264069
 20
116.358578644
 30
0.0
 11
43.26013979
 21
116.022702923
 31
0.0
  0
LINE
  8
0
  6
CONTINUOUS
 62
     2
 10
43.26013979
 20
116.022702923
 30
0.0
 11
42.977297077
 21
115.73986021
 31
0.0
  0
LINE
  8
0
  6
CONTINUOUS
 62
     2
 10
42.977297077
 20
115.73986021
 30
0.0
 11
42.641421356
 21
116.075735931
 31
0.0
  0
ARC
  8
0
  6
CONTINUOUS
 62
     2
 10
42.5
 20
115.934314575
 30
0.0
 40
0.2
 50
45.0
 51
135.0
  0
LINE
  8
0
  6
CONTINUOUS
 62
     2
 10
42.358578644
 20
116.075735931
 30
0.0
 11
42.022702923
 21
115.73986021
 31
0.0
  0
LINE
  8
0
  6
CONTINUOUS
 62
     2
 10
42.022702923
 20
115.73986021
 30
0.0
 11
41.73986021
 21
116.022702923
 31
0.0
  0
CIRCLE
  8
0
  6
CONTINUOUS
 62
     2
 10
59.5
 20
116.5
 30
0.0
 40
1.5
  0
LINE
  8
0
  6
CONTINUOUS
 62
     2
 10
58.73986021
 20
116.022702923
 30
0.0
 11
59.075735931
 21
116.358578644
 31
0.0
  0
ARC
  8
0
  6
CONTINUOUS
 62
     2
 10
58.934314575
 20
116.5
 30
0.0
 40
0.2
 50
315.0
 51
45.0
  0
LINE
  8
0
  6
CONTINUOUS
 62
     2
 10
59.075735931
 20
116.641421356
 30
0.0
 11
58.73986021
 21
116.977297077
 31
0.0
  0
LINE
  8
0
  6
CONTINUOUS
 62
     2
 10
58.73986021
 20
116.977297077
 30
0.0
 11
59.022702923
 21
117.26013979
 31
0.0
  0
LINE
  8
0
  6
CONTINUOUS
 62
     2
 10
59.022702923
 20
117.26013979
 30
0.0
 11
59.358578644
 21
116.924264069
 31
0.0
  0
ARC
  8
0
  6
CONTINUOUS
 62
     2
 10
59.5
 20
117.065685425
 30
0.0
 40
0.2
 50
225.0
 51
315.0
  0
LINE
  8
0
  6
CONTINUOUS
 62
     2
 10
59.641421356
 20
116.924264069
 30
0.0
 11
59.977297077
 21
117.26013979
 31
0.0
  0
LINE
  8
0
  6
CONTINUOUS
 62
     2
 10
59.977297077
 20
117.26013979
 30
0.0
 11
60.26013979
 21
116.977297077
 31
0.0
  0
LINE
  8
0
  6
CONTINUOUS
 62
     2
 10
60.26013979
 20
116.977297077
 30
0.0
 11
59.924264069
 21
116.641421356
 31
0.0
  0
ARC
  8
0
  6
CONTINUOUS
 62
     2
 10
60.065685425
 20
116.5
 30
0.0
 40
0.2
 50
135.0
 51
225.0
  0
LINE
  8
0
  6
CONTINUOUS
 62
     2
 10
59.924264069
 20
116.358578644
 30
0.0
 11
60.26013979
 21
116.022702923
 31
0.0
  0
LINE
  8
0
  6
CONTINUOUS
 62
     2
 10
60.26013979
 20
116.022702923
 30
0.0
 11
59.977297077
 21
115.73986021
 31
0.0
  0
LINE
  8
0
  6
CONTINUOUS
 62
     2
 10
59.977297077
 20
115.73986021
 30
0.0
 11
59.641421356
 21
116.075735931
 31
0.0
  0
ARC
  8
0
  6
CONTINUOUS
 62
     2
 10
59.5
 20
115.934314575
 30
0.0
 40
0.2
 50
45.0
 51
135.0
  0
LINE
  8
0
  6
CONTINUOUS
 62
     2
 10
59.358578644
 20
116.075735931
 30
0.0
 11
59.022702923
 21
115.73986021
 31
0.0
  0
LINE
  8
0
  6
CONTINUOUS
 62
     2
 10
59.022702923
 20
115.73986021
 30
0.0
 11
58.73986021
 21
116.022702923
 31
0.0
  0
LINE
  8
0
  6
CONTINUOUS
 62
     2
 10
35.702240015
 20
124.54741391
 30
0.0
 11
32.98424919
 21
122.218245415
 31
0.0
  0
LINE
  8
0
  6
CONTINUOUS
 62
     2
 10
32.98424919
 20
122.218245415
 30
0.0
 11
36.417978155
 21
123.229188241
 31
0.0
  0
LINE
  8
0
  6
CONTINUOUS
 62
     2
 10
36.417978155
 20
123.229188241
 30
0.0
 11
43.917058939
 21
127.300856895
 31
0.0
  0
LINE
  8
0
  6
CONTINUOUS
 62
     2
 10
35.181291972
 20
123.411142315
 30
0.0
 11
43.701656687
 21
127.642915552
 31
0.0
  0
LINE
  8
0
  6
CONTINUOUS
 62
     2
 10
43.370878852
 20
128.252132538
 30
0.0
 11
35.181291972
 21
123.411142315
 31
0.0
  0
LINE
  8
0
  6
CONTINUOUS
 62
     2
 10
43.201320798
 20
128.619082564
 30
0.0
 11
35.702240015
 21
124.54741391
 31
0.0
  0
LINE
  8
0
  6
LTYPE3
 62
     2
 10
51.0
 20
164.5
 30
0.0
 11
51.0
 21
99.5
 31
0.0
  0
CIRCLE
  8
0
  6
CONTINUOUS
 62
     1
 10
51.0
 20
132.0
 30
0.0
 40
3.05
  0
LINE
  8
0
  6
CONTINUOUS
 62
     2
 10
51.45
 20
128.983379374
 30
0.0
 11
51.45
 21
135.016620626
 31
0.0
  0
LINE
  8
0
  6
CONTINUOUS
 62
     2
 10
50.55
 20
135.016620626
 30
0.0
 11
50.55
 21
128.983379374
 31
0.0
  0
CIRCLE
  8
0
  6
CONTINUOUS
 62
     2
 10
51.0
 20
132.0
 30
0.0
 40
8.5
  0
CIRCLE
  8
0
  6
CONTINUOUS
 62
     2
 10
51.0
 20
132.0
 30
0.0
 40
7.8
  0
CIRCLE
  8
0
  6
CONTINUOUS
 62
     2
 10
51.0
 20
132.0
 30
0.0
 40
7.1
  0
CIRCLE
  8
0
  6
CONTINUOUS
 62
     2
 10
51.0
 20
132.0
 30
0.0
 40
6.4
  0
CIRCLE
  8
0
  6
CONTINUOUS
 62
     2
 10
51.0
 20
132.0
 30
0.0
 40
5.7
  0
CIRCLE
  8
0
  6
CONTINUOUS
 62
     2
 10
51.0
 20
132.0
 30
0.0
 40
5.0
  0
CIRCLE
  8
0
  6
CONTINUOUS
 62
     2
 10
51.0
 20
132.0
 30
0.0
 40
4.3
  0
CIRCLE
  8
0
  6
CONTINUOUS
 62
     2
 10
51.0
 20
132.0
 30
0.0
 40
3.6
  0
LINE
  8
0
  6
CONTINUOUS
 62
     2
 10
36.1
 20
123.0
 30
0.0
 11
35.037702186
 21
120.736921708
 31
0.0
  0
LINE
  8
0
  6
CONTINUOUS
 62
     2
 10
36.1
 20
123.0
 30
0.0
 11
36.311562253
 21
120.508967802
 31
0.0
  0
LINE
  8
0
  6
CONTINUOUS
 62
     2
 10
52.4
 20
129.3
 30
0.0
 11
52.109945883
 21
126.816883287
 31
0.0
  0
LINE
  8
0
  6
CONTINUOUS
 62
     2
 10
52.4
 20
129.3
 30
0.0
 11
53.390364123
 21
127.004530788
 31
0.0
  0
LINE
  8
0
  6
CONTINUOUS
 62
     2
 10
36.1
 20
123.0
 30
0.0
 11
31.0
 21
94.5
 31
0.0
  0
LINE
  8
0
  6
CONTINUOUS
 62
     2
 10
52.4
 20
129.3
 30
0.0
 11
57.5
 21
94.5
 31
0.0
  0
LINE
  8
0
  6
CONTINUOUS
 62
     2
 10
16.5
 20
159.5
 30
0.0
 11
15.852952387
 21
157.085185434
 31
0.0
  0
LINE
  8
0
  6
CONTINUOUS
 62
     2
 10
16.5
 20
159.5
 30
0.0
 11
17.147047613
 21
157.085185434
 31
0.0
  0
LINE
  8
0
  6
CONTINUOUS
 62
     2
 10
25.5
 20
159.5
 30
0.0
 11
14.5
 21
159.5
 31
0.0
  0
TEXT
  8
0
  6
CONTINUOUS
 62
     2
 10
15.5
 20
132.481754585
 30
0.18
 40
1.8
  1
±１．５
 50
90.0
 41
0.6
 51
0.0
  7
KANJI11
  0
TEXT
  8
0
  6
CONTINUOUS
 62
     2
 10
15.5
 20
126.481754585
 30
0.3
 40
3.0
  1
１１０
 50
90.0
 41
0.6
 51
0.0
  7
KANJI4
  0
LINE
  8
0
  6
CONTINUOUS
 62
     2
 10
16.5
 20
104.5
 30
0.0
 11
17.147047613
 21
106.914814566
 31
0.0
  0
LINE
  8
0
  6
CONTINUOUS
 62
     2
 10
16.5
 20
104.5
 30
0.0
 11
15.852952387
 21
106.914814566
 31
0.0
  0
LINE
  8
0
  6
CONTINUOUS
 62
     2
 10
25.5
 20
104.5
 30
0.0
 11
14.5
 21
104.5
 31
0.0
  0
LINE
  8
0
  6
CONTINUOUS
 62
     2
 10
16.5
 20
159.5
 30
0.0
 11
16.5
 21
104.5
 31
0.0
  0
LINE
  8
0
  6
CONTINUOUS
 62
     1
 10
100.5
 20
159.5
 30
0.0
 11
95.25
 21
159.5
 31
0.0
  0
ARC
  8
0
  6
CONTINUOUS
 62
     1
 10
95.25
 20
159.0
 30
0.0
 40
0.5
 50
90.0
 51
180.0
  0
LINE
  8
0
  6
CONTINUOUS
 62
     1
 10
94.75
 20
157.5
 30
0.0
 11
91.25
 21
157.5
 31
0.0
  0
ARC
  8
0
  6
CONTINUOUS
 62
     1
 10
91.25
 20
157.25
 30
0.0
 40
0.25
 50
90.0
 51
180.0
  0
LINE
  8
0
  6
CONTINUOUS
 62
     1
 10
100.5
 20
104.5
 30
0.0
 11
95.25
 21
104.5
 31
0.0
  0
ARC
  8
0
  6
CONTINUOUS
 62
     1
 10
95.25
 20
105.0
 30
0.0
 40
0.5
 50
180.0
 51
270.0
  0
LINE
  8
0
  6
CONTINUOUS
 62
     1
 10
94.75
 20
106.5
 30
0.0
 11
91.25
 21
106.5
 31
0.0
  0
ARC
  8
0
  6
CONTINUOUS
 62
     1
 10
91.25
 20
106.75
 30
0.0
 40
0.25
 50
180.0
 51
270.0
  0
LINE
  8
0
  6
CONTINUOUS
 62
     1
 10
94.75
 20
105.0
 30
0.0
 11
94.75
 21
132.0
 31
0.0
  0
LINE
  8
0
  6
CONTINUOUS
 62
     1
 10
90.177077922
 20
133.590990258
 30
0.0
 11
91.0
 21
157.25
 31
0.0
  0
LINE
  8
0
  6
CONTINUOUS
 62
     1
 10
94.75
 20
159.0
 30
0.0
 11
94.75
 21
157.65
 31
0.0
  0
LINE
  8
0
  6
CONTINUOUS
 62
     1
 10
94.75
 20
157.65
 30
0.0
 11
94.75
 21
157.5
 31
0.0
  0
LINE
  8
0
  6
CONTINUOUS
 62
     1
 10
94.75
 20
132.025
 30
0.0
 11
94.75
 21
157.5
 31
0.0
  0
LINE
  8
0
  6
CONTINUOUS
 62
     1
 10
94.75
 20
150.0
 30
0.0
 11
94.75
 21
159.000001907
 31
0.0
  0
LINE
  8
0
  6
CONTINUOUS
 62
     2
 10
94.75
 20
110.75
 30
0.0
 11
94.65
 21
110.75
 31
0.0
  0
LINE
  8
0
  6
CONTINUOUS
 62
     2
 10
94.65
 20
110.75
 30
0.0
 11
94.65
 21
108.25
 31
0.0
  0
LINE
  8
0
  6
CONTINUOUS
 62
     2
 10
94.65
 20
108.25
 30
0.0
 11
94.75
 21
108.25
 31
0.0
  0
LINE
  8
0
  6
CONTINUOUS
 62
     2
 10
94.65
 20
111.025
 30
0.0
 11
94.65
 21
108.025
 31
0.0
  0
LINE
  8
0
  6
CONTINUOUS
 62
     2
 10
94.3
 20
108.025
 30
0.0
 11
94.65
 21
108.025
 31
0.0
  0
ARC
  8
0
  6
CONTINUOUS
 62
     2
 10
94.3
 20
108.425
 30
0.0
 40
0.4
 50
180.0
 51
270.0
  0
LINE
  8
0
  6
CONTINUOUS
 62
     2
 10
94.3
 20
111.025
 30
0.0
 11
94.75
 21
111.025
 31
0.0
  0
LINE
  8
0
  6
CONTINUOUS
 62
     2
 10
93.9
 20
108.425
 30
0.0
 11
93.9
 21
110.625
 31
0.0
  0
ARC
  8
0
  6
CONTINUOUS
 62
     2
 10
94.3
 20
110.625
 30
0.0
 40
0.4
 50
90.0
 51
180.0
  0
LINE
  8
0
  6
CONTINUOUS
 62
     2
 10
93.9
 20
109.625
 30
0.0
 11
94.0
 21
109.625
 31
0.0
  0
LINE
  8
0
  6
CONTINUOUS
 62
     2
 10
94.0
 20
109.625
 30
0.0
 11
94.0
 21
109.425
 31
0.0
  0
LINE
  8
0
  6
CONTINUOUS
 62
     2
 10
94.0
 20
109.425
 30
0.0
 11
93.9
 21
109.425
 31
0.0
  0
LINE
  8
0
  6
CONTINUOUS
 62
     2
 10
94.75
 20
155.75
 30
0.0
 11
94.65
 21
155.75
 31
0.0
  0
LINE
  8
0
  6
CONTINUOUS
 62
     2
 10
94.65
 20
155.75
 30
0.0
 11
94.65
 21
153.25
 31
0.0
  0
LINE
  8
0
  6
CONTINUOUS
 62
     2
 10
94.65
 20
153.25
 30
0.0
 11
94.75
 21
153.25
 31
0.0
  0
LINE
  8
0
  6
CONTINUOUS
 62
     2
 10
94.65
 20
156.025
 30
0.0
 11
94.65
 21
153.025
 31
0.0
  0
LINE
  8
0
  6
CONTINUOUS
 62
     2
 10
94.3
 20
153.025
 30
0.0
 11
94.65
 21
153.025
 31
0.0
  0
ARC
  8
0
  6
CONTINUOUS
 62
     2
 10
94.3
 20
153.425
 30
0.0
 40
0.4
 50
180.0
 51
270.0
  0
LINE
  8
0
  6
CONTINUOUS
 62
     2
 10
94.3
 20
156.025
 30
0.0
 11
94.75
 21
156.025
 31
0.0
  0
LINE
  8
0
  6
CONTINUOUS
 62
     2
 10
93.9
 20
153.425
 30
0.0
 11
93.9
 21
155.625
 31
0.0
  0
ARC
  8
0
  6
CONTINUOUS
 62
     2
 10
94.3
 20
155.625
 30
0.0
 40
0.4
 50
90.0
 51
180.0
  0
LINE
  8
0
  6
CONTINUOUS
 62
     2
 10
93.9
 20
154.625
 30
0.0
 11
94.0
 21
154.625
 31
0.0
  0
LINE
  8
0
  6
CONTINUOUS
 62
     2
 10
94.0
 20
154.625
 30
0.0
 11
94.0
 21
154.425
 31
0.0
  0
LINE
  8
0
  6
CONTINUOUS
 62
     2
 10
94.0
 20
154.425
 30
0.0
 11
93.9
 21
154.425
 31
0.0
  0
LINE
  8
0
  6
CONTINUOUS
 62
     2
 10
91.05
 20
106.5
 30
0.0
 11
83.625
 21
106.5
 31
0.0
  0
LINE
  8
0
  6
CONTINUOUS
 62
     2
 10
85.625
 20
106.5
 30
0.0
 11
86.272047613
 21
108.914814566
 31
0.0
  0
LINE
  8
0
  6
CONTINUOUS
 62
     2
 10
85.625
 20
106.5
 30
0.0
 11
84.977952387
 21
108.914814566
 31
0.0
  0
LINE
  8
0
  6
CONTINUOUS
 62
     2
 10
85.625
 20
106.5
 30
0.0
 11
85.625
 21
157.5
 31
0.0
  0
LINE
  8
0
  6
CONTINUOUS
 62
     2
 10
85.625
 20
157.5
 30
0.0
 11
84.977952387
 21
155.085185434
 31
0.0
  0
LINE
  8
0
  6
CONTINUOUS
 62
     2
 10
85.625
 20
157.5
 30
0.0
 11
86.272047613
 21
155.085185434
 31
0.0
  0
LINE
  8
0
  6
CONTINUOUS
 62
     2
 10
91.05
 20
157.5
 30
0.0
 11
83.625
 21
157.5
 31
0.0
  0
TEXT
  8
0
  6
CONTINUOUS
 62
     2
 10
84.625
 20
127.95
 30
0.3
 40
3.0
  1
φ１０２
 50
90.0
 41
0.6
 51
0.0
  7
KANJI4
  0
LINE
  8
0
  6
CONTINUOUS
 62
     1
 10
90.0
 20
133.590990258
 30
0.0
 11
90.177077922
 21
133.590990258
 31
0.0
  0
LINE
  8
0
  6
CONTINUOUS
 62
     1
 10
90.0
 20
130.409009742
 30
0.0
 11
90.177077922
 21
130.409009742
 31
0.0
  0
LINE
  8
0
  6
CONTINUOUS
 62
     1
 10
90.177077922
 20
130.409009742
 30
0.0
 11
91.0
 21
106.75
 31
0.0
  0
LINE
  8
0
  6
CONTINUOUS
 62
     2
 10
90.0
 20
134.95
 30
0.0
 11
90.0
 21
129.05
 31
0.0
  0
LINE
  8
0
  6
CONTINUOUS
 62
     2
 10
90.0
 20
134.95
 30
0.0
 11
90.0
 21
134.95
 31
0.0
  0
ARC
  8
0
  6
CONTINUOUS
 62
     2
 10
90.0
 20
133.45
 30
0.0
 40
1.5
 50
90.0
 51
180.0
  0
LINE
  8
0
  6
CONTINUOUS
 62
     2
 10
90.0
 20
129.05
 30
0.0
 11
89.9
 21
129.05
 31
0.0
  0
LINE
  8
0
  6
CONTINUOUS
 62
     2
 10
88.5
 20
130.45
 30
0.0
 11
88.5
 21
133.45
 31
0.0
  0
ARC
  8
0
  6
CONTINUOUS
 62
     2
 10
89.9
 20
130.45
 30
0.0
 40
1.4
 50
180.0
 51
270.0
  0
LINE
  8
0
  6
CONTINUOUS
 62
     2
 10
88.5
 20
179.0
 30
0.0
 11
90.914814566
 21
178.352952387
 31
0.0
  0
LINE
  8
0
  6
CONTINUOUS
 62
     2
 10
88.5
 20
179.0
 30
0.0
 11
90.914814566
 21
179.647047613
 31
0.0
  0
LINE
  8
0
  6
CONTINUOUS
 62
     2
 10
88.5
 20
134.125
 30
0.0
 11
88.5
 21
181.0
 31
0.0
  0
LINE
  8
0
  6
CONTINUOUS
 62
     2
 10
88.5
 20
179.0
 30
0.0
 11
100.5
 21
179.0
 31
0.0
  0
TEXT
  8
0
  6
CONTINUOUS
 62
     2
 10
92.05
 20
180.0
 30
0.3
 40
3.0
  1
２４
 50
0.0
 41
0.6
 51
0.0
  7
KANJI4
  0
TEXT
  8
0
  6
CONTINUOUS
 62
     2
 10
190.303880416
 20
56.609763855
 30
0.3
 40
3.0
  1
φ１０１
 50
46.346669025
 41
0.6
 51
0.0
  7
KANJI4
  0
TEXT
  8
0
  6
CONTINUOUS
 62
     2
 10
162.0
 20
19.25
 30
0.1
 40
3.0
  1
４－φ６
 50
0.0
 41
0.9
 51
0.0
  7
KANJI10
  0
LINE
  8
0
  6
CONTINUOUS
 62
     2
 10
169.05
 20
18.25
 30
0.0
 11
159.5
 21
18.25
 31
0.0
  0
LINE
  8
0
  6
CONTINUOUS
 62
     2
 10
164.503053791
 20
29.379242106
 30
0.0
 11
159.5
 21
18.25
 31
0.0
  0
ARC
  8
0
  6
CONTINUOUS
 62
     1
 10
174.000002302
 20
142.5
 30
0.0
 40
0.5
 50
90.0
 51
180.0
  0
LINE
  8
0
  6
CONTINUOUS
 62
     1
 10
173.500002302
 20
142.5
 30
0.0
 11
173.500002302
 21
140.0
 31
0.0
  0
ARC
  8
0
  6
CONTINUOUS
 62
     1
 10
174.000002302
 20
140.0
 30
0.0
 40
0.5
 50
180.0
 51
270.0
  0
LINE
  8
0
  6
CONTINUOUS
 62
     1
 10
174.000002302
 20
143.0
 30
0.0
 11
202.000002302
 21
143.0
 31
0.0
  0
ARC
  8
0
  6
CONTINUOUS
 62
     1
 10
202.000002302
 20
142.5
 30
0.0
 40
0.5
 50
0.0
 51
90.0
  0
LINE
  8
0
  6
CONTINUOUS
 62
     1
 10
174.000002302
 20
139.5
 30
0.0
 11
202.000002302
 21
139.5
 31
0.0
  0
LINE
  8
0
  6
CONTINUOUS
 62
     1
 10
202.500002302
 20
142.5
 30
0.0
 11
202.500002302
 21
140.0
 31
0.0
  0
ARC
  8
0
  6
CONTINUOUS
 62
     1
 10
202.000002302
 20
140.0
 30
0.0
 40
0.5
 50
270.0
 51
0.0
  0
POLYLINE
  8
0
  6
LTYPE2
 62
     1
 66
     1
 70
     1
  0
VERTEX
  8
0
  6
LTYPE2
 62
     1
 10
180.500002302
 20
140.25
 30
0.0
  0
VERTEX
  8
0
  6
LTYPE2
 62
     1
 10
182.500002302
 20
140.25
 30
0.0
  0
VERTEX
  8
0
  6
LTYPE2
 62
     1
 10
182.500002302
 20
142.25
 30
0.0
  0
VERTEX
  8
0
  6
LTYPE2
 62
     1
 10
180.500002302
 20
142.25
 30
0.0
  0
SEQEND
  0
POLYLINE
  8
0
  6
LTYPE2
 62
     1
 66
     1
 70
     1
  0
VERTEX
  8
0
  6
LTYPE2
 62
     1
 10
193.500002302
 20
140.25
 30
0.0
  0
VERTEX
  8
0
  6
LTYPE2
 62
     1
 10
195.500002302
 20
140.25
 30
0.0
  0
VERTEX
  8
0
  6
LTYPE2
 62
     1
 10
195.500002302
 20
142.25
 30
0.0
  0
VERTEX
  8
0
  6
LTYPE2
 62
     1
 10
193.500002302
 20
142.25
 30
0.0
  0
SEQEND
  0
TEXT
  8
0
  6
CONTINUOUS
 62
     2
 10
173.0
 20
167.0
 30
0.1
 40
3.0
  1
端子ラベル
 50
0.0
 41
0.8
 51
0.0
  7
KANJI12
  0
LINE
  8
0
  6
CONTINUOUS
 62
     2
 10
173.0
 20
166.0
 30
0.0
 11
186.0
 21
166.0
 31
0.0
  0
LINE
  8
0
  6
CONTINUOUS
 62
     2
 10
185.0
 20
143.0
 30
0.0
 11
184.456651478
 21
145.440240231
 31
0.0
  0
LINE
  8
0
  6
CONTINUOUS
 62
     2
 10
185.0
 20
143.0
 30
0.0
 11
183.309326261
 21
144.84163577
 31
0.0
  0
LINE
  8
0
  6
CONTINUOUS
 62
     2
 10
185.0
 20
143.0
 30
0.0
 11
173.0
 21
166.0
 31
0.0
  0
TEXT
  8
0
  6
CONTINUOUS
 62
     2
 10
134.2
 20
71.0
 30
0.3
 40
3.0
  1
感度調整用抵抗器
 50
0.0
 41
0.7
 51
0.0
  7
KANJI2
  0
LINE
  8
0
  6
CONTINUOUS
 62
     2
 10
132.2
 20
45.0
 30
0.0
 11
154.6
 21
70.0
 31
0.0
  0
LINE
  8
0
  6
CONTINUOUS
 62
     2
 10
15.0
 20
70.0
 30
0.0
 11
154.6
 21
70.0
 31
0.0
  0
LINE
  8
0
  6
CONTINUOUS
 62
     2
 10
15.0
 20
75.0
 30
0.0
 11
154.6
 21
75.0
 31
0.0
  0
LINE
  8
0
  6
CONTINUOUS
 62
     2
 10
15.0
 20
45.0
 30
0.0
 11
154.6
 21
45.0
 31
0.0
  0
LINE
  8
0
  6
CONTINUOUS
 62
     2
 10
132.2
 20
65.0
 30
0.0
 11
15.0
 21
65.0
 31
0.0
  0
LINE
  8
0
  6
CONTINUOUS
 62
     2
 10
15.0
 20
60.0
 30
0.0
 11
132.2
 21
60.0
 31
0.0
  0
LINE
  8
0
  6
CONTINUOUS
 62
     2
 10
15.0
 20
55.0
 30
0.0
 11
132.2
 21
55.0
 31
0.0
  0
LINE
  8
0
  6
CONTINUOUS
 62
     2
 10
132.2
 20
50.0
 30
0.0
 11
15.0
 21
50.0
 31
0.0
  0
TEXT
  8
0
  6
CONTINUOUS
 62
     2
 10
133.7
 20
32.5
 30
0.3
 40
3.0
  1
内蔵しています
 50
0.0
 41
0.7
 51
0.0
  7
KANJI2
  0
LINE
  8
0
  6
CONTINUOUS
 62
     2
 10
15.0
 20
36.0
 30
0.0
 11
132.2
 21
36.0
 31
0.0
  0
LINE
  8
0
  6
CONTINUOUS
 62
     2
 10
15.0
 20
27.0
 30
0.0
 11
154.6
 21
27.0
 31
0.0
  0
TEXT
  8
0
  6
CONTINUOUS
 62
     2
 10
16.0
 20
39.0
 30
0.3
 40
3.0
  1
６
 50
0.0
 41
0.9
 51
0.0
  7
KANJI0
  0
TEXT
  8
0
  6
CONTINUOUS
 62
     2
 10
16.0
 20
30.0
 30
0.3
 40
3.0
  1
７
 50
0.0
 41
0.9
 51
0.0
  7
KANJI0
  0
TEXT
  8
0
  6
CONTINUOUS
 62
     2
 10
133.7
 20
36.5
 30
0.3
 40
3.0
  1
上図※印の位置に
 50
0.0
 41
0.7
 51
0.0
  7
KANJI2
  0
POINT
  8
0
  6
CONTINUOUS
 62
     2
 10
132.2
 20
39.0
 30
0.0
  0
TEXT
  8
0
  6
CONTINUOUS
 62
     2
 10
54.5
 20
71.0
 30
1.0
 40
3.0
  1
計器形名
 50
0.0
 41
0.9
 51
0.0
  7
KANJI13
  0
LINE
  8
0
  6
CONTINUOUS
 62
     2
 10
55.914213562
 20
65.0
 30
0.0
 11
49.5
 21
65.0
 31
0.0
  0
TEXT
  8
0
  6
CONTINUOUS
 62
     2
 10
51.5
 20
56.0
 30
0.3
 40
3.0
  1
ＳｅＶＦ－１１Ｍ
 50
0.0
 41
0.7
 51
0.0
  7
KANJI2
  0
TEXT
  8
0
  6
CONTINUOUS
 62
     2
 10
51.5
 20
66.0
 30
0.3
 40
3.0
  1
ＤＶＦ－１１Ｍ
 50
0.0
 41
0.7
 51
0.0
  7
KANJI2
  0
TEXT
  8
0
  6
CONTINUOUS
 62
     2
 10
51.5
 20
51.0
 30
0.3
 40
3.0
  1
ＦＶＦ－１１Ｍ
 50
0.0
 41
0.7
 51
0.0
  7
KANJI2
  0
TEXT
  8
0
  6
CONTINUOUS
 62
     2
 10
51.5
 20
46.0
 30
0.3
 40
3.0
  1
ＡＶＦ－１１Ｍ
 50
0.0
 41
0.7
 51
0.0
  7
KANJI2
  0
TEXT
  8
0
  6
CONTINUOUS
 62
     2
 10
51.5
 20
61.0
 30
0.3
 40
3.0
  1
　ＶＦ－１１Ｍ
 50
0.0
 41
0.7
 51
0.0
  7
KANJI2
  0
TEXT
  8
0
  6
CONTINUOUS
 62
     2
 10
51.8
 20
59.9
 30
0.1
 40
2.8
  1
Ｃ
 50
0.0
 41
0.428571429
 51
0.0
  7
KANJI14
  0
TEXT
  8
0
  6
CONTINUOUS
 62
     2
 10
51.8
 20
62.3
 30
0.1
 40
2.8
  1
Ｓ
 50
0.0
 41
0.428571429
 51
0.0
  7
KANJI14
  0
TEXT
  8
0
  6
CONTINUOUS
 62
     2
 10
51.5
 20
39.0
 30
0.3
 40
3.0
  1
ＤＶＦ－１１ＭＶ
 50
0.0
 41
0.7
 51
0.0
  7
KANJI2
  0
TEXT
  8
0
  6
CONTINUOUS
 62
     2
 10
51.5
 20
30.0
 30
0.3
 40
3.0
  1
　ＶＦ－１１ＭＶ
 50
0.0
 41
0.7
 51
0.0
  7
KANJI2
  0
TEXT
  8
0
  6
CONTINUOUS
 62
     2
 10
51.8
 20
28.9
 30
0.1
 40
2.8
  1
Ｃ
 50
0.0
 41
0.428571429
 51
0.0
  7
KANJI14
  0
TEXT
  8
0
  6
CONTINUOUS
 62
     2
 10
51.8
 20
31.3
 30
0.1
 40
2.8
  1
Ｓ
 50
0.0
 41
0.428571429
 51
0.0
  7
KANJI14
  0
LINE
  8
0
  6
CONTINUOUS
 62
     2
 10
15.0
 20
75.0
 30
0.0
 11
15.0
 21
27.0
 31
0.0
  0
LINE
  8
0
  6
CONTINUOUS
 62
     2
 10
20.0
 20
75.0
 30
0.0
 11
20.0
 21
27.0
 31
0.0
  0
LINE
  8
0
  6
CONTINUOUS
 62
     2
 10
132.2
 20
75.0
 30
0.0
 11
132.2
 21
27.0
 31
0.0
  0
LINE
  8
0
  6
CONTINUOUS
 62
     2
 10
49.5
 20
27.0
 30
0.0
 11
49.5
 21
75.0
 31
0.0
  0
LINE
  8
0
  6
CONTINUOUS
 62
     2
 10
154.6
 20
75.0
 30
0.0
 11
154.6
 21
27.0
 31
0.0
  0
TEXT
  8
0
  6
CONTINUOUS
 62
     2
 10
22.0
 20
41.0
 30
0.3
 40
3.0
  1
感度調整用抵抗器付
 50
0.0
 41
0.7
 51
0.0
  7
KANJI2
  0
TEXT
  8
0
  6
CONTINUOUS
 62
     2
 10
22.0
 20
37.0
 30
0.3
 40
3.0
  1
直流電圧計または電流計　　
 50
0.0
 41
0.7
 51
0.0
  7
KANJI2
  0
TEXT
  8
0
  6
CONTINUOUS
 62
     2
 10
22.0
 20
32.0
 30
0.3
 40
3.0
  1
感度調整用抵抗器付
 50
0.0
 41
0.7
 51
0.0
  7
KANJI2
  0
TEXT
  8
0
  6
CONTINUOUS
 62
     2
 10
22.0
 20
28.0
 30
0.3
 40
3.0
  1
交流電圧計または電流計
 50
0.0
 41
0.7
 51
0.0
  7
KANJI2
  0
TEXT
  8
0
  6
CONTINUOUS
 62
     2
 10
77.5
 20
71.0
 30
1.0
 40
3.0
  1
動作原理
 50
0.0
 41
0.9
 51
0.0
  7
KANJI13
  0
TEXT
  8
0
  6
CONTINUOUS
 62
     2
 10
74.5
 20
66.0
 30
0.3
 40
3.0
  1
永久磁石可動コイル形
 50
0.0
 41
0.7
 51
0.0
  7
KANJI2
  0
TEXT
  8
0
  6
CONTINUOUS
 62
     2
 10
74.5
 20
61.0
 30
0.3
 40
3.0
  1
整流形
 50
0.0
 41
0.7
 51
0.0
  7
KANJI2
  0
TEXT
  8
0
  6
CONTINUOUS
 62
     2
 10
74.5
 20
51.0
 30
0.3
 40
3.0
  1
電子デバイス形
 50
0.0
 41
0.7
 51
0.0
  7
KANJI2
  0
TEXT
  8
0
  6
CONTINUOUS
 62
     2
 10
74.5
 20
46.0
 30
0.3
 40
3.0
  1
可動鉄片形
 50
0.0
 41
0.7
 51
0.0
  7
KANJI2
  0
TEXT
  8
0
  6
CONTINUOUS
 62
     2
 10
74.5
 20
56.0
 30
0.3
 40
3.0
  1
電子デバイス形
 50
0.0
 41
0.7
 51
0.0
  7
KANJI2
  0
TEXT
  8
0
  6
CONTINUOUS
 62
     2
 10
105.9
 20
66.0
 30
0.3
 40
3.0
  1
１０１
 50
0.0
 41
0.7
 51
0.0
  7
KANJI2
  0
TEXT
  8
0
  6
CONTINUOUS
 62
     2
 10
105.9
 20
61.0
 30
0.3
 40
3.0
  1
１０１
 50
0.0
 41
0.7
 51
0.0
  7
KANJI2
  0
TEXT
  8
0
  6
CONTINUOUS
 62
     2
 10
105.9
 20
56.0
 30
0.3
 40
3.0
  1
１０１
 50
0.0
 41
0.7
 51
0.0
  7
KANJI2
  0
TEXT
  8
0
  6
CONTINUOUS
 62
     2
 10
105.9
 20
51.0
 30
0.3
 40
3.0
  1
１０１
 50
0.0
 41
0.7
 51
0.0
  7
KANJI2
  0
TEXT
  8
0
  6
CONTINUOUS
 62
     2
 10
105.9
 20
46.0
 30
0.3
 40
3.0
  1
１２８
 50
0.0
 41
0.7
 51
0.0
  7
KANJI2
  0
TEXT
  8
0
  6
CONTINUOUS
 62
     2
 10
101.0
 20
71.0
 30
0.3
 40
3.0
  1
計器胴寸法
 50
0.0
 41
0.7
 51
0.0
  7
KANJI2
  0
TEXT
  8
0
  6
CONTINUOUS
 62
     2
 10
113.4345
 20
70.475003815
 30
0.4
 40
4.0
  1
ι
 50
0.0
 41
0.9
 51
0.0
  7
KANJI5
  0
CIRCLE
  8
0
  6
CONTINUOUS
 62
     2
 10
115.222
 20
73.675001907
 30
0.0
 40
0.2
  0
TEXT
  8
0
  6
CONTINUOUS
 62
     2
 10
74.5
 20
39.0
 30
0.3
 40
3.0
  1
可動コイル形
 50
0.0
 41
0.7
 51
0.0
  7
KANJI2
  0
TEXT
  8
0
  6
CONTINUOUS
 62
     2
 10
105.9
 20
39.0
 30
0.3
 40
3.0
  1
１０１
 50
0.0
 41
0.7
 51
0.0
  7
KANJI2
  0
TEXT
  8
0
  6
CONTINUOUS
 62
     2
 10
74.5
 20
30.0
 30
0.3
 40
3.0
  1
整流形
 50
0.0
 41
0.7
 51
0.0
  7
KANJI2
  0
TEXT
  8
0
  6
CONTINUOUS
 62
     2
 10
105.9
 20
30.0
 30
0.3
 40
3.0
  1
１０１
 50
0.0
 41
0.7
 51
0.0
  7
KANJI2
  0
POINT
  8
0
  6
CONTINUOUS
 62
     2
 10
117.2
 20
39.0
 30
0.0
  0
LINE
  8
0
  6
CONTINUOUS
 62
     2
 10
117.2
 20
75.0
 30
0.0
 11
117.2
 21
27.0
 31
0.0
  0
LINE
  8
0
  6
CONTINUOUS
 62
     2
 10
72.5
 20
75.0
 30
0.0
 11
72.5
 21
27.0
 31
0.0
  0
LINE
  8
0
  6
CONTINUOUS
 62
     2
 10
99.5
 20
75.0
 30
0.0
 11
99.5
 21
27.0
 31
0.0
  0
TEXT
  8
0
  6
CONTINUOUS
 62
     2
 10
119.2
 20
71.0
 30
0.3
 40
3.0
  1
端子ラベル
 50
0.0
 41
0.7
 51
0.0
  7
KANJI2
  0
TEXT
  8
0
  6
CONTINUOUS
 62
     2
 10
120.2
 20
66.0
 30
0.0
 40
3.0
  1
＋　－
 50
0.0
 41
1.0
 51
0.0
  7
KANJI15
  0
TEXT
  8
0
  6
CONTINUOUS
 62
     2
 10
120.2
 20
39.0
 30
0.0
 40
3.0
  1
＋　－
 50
0.0
 41
1.0
 51
0.0
  7
KANJI15
  0
TEXT
  8
0
  6
CONTINUOUS
 62
     2
 10
120.2
 20
61.0
 30
0.0
 40
3.0
  1
１　２
 50
0.0
 41
1.0
 51
0.0
  7
KANJI15
  0
TEXT
  8
0
  6
CONTINUOUS
 62
     2
 10
120.2
 20
56.0
 30
0.0
 40
3.0
  1
１　２
 50
0.0
 41
1.0
 51
0.0
  7
KANJI15
  0
TEXT
  8
0
  6
CONTINUOUS
 62
     2
 10
120.2
 20
51.0
 30
0.0
 40
3.0
  1
１　２
 50
0.0
 41
1.0
 51
0.0
  7
KANJI15
  0
TEXT
  8
0
  6
CONTINUOUS
 62
     2
 10
120.2
 20
46.0
 30
0.0
 40
3.0
  1
１　２
 50
0.0
 41
1.0
 51
0.0
  7
KANJI15
  0
TEXT
  8
0
  6
CONTINUOUS
 62
     2
 10
120.2
 20
30.0
 30
0.0
 40
3.0
  1
１　２
 50
0.0
 41
1.0
 51
0.0
  7
KANJI15
  0
TEXT
  8
0
  6
CONTINUOUS
 62
     2
 10
90.65
 20
167.0
 30
0.3
 40
3.0
  1
０．５
 50
0.0
 41
0.6
 51
0.0
  7
KANJI4
  0
LINE
  8
0
  6
CONTINUOUS
 62
     2
 10
89.5
 20
166.0
 30
0.0
 11
100.75
 21
166.0
 31
0.0
  0
LINE
  8
0
  6
CONTINUOUS
 62
     2
 10
106.65
 20
108.6
 30
0.0
 11
107.296786092
 21
106.185115375
 31
0.0
  0
LINE
  8
0
  6
CONTINUOUS
 62
     2
 10
106.65
 20
108.6
 30
0.0
 11
108.417575499
 21
106.832041614
 31
0.0
  0
LINE
  8
0
  6
CONTINUOUS
 62
     2
 10
106.65
 20
108.6
 30
0.0
 11
114.5
 21
95.0
 31
0.0
  0
LINE
  8
0
  6
CONTINUOUS
 62
     2
 10
104.0
 20
107.2
 30
0.0
 11
104.675878283
 21
104.793095651
 31
0.0
  0
LINE
  8
0
  6
CONTINUOUS
 62
     2
 10
104.0
 20
107.2
 30
0.0
 11
105.788779937
 21
105.45349883
 31
0.0
  0
LINE
  8
0
  6
CONTINUOUS
 62
     2
 10
104.0
 20
107.2
 30
0.0
 11
114.8
 21
89.0
 31
0.0
  0
TEXT
  8
0
  6
CONTINUOUS
 62
     2
 10
115.8
 20
90.0
 30
0.1
 40
3.0
  1
フランジ付六角ナット
 50
0.0
 41
0.833333333
 51
0.0
  7
KANJI16
  0
LINE
  8
0
  6
CONTINUOUS
 62
     2
 10
114.5
 20
95.0
 30
0.0
 11
139.8
 21
95.0
 31
0.0
  0
LINE
  8
0
  6
CONTINUOUS
 62
     2
 10
114.8
 20
89.0
 30
0.0
 11
141.3
 21
89.0
 31
0.0
  0
LINE
  8
0
  6
CONTINUOUS
 62
     2
 10
105.6655
 20
108.2505
 30
0.0
 11
108.25
 21
108.2505
 31
0.0
  0
LINE
  8
0
  6
CONTINUOUS
 62
     2
 10
108.25
 20
108.346295
 30
0.0
 11
105.6655
 21
108.346295
 31
0.0
  0
LINE
  8
0
  6
CONTINUOUS
 62
     2
 10
105.6655
 20
110.645375
 30
0.0
 11
108.25
 21
110.645375
 31
0.0
  0
LINE
  8
0
  6
CONTINUOUS
 62
     2
 10
108.25
 20
110.7495
 30
0.0
 11
105.6655
 21
110.7495
 31
0.0
  0
TEXT
  8
0
  6
CONTINUOUS
 62
     2
 10
58.0
 20
95.5
 30
0.1
 40
3.0
  1
機械的零位調整器
 50
0.0
 41
0.9
 51
0.0
  7
KANJI10
  0
TEXT
  8
0
  6
CONTINUOUS
 62
     2
 10
114.5
 20
96.0
 30
0.1
 40
3.0
  1
４－Ｍ５取付ボルト
 50
0.0
 41
0.9
 51
0.0
  7
KANJI10
  0
LINE
  8
0
  6
CONTINUOUS
 62
     2
 10
23.5
 20
172.5
 30
0.0
 11
25.914814566
 21
171.852952387
 31
0.0
  0
LINE
  8
0
  6
CONTINUOUS
 62
     2
 10
23.5
 20
172.5
 30
0.0
 11
25.914814566
 21
173.147047613
 31
0.0
  0
LINE
  8
0
  6
CONTINUOUS
 62
     2
 10
23.5
 20
172.5
 30
0.0
 11
78.5
 21
172.5
 31
0.0
  0
LINE
  8
0
  6
CONTINUOUS
 62
     2
 10
78.5
 20
172.5
 30
0.0
 11
76.085185434
 21
173.147047613
 31
0.0
  0
LINE
  8
0
  6
CONTINUOUS
 62
     2
 10
78.5
 20
172.5
 30
0.0
 11
76.085185434
 21
171.852952387
 31
0.0
  0
TEXT
  8
0
  6
CONTINUOUS
 62
     2
 10
45.57
 20
173.5
 30
0.3
 40
3.0
  1
１１０
 50
0.0
 41
0.6
 51
0.0
  7
KANJI4
  0
TEXT
  8
0
  6
CONTINUOUS
 62
     2
 10
51.57
 20
173.5
 30
0.18
 40
1.8
  1
±１．５
 50
0.0
 41
0.6
 51
0.0
  7
KANJI11
  0
LINE
  8
0
  6
CONTINUOUS
 62
     2
 10
23.5
 20
157.568245415
 30
0.0
 11
23.5
 21
174.5
 31
0.0
  0
LINE
  8
0
  6
CONTINUOUS
 62
     2
 10
78.5
 20
157.968245415
 30
0.0
 11
78.5
 21
174.5
 31
0.0
  0
TEXT
  8
0
  6
CONTINUOUS
 62
     6
 10
241.7
 20
34.4
 30
0.5
 40
5.0
  1
□ＶＦ－１１Ｍ
 50
0.0
 41
0.9
 51
0.0
  7
KANJI17
  0
TEXT
  8
0
  6
CONTINUOUS
 62
     1
 10
241.3
 20
25.9
 30
0.4
 40
4.0
  1
広角度計器　外形図
 50
0.0
 41
0.9
 51
0.0
  7
KANJI5
  0
LINE
  8
0
  6
LTYPE3
 62
     2
 10
18.5
 20
132.0
 30
0.0
 11
80.6
 21
132.0
 31
0.0
  0
LINE
  8
0
  6
LTYPE3
 62
     2
 10
159.3
 20
132.0
 30
0.0
 11
217.5
 21
132.0
 31
0.0
  0
LINE
  8
0
  6
LTYPE3
 62
     2
 10
87.2
 20
132.0
 30
0.0
 11
157.8
 21
132.0
 31
0.0
  0
LINE
  8
0
  6
LTYPE3
 62
     2
 10
188.0
 20
102.5
 30
0.0
 11
188.0
 21
164.5
 31
0.0
  0
LINE
  8
0
  6
LTYPE3
 62
     2
 10
188.0
 20
24.75
 30
0.0
 11
188.0
 21
87.0
 31
0.0
  0
TEXT
  8
0
  6
CONTINUOUS
 62
     3
 10
234.0
 20
12.0
 30
0.0
 40
6.0
  1
ＭＳ－１３３２５Ｂ
 50
0.0
 41
0.833333333
 51
0.0
  7
KANJI18
  0
ENDSEC
  0
EOF
