  0
SECTION
  2
HEADER
  9
$ACADVER
  1
AC1009
  9
$DWGCODEPAGE
  3
dos932
  9
$EXTMIN
 10
0.0
 20
0.0
 30
0.0
  9
$EXTMAX
 10
297.0
 20
210.0
 30
0.0
  9
$LIMMIN
 10
0.0
 20
0.0
  9
$LIMMAX
 10
297.0
 20
210.0
  9
$LTSCALE
 40
1.0
  9
$PDMODE
 70
     0
  0
ENDSEC
  0
SECTION
  2
TABLES
  0
TABLE
  2
VPORT
 70
     1
  0
VPORT
  2
*ACTIVE
 70
     0
 10
0.0
 20
0.0
 11
1.0
 21
1.0
 12
148.5
 22
105.0
 13
0.0
 23
0.0
 14
10.0
 24
10.0
 15
10.0
 25
10.0
 16
0.0
 26
0.0
 36
1.0
 17
0.0
 27
0.0
 37
0.0
 40
297.0
 41
1.414285714
 42
50.0
 43
0.0
 44
0.0
 50
0.0
 51
0.0
 71
     0
 72
  1000
 73
     1
 74
     3
 75
     0
 76
     0
 77
     0
 78
     0
  0
ENDTAB
  0
TABLE
  2
LTYPE
 70
     5
  0
LTYPE
  2
CONTINUOUS
 70
    64
  3
Solid line
 72
    65
 73
     0
 40
0.0
  0
LTYPE
  2
LTYPE1
 70
    64
  3
CENTERX2
 72
    65
 73
     4
 40
15.0
 49
12.75
 49
-0.75
 49
0.75
 49
-0.75
  0
LTYPE
  2
LTYPE2
 70
    64
  3
CENTER
 72
    65
 73
     4
 40
5.0
 49
3.5
 49
-0.5
 49
0.5
 49
-0.5
  0
LTYPE
  2
LTYPE3
 70
    64
  3
HIDDEN
 72
    65
 73
     2
 40
2.0
 49
1.2
 49
-0.8
  0
LTYPE
  2
LTYPE4
 70
    64
  3
CENTER
 72
    65
 73
     4
 40
15.0
 49
10.5
 49
-1.5
 49
1.5
 49
-1.5
  0
ENDTAB
  0
TABLE
  2
LAYER
 70
   128
  0
LAYER
  2
0
 70
     0
 62
     7
  6
CONTINUOUS
  0
LAYER
  2
2
 70
     0
 62
     7
  6
CONTINUOUS
  0
LAYER
  2
3
 70
     0
 62
     7
  6
CONTINUOUS
  0
LAYER
  2
4
 70
     0
 62
     7
  6
CONTINUOUS
  0
LAYER
  2
5
 70
     0
 62
     7
  6
CONTINUOUS
  0
LAYER
  2
6
 70
     0
 62
     7
  6
CONTINUOUS
  0
LAYER
  2
7
 70
     0
 62
     7
  6
CONTINUOUS
  0
LAYER
  2
8
 70
     0
 62
     7
  6
CONTINUOUS
  0
LAYER
  2
9
 70
     0
 62
     7
  6
CONTINUOUS
  0
LAYER
  2
10
 70
     0
 62
     7
  6
CONTINUOUS
  0
LAYER
  2
11
 70
     0
 62
     7
  6
CONTINUOUS
  0
LAYER
  2
12
 70
     0
 62
     7
  6
CONTINUOUS
  0
LAYER
  2
13
 70
     0
 62
     7
  6
CONTINUOUS
  0
LAYER
  2
14
 70
     0
 62
     7
  6
CONTINUOUS
  0
LAYER
  2
15
 70
     0
 62
     7
  6
CONTINUOUS
  0
LAYER
  2
16
 70
     0
 62
     7
  6
CONTINUOUS
  0
LAYER
  2
17
 70
     0
 62
     7
  6
CONTINUOUS
  0
LAYER
  2
18
 70
     0
 62
     7
  6
CONTINUOUS
  0
LAYER
  2
19
 70
     0
 62
     7
  6
CONTINUOUS
  0
LAYER
  2
20
 70
     0
 62
     7
  6
CONTINUOUS
  0
LAYER
  2
21
 70
     0
 62
     7
  6
CONTINUOUS
  0
LAYER
  2
22
 70
     0
 62
     7
  6
CONTINUOUS
  0
LAYER
  2
23
 70
     0
 62
     7
  6
CONTINUOUS
  0
LAYER
  2
24
 70
     0
 62
     7
  6
CONTINUOUS
  0
LAYER
  2
25
 70
     0
 62
     7
  6
CONTINUOUS
  0
LAYER
  2
26
 70
     0
 62
     7
  6
CONTINUOUS
  0
LAYER
  2
27
 70
     0
 62
     7
  6
CONTINUOUS
  0
LAYER
  2
28
 70
     0
 62
     7
  6
CONTINUOUS
  0
LAYER
  2
29
 70
     0
 62
     7
  6
CONTINUOUS
  0
LAYER
  2
30
 70
     0
 62
     7
  6
CONTINUOUS
  0
LAYER
  2
31
 70
     0
 62
     7
  6
CONTINUOUS
  0
LAYER
  2
32
 70
     0
 62
     7
  6
CONTINUOUS
  0
LAYER
  2
33
 70
     0
 62
     7
  6
CONTINUOUS
  0
LAYER
  2
34
 70
     0
 62
     7
  6
CONTINUOUS
  0
LAYER
  2
35
 70
     0
 62
     7
  6
CONTINUOUS
  0
LAYER
  2
36
 70
     0
 62
     7
  6
CONTINUOUS
  0
LAYER
  2
37
 70
     0
 62
     7
  6
CONTINUOUS
  0
LAYER
  2
38
 70
     0
 62
     7
  6
CONTINUOUS
  0
LAYER
  2
39
 70
     0
 62
     7
  6
CONTINUOUS
  0
LAYER
  2
40
 70
     0
 62
     7
  6
CONTINUOUS
  0
LAYER
  2
41
 70
     0
 62
     7
  6
CONTINUOUS
  0
LAYER
  2
42
 70
     0
 62
     7
  6
CONTINUOUS
  0
LAYER
  2
43
 70
     0
 62
     7
  6
CONTINUOUS
  0
LAYER
  2
44
 70
     0
 62
     7
  6
CONTINUOUS
  0
LAYER
  2
45
 70
     0
 62
     7
  6
CONTINUOUS
  0
LAYER
  2
46
 70
     0
 62
     7
  6
CONTINUOUS
  0
LAYER
  2
47
 70
     0
 62
     7
  6
CONTINUOUS
  0
LAYER
  2
48
 70
     0
 62
     7
  6
CONTINUOUS
  0
LAYER
  2
49
 70
     0
 62
     7
  6
CONTINUOUS
  0
LAYER
  2
50
 70
     0
 62
     7
  6
CONTINUOUS
  0
LAYER
  2
51
 70
     0
 62
     7
  6
CONTINUOUS
  0
LAYER
  2
52
 70
     0
 62
     7
  6
CONTINUOUS
  0
LAYER
  2
53
 70
     0
 62
     7
  6
CONTINUOUS
  0
LAYER
  2
54
 70
     0
 62
     7
  6
CONTINUOUS
  0
LAYER
  2
55
 70
     0
 62
     7
  6
CONTINUOUS
  0
LAYER
  2
56
 70
     0
 62
     7
  6
CONTINUOUS
  0
LAYER
  2
57
 70
     0
 62
     7
  6
CONTINUOUS
  0
LAYER
  2
58
 70
     0
 62
     7
  6
CONTINUOUS
  0
LAYER
  2
59
 70
     0
 62
     7
  6
CONTINUOUS
  0
LAYER
  2
60
 70
     0
 62
     7
  6
CONTINUOUS
  0
LAYER
  2
61
 70
     0
 62
     7
  6
CONTINUOUS
  0
LAYER
  2
62
 70
     0
 62
     7
  6
CONTINUOUS
  0
LAYER
  2
63
 70
     0
 62
     7
  6
CONTINUOUS
  0
LAYER
  2
64
 70
     0
 62
     7
  6
CONTINUOUS
  0
LAYER
  2
65
 70
     0
 62
     7
  6
CONTINUOUS
  0
LAYER
  2
66
 70
     0
 62
     7
  6
CONTINUOUS
  0
LAYER
  2
67
 70
     0
 62
     7
  6
CONTINUOUS
  0
LAYER
  2
68
 70
     0
 62
     7
  6
CONTINUOUS
  0
LAYER
  2
69
 70
     0
 62
     7
  6
CONTINUOUS
  0
LAYER
  2
70
 70
     0
 62
     7
  6
CONTINUOUS
  0
LAYER
  2
71
 70
     0
 62
     7
  6
CONTINUOUS
  0
LAYER
  2
72
 70
     0
 62
     7
  6
CONTINUOUS
  0
LAYER
  2
73
 70
     0
 62
     7
  6
CONTINUOUS
  0
LAYER
  2
74
 70
     0
 62
     7
  6
CONTINUOUS
  0
LAYER
  2
75
 70
     0
 62
     7
  6
CONTINUOUS
  0
LAYER
  2
76
 70
     0
 62
     7
  6
CONTINUOUS
  0
LAYER
  2
77
 70
     0
 62
     7
  6
CONTINUOUS
  0
LAYER
  2
78
 70
     0
 62
     7
  6
CONTINUOUS
  0
LAYER
  2
79
 70
     0
 62
     7
  6
CONTINUOUS
  0
LAYER
  2
80
 70
     0
 62
     7
  6
CONTINUOUS
  0
LAYER
  2
81
 70
     0
 62
     7
  6
CONTINUOUS
  0
LAYER
  2
82
 70
     0
 62
     7
  6
CONTINUOUS
  0
LAYER
  2
83
 70
     0
 62
     7
  6
CONTINUOUS
  0
LAYER
  2
84
 70
     0
 62
     7
  6
CONTINUOUS
  0
LAYER
  2
85
 70
     0
 62
     7
  6
CONTINUOUS
  0
LAYER
  2
86
 70
     0
 62
     7
  6
CONTINUOUS
  0
LAYER
  2
87
 70
     0
 62
     7
  6
CONTINUOUS
  0
LAYER
  2
88
 70
     0
 62
     7
  6
CONTINUOUS
  0
LAYER
  2
89
 70
     0
 62
     7
  6
CONTINUOUS
  0
LAYER
  2
90
 70
     0
 62
     7
  6
CONTINUOUS
  0
LAYER
  2
91
 70
     0
 62
     7
  6
CONTINUOUS
  0
LAYER
  2
92
 70
     0
 62
     7
  6
CONTINUOUS
  0
LAYER
  2
93
 70
     0
 62
     7
  6
CONTINUOUS
  0
LAYER
  2
94
 70
     0
 62
     7
  6
CONTINUOUS
  0
LAYER
  2
95
 70
     0
 62
     7
  6
CONTINUOUS
  0
LAYER
  2
96
 70
     0
 62
     7
  6
CONTINUOUS
  0
LAYER
  2
97
 70
     0
 62
     7
  6
CONTINUOUS
  0
LAYER
  2
98
 70
     0
 62
     7
  6
CONTINUOUS
  0
LAYER
  2
99
 70
     0
 62
     7
  6
CONTINUOUS
  0
LAYER
  2
100
 70
     0
 62
     7
  6
CONTINUOUS
  0
LAYER
  2
101
 70
     0
 62
     7
  6
CONTINUOUS
  0
LAYER
  2
102
 70
     0
 62
     7
  6
CONTINUOUS
  0
LAYER
  2
103
 70
     0
 62
     7
  6
CONTINUOUS
  0
LAYER
  2
104
 70
     0
 62
     7
  6
CONTINUOUS
  0
LAYER
  2
105
 70
     0
 62
     7
  6
CONTINUOUS
  0
LAYER
  2
106
 70
     0
 62
     7
  6
CONTINUOUS
  0
LAYER
  2
107
 70
     0
 62
     7
  6
CONTINUOUS
  0
LAYER
  2
108
 70
     0
 62
     7
  6
CONTINUOUS
  0
LAYER
  2
109
 70
     0
 62
     7
  6
CONTINUOUS
  0
LAYER
  2
110
 70
     0
 62
     7
  6
CONTINUOUS
  0
LAYER
  2
111
 70
     0
 62
     7
  6
CONTINUOUS
  0
LAYER
  2
112
 70
     0
 62
     7
  6
CONTINUOUS
  0
LAYER
  2
113
 70
     0
 62
     7
  6
CONTINUOUS
  0
LAYER
  2
114
 70
     0
 62
     7
  6
CONTINUOUS
  0
LAYER
  2
115
 70
     0
 62
     7
  6
CONTINUOUS
  0
LAYER
  2
116
 70
     0
 62
     7
  6
CONTINUOUS
  0
LAYER
  2
117
 70
     0
 62
     7
  6
CONTINUOUS
  0
LAYER
  2
118
 70
     0
 62
     7
  6
CONTINUOUS
  0
LAYER
  2
119
 70
     0
 62
     7
  6
CONTINUOUS
  0
LAYER
  2
120
 70
     0
 62
     7
  6
CONTINUOUS
  0
LAYER
  2
121
 70
     0
 62
     7
  6
CONTINUOUS
  0
LAYER
  2
122
 70
     0
 62
     7
  6
CONTINUOUS
  0
LAYER
  2
123
 70
     0
 62
     7
  6
CONTINUOUS
  0
LAYER
  2
124
 70
     0
 62
     7
  6
CONTINUOUS
  0
LAYER
  2
125
 70
     0
 62
     7
  6
CONTINUOUS
  0
LAYER
  2
126
 70
     0
 62
     7
  6
CONTINUOUS
  0
LAYER
  2
127
 70
     0
 62
     7
  6
CONTINUOUS
  0
LAYER
  2
128
 70
     0
 62
     7
  6
CONTINUOUS
  0
ENDTAB
  0
TABLE
  2
STYLE
 70
    22
  0
STYLE
  2
STANDARD
 70
     0
 40
0.0
 41
1.0
 50
0.0
 71
     0
 42
0.2
  3
txt.shx
  4
extfont.shx
  0
STYLE
  2
KANJI0
 70
     0
 40
3.0
 41
0.6
 50
0.0
 71
     0
 42
3.0
  3
txt.shx
  4
extfont.shx
  0
STYLE
  2
KANJI1
 70
     0
 40
1.8
 41
0.6
 50
0.0
 71
     0
 42
1.8
  3
txt.shx
  4
extfont.shx
  0
STYLE
  2
KANJI2
 70
     0
 40
3.0
 41
0.9
 50
0.0
 71
     0
 42
3.0
  3
txt.shx
  4
extfont.shx
  0
STYLE
  2
KANJI3
 70
     0
 40
2.0
 41
0.8
 50
0.0
 71
     0
 42
2.0
  3
txt.shx
  4
extfont.shx
  0
STYLE
  2
KANJI4
 70
     0
 40
3.0
 41
0.8
 50
0.0
 71
     0
 42
3.0
  3
txt.shx
  4
extfont.shx
  0
STYLE
  2
KANJI5
 70
     0
 40
1.8
 41
0.9
 50
0.0
 71
     0
 42
1.8
  3
txt.shx
  4
extfont.shx
  0
STYLE
  2
KANJI6
 70
     0
 40
2.5
 41
0.8
 50
0.0
 71
     0
 42
2.5
  3
txt.shx
  4
extfont.shx
  0
STYLE
  2
KANJI7
 70
     0
 40
3.0
 41
0.9
 50
0.0
 71
     0
 42
3.0
  3
txt.shx
  4
extfont.shx
  0
STYLE
  2
KANJI8
 70
     0
 40
3.0
 41
0.45
 50
0.0
 71
     0
 42
3.0
  3
txt.shx
  4
extfont.shx
  0
STYLE
  2
KANJI9
 70
     0
 40
3.0
 41
0.9
 50
0.0
 71
     0
 42
3.0
  3
txt.shx
  4
extfont.shx
  0
STYLE
  2
KANJI10
 70
     0
 40
3.0
 41
0.9
 50
0.0
 71
     0
 42
3.0
  3
txt.shx
  4
extfont.shx
  0
STYLE
  2
KANJI11
 70
     0
 40
3.0
 41
0.8
 50
0.0
 71
     0
 42
3.0
  3
txt.shx
  4
extfont.shx
  0
STYLE
  2
KANJI12
 70
     0
 40
6.0
 41
0.833333333
 50
0.0
 71
     0
 42
6.0
  3
txt.shx
  4
extfont.shx
  0
STYLE
  2
KANJI13
 70
     0
 40
3.0
 41
0.833333333
 50
0.0
 71
     0
 42
3.0
  3
txt.shx
  4
extfont.shx
  0
STYLE
  2
KANJI14
 70
     0
 40
3.0
 41
0.8
 50
0.0
 71
     0
 42
3.0
  3
txt.shx
  4
extfont.shx
  0
STYLE
  2
KANJI15
 70
     0
 40
3.0
 41
0.733333333
 50
0.0
 71
     0
 42
3.0
  3
txt.shx
  4
extfont.shx
  0
STYLE
  2
KANJI16
 70
     0
 40
5.0
 41
0.9
 50
0.0
 71
     0
 42
5.0
  3
txt.shx
  4
extfont.shx
  0
STYLE
  2
KANJI17
 70
     0
 40
4.0
 41
0.9
 50
0.0
 71
     0
 42
4.0
  3
txt.shx
  4
extfont.shx
  0
STYLE
  2
KANJI18
 70
     0
 40
3.0
 41
0.9
 50
0.0
 71
     0
 42
3.0
  3
txt.shx
  4
extfont.shx
  0
STYLE
  2
KANJI19
 70
     0
 40
3.0
 41
0.7
 50
0.0
 71
     0
 42
3.0
  3
txt.shx
  4
extfont.shx
  0
STYLE
  2
KANJI20
 70
     0
 40
3.0
 41
0.6
 50
0.0
 71
     0
 42
3.0
  3
txt.shx
  4
extfont.shx
  0
ENDTAB
  0
TABLE
  2
VIEW
 70
     0
  0
ENDTAB
  0
ENDSEC
  0
SECTION
  2
BLOCKS
  0
ENDSEC
  0
SECTION
  2
ENTITIES
  0
LINE
  8
0
  6
CONTINUOUS
 62
     2
 10
217.9
 20
53.0
 30
0.0
 11
224.5
 21
53.0
 31
0.0
  0
LINE
  8
0
  6
CONTINUOUS
 62
     2
 10
217.4
 20
53.0
 30
0.0
 11
224.0
 21
53.0
 31
0.0
  0
LINE
  8
0
  6
CONTINUOUS
 62
     2
 10
172.570094052
 20
34.730876358
 30
0.0
 11
174.705182511
 21
36.031413659
 31
0.0
  0
LINE
  8
0
  6
CONTINUOUS
 62
     2
 10
172.570094052
 20
34.730876358
 30
0.0
 11
173.768866247
 21
36.924718929
 31
0.0
  0
LINE
  8
0
  6
CONTINUOUS
 62
     2
 10
172.570094052
 20
34.730876358
 30
0.0
 11
207.429905948
 21
71.269123642
 31
0.0
  0
LINE
  8
0
  6
CONTINUOUS
 62
     2
 10
207.429905948
 20
71.269123642
 30
0.0
 11
205.294817489
 21
69.968586341
 31
0.0
  0
LINE
  8
0
  6
CONTINUOUS
 62
     2
 10
207.429905948
 20
71.269123642
 30
0.0
 11
206.231133753
 21
69.075281071
 31
0.0
  0
CIRCLE
  8
0
  6
CONTINUOUS
 62
     1
 10
190.0
 20
53.0
 30
0.0
 40
25.25
  0
CIRCLE
  8
0
  6
CONTINUOUS
 62
     1
 10
167.5
 20
30.5
 30
0.0
 40
1.5
  0
LINE
  8
0
  6
CONTINUOUS
 62
     2
 10
166.503053791
 20
29.379242106
 30
0.0
 11
164.92278155
 21
27.442043189
 31
0.0
  0
LINE
  8
0
  6
CONTINUOUS
 62
     2
 10
166.503053791
 20
29.379242106
 30
0.0
 11
166.103097343
 21
26.911442512
 31
0.0
  0
CIRCLE
  8
0
  6
CONTINUOUS
 62
     1
 10
167.5
 20
75.5
 30
0.0
 40
1.5
  0
CIRCLE
  8
0
  6
CONTINUOUS
 62
     1
 10
212.5
 20
75.5
 30
0.0
 40
1.5
  0
CIRCLE
  8
0
  6
CONTINUOUS
 62
     1
 10
212.5
 20
30.5
 30
0.0
 40
1.5
  0
LINE
  8
0
  6
LTYPE1
 62
     2
 10
163.0
 20
75.5
 30
0.0
 11
172.0
 21
75.5
 31
0.0
  0
LINE
  8
0
  6
LTYPE1
 62
     2
 10
167.5
 20
71.0
 30
0.0
 11
167.5
 21
80.0
 31
0.0
  0
LINE
  8
0
  6
LTYPE1
 62
     2
 10
163.0
 20
30.5
 30
0.0
 11
172.0
 21
30.5
 31
0.0
  0
LINE
  8
0
  6
LTYPE1
 62
     2
 10
167.5
 20
26.0
 30
0.0
 11
167.5
 21
35.0
 31
0.0
  0
LINE
  8
0
  6
LTYPE1
 62
     2
 10
208.0
 20
75.5
 30
0.0
 11
217.0
 21
75.5
 31
0.0
  0
LINE
  8
0
  6
LTYPE1
 62
     2
 10
212.5
 20
71.0
 30
0.0
 11
212.5
 21
80.0
 31
0.0
  0
LINE
  8
0
  6
LTYPE1
 62
     2
 10
208.0
 20
30.5
 30
0.0
 11
217.0
 21
30.5
 31
0.0
  0
LINE
  8
0
  6
LTYPE1
 62
     2
 10
212.5
 20
26.0
 30
0.0
 11
212.5
 21
35.0
 31
0.0
  0
LINE
  8
0
  6
LTYPE1
 62
     2
 10
161.75
 20
53.0
 30
0.0
 11
218.25
 21
53.0
 31
0.0
  0
LINE
  8
0
  6
CONTINUOUS
 62
     2
 10
222.5
 20
53.0
 30
0.0
 11
223.147047613
 21
55.414814566
 31
0.0
  0
LINE
  8
0
  6
CONTINUOUS
 62
     2
 10
222.5
 20
53.0
 30
0.0
 11
221.852952387
 21
55.414814566
 31
0.0
  0
LINE
  8
0
  6
CONTINUOUS
 62
     2
 10
222.5
 20
53.0
 30
0.0
 11
222.5
 21
75.5
 31
0.0
  0
LINE
  8
0
  6
CONTINUOUS
 62
     2
 10
222.5
 20
75.5
 30
0.0
 11
221.852952387
 21
73.085185434
 31
0.0
  0
LINE
  8
0
  6
CONTINUOUS
 62
     2
 10
222.5
 20
75.5
 30
0.0
 11
223.147047613
 21
73.085185434
 31
0.0
  0
LINE
  8
0
  6
CONTINUOUS
 62
     2
 10
218.25
 20
75.5
 30
0.0
 11
224.5
 21
75.5
 31
0.0
  0
TEXT
  8
0
  6
CONTINUOUS
 62
     2
 10
221.5
 20
59.87
 30
0.3
 40
3.0
  1
４５
 50
90.0
 41
0.6
 51
0.0
  7
KANJI0
  0
TEXT
  8
0
  6
CONTINUOUS
 62
     2
 10
221.5
 20
63.77
 30
0.18
 40
1.8
  1
±０．５
 50
90.0
 41
0.6
 51
0.0
  7
KANJI1
  0
LINE
  8
0
  6
CONTINUOUS
 62
     2
 10
216.05
 20
30.5
 30
0.0
 11
224.5
 21
30.5
 31
0.0
  0
LINE
  8
0
  6
CONTINUOUS
 62
     2
 10
222.5
 20
30.5
 30
0.0
 11
223.147047613
 21
32.914814566
 31
0.0
  0
LINE
  8
0
  6
CONTINUOUS
 62
     2
 10
222.5
 20
30.5
 30
0.0
 11
221.852952387
 21
32.914814566
 31
0.0
  0
LINE
  8
0
  6
CONTINUOUS
 62
     2
 10
222.5
 20
53.0
 30
0.0
 11
221.852952387
 21
50.585185434
 31
0.0
  0
LINE
  8
0
  6
CONTINUOUS
 62
     2
 10
222.5
 20
53.0
 30
0.0
 11
223.147047613
 21
50.585185434
 31
0.0
  0
LINE
  8
0
  6
CONTINUOUS
 62
     2
 10
222.5
 20
30.5
 30
0.0
 11
222.5
 21
53.0
 31
0.0
  0
TEXT
  8
0
  6
CONTINUOUS
 62
     2
 10
221.5
 20
37.37
 30
0.3
 40
3.0
  1
４５
 50
90.0
 41
0.6
 51
0.0
  7
KANJI0
  0
TEXT
  8
0
  6
CONTINUOUS
 62
     2
 10
221.5
 20
41.27
 30
0.18
 40
1.8
  1
±０．５
 50
90.0
 41
0.6
 51
0.0
  7
KANJI1
  0
LINE
  8
0
  6
CONTINUOUS
 62
     2
 10
190.0
 20
165.5
 30
0.0
 11
190.0
 21
174.5
 31
0.0
  0
LINE
  8
0
  6
CONTINUOUS
 62
     2
 10
167.5
 20
83.5
 30
0.0
 11
169.914814566
 21
82.852952387
 31
0.0
  0
LINE
  8
0
  6
CONTINUOUS
 62
     2
 10
167.5
 20
83.5
 30
0.0
 11
169.914814566
 21
84.147047613
 31
0.0
  0
LINE
  8
0
  6
CONTINUOUS
 62
     2
 10
167.5
 20
83.5
 30
0.0
 11
190.0
 21
83.5
 31
0.0
  0
LINE
  8
0
  6
CONTINUOUS
 62
     2
 10
190.0
 20
83.5
 30
0.0
 11
187.585185434
 21
84.147047613
 31
0.0
  0
LINE
  8
0
  6
CONTINUOUS
 62
     2
 10
190.0
 20
83.5
 30
0.0
 11
187.585185434
 21
82.852952387
 31
0.0
  0
TEXT
  8
0
  6
CONTINUOUS
 62
     2
 10
174.37
 20
84.5
 30
0.3
 40
3.0
  1
４５
 50
0.0
 41
0.6
 51
0.0
  7
KANJI0
  0
TEXT
  8
0
  6
CONTINUOUS
 62
     2
 10
178.27
 20
84.5
 30
0.18
 40
1.8
  1
±０．５
 50
0.0
 41
0.6
 51
0.0
  7
KANJI1
  0
LINE
  8
0
  6
CONTINUOUS
 62
     2
 10
167.5
 20
80.25
 30
0.0
 11
167.5
 21
85.5
 31
0.0
  0
LINE
  8
0
  6
CONTINUOUS
 62
     2
 10
190.0
 20
83.5
 30
0.0
 11
192.414814566
 21
82.852952387
 31
0.0
  0
LINE
  8
0
  6
CONTINUOUS
 62
     2
 10
190.0
 20
83.5
 30
0.0
 11
192.414814566
 21
84.147047613
 31
0.0
  0
LINE
  8
0
  6
CONTINUOUS
 62
     2
 10
190.0
 20
83.5
 30
0.0
 11
212.5
 21
83.5
 31
0.0
  0
LINE
  8
0
  6
CONTINUOUS
 62
     2
 10
212.5
 20
83.5
 30
0.0
 11
210.085185434
 21
84.147047613
 31
0.0
  0
LINE
  8
0
  6
CONTINUOUS
 62
     2
 10
212.5
 20
83.5
 30
0.0
 11
210.085185434
 21
82.852952387
 31
0.0
  0
TEXT
  8
0
  6
CONTINUOUS
 62
     2
 10
196.87
 20
84.5
 30
0.3
 40
3.0
  1
４５
 50
0.0
 41
0.6
 51
0.0
  7
KANJI0
  0
TEXT
  8
0
  6
CONTINUOUS
 62
     2
 10
200.77
 20
84.5
 30
0.18
 40
1.8
  1
±０．５
 50
0.0
 41
0.6
 51
0.0
  7
KANJI1
  0
LINE
  8
0
  6
CONTINUOUS
 62
     2
 10
212.5
 20
80.25
 30
0.0
 11
212.5
 21
85.5
 31
0.0
  0
LINE
  8
0
  6
CONTINUOUS
 62
     2
 10
95.5
 20
166.0
 30
0.0
 11
93.085185434
 21
165.352952387
 31
0.0
  0
LINE
  8
0
  6
CONTINUOUS
 62
     2
 10
95.75
 20
166.0
 30
0.0
 11
98.164814566
 21
165.352952387
 31
0.0
  0
LINE
  8
0
  6
CONTINUOUS
 62
     2
 10
95.75
 20
166.0
 30
0.0
 11
103.25
 21
166.0
 31
0.0
  0
LINE
  8
0
  6
CONTINUOUS
 62
     2
 10
103.25
 20
166.0
 30
0.0
 11
100.835185434
 21
165.352952387
 31
0.0
  0
LINE
  8
0
  6
CONTINUOUS
 62
     2
 10
95.5
 20
166.0
 30
0.0
 11
93.085185434
 21
166.647047613
 31
0.0
  0
LINE
  8
0
  6
CONTINUOUS
 62
     2
 10
95.75
 20
166.0
 30
0.0
 11
98.164814566
 21
166.647047613
 31
0.0
  0
LINE
  8
0
  6
CONTINUOUS
 62
     2
 10
103.25
 20
166.0
 30
0.0
 11
100.835185434
 21
166.647047613
 31
0.0
  0
TEXT
  8
0
  6
CONTINUOUS
 62
     2
 10
97.55
 20
167.0
 30
0.3
 40
3.0
  1
１５
 50
0.0
 41
0.6
 51
0.0
  7
KANJI0
  0
LINE
  8
0
  6
CONTINUOUS
 62
     2
 10
95.75
 20
157.775
 30
0.0
 11
95.75
 21
168.0
 31
0.0
  0
LINE
  8
0
  6
CONTINUOUS
 62
     2
 10
103.25
 20
156.275
 30
0.0
 11
103.25
 21
168.0
 31
0.0
  0
LINE
  8
0
  6
CONTINUOUS
 62
     1
 10
95.5
 20
159.475
 30
0.0
 11
95.5
 21
104.475
 31
0.0
  0
ARC
  8
0
  6
CONTINUOUS
 62
     2
 10
96.5005
 20
109.5
 30
0.0
 40
4.165
 50
343.5
 51
16.5
  0
ARC
  8
0
  6
CONTINUOUS
 62
     2
 10
102.748
 20
109.5
 30
0.0
 40
4.165
 50
163.7
 51
196.5
  0
ARC
  8
0
  6
CONTINUOUS
 62
     2
 10
99.62425
 20
107.729875
 30
0.0
 40
1.04125
 50
325.0
 51
35.0
  0
ARC
  8
0
  6
CONTINUOUS
 62
     2
 10
99.62425
 20
107.729875
 30
0.0
 40
1.04125
 50
145.0
 51
215.0
  0
ARC
  8
0
  6
CONTINUOUS
 62
     2
 10
99.62425
 20
111.270125
 30
0.0
 40
1.04125
 50
145.0
 51
215.0
  0
ARC
  8
0
  6
CONTINUOUS
 62
     2
 10
99.62425
 20
111.270125
 30
0.0
 40
1.04125
 50
325.0
 51
35.0
  0
LINE
  8
0
  6
CONTINUOUS
 62
     2
 10
98.750410959
 20
110.668976843
 30
0.0
 11
100.478885959
 21
110.668976843
 31
0.0
  0
LINE
  8
0
  6
CONTINUOUS
 62
     2
 10
100.493984196
 20
108.317076089
 30
0.0
 11
98.754515804
 21
108.317076089
 31
0.0
  0
LINE
  8
0
  6
CONTINUOUS
 62
     2
 10
100.6655
 20
111.270125
 30
0.0
 11
100.6655
 21
107.729875
 31
0.0
  0
LINE
  8
0
  6
CONTINUOUS
 62
     2
 10
100.482990804
 20
107.12595
 30
0.0
 11
98.583
 21
107.12595
 31
0.0
  0
LINE
  8
0
  6
CONTINUOUS
 62
     2
 10
98.583
 20
111.87405
 30
0.0
 11
100.478075
 21
111.87405
 31
0.0
  0
LINE
  8
0
  6
CONTINUOUS
 62
     2
 10
98.583
 20
107.12595
 30
0.0
 11
98.583
 21
111.87405
 31
0.0
  0
LINE
  8
0
  6
CONTINUOUS
 62
     2
 10
97.75
 20
106.70945
 30
0.0
 11
98.583
 21
107.12595
 31
0.0
  0
LINE
  8
0
  6
CONTINUOUS
 62
     2
 10
97.75
 20
112.29055
 30
0.0
 11
98.583
 21
111.87405
 31
0.0
  0
LINE
  8
0
  6
CONTINUOUS
 62
     2
 10
97.75
 20
106.70945
 30
0.0
 11
97.75
 21
112.29055
 31
0.0
  0
LINE
  8
0
  6
CONTINUOUS
 62
     1
 10
97.75
 20
107.25
 30
0.0
 11
95.75
 21
107.25
 31
0.0
  0
LINE
  8
0
  6
CONTINUOUS
 62
     2
 10
95.75
 20
112.5
 30
0.0
 11
95.5
 21
112.5
 31
0.0
  0
LINE
  8
0
  6
CONTINUOUS
 62
     2
 10
95.75
 20
110.645375
 30
0.0
 11
97.75
 21
110.645375
 31
0.0
  0
LINE
  8
0
  6
CONTINUOUS
 62
     2
 10
97.75
 20
110.7495
 30
0.0
 11
95.75
 21
110.7495
 31
0.0
  0
LINE
  8
0
  6
CONTINUOUS
 62
     2
 10
95.75
 20
108.2505
 30
0.0
 11
97.75
 21
108.2505
 31
0.0
  0
LINE
  8
0
  6
CONTINUOUS
 62
     2
 10
97.75
 20
108.346295
 30
0.0
 11
95.75
 21
108.346295
 31
0.0
  0
LINE
  8
0
  6
CONTINUOUS
 62
     2
 10
95.5
 20
106.5
 30
0.0
 11
95.75
 21
106.5
 31
0.0
  0
LINE
  8
0
  6
CONTINUOUS
 62
     2
 10
95.75
 20
106.5
 30
0.0
 11
95.75
 21
112.5
 31
0.0
  0
LINE
  8
0
  6
CONTINUOUS
 62
     2
 10
103.25
 20
108.2505
 30
0.0
 11
103.25
 21
110.7495
 31
0.0
  0
LINE
  8
0
  6
CONTINUOUS
 62
     2
 10
100.6655
 20
110.645375
 30
0.0
 11
103.23084
 21
110.645375
 31
0.0
  0
LINE
  8
0
  6
CONTINUOUS
 62
     2
 10
103.1975
 20
110.7495
 30
0.0
 11
100.6655
 21
110.7495
 31
0.0
  0
LINE
  8
0
  6
CONTINUOUS
 62
     2
 10
100.6655
 20
108.2505
 30
0.0
 11
103.2475
 21
108.2505
 31
0.0
  0
LINE
  8
0
  6
CONTINUOUS
 62
     2
 10
103.1975
 20
108.346295
 30
0.0
 11
100.6655
 21
108.346295
 31
0.0
  0
ARC
  8
0
  6
CONTINUOUS
 62
     2
 10
96.5005
 20
154.5
 30
0.0
 40
4.165
 50
343.5
 51
16.5
  0
ARC
  8
0
  6
CONTINUOUS
 62
     2
 10
102.748
 20
154.5
 30
0.0
 40
4.165
 50
163.5
 51
196.3
  0
ARC
  8
0
  6
CONTINUOUS
 62
     2
 10
99.62425
 20
156.270125
 30
0.0
 40
1.04125
 50
325.0
 51
35.0
  0
ARC
  8
0
  6
CONTINUOUS
 62
     2
 10
99.62425
 20
156.270125
 30
0.0
 40
1.04125
 50
145.0
 51
215.0
  0
ARC
  8
0
  6
CONTINUOUS
 62
     2
 10
99.62425
 20
152.729875
 30
0.0
 40
1.04125
 50
145.0
 51
215.0
  0
ARC
  8
0
  6
CONTINUOUS
 62
     2
 10
99.62425
 20
152.729875
 30
0.0
 40
1.04125
 50
325.0
 51
35.0
  0
LINE
  8
0
  6
CONTINUOUS
 62
     2
 10
98.750410959
 20
153.331023157
 30
0.0
 11
100.478885959
 21
153.331023157
 31
0.0
  0
LINE
  8
0
  6
CONTINUOUS
 62
     2
 10
100.493984196
 20
155.682923911
 30
0.0
 11
98.754515804
 21
155.682923911
 31
0.0
  0
LINE
  8
0
  6
CONTINUOUS
 62
     2
 10
100.6655
 20
152.729875
 30
0.0
 11
100.6655
 21
156.270125
 31
0.0
  0
LINE
  8
0
  6
CONTINUOUS
 62
     2
 10
100.482990804
 20
156.87405
 30
0.0
 11
98.583
 21
156.87405
 31
0.0
  0
LINE
  8
0
  6
CONTINUOUS
 62
     2
 10
98.583
 20
152.12595
 30
0.0
 11
100.478075
 21
152.12595
 31
0.0
  0
LINE
  8
0
  6
CONTINUOUS
 62
     2
 10
98.583
 20
156.87405
 30
0.0
 11
98.583
 21
152.12595
 31
0.0
  0
LINE
  8
0
  6
CONTINUOUS
 62
     2
 10
97.75
 20
157.29055
 30
0.0
 11
98.583
 21
156.87405
 31
0.0
  0
LINE
  8
0
  6
CONTINUOUS
 62
     2
 10
97.75
 20
151.70945
 30
0.0
 11
98.583
 21
152.12595
 31
0.0
  0
LINE
  8
0
  6
CONTINUOUS
 62
     2
 10
97.75
 20
157.29055
 30
0.0
 11
97.75
 21
151.70945
 31
0.0
  0
LINE
  8
0
  6
CONTINUOUS
 62
     1
 10
97.75
 20
156.75
 30
0.0
 11
95.75
 21
156.75
 31
0.0
  0
LINE
  8
0
  6
CONTINUOUS
 62
     2
 10
95.75
 20
157.5
 30
0.0
 11
95.5
 21
157.5
 31
0.0
  0
LINE
  8
0
  6
CONTINUOUS
 62
     2
 10
95.75
 20
155.7495
 30
0.0
 11
97.75
 21
155.7495
 31
0.0
  0
LINE
  8
0
  6
CONTINUOUS
 62
     2
 10
97.75
 20
155.653705
 30
0.0
 11
95.75
 21
155.653705
 31
0.0
  0
LINE
  8
0
  6
CONTINUOUS
 62
     2
 10
103.25
 20
155.7495
 30
0.0
 11
103.25
 21
153.2505
 31
0.0
  0
LINE
  8
0
  6
CONTINUOUS
 62
     2
 10
95.75
 20
153.354625
 30
0.0
 11
97.75
 21
153.354625
 31
0.0
  0
LINE
  8
0
  6
CONTINUOUS
 62
     2
 10
97.75
 20
153.2505
 30
0.0
 11
95.75
 21
153.2505
 31
0.0
  0
LINE
  8
0
  6
CONTINUOUS
 62
     2
 10
95.5
 20
151.5
 30
0.0
 11
95.75
 21
151.5
 31
0.0
  0
LINE
  8
0
  6
CONTINUOUS
 62
     2
 10
95.75
 20
151.5
 30
0.0
 11
95.75
 21
157.5
 31
0.0
  0
LINE
  8
0
  6
CONTINUOUS
 62
     2
 10
100.6655
 20
155.7495
 30
0.0
 11
103.25
 21
155.7495
 31
0.0
  0
LINE
  8
0
  6
CONTINUOUS
 62
     2
 10
103.25
 20
155.653705
 30
0.0
 11
100.6655
 21
155.653705
 31
0.0
  0
LINE
  8
0
  6
CONTINUOUS
 62
     2
 10
100.6655
 20
153.354625
 30
0.0
 11
103.25
 21
153.354625
 31
0.0
  0
LINE
  8
0
  6
CONTINUOUS
 62
     2
 10
103.25
 20
153.2505
 30
0.0
 11
100.6655
 21
153.2505
 31
0.0
  0
LINE
  8
0
  6
CONTINUOUS
 62
     2
 10
112.0
 20
156.75
 30
0.0
 11
111.352952387
 21
154.335185434
 31
0.0
  0
LINE
  8
0
  6
CONTINUOUS
 62
     2
 10
112.0
 20
156.75
 30
0.0
 11
112.647047613
 21
154.335185434
 31
0.0
  0
LINE
  8
0
  6
CONTINUOUS
 62
     2
 10
112.0
 20
107.25
 30
0.0
 11
112.0
 21
156.75
 31
0.0
  0
LINE
  8
0
  6
CONTINUOUS
 62
     2
 10
112.0
 20
107.25
 30
0.0
 11
112.647047613
 21
109.664814566
 31
0.0
  0
LINE
  8
0
  6
CONTINUOUS
 62
     2
 10
112.0
 20
107.25
 30
0.0
 11
111.352952387
 21
109.664814566
 31
0.0
  0
LINE
  8
0
  6
CONTINUOUS
 62
     1
 10
144.5
 20
107.5
 30
0.0
 11
144.5
 21
109.0
 31
0.0
  0
LINE
  8
0
  6
CONTINUOUS
 62
     1
 10
144.5
 20
155.0
 30
0.0
 11
144.5
 21
156.5
 31
0.0
  0
ARC
  8
0
  6
CONTINUOUS
 62
     1
 10
146.5
 20
156.0
 30
0.0
 40
0.5
 50
0.0
 51
90.0
  0
LINE
  8
0
  6
CONTINUOUS
 62
     1
 10
144.5
 20
156.5
 30
0.0
 11
146.5
 21
156.5
 31
0.0
  0
ARC
  8
0
  6
CONTINUOUS
 62
     1
 10
146.5
 20
108.0
 30
0.0
 40
0.5
 50
269.999961363
 51
0.0
  0
LINE
  8
0
  6
CONTINUOUS
 62
     1
 10
146.5
 20
107.5
 30
0.0
 11
144.5
 21
107.5
 31
0.0
  0
LINE
  8
0
  6
CONTINUOUS
 62
     1
 10
144.5
 20
155.0
 30
0.0
 11
144.5
 21
107.5
 31
0.0
  0
ARC
  8
0
  6
CONTINUOUS
 62
     1
 10
147.25
 20
136.75
 30
0.0
 40
0.25
 50
180.0
 51
270.0
  0
ARC
  8
0
  6
CONTINUOUS
 62
     1
 10
147.25
 20
126.75
 30
0.0
 40
0.25
 50
90.0
 51
180.0
  0
LINE
  8
0
  6
CONTINUOUS
 62
     1
 10
147.0
 20
156.0
 30
0.0
 11
147.0
 21
108.0
 31
0.0
  0
ARC
  8
0
  6
CONTINUOUS
 62
     1
 10
147.25
 20
145.25
 30
0.0
 40
0.25
 50
180.0
 51
270.0
  0
LINE
  8
0
  6
CONTINUOUS
 62
     1
 10
147.0
 20
145.25
 30
0.0
 11
147.0
 21
134.75
 31
0.0
  0
LINE
  8
0
  6
CONTINUOUS
 62
     1
 10
100.548328756
 20
156.775
 30
0.0
 11
144.5
 21
156.5
 31
0.0
  0
LINE
  8
0
  6
CONTINUOUS
 62
     1
 10
100.559521691
 20
107.297197792
 30
0.0
 11
144.5
 21
107.5
 31
0.0
  0
ARC
  8
0
  6
CONTINUOUS
 62
     1
 10
153.0
 20
127.5
 30
0.0
 40
0.5
 50
270.0
 51
0.0
  0
ARC
  8
0
  6
CONTINUOUS
 62
     1
 10
153.0
 20
136.0
 30
0.0
 40
0.5
 50
0.0
 51
90.0
  0
ARC
  8
0
  6
CONTINUOUS
 62
     1
 10
154.5
 20
144.5
 30
0.0
 40
0.5
 50
0.0
 51
90.0
  0
LINE
  8
0
  6
CONTINUOUS
 62
     1
 10
154.0
 20
142.0
 30
0.0
 11
154.0
 21
138.0
 31
0.0
  0
LINE
  8
0
  6
CONTINUOUS
 62
     1
 10
154.0
 20
142.0
 30
0.0
 11
153.5
 21
142.0
 31
0.0
  0
LINE
  8
0
  6
CONTINUOUS
 62
     1
 10
154.0
 20
138.0
 30
0.0
 11
153.5
 21
138.0
 31
0.0
  0
LINE
  8
0
  6
CONTINUOUS
 62
     1
 10
153.5
 20
142.0
 30
0.0
 11
153.5
 21
138.0
 31
0.0
  0
LINE
  8
0
  6
CONTINUOUS
 62
     1
 10
153.5
 20
127.5
 30
0.0
 11
153.5
 21
136.0
 31
0.0
  0
ARC
  8
0
  6
CONTINUOUS
 62
     1
 10
154.5
 20
137.0
 30
0.0
 40
0.5
 50
270.0
 51
0.0
  0
LINE
  8
0
  6
CONTINUOUS
 62
     1
 10
153.0
 20
136.5
 30
0.0
 11
154.5
 21
136.5
 31
0.0
  0
LINE
  8
0
  6
CONTINUOUS
 62
     1
 10
155.0
 20
144.5
 30
0.0
 11
155.0
 21
137.0
 31
0.0
  0
LINE
  8
0
  6
CONTINUOUS
 62
     1
 10
147.25
 20
136.5
 30
0.0
 11
153.0
 21
136.5
 31
0.0
  0
LINE
  8
0
  6
CONTINUOUS
 62
     1
 10
147.25
 20
127.0
 30
0.0
 11
153.0
 21
127.0
 31
0.0
  0
LINE
  8
0
  6
CONTINUOUS
 62
     1
 10
147.25
 20
145.0
 30
0.0
 11
154.5
 21
145.0
 31
0.0
  0
LINE
  8
0
  6
CONTINUOUS
 62
     2
 10
159.0
 20
132.0
 30
0.0
 11
159.647047613
 21
134.414814566
 31
0.0
  0
LINE
  8
0
  6
CONTINUOUS
 62
     2
 10
159.0
 20
132.0
 30
0.0
 11
158.352952387
 21
134.414814566
 31
0.0
  0
LINE
  8
0
  6
CONTINUOUS
 62
     2
 10
159.0
 20
132.0
 30
0.0
 11
159.0
 21
140.0
 31
0.0
  0
LINE
  8
0
  6
CONTINUOUS
 62
     2
 10
159.0
 20
140.0
 30
0.0
 11
158.352952387
 21
137.585185434
 31
0.0
  0
LINE
  8
0
  6
CONTINUOUS
 62
     2
 10
159.0
 20
140.0
 30
0.0
 11
159.647047613
 21
137.585185434
 31
0.0
  0
TEXT
  8
0
  6
CONTINUOUS
 62
     2
 10
158.2
 20
134.05
 30
0.3
 40
3.0
  1
１６
 50
90.0
 41
0.6
 51
0.0
  7
KANJI0
  0
LINE
  8
0
  6
CONTINUOUS
 62
     2
 10
147.0
 20
166.0
 30
0.0
 11
149.414814566
 21
165.352952387
 31
0.0
  0
LINE
  8
0
  6
CONTINUOUS
 62
     2
 10
147.0
 20
166.0
 30
0.0
 11
149.414814566
 21
166.647047613
 31
0.0
  0
LINE
  8
0
  6
CONTINUOUS
 62
     2
 10
155.0
 20
166.0
 30
0.0
 11
152.585185434
 21
166.647047613
 31
0.0
  0
LINE
  8
0
  6
CONTINUOUS
 62
     2
 10
155.0
 20
166.0
 30
0.0
 11
152.585185434
 21
165.352952387
 31
0.0
  0
LINE
  8
0
  6
CONTINUOUS
 62
     2
 10
147.0
 20
166.0
 30
0.0
 11
155.0
 21
166.0
 31
0.0
  0
TEXT
  8
0
  6
CONTINUOUS
 62
     2
 10
149.0
 20
166.8
 30
0.3
 40
3.0
  1
１６
 50
0.0
 41
0.6
 51
0.0
  7
KANJI0
  0
LINE
  8
0
  6
CONTINUOUS
 62
     2
 10
147.0
 20
155.879100809
 30
0.0
 11
147.0
 21
168.0
 31
0.0
  0
LINE
  8
0
  6
CONTINUOUS
 62
     2
 10
158.0
 20
140.0
 30
0.0
 11
161.0
 21
140.0
 31
0.0
  0
TEXT
  8
0
  6
CONTINUOUS
 62
     2
 10
163.5
 20
19.25
 30
0.1
 40
3.0
  1
４－φ６
 50
0.0
 41
0.9
 51
0.0
  7
KANJI2
  0
LINE
  8
0
  6
CONTINUOUS
 62
     2
 10
170.55
 20
18.25
 30
0.0
 11
161.5
 21
18.25
 31
0.0
  0
LINE
  8
0
  6
CONTINUOUS
 62
     2
 10
166.503053791
 20
29.379242106
 30
0.0
 11
161.5
 21
18.25
 31
0.0
  0
LINE
  8
0
  6
CONTINUOUS
 62
     2
 10
95.5
 20
172.5
 30
0.0
 11
97.914814566
 21
173.147047613
 31
0.0
  0
LINE
  8
0
  6
CONTINUOUS
 62
     2
 10
95.5
 20
172.5
 30
0.0
 11
97.914814566
 21
171.852952387
 31
0.0
  0
LINE
  8
0
  6
CONTINUOUS
 62
     2
 10
155.0
 20
172.5
 30
0.0
 11
152.585185434
 21
173.147047613
 31
0.0
  0
LINE
  8
0
  6
CONTINUOUS
 62
     2
 10
155.0
 20
172.5
 30
0.0
 11
152.585185434
 21
171.852952387
 31
0.0
  0
LINE
  8
0
  6
CONTINUOUS
 62
     2
 10
155.0
 20
172.5
 30
0.0
 11
95.5
 21
172.5
 31
0.0
  0
LINE
  8
0
  6
CONTINUOUS
 62
     2
 10
95.5
 20
159.725
 30
0.0
 11
95.5
 21
174.5
 31
0.0
  0
ARC
  8
0
  6
CONTINUOUS
 62
     1
 10
214.5
 20
107.5
 30
0.0
 40
3.0
 50
270.0
 51
0.0
  0
LINE
  8
0
  6
CONTINUOUS
 62
     1
 10
165.5
 20
104.5
 30
0.0
 11
214.5
 21
104.5
 31
0.0
  0
ARC
  8
0
  6
CONTINUOUS
 62
     1
 10
165.5
 20
107.5
 30
0.0
 40
3.0
 50
180.0
 51
270.0
  0
LINE
  8
0
  6
CONTINUOUS
 62
     1
 10
162.5
 20
156.5
 30
0.0
 11
162.5
 21
107.5
 31
0.0
  0
ARC
  8
0
  6
CONTINUOUS
 62
     1
 10
165.5
 20
156.5
 30
0.0
 40
3.0
 50
90.0
 51
180.0
  0
LINE
  8
0
  6
CONTINUOUS
 62
     1
 10
217.5
 20
107.5
 30
0.0
 11
217.5
 21
156.5
 31
0.0
  0
LINE
  8
0
  6
CONTINUOUS
 62
     1
 10
214.5
 20
159.5
 30
0.0
 11
165.5
 21
159.5
 31
0.0
  0
ARC
  8
0
  6
CONTINUOUS
 62
     1
 10
214.5
 20
156.5
 30
0.0
 40
3.0
 50
0.0
 51
90.0
  0
CIRCLE
  8
0
  6
CONTINUOUS
 62
     1
 10
190.0
 20
132.0
 30
0.0
 40
24.75
  0
ARC
  8
0
  6
CONTINUOUS
 62
     2
 10
165.25
 20
107.25
 30
0.0
 40
1.5
 50
180.0
 51
270.0
  0
LINE
  8
0
  6
CONTINUOUS
 62
     2
 10
163.75
 20
156.75
 30
0.0
 11
163.75
 21
107.25
 31
0.0
  0
ARC
  8
0
  6
CONTINUOUS
 62
     2
 10
165.25
 20
156.75
 30
0.0
 40
1.5
 50
90.0
 51
180.0
  0
LINE
  8
0
  6
CONTINUOUS
 62
     2
 10
214.75
 20
158.25
 30
0.0
 11
165.25
 21
158.25
 31
0.0
  0
ARC
  8
0
  6
CONTINUOUS
 62
     2
 10
214.75
 20
156.75
 30
0.0
 40
1.5
 50
0.0
 51
90.0
  0
LINE
  8
0
  6
CONTINUOUS
 62
     2
 10
165.25
 20
105.75
 30
0.0
 11
214.75
 21
105.75
 31
0.0
  0
LINE
  8
0
  6
CONTINUOUS
 62
     2
 10
216.25
 20
107.25
 30
0.0
 11
216.25
 21
156.75
 31
0.0
  0
ARC
  8
0
  6
CONTINUOUS
 62
     2
 10
214.75
 20
107.25
 30
0.0
 40
1.5
 50
270.0
 51
0.0
  0
CIRCLE
  8
0
  6
CONTINUOUS
 62
     2
 10
209.052558883
 20
121.0
 30
0.0
 40
1.75
  0
CIRCLE
  8
0
  6
CONTINUOUS
 62
     2
 10
190.0
 20
154.0
 30
0.0
 40
1.75
  0
CIRCLE
  8
0
  6
CONTINUOUS
 62
     2
 10
170.947441117
 20
121.0
 30
0.0
 40
1.75
  0
CIRCLE
  8
0
  6
CONTINUOUS
 62
     2
 10
170.947441117
 20
121.0
 30
0.0
 40
1.5
  0
LINE
  8
0
  6
CONTINUOUS
 62
     2
 10
170.072441117
 20
121.2
 30
0.0
 11
170.547441117
 21
121.2
 31
0.0
  0
ARC
  8
0
  6
CONTINUOUS
 62
     2
 10
170.547441117
 20
121.4
 30
0.0
 40
0.2
 50
270.0
 51
0.0
  0
LINE
  8
0
  6
CONTINUOUS
 62
     2
 10
170.747441117
 20
121.4
 30
0.0
 11
170.747441117
 21
121.875
 31
0.0
  0
LINE
  8
0
  6
CONTINUOUS
 62
     2
 10
170.747441117
 20
121.875
 30
0.0
 11
171.147441117
 21
121.875
 31
0.0
  0
LINE
  8
0
  6
CONTINUOUS
 62
     2
 10
171.147441117
 20
121.875
 30
0.0
 11
171.147441117
 21
121.4
 31
0.0
  0
ARC
  8
0
  6
CONTINUOUS
 62
     2
 10
171.347441117
 20
121.4
 30
0.0
 40
0.2
 50
180.0
 51
270.0
  0
LINE
  8
0
  6
CONTINUOUS
 62
     2
 10
171.347441117
 20
121.2
 30
0.0
 11
171.822441117
 21
121.2
 31
0.0
  0
LINE
  8
0
  6
CONTINUOUS
 62
     2
 10
171.822441117
 20
121.2
 30
0.0
 11
171.822441117
 21
120.8
 31
0.0
  0
LINE
  8
0
  6
CONTINUOUS
 62
     2
 10
171.822441117
 20
120.8
 30
0.0
 11
171.347441117
 21
120.8
 31
0.0
  0
ARC
  8
0
  6
CONTINUOUS
 62
     2
 10
171.347441117
 20
120.6
 30
0.0
 40
0.2
 50
90.0
 51
180.0
  0
LINE
  8
0
  6
CONTINUOUS
 62
     2
 10
171.147441117
 20
120.6
 30
0.0
 11
171.147441117
 21
120.125
 31
0.0
  0
LINE
  8
0
  6
CONTINUOUS
 62
     2
 10
171.147441117
 20
120.125
 30
0.0
 11
170.747441117
 21
120.125
 31
0.0
  0
LINE
  8
0
  6
CONTINUOUS
 62
     2
 10
170.747441117
 20
120.125
 30
0.0
 11
170.747441117
 21
120.6
 31
0.0
  0
ARC
  8
0
  6
CONTINUOUS
 62
     2
 10
170.547441117
 20
120.6
 30
0.0
 40
0.2
 50
0.0
 51
90.0
  0
LINE
  8
0
  6
CONTINUOUS
 62
     2
 10
170.547441117
 20
120.8
 30
0.0
 11
170.072441117
 21
120.8
 31
0.0
  0
LINE
  8
0
  6
CONTINUOUS
 62
     2
 10
170.072441117
 20
120.8
 30
0.0
 11
170.072441117
 21
121.2
 31
0.0
  0
LINE
  8
0
  6
LTYPE2
 62
     2
 10
168.947441117
 20
121.0
 30
0.0
 11
172.947441117
 21
121.0
 31
0.0
  0
LINE
  8
0
  6
LTYPE2
 62
     2
 10
170.947441117
 20
123.0
 30
0.0
 11
170.947441117
 21
119.0
 31
0.0
  0
CIRCLE
  8
0
  6
CONTINUOUS
 62
     2
 10
190.0
 20
154.0
 30
0.0
 40
1.5
  0
LINE
  8
0
  6
CONTINUOUS
 62
     2
 10
189.125
 20
154.2
 30
0.0
 11
189.6
 21
154.2
 31
0.0
  0
ARC
  8
0
  6
CONTINUOUS
 62
     2
 10
189.6
 20
154.4
 30
0.0
 40
0.2
 50
270.0
 51
0.0
  0
LINE
  8
0
  6
CONTINUOUS
 62
     2
 10
189.8
 20
154.4
 30
0.0
 11
189.8
 21
154.875
 31
0.0
  0
LINE
  8
0
  6
CONTINUOUS
 62
     2
 10
189.8
 20
154.875
 30
0.0
 11
190.2
 21
154.875
 31
0.0
  0
LINE
  8
0
  6
CONTINUOUS
 62
     2
 10
190.2
 20
154.875
 30
0.0
 11
190.2
 21
154.4
 31
0.0
  0
ARC
  8
0
  6
CONTINUOUS
 62
     2
 10
190.4
 20
154.4
 30
0.0
 40
0.2
 50
180.0
 51
270.0
  0
LINE
  8
0
  6
CONTINUOUS
 62
     2
 10
190.4
 20
154.2
 30
0.0
 11
190.875
 21
154.2
 31
0.0
  0
LINE
  8
0
  6
CONTINUOUS
 62
     2
 10
190.875
 20
154.2
 30
0.0
 11
190.875
 21
153.8
 31
0.0
  0
LINE
  8
0
  6
CONTINUOUS
 62
     2
 10
190.875
 20
153.8
 30
0.0
 11
190.4
 21
153.8
 31
0.0
  0
ARC
  8
0
  6
CONTINUOUS
 62
     2
 10
190.4
 20
153.6
 30
0.0
 40
0.2
 50
90.0
 51
180.0
  0
LINE
  8
0
  6
CONTINUOUS
 62
     2
 10
190.2
 20
153.6
 30
0.0
 11
190.2
 21
153.125
 31
0.0
  0
LINE
  8
0
  6
CONTINUOUS
 62
     2
 10
190.2
 20
153.125
 30
0.0
 11
189.8
 21
153.125
 31
0.0
  0
LINE
  8
0
  6
CONTINUOUS
 62
     2
 10
189.8
 20
153.125
 30
0.0
 11
189.8
 21
153.6
 31
0.0
  0
ARC
  8
0
  6
CONTINUOUS
 62
     2
 10
189.6
 20
153.6
 30
0.0
 40
0.2
 50
0.0
 51
90.0
  0
LINE
  8
0
  6
CONTINUOUS
 62
     2
 10
189.6
 20
153.8
 30
0.0
 11
189.125
 21
153.8
 31
0.0
  0
LINE
  8
0
  6
CONTINUOUS
 62
     2
 10
189.125
 20
153.8
 30
0.0
 11
189.125
 21
154.2
 31
0.0
  0
LINE
  8
0
  6
LTYPE2
 62
     2
 10
188.0
 20
154.0
 30
0.0
 11
192.0
 21
154.0
 31
0.0
  0
LINE
  8
0
  6
LTYPE2
 62
     2
 10
190.0
 20
156.0
 30
0.0
 11
190.0
 21
152.0
 31
0.0
  0
CIRCLE
  8
0
  6
CONTINUOUS
 62
     2
 10
209.052558883
 20
121.0
 30
0.0
 40
1.5
  0
LINE
  8
0
  6
CONTINUOUS
 62
     2
 10
208.177558883
 20
121.2
 30
0.0
 11
208.652558883
 21
121.2
 31
0.0
  0
ARC
  8
0
  6
CONTINUOUS
 62
     2
 10
208.652558883
 20
121.4
 30
0.0
 40
0.2
 50
270.0
 51
0.0
  0
LINE
  8
0
  6
CONTINUOUS
 62
     2
 10
208.852558883
 20
121.4
 30
0.0
 11
208.852558883
 21
121.875
 31
0.0
  0
LINE
  8
0
  6
CONTINUOUS
 62
     2
 10
208.852558883
 20
121.875
 30
0.0
 11
209.252558883
 21
121.875
 31
0.0
  0
LINE
  8
0
  6
CONTINUOUS
 62
     2
 10
209.252558883
 20
121.875
 30
0.0
 11
209.252558883
 21
121.4
 31
0.0
  0
ARC
  8
0
  6
CONTINUOUS
 62
     2
 10
209.452558883
 20
121.4
 30
0.0
 40
0.2
 50
180.0
 51
270.0
  0
LINE
  8
0
  6
CONTINUOUS
 62
     2
 10
209.452558883
 20
121.2
 30
0.0
 11
209.927558883
 21
121.2
 31
0.0
  0
LINE
  8
0
  6
CONTINUOUS
 62
     2
 10
209.927558883
 20
121.2
 30
0.0
 11
209.927558883
 21
120.8
 31
0.0
  0
LINE
  8
0
  6
CONTINUOUS
 62
     2
 10
209.927558883
 20
120.8
 30
0.0
 11
209.452558883
 21
120.8
 31
0.0
  0
ARC
  8
0
  6
CONTINUOUS
 62
     2
 10
209.452558883
 20
120.6
 30
0.0
 40
0.2
 50
90.0
 51
180.0
  0
LINE
  8
0
  6
CONTINUOUS
 62
     2
 10
209.252558883
 20
120.6
 30
0.0
 11
209.252558883
 21
120.125
 31
0.0
  0
LINE
  8
0
  6
CONTINUOUS
 62
     2
 10
209.252558883
 20
120.125
 30
0.0
 11
208.852558883
 21
120.125
 31
0.0
  0
LINE
  8
0
  6
CONTINUOUS
 62
     2
 10
208.852558883
 20
120.125
 30
0.0
 11
208.852558883
 21
120.6
 31
0.0
  0
ARC
  8
0
  6
CONTINUOUS
 62
     2
 10
208.652558883
 20
120.6
 30
0.0
 40
0.2
 50
0.0
 51
90.0
  0
LINE
  8
0
  6
CONTINUOUS
 62
     2
 10
208.652558883
 20
120.8
 30
0.0
 11
208.177558883
 21
120.8
 31
0.0
  0
LINE
  8
0
  6
CONTINUOUS
 62
     2
 10
208.177558883
 20
120.8
 30
0.0
 11
208.177558883
 21
121.2
 31
0.0
  0
LINE
  8
0
  6
LTYPE2
 62
     2
 10
207.052558883
 20
121.0
 30
0.0
 11
211.052558883
 21
121.0
 31
0.0
  0
LINE
  8
0
  6
LTYPE2
 62
     2
 10
209.052558883
 20
123.0
 30
0.0
 11
209.052558883
 21
119.0
 31
0.0
  0
LINE
  8
0
  6
CONTINUOUS
 62
     2
 10
169.512643038
 20
155.662
 30
0.0
 11
167.5
 21
156.824
 31
0.0
  0
LINE
  8
0
  6
CONTINUOUS
 62
     2
 10
167.5
 20
156.824
 30
0.0
 11
165.487356962
 21
155.662
 31
0.0
  0
LINE
  8
0
  6
CONTINUOUS
 62
     2
 10
165.487356962
 20
155.662
 30
0.0
 11
165.487356962
 21
153.338
 31
0.0
  0
LINE
  8
0
  6
CONTINUOUS
 62
     2
 10
165.487356962
 20
153.338
 30
0.0
 11
167.5
 21
152.176
 31
0.0
  0
LINE
  8
0
  6
CONTINUOUS
 62
     2
 10
167.5
 20
152.176
 30
0.0
 11
169.512643038
 21
153.338
 31
0.0
  0
LINE
  8
0
  6
CONTINUOUS
 62
     2
 10
169.512643038
 20
153.338
 30
0.0
 11
169.512643038
 21
155.662
 31
0.0
  0
CIRCLE
  8
0
  6
CONTINUOUS
 62
     2
 10
167.5
 20
154.5
 30
0.0
 40
1.245
  0
CIRCLE
  8
0
  6
CONTINUOUS
 62
     2
 10
167.5
 20
154.5
 30
0.0
 40
1.162
  0
CIRCLE
  8
0
  6
CONTINUOUS
 62
     2
 10
167.5
 20
154.5
 30
0.0
 40
2.49
  0
CIRCLE
  8
0
  6
CONTINUOUS
 62
     2
 10
167.5
 20
154.5
 30
0.0
 40
2.075
  0
LINE
  8
0
  6
CONTINUOUS
 62
     2
 10
214.512643038
 20
155.662
 30
0.0
 11
212.5
 21
156.824
 31
0.0
  0
LINE
  8
0
  6
CONTINUOUS
 62
     2
 10
212.5
 20
156.824
 30
0.0
 11
210.487356962
 21
155.662
 31
0.0
  0
LINE
  8
0
  6
CONTINUOUS
 62
     2
 10
210.487356962
 20
155.662
 30
0.0
 11
210.487356962
 21
153.338
 31
0.0
  0
LINE
  8
0
  6
CONTINUOUS
 62
     2
 10
210.487356962
 20
153.338
 30
0.0
 11
212.5
 21
152.176
 31
0.0
  0
LINE
  8
0
  6
CONTINUOUS
 62
     2
 10
212.5
 20
152.176
 30
0.0
 11
214.512643038
 21
153.338
 31
0.0
  0
LINE
  8
0
  6
CONTINUOUS
 62
     2
 10
214.512643038
 20
153.338
 30
0.0
 11
214.512643038
 21
155.662
 31
0.0
  0
CIRCLE
  8
0
  6
CONTINUOUS
 62
     2
 10
212.5
 20
154.5
 30
0.0
 40
1.245
  0
CIRCLE
  8
0
  6
CONTINUOUS
 62
     2
 10
212.5
 20
154.5
 30
0.0
 40
1.162
  0
CIRCLE
  8
0
  6
CONTINUOUS
 62
     2
 10
212.5
 20
154.5
 30
0.0
 40
2.49
  0
CIRCLE
  8
0
  6
CONTINUOUS
 62
     2
 10
212.5
 20
154.5
 30
0.0
 40
2.075
  0
LINE
  8
0
  6
CONTINUOUS
 62
     2
 10
169.512643038
 20
110.662
 30
0.0
 11
167.5
 21
111.824
 31
0.0
  0
LINE
  8
0
  6
CONTINUOUS
 62
     2
 10
167.5
 20
111.824
 30
0.0
 11
165.487356962
 21
110.662
 31
0.0
  0
LINE
  8
0
  6
CONTINUOUS
 62
     2
 10
165.487356962
 20
110.662
 30
0.0
 11
165.487356962
 21
108.338
 31
0.0
  0
LINE
  8
0
  6
CONTINUOUS
 62
     2
 10
165.487356962
 20
108.338
 30
0.0
 11
167.5
 21
107.176
 31
0.0
  0
LINE
  8
0
  6
CONTINUOUS
 62
     2
 10
167.5
 20
107.176
 30
0.0
 11
169.512643038
 21
108.338
 31
0.0
  0
LINE
  8
0
  6
CONTINUOUS
 62
     2
 10
169.512643038
 20
108.338
 30
0.0
 11
169.512643038
 21
110.662
 31
0.0
  0
CIRCLE
  8
0
  6
CONTINUOUS
 62
     2
 10
167.5
 20
109.5
 30
0.0
 40
1.245
  0
CIRCLE
  8
0
  6
CONTINUOUS
 62
     2
 10
167.5
 20
109.5
 30
0.0
 40
1.162
  0
CIRCLE
  8
0
  6
CONTINUOUS
 62
     2
 10
167.5
 20
109.5
 30
0.0
 40
2.49
  0
CIRCLE
  8
0
  6
CONTINUOUS
 62
     2
 10
167.5
 20
109.5
 30
0.0
 40
2.075
  0
LINE
  8
0
  6
CONTINUOUS
 62
     2
 10
214.512643038
 20
110.662
 30
0.0
 11
212.5
 21
111.824
 31
0.0
  0
LINE
  8
0
  6
CONTINUOUS
 62
     2
 10
212.5
 20
111.824
 30
0.0
 11
210.487356962
 21
110.662
 31
0.0
  0
LINE
  8
0
  6
CONTINUOUS
 62
     2
 10
210.487356962
 20
110.662
 30
0.0
 11
210.487356962
 21
108.338
 31
0.0
  0
LINE
  8
0
  6
CONTINUOUS
 62
     2
 10
210.487356962
 20
108.338
 30
0.0
 11
212.5
 21
107.176
 31
0.0
  0
LINE
  8
0
  6
CONTINUOUS
 62
     2
 10
212.5
 20
107.176
 30
0.0
 11
214.512643038
 21
108.338
 31
0.0
  0
LINE
  8
0
  6
CONTINUOUS
 62
     2
 10
214.512643038
 20
108.338
 30
0.0
 11
214.512643038
 21
110.662
 31
0.0
  0
CIRCLE
  8
0
  6
CONTINUOUS
 62
     2
 10
212.5
 20
109.5
 30
0.0
 40
1.245
  0
CIRCLE
  8
0
  6
CONTINUOUS
 62
     2
 10
212.5
 20
109.5
 30
0.0
 40
1.162
  0
CIRCLE
  8
0
  6
CONTINUOUS
 62
     2
 10
212.5
 20
109.5
 30
0.0
 40
2.49
  0
CIRCLE
  8
0
  6
CONTINUOUS
 62
     2
 10
212.5
 20
109.5
 30
0.0
 40
2.075
  0
LINE
  8
0
  6
CONTINUOUS
 62
     2
 10
179.15
 20
137.05
 30
0.0
 11
174.85
 21
137.05
 31
0.0
  0
ARC
  8
0
  6
CONTINUOUS
 62
     2
 10
174.85
 20
137.25
 30
0.0
 40
0.2
 50
90.000477039
 51
269.99952394
  0
ARC
  8
0
  6
CONTINUOUS
 62
     2
 10
179.15
 20
137.25
 30
0.0
 40
0.2
 50
0.0
 51
90.0
  0
ARC
  8
0
  6
CONTINUOUS
 62
     2
 10
179.15
 20
137.25
 30
0.0
 40
0.2
 50
270.0
 51
0.0
  0
LINE
  8
0
  6
CONTINUOUS
 62
     2
 10
178.8
 20
142.95
 30
0.0
 11
175.2
 21
142.95
 31
0.0
  0
ARC
  8
0
  6
CONTINUOUS
 62
     2
 10
175.2
 20
142.75
 30
0.0
 40
0.2
 50
90.000278953
 51
269.999721047
  0
ARC
  8
0
  6
CONTINUOUS
 62
     2
 10
178.8
 20
142.75
 30
0.0
 40
0.2
 50
270.0
 51
0.0
  0
ARC
  8
0
  6
CONTINUOUS
 62
     2
 10
178.8
 20
142.75
 30
0.0
 40
0.2
 50
0.0
 51
90.0
  0
LINE
  8
0
  6
CONTINUOUS
 62
     2
 10
185.65
 20
137.05
 30
0.0
 11
181.35
 21
137.05
 31
0.0
  0
ARC
  8
0
  6
CONTINUOUS
 62
     2
 10
181.35
 20
137.25
 30
0.0
 40
0.2
 50
90.000477039
 51
269.99952394
  0
ARC
  8
0
  6
CONTINUOUS
 62
     2
 10
185.65
 20
137.25
 30
0.0
 40
0.2
 50
0.0
 51
90.0
  0
ARC
  8
0
  6
CONTINUOUS
 62
     2
 10
185.65
 20
137.25
 30
0.0
 40
0.2
 50
270.0
 51
0.0
  0
LINE
  8
0
  6
CONTINUOUS
 62
     2
 10
192.15
 20
137.05
 30
0.0
 11
187.85
 21
137.05
 31
0.0
  0
ARC
  8
0
  6
CONTINUOUS
 62
     2
 10
187.85
 20
137.25
 30
0.0
 40
0.2
 50
90.000477039
 51
269.99952394
  0
ARC
  8
0
  6
CONTINUOUS
 62
     2
 10
192.15
 20
137.25
 30
0.0
 40
0.2
 50
0.0
 51
90.0
  0
ARC
  8
0
  6
CONTINUOUS
 62
     2
 10
192.15
 20
137.25
 30
0.0
 40
0.2
 50
270.0
 51
0.0
  0
LINE
  8
0
  6
CONTINUOUS
 62
     2
 10
198.65
 20
137.05
 30
0.0
 11
194.35
 21
137.05
 31
0.0
  0
ARC
  8
0
  6
CONTINUOUS
 62
     2
 10
194.35
 20
137.25
 30
0.0
 40
0.2
 50
90.000477039
 51
269.99952394
  0
ARC
  8
0
  6
CONTINUOUS
 62
     2
 10
198.65
 20
137.25
 30
0.0
 40
0.2
 50
0.0
 51
90.0
  0
ARC
  8
0
  6
CONTINUOUS
 62
     2
 10
198.65
 20
137.25
 30
0.0
 40
0.2
 50
270.0
 51
0.0
  0
LINE
  8
0
  6
CONTINUOUS
 62
     2
 10
205.15
 20
137.05
 30
0.0
 11
200.85
 21
137.05
 31
0.0
  0
ARC
  8
0
  6
CONTINUOUS
 62
     2
 10
200.85
 20
137.25
 30
0.0
 40
0.2
 50
90.000477039
 51
269.99952394
  0
ARC
  8
0
  6
CONTINUOUS
 62
     2
 10
205.15
 20
137.25
 30
0.0
 40
0.2
 50
0.0
 51
90.0
  0
ARC
  8
0
  6
CONTINUOUS
 62
     2
 10
205.15
 20
137.25
 30
0.0
 40
0.2
 50
270.0
 51
0.0
  0
LINE
  8
0
  6
CONTINUOUS
 62
     2
 10
185.3
 20
142.95
 30
0.0
 11
181.7
 21
142.95
 31
0.0
  0
ARC
  8
0
  6
CONTINUOUS
 62
     2
 10
181.7
 20
142.75
 30
0.0
 40
0.2
 50
90.000278953
 51
269.999721047
  0
ARC
  8
0
  6
CONTINUOUS
 62
     2
 10
185.3
 20
142.75
 30
0.0
 40
0.2
 50
270.0
 51
0.0
  0
ARC
  8
0
  6
CONTINUOUS
 62
     2
 10
185.3
 20
142.75
 30
0.0
 40
0.2
 50
0.0
 51
90.0
  0
LINE
  8
0
  6
CONTINUOUS
 62
     2
 10
191.8
 20
142.95
 30
0.0
 11
188.2
 21
142.95
 31
0.0
  0
ARC
  8
0
  6
CONTINUOUS
 62
     2
 10
188.2
 20
142.75
 30
0.0
 40
0.2
 50
90.000278953
 51
269.999721047
  0
ARC
  8
0
  6
CONTINUOUS
 62
     2
 10
191.8
 20
142.75
 30
0.0
 40
0.2
 50
270.0
 51
0.0
  0
ARC
  8
0
  6
CONTINUOUS
 62
     2
 10
191.8
 20
142.75
 30
0.0
 40
0.2
 50
0.0
 51
90.0
  0
LINE
  8
0
  6
CONTINUOUS
 62
     2
 10
198.3
 20
142.95
 30
0.0
 11
194.7
 21
142.95
 31
0.0
  0
ARC
  8
0
  6
CONTINUOUS
 62
     2
 10
194.7
 20
142.75
 30
0.0
 40
0.2
 50
90.000278953
 51
269.999721047
  0
ARC
  8
0
  6
CONTINUOUS
 62
     2
 10
198.3
 20
142.75
 30
0.0
 40
0.2
 50
270.0
 51
0.0
  0
ARC
  8
0
  6
CONTINUOUS
 62
     2
 10
198.3
 20
142.75
 30
0.0
 40
0.2
 50
0.0
 51
90.0
  0
LINE
  8
0
  6
CONTINUOUS
 62
     2
 10
204.8
 20
142.95
 30
0.0
 11
201.2
 21
142.95
 31
0.0
  0
ARC
  8
0
  6
CONTINUOUS
 62
     2
 10
201.2
 20
142.75
 30
0.0
 40
0.2
 50
90.000278953
 51
269.999721047
  0
ARC
  8
0
  6
CONTINUOUS
 62
     2
 10
204.8
 20
142.75
 30
0.0
 40
0.2
 50
270.0
 51
0.0
  0
ARC
  8
0
  6
CONTINUOUS
 62
     2
 10
204.8
 20
142.75
 30
0.0
 40
0.2
 50
0.0
 51
90.0
  0
ARC
  8
0
  6
CONTINUOUS
 62
     2
 10
174.75
 20
137.0
 30
0.0
 40
0.5
 50
180.0
 51
270.0
  0
ARC
  8
0
  6
CONTINUOUS
 62
     2
 10
179.25
 20
137.0
 30
0.0
 40
0.5
 50
270.0
 51
0.0
  0
ARC
  8
0
  6
CONTINUOUS
 62
     2
 10
181.25
 20
137.0
 30
0.0
 40
0.5
 50
180.0
 51
270.0
  0
LINE
  8
0
  6
CONTINUOUS
 62
     2
 10
181.25
 20
136.5
 30
0.0
 11
185.75
 21
136.5
 31
0.0
  0
ARC
  8
0
  6
CONTINUOUS
 62
     2
 10
185.75
 20
137.0
 30
0.0
 40
0.5
 50
270.0
 51
0.0
  0
ARC
  8
0
  6
CONTINUOUS
 62
     2
 10
187.75
 20
137.0
 30
0.0
 40
0.5
 50
180.0
 51
270.0
  0
LINE
  8
0
  6
CONTINUOUS
 62
     2
 10
187.75
 20
136.5
 30
0.0
 11
192.25
 21
136.5
 31
0.0
  0
ARC
  8
0
  6
CONTINUOUS
 62
     2
 10
192.25
 20
137.0
 30
0.0
 40
0.5
 50
270.0
 51
0.0
  0
ARC
  8
0
  6
CONTINUOUS
 62
     2
 10
194.25
 20
137.0
 30
0.0
 40
0.5
 50
180.0
 51
270.0
  0
LINE
  8
0
  6
CONTINUOUS
 62
     2
 10
194.25
 20
136.5
 30
0.0
 11
198.75
 21
136.5
 31
0.0
  0
ARC
  8
0
  6
CONTINUOUS
 62
     2
 10
198.75
 20
137.0
 30
0.0
 40
0.5
 50
270.0
 51
0.0
  0
ARC
  8
0
  6
CONTINUOUS
 62
     2
 10
200.75
 20
137.0
 30
0.0
 40
0.5
 50
180.0
 51
270.0
  0
ARC
  8
0
  6
CONTINUOUS
 62
     2
 10
205.25
 20
137.0
 30
0.0
 40
0.5
 50
270.0
 51
0.0
  0
LINE
  8
0
  6
CONTINUOUS
 62
     2
 10
205.75
 20
142.55
 30
0.0
 11
200.25
 21
142.55
 31
0.0
  0
LINE
  8
0
  6
CONTINUOUS
 62
     2
 10
199.25
 20
142.55
 30
0.0
 11
193.75
 21
142.55
 31
0.0
  0
LINE
  8
0
  6
CONTINUOUS
 62
     2
 10
192.75
 20
142.55
 30
0.0
 11
187.25
 21
142.55
 31
0.0
  0
LINE
  8
0
  6
CONTINUOUS
 62
     2
 10
186.25
 20
142.55
 30
0.0
 11
180.75
 21
142.55
 31
0.0
  0
LINE
  8
0
  6
CONTINUOUS
 62
     2
 10
179.75
 20
142.55
 30
0.0
 11
174.25
 21
142.55
 31
0.0
  0
LINE
  8
0
  6
CONTINUOUS
 62
     2
 10
174.25
 20
137.45
 30
0.0
 11
179.75
 21
137.45
 31
0.0
  0
LINE
  8
0
  6
CONTINUOUS
 62
     2
 10
180.75
 20
137.45
 30
0.0
 11
186.25
 21
137.45
 31
0.0
  0
LINE
  8
0
  6
CONTINUOUS
 62
     2
 10
187.25
 20
137.45
 30
0.0
 11
192.75
 21
137.45
 31
0.0
  0
LINE
  8
0
  6
CONTINUOUS
 62
     2
 10
193.75
 20
137.45
 30
0.0
 11
199.25
 21
137.45
 31
0.0
  0
LINE
  8
0
  6
CONTINUOUS
 62
     2
 10
200.25
 20
137.45
 30
0.0
 11
205.75
 21
137.45
 31
0.0
  0
ARC
  8
0
  6
CONTINUOUS
 62
     2
 10
180.25
 20
144.5
 30
0.0
 40
0.5
 50
0.0
 51
180.0
  0
ARC
  8
0
  6
CONTINUOUS
 62
     2
 10
186.75
 20
144.5
 30
0.0
 40
0.5
 50
0.0
 51
180.0
  0
ARC
  8
0
  6
CONTINUOUS
 62
     2
 10
193.25
 20
144.5
 30
0.0
 40
0.5
 50
0.0
 51
180.0
  0
ARC
  8
0
  6
CONTINUOUS
 62
     2
 10
199.75
 20
144.5
 30
0.0
 40
0.5
 50
0.0
 51
180.0
  0
LINE
  8
0
  6
CONTINUOUS
 62
     2
 10
199.25
 20
137.0
 30
0.0
 11
199.25
 21
144.5
 31
0.0
  0
LINE
  8
0
  6
CONTINUOUS
 62
     2
 10
200.25
 20
144.5
 30
0.0
 11
200.25
 21
137.0
 31
0.0
  0
LINE
  8
0
  6
CONTINUOUS
 62
     2
 10
193.75
 20
137.0
 30
0.0
 11
193.75
 21
144.5
 31
0.0
  0
LINE
  8
0
  6
CONTINUOUS
 62
     2
 10
192.75
 20
144.5
 30
0.0
 11
192.75
 21
137.0
 31
0.0
  0
LINE
  8
0
  6
CONTINUOUS
 62
     2
 10
187.25
 20
137.0
 30
0.0
 11
187.25
 21
144.5
 31
0.0
  0
LINE
  8
0
  6
CONTINUOUS
 62
     2
 10
186.25
 20
144.5
 30
0.0
 11
186.25
 21
137.0
 31
0.0
  0
LINE
  8
0
  6
CONTINUOUS
 62
     2
 10
180.75
 20
144.5
 30
0.0
 11
180.75
 21
137.0
 31
0.0
  0
LINE
  8
0
  6
CONTINUOUS
 62
     2
 10
179.75
 20
144.5
 30
0.0
 11
179.75
 21
137.0
 31
0.0
  0
LINE
  8
0
  6
CONTINUOUS
 62
     2
 10
171.6
 20
134.95
 30
0.0
 11
175.9
 21
134.95
 31
0.0
  0
ARC
  8
0
  6
CONTINUOUS
 62
     2
 10
171.6
 20
134.75
 30
0.0
 40
0.2
 50
90.000477039
 51
269.99952394
  0
ARC
  8
0
  6
CONTINUOUS
 62
     2
 10
175.9
 20
134.75
 30
0.0
 40
0.2
 50
0.0
 51
90.0
  0
ARC
  8
0
  6
CONTINUOUS
 62
     2
 10
175.9
 20
134.75
 30
0.0
 40
0.2
 50
270.0
 51
0.0
  0
LINE
  8
0
  6
CONTINUOUS
 62
     2
 10
171.95
 20
129.05
 30
0.0
 11
175.55
 21
129.05
 31
0.0
  0
ARC
  8
0
  6
CONTINUOUS
 62
     2
 10
171.95
 20
129.25
 30
0.0
 40
0.2
 50
90.000278953
 51
269.999721047
  0
ARC
  8
0
  6
CONTINUOUS
 62
     2
 10
175.55
 20
129.25
 30
0.0
 40
0.2
 50
270.0
 51
0.0
  0
ARC
  8
0
  6
CONTINUOUS
 62
     2
 10
175.55
 20
129.25
 30
0.0
 40
0.2
 50
0.0
 51
90.0
  0
LINE
  8
0
  6
CONTINUOUS
 62
     2
 10
178.1
 20
134.95
 30
0.0
 11
182.4
 21
134.95
 31
0.0
  0
ARC
  8
0
  6
CONTINUOUS
 62
     2
 10
178.1
 20
134.75
 30
0.0
 40
0.2
 50
90.000477039
 51
269.99952394
  0
ARC
  8
0
  6
CONTINUOUS
 62
     2
 10
182.4
 20
134.75
 30
0.0
 40
0.2
 50
0.0
 51
90.0
  0
ARC
  8
0
  6
CONTINUOUS
 62
     2
 10
182.4
 20
134.75
 30
0.0
 40
0.2
 50
270.0
 51
0.0
  0
LINE
  8
0
  6
CONTINUOUS
 62
     2
 10
184.6
 20
134.95
 30
0.0
 11
188.9
 21
134.95
 31
0.0
  0
ARC
  8
0
  6
CONTINUOUS
 62
     2
 10
184.6
 20
134.75
 30
0.0
 40
0.2
 50
90.000477039
 51
269.99952394
  0
ARC
  8
0
  6
CONTINUOUS
 62
     2
 10
188.9
 20
134.75
 30
0.0
 40
0.2
 50
0.0
 51
90.0
  0
ARC
  8
0
  6
CONTINUOUS
 62
     2
 10
188.9
 20
134.75
 30
0.0
 40
0.2
 50
270.0
 51
0.0
  0
LINE
  8
0
  6
CONTINUOUS
 62
     2
 10
178.45
 20
129.05
 30
0.0
 11
182.05
 21
129.05
 31
0.0
  0
ARC
  8
0
  6
CONTINUOUS
 62
     2
 10
178.45
 20
129.25
 30
0.0
 40
0.2
 50
90.000278953
 51
269.999721047
  0
ARC
  8
0
  6
CONTINUOUS
 62
     2
 10
182.05
 20
129.25
 30
0.0
 40
0.2
 50
270.0
 51
0.0
  0
ARC
  8
0
  6
CONTINUOUS
 62
     2
 10
182.05
 20
129.25
 30
0.0
 40
0.2
 50
0.0
 51
90.0
  0
LINE
  8
0
  6
CONTINUOUS
 62
     2
 10
184.95
 20
129.05
 30
0.0
 11
188.55
 21
129.05
 31
0.0
  0
ARC
  8
0
  6
CONTINUOUS
 62
     2
 10
184.95
 20
129.25
 30
0.0
 40
0.2
 50
90.000278953
 51
269.999721047
  0
ARC
  8
0
  6
CONTINUOUS
 62
     2
 10
188.55
 20
129.25
 30
0.0
 40
0.2
 50
270.0
 51
0.0
  0
ARC
  8
0
  6
CONTINUOUS
 62
     2
 10
188.55
 20
129.25
 30
0.0
 40
0.2
 50
0.0
 51
90.0
  0
ARC
  8
0
  6
CONTINUOUS
 62
     2
 10
171.5
 20
135.0
 30
0.0
 40
0.5
 50
90.0
 51
180.0
  0
ARC
  8
0
  6
CONTINUOUS
 62
     2
 10
176.0
 20
135.0
 30
0.0
 40
0.5
 50
0.0
 51
90.0
  0
ARC
  8
0
  6
CONTINUOUS
 62
     2
 10
178.0
 20
135.0
 30
0.0
 40
0.5
 50
90.0
 51
180.0
  0
LINE
  8
0
  6
CONTINUOUS
 62
     2
 10
178.0
 20
135.5
 30
0.0
 11
182.5
 21
135.5
 31
0.0
  0
ARC
  8
0
  6
CONTINUOUS
 62
     2
 10
182.5
 20
135.0
 30
0.0
 40
0.5
 50
0.0
 51
90.0
  0
ARC
  8
0
  6
CONTINUOUS
 62
     2
 10
184.5
 20
135.0
 30
0.0
 40
0.5
 50
90.0
 51
180.0
  0
LINE
  8
0
  6
CONTINUOUS
 62
     2
 10
184.5
 20
135.5
 30
0.0
 11
189.0
 21
135.5
 31
0.0
  0
ARC
  8
0
  6
CONTINUOUS
 62
     2
 10
189.0
 20
135.0
 30
0.0
 40
0.5
 50
0.0
 51
90.0
  0
LINE
  8
0
  6
CONTINUOUS
 62
     2
 10
189.5
 20
129.45
 30
0.0
 11
184.0
 21
129.45
 31
0.0
  0
LINE
  8
0
  6
CONTINUOUS
 62
     2
 10
183.0
 20
129.45
 30
0.0
 11
177.5
 21
129.45
 31
0.0
  0
LINE
  8
0
  6
CONTINUOUS
 62
     2
 10
176.5
 20
129.45
 30
0.0
 11
171.0
 21
129.45
 31
0.0
  0
LINE
  8
0
  6
CONTINUOUS
 62
     2
 10
189.5
 20
134.55
 30
0.0
 11
184.0
 21
134.55
 31
0.0
  0
LINE
  8
0
  6
CONTINUOUS
 62
     2
 10
183.0
 20
134.55
 30
0.0
 11
177.5
 21
134.55
 31
0.0
  0
LINE
  8
0
  6
CONTINUOUS
 62
     2
 10
176.5
 20
134.55
 30
0.0
 11
171.0
 21
134.55
 31
0.0
  0
ARC
  8
0
  6
CONTINUOUS
 62
     2
 10
177.0
 20
127.5
 30
0.0
 40
0.5
 50
180.0
 51
0.0
  0
ARC
  8
0
  6
CONTINUOUS
 62
     2
 10
183.5
 20
127.5
 30
0.0
 40
0.5
 50
180.0
 51
0.0
  0
ARC
  8
0
  6
CONTINUOUS
 62
     2
 10
190.0
 20
127.5
 30
0.0
 40
0.5
 50
180.0
 51
0.0
  0
LINE
  8
0
  6
CONTINUOUS
 62
     2
 10
189.5
 20
135.0
 30
0.0
 11
189.5
 21
127.5
 31
0.0
  0
LINE
  8
0
  6
CONTINUOUS
 62
     2
 10
184.0
 20
127.5
 30
0.0
 11
184.0
 21
135.0
 31
0.0
  0
LINE
  8
0
  6
CONTINUOUS
 62
     2
 10
183.0
 20
135.0
 30
0.0
 11
183.0
 21
127.5
 31
0.0
  0
LINE
  8
0
  6
CONTINUOUS
 62
     2
 10
177.5
 20
127.5
 30
0.0
 11
177.5
 21
135.0
 31
0.0
  0
LINE
  8
0
  6
CONTINUOUS
 62
     2
 10
176.5
 20
135.0
 30
0.0
 11
176.5
 21
127.5
 31
0.0
  0
LINE
  8
0
  6
CONTINUOUS
 62
     2
 10
197.6
 20
134.95
 30
0.0
 11
201.9
 21
134.95
 31
0.0
  0
ARC
  8
0
  6
CONTINUOUS
 62
     2
 10
197.6
 20
134.75
 30
0.0
 40
0.2
 50
90.000477039
 51
269.99952394
  0
ARC
  8
0
  6
CONTINUOUS
 62
     2
 10
201.9
 20
134.75
 30
0.0
 40
0.2
 50
0.0
 51
90.0
  0
ARC
  8
0
  6
CONTINUOUS
 62
     2
 10
201.9
 20
134.75
 30
0.0
 40
0.2
 50
270.0
 51
0.0
  0
LINE
  8
0
  6
CONTINUOUS
 62
     2
 10
204.1
 20
134.95
 30
0.0
 11
208.4
 21
134.95
 31
0.0
  0
ARC
  8
0
  6
CONTINUOUS
 62
     2
 10
204.1
 20
134.75
 30
0.0
 40
0.2
 50
90.000477039
 51
269.99952394
  0
ARC
  8
0
  6
CONTINUOUS
 62
     2
 10
208.4
 20
134.75
 30
0.0
 40
0.2
 50
0.0
 51
90.0
  0
ARC
  8
0
  6
CONTINUOUS
 62
     2
 10
208.4
 20
134.75
 30
0.0
 40
0.2
 50
270.0
 51
0.0
  0
LINE
  8
0
  6
CONTINUOUS
 62
     2
 10
197.95
 20
129.05
 30
0.0
 11
201.55
 21
129.05
 31
0.0
  0
ARC
  8
0
  6
CONTINUOUS
 62
     2
 10
197.95
 20
129.25
 30
0.0
 40
0.2
 50
90.000278953
 51
269.999721047
  0
ARC
  8
0
  6
CONTINUOUS
 62
     2
 10
201.55
 20
129.25
 30
0.0
 40
0.2
 50
270.0
 51
0.0
  0
ARC
  8
0
  6
CONTINUOUS
 62
     2
 10
201.55
 20
129.25
 30
0.0
 40
0.2
 50
0.0
 51
90.0
  0
LINE
  8
0
  6
CONTINUOUS
 62
     2
 10
204.45
 20
129.05
 30
0.0
 11
208.05
 21
129.05
 31
0.0
  0
ARC
  8
0
  6
CONTINUOUS
 62
     2
 10
204.45
 20
129.25
 30
0.0
 40
0.2
 50
90.000278953
 51
269.999721047
  0
ARC
  8
0
  6
CONTINUOUS
 62
     2
 10
208.05
 20
129.25
 30
0.0
 40
0.2
 50
270.0
 51
0.0
  0
ARC
  8
0
  6
CONTINUOUS
 62
     2
 10
208.05
 20
129.25
 30
0.0
 40
0.2
 50
0.0
 51
90.0
  0
ARC
  8
0
  6
CONTINUOUS
 62
     2
 10
197.5
 20
135.0
 30
0.0
 40
0.5
 50
90.0
 51
180.0
  0
LINE
  8
0
  6
CONTINUOUS
 62
     2
 10
202.0
 20
135.5
 30
0.0
 11
197.5
 21
135.5
 31
0.0
  0
ARC
  8
0
  6
CONTINUOUS
 62
     2
 10
202.0
 20
135.0
 30
0.0
 40
0.5
 50
0.0
 51
90.0
  0
ARC
  8
0
  6
CONTINUOUS
 62
     2
 10
204.0
 20
135.0
 30
0.0
 40
0.5
 50
90.0
 51
180.0
  0
ARC
  8
0
  6
CONTINUOUS
 62
     2
 10
208.5
 20
135.0
 30
0.0
 40
0.5
 50
0.0
 51
90.0
  0
LINE
  8
0
  6
CONTINUOUS
 62
     2
 10
209.0
 20
129.45
 30
0.0
 11
203.5
 21
129.45
 31
0.0
  0
LINE
  8
0
  6
CONTINUOUS
 62
     2
 10
202.5
 20
129.45
 30
0.0
 11
197.0
 21
129.45
 31
0.0
  0
LINE
  8
0
  6
CONTINUOUS
 62
     2
 10
209.0
 20
134.55
 30
0.0
 11
203.5
 21
134.55
 31
0.0
  0
LINE
  8
0
  6
CONTINUOUS
 62
     2
 10
202.5
 20
134.55
 30
0.0
 11
197.0
 21
134.55
 31
0.0
  0
ARC
  8
0
  6
CONTINUOUS
 62
     2
 10
203.0
 20
127.5
 30
0.0
 40
0.5
 50
180.0
 51
0.0
  0
LINE
  8
0
  6
CONTINUOUS
 62
     2
 10
203.5
 20
127.5
 30
0.0
 11
203.5
 21
135.0
 31
0.0
  0
LINE
  8
0
  6
CONTINUOUS
 62
     2
 10
202.5
 20
135.0
 30
0.0
 11
202.5
 21
127.5
 31
0.0
  0
LINE
  8
0
  6
CONTINUOUS
 62
     2
 10
197.0
 20
127.5
 30
0.0
 11
197.0
 21
135.0
 31
0.0
  0
LINE
  8
0
  6
CONTINUOUS
 62
     2
 10
191.1
 20
134.95
 30
0.0
 11
195.4
 21
134.95
 31
0.0
  0
ARC
  8
0
  6
CONTINUOUS
 62
     2
 10
191.1
 20
134.75
 30
0.0
 40
0.2
 50
90.000477039
 51
269.99952394
  0
ARC
  8
0
  6
CONTINUOUS
 62
     2
 10
195.4
 20
134.75
 30
0.0
 40
0.2
 50
0.0
 51
90.0
  0
ARC
  8
0
  6
CONTINUOUS
 62
     2
 10
195.4
 20
134.75
 30
0.0
 40
0.2
 50
270.0
 51
0.0
  0
LINE
  8
0
  6
CONTINUOUS
 62
     2
 10
191.45
 20
129.05
 30
0.0
 11
195.05
 21
129.05
 31
0.0
  0
ARC
  8
0
  6
CONTINUOUS
 62
     2
 10
191.45
 20
129.25
 30
0.0
 40
0.2
 50
90.000278953
 51
269.999721047
  0
ARC
  8
0
  6
CONTINUOUS
 62
     2
 10
195.05
 20
129.25
 30
0.0
 40
0.2
 50
270.0
 51
0.0
  0
ARC
  8
0
  6
CONTINUOUS
 62
     2
 10
195.05
 20
129.25
 30
0.0
 40
0.2
 50
0.0
 51
90.0
  0
ARC
  8
0
  6
CONTINUOUS
 62
     2
 10
191.0
 20
135.0
 30
0.0
 40
0.5
 50
90.0
 51
180.0
  0
LINE
  8
0
  6
CONTINUOUS
 62
     2
 10
195.5
 20
135.5
 30
0.0
 11
191.0
 21
135.5
 31
0.0
  0
ARC
  8
0
  6
CONTINUOUS
 62
     2
 10
195.5
 20
135.0
 30
0.0
 40
0.5
 50
0.0
 51
90.0
  0
LINE
  8
0
  6
CONTINUOUS
 62
     2
 10
196.0
 20
129.45
 30
0.0
 11
190.5
 21
129.45
 31
0.0
  0
LINE
  8
0
  6
CONTINUOUS
 62
     2
 10
196.0
 20
134.55
 30
0.0
 11
190.5
 21
134.55
 31
0.0
  0
ARC
  8
0
  6
CONTINUOUS
 62
     2
 10
196.5
 20
127.5
 30
0.0
 40
0.5
 50
180.0
 51
0.0
  0
LINE
  8
0
  6
CONTINUOUS
 62
     2
 10
196.0
 20
135.0
 30
0.0
 11
196.0
 21
127.5
 31
0.0
  0
LINE
  8
0
  6
CONTINUOUS
 62
     2
 10
190.5
 20
127.5
 30
0.0
 11
190.5
 21
135.0
 31
0.0
  0
LINE
  8
0
  6
CONTINUOUS
 62
     2
 10
171.0
 20
135.0
 30
0.0
 11
171.0
 21
127.75
 31
0.0
  0
ARC
  8
0
  6
CONTINUOUS
 62
     2
 10
170.25
 20
127.75
 30
0.0
 40
0.75
 50
180.0
 51
0.0
  0
LINE
  8
0
  6
CONTINUOUS
 62
     2
 10
209.0
 20
135.0
 30
0.0
 11
209.0
 21
127.75
 31
0.0
  0
ARC
  8
0
  6
CONTINUOUS
 62
     2
 10
209.75
 20
127.75
 30
0.0
 40
0.75
 50
180.0
 51
0.0
  0
LINE
  8
0
  6
CONTINUOUS
 62
     2
 10
169.5
 20
135.75
 30
0.0
 11
169.5
 21
127.75
 31
0.0
  0
ARC
  8
0
  6
CONTINUOUS
 62
     2
 10
170.25
 20
135.75
 30
0.0
 40
0.75
 50
90.0
 51
180.0
  0
LINE
  8
0
  6
CONTINUOUS
 62
     2
 10
174.75
 20
136.5
 30
0.0
 11
179.25
 21
136.5
 31
0.0
  0
LINE
  8
0
  6
CONTINUOUS
 62
     2
 10
170.25
 20
136.5
 30
0.0
 11
172.0
 21
136.5
 31
0.0
  0
ARC
  8
0
  6
CONTINUOUS
 62
     2
 10
172.0
 20
137.25
 30
0.0
 40
0.75
 50
270.0
 51
0.0
  0
LINE
  8
0
  6
CONTINUOUS
 62
     2
 10
171.5
 20
135.5
 30
0.0
 11
176.0
 21
135.5
 31
0.0
  0
LINE
  8
0
  6
CONTINUOUS
 62
     2
 10
200.75
 20
136.5
 30
0.0
 11
205.25
 21
136.5
 31
0.0
  0
LINE
  8
0
  6
CONTINUOUS
 62
     2
 10
208.5
 20
135.5
 30
0.0
 11
204.0
 21
135.5
 31
0.0
  0
LINE
  8
0
  6
CONTINUOUS
 62
     2
 10
210.5
 20
135.75
 30
0.0
 11
210.5
 21
127.75
 31
0.0
  0
ARC
  8
0
  6
CONTINUOUS
 62
     2
 10
209.75
 20
135.75
 30
0.0
 40
0.75
 50
0.0
 51
90.0
  0
LINE
  8
0
  6
CONTINUOUS
 62
     2
 10
208.0
 20
136.5
 30
0.0
 11
209.75
 21
136.5
 31
0.0
  0
ARC
  8
0
  6
CONTINUOUS
 62
     2
 10
208.0
 20
137.25
 30
0.0
 40
0.75
 50
180.0
 51
270.0
  0
ARC
  8
0
  6
CONTINUOUS
 62
     2
 10
206.75
 20
144.5
 30
0.0
 40
0.5
 50
0.0
 51
180.0
  0
ARC
  8
0
  6
CONTINUOUS
 62
     2
 10
206.5
 20
144.25
 30
0.0
 40
0.75
 50
79.415775576
 51
180.0
  0
ARC
  8
0
  6
CONTINUOUS
 62
     2
 10
206.75
 20
137.0
 30
0.0
 40
0.5
 50
180.0
 51
0.0
  0
LINE
  8
0
  6
CONTINUOUS
 62
     2
 10
205.75
 20
137.0
 30
0.0
 11
205.75
 21
144.25
 31
0.0
  0
LINE
  8
0
  6
CONTINUOUS
 62
     2
 10
206.25
 20
136.957
 30
0.0
 11
206.25
 21
144.5
 31
0.0
  0
LINE
  8
0
  6
CONTINUOUS
 62
     2
 10
207.25
 20
144.5
 30
0.0
 11
207.25
 21
137.0
 31
0.0
  0
ARC
  8
0
  6
CONTINUOUS
 62
     2
 10
173.25
 20
144.5
 30
0.0
 40
0.5
 50
0.0
 51
180.0
  0
ARC
  8
0
  6
CONTINUOUS
 62
     2
 10
173.5
 20
144.25
 30
0.0
 40
0.75
 50
0.0
 51
100.584224424
  0
ARC
  8
0
  6
CONTINUOUS
 62
     2
 10
173.25
 20
137.0
 30
0.0
 40
0.5
 50
180.0
 51
0.0
  0
LINE
  8
0
  6
CONTINUOUS
 62
     2
 10
174.25
 20
137.0
 30
0.0
 11
174.25
 21
144.25
 31
0.0
  0
LINE
  8
0
  6
CONTINUOUS
 62
     2
 10
173.75
 20
136.957
 30
0.0
 11
173.75
 21
144.5
 31
0.0
  0
LINE
  8
0
  6
CONTINUOUS
 62
     2
 10
172.75
 20
144.5
 30
0.0
 11
172.75
 21
137.0
 31
0.0
  0
TEXT
  8
0
  6
CONTINUOUS
 62
     2
 10
176.2
 20
145.5
 30
0.0
 40
2.0
  1
１
 50
0.0
 41
0.8
 51
0.0
  7
KANJI3
  0
TEXT
  8
0
  6
CONTINUOUS
 62
     2
 10
182.7
 20
145.5
 30
0.0
 40
2.0
  1
２
 50
0.0
 41
0.8
 51
0.0
  7
KANJI3
  0
TEXT
  8
0
  6
CONTINUOUS
 62
     2
 10
189.2
 20
145.5
 30
0.0
 40
2.0
  1
３
 50
0.0
 41
0.8
 51
0.0
  7
KANJI3
  0
TEXT
  8
0
  6
CONTINUOUS
 62
     2
 10
195.7
 20
145.5
 30
0.0
 40
2.0
  1
４
 50
0.0
 41
0.8
 51
0.0
  7
KANJI3
  0
TEXT
  8
0
  6
CONTINUOUS
 62
     2
 10
202.2
 20
145.5
 30
0.0
 40
2.0
  1
５
 50
0.0
 41
0.8
 51
0.0
  7
KANJI3
  0
TEXT
  8
0
  6
CONTINUOUS
 62
     2
 10
204.85
 20
124.500001601
 30
0.0
 40
2.0
  1
１１
 50
0.0
 41
0.8
 51
0.0
  7
KANJI3
  0
TEXT
  8
0
  6
CONTINUOUS
 62
     2
 10
192.45
 20
124.500001601
 30
0.0
 40
2.0
  1
９
 50
0.0
 41
0.8
 51
0.0
  7
KANJI3
  0
TEXT
  8
0
  6
CONTINUOUS
 62
     2
 10
198.35
 20
124.500001601
 30
0.0
 40
2.0
  1
１０
 50
0.0
 41
0.8
 51
0.0
  7
KANJI3
  0
TEXT
  8
0
  6
CONTINUOUS
 62
     2
 10
185.95
 20
124.500001601
 30
0.0
 40
2.0
  1
８
 50
0.0
 41
0.8
 51
0.0
  7
KANJI3
  0
TEXT
  8
0
  6
CONTINUOUS
 62
     2
 10
172.95
 20
124.500001601
 30
0.0
 40
2.0
  1
６
 50
0.0
 41
0.8
 51
0.0
  7
KANJI3
  0
TEXT
  8
0
  6
CONTINUOUS
 62
     2
 10
179.45
 20
124.500001601
 30
0.0
 40
2.0
  1
７
 50
0.0
 41
0.8
 51
0.0
  7
KANJI3
  0
LINE
  8
0
  6
LTYPE3
 62
     1
 10
173.3
 20
145.0
 30
0.0
 11
206.63776053
 21
145.0
 31
0.0
  0
LINE
  8
0
  6
LTYPE3
 62
     1
 10
209.75
 20
127.0
 30
0.0
 11
170.250002697
 21
127.0
 31
0.0
  0
CIRCLE
  8
0
  6
CONTINUOUS
 62
     2
 10
177.0
 20
140.0
 30
0.0
 40
1.6625
  0
LINE
  8
0
  6
CONTINUOUS
 62
     2
 10
176.76725
 20
139.085625
 30
0.0
 11
177.23275
 21
139.085625
 31
0.0
  0
LINE
  8
0
  6
CONTINUOUS
 62
     2
 10
177.23275
 20
140.914375
 30
0.0
 11
176.76725
 21
140.914375
 31
0.0
  0
LINE
  8
0
  6
CONTINUOUS
 62
     2
 10
177.23275
 20
139.085625
 30
0.0
 11
177.23275
 21
139.2685
 31
0.0
  0
LINE
  8
0
  6
CONTINUOUS
 62
     2
 10
177.7315
 20
139.76725
 30
0.0
 11
178.646126875
 21
139.76725
 31
0.0
  0
ARC
  8
0
  6
CONTINUOUS
 62
     2
 10
177.7315
 20
139.2685
 30
0.0
 40
0.49875
 50
90.0
 51
180.0
  0
LINE
  8
0
  6
CONTINUOUS
 62
     2
 10
176.76725
 20
139.2685
 30
0.0
 11
176.76725
 21
139.085625
 31
0.0
  0
LINE
  8
0
  6
CONTINUOUS
 62
     2
 10
175.37075
 20
139.76725
 30
0.0
 11
176.2685
 21
139.76725
 31
0.0
  0
ARC
  8
0
  6
CONTINUOUS
 62
     2
 10
176.2685
 20
139.2685
 30
0.0
 40
0.49875
 50
0.0
 51
90.0
  0
LINE
  8
0
  6
CONTINUOUS
 62
     2
 10
176.76725
 20
140.914375
 30
0.0
 11
176.76725
 21
140.7315
 31
0.0
  0
LINE
  8
0
  6
CONTINUOUS
 62
     2
 10
176.2685
 20
140.23275
 30
0.0
 11
175.353873125
 21
140.23275
 31
0.0
  0
ARC
  8
0
  6
CONTINUOUS
 62
     2
 10
176.2685
 20
140.7315
 30
0.0
 40
0.49875
 50
270.0
 51
0.0
  0
LINE
  8
0
  6
CONTINUOUS
 62
     2
 10
177.23275
 20
140.7315
 30
0.0
 11
177.23275
 21
140.914375
 31
0.0
  0
LINE
  8
0
  6
CONTINUOUS
 62
     2
 10
178.646126875
 20
140.23275
 30
0.0
 11
177.7315
 21
140.23275
 31
0.0
  0
ARC
  8
0
  6
CONTINUOUS
 62
     2
 10
177.7315
 20
140.7315
 30
0.0
 40
0.49875
 50
180.0
 51
270.0
  0
CIRCLE
  8
0
  6
CONTINUOUS
 62
     2
 10
183.5
 20
140.0
 30
0.0
 40
1.6625
  0
LINE
  8
0
  6
CONTINUOUS
 62
     2
 10
183.26725
 20
139.085625
 30
0.0
 11
183.73275
 21
139.085625
 31
0.0
  0
LINE
  8
0
  6
CONTINUOUS
 62
     2
 10
183.73275
 20
140.914375
 30
0.0
 11
183.26725
 21
140.914375
 31
0.0
  0
LINE
  8
0
  6
CONTINUOUS
 62
     2
 10
183.73275
 20
139.085625
 30
0.0
 11
183.73275
 21
139.2685
 31
0.0
  0
LINE
  8
0
  6
CONTINUOUS
 62
     2
 10
184.2315
 20
139.76725
 30
0.0
 11
185.146126875
 21
139.76725
 31
0.0
  0
ARC
  8
0
  6
CONTINUOUS
 62
     2
 10
184.2315
 20
139.2685
 30
0.0
 40
0.49875
 50
90.0
 51
180.0
  0
LINE
  8
0
  6
CONTINUOUS
 62
     2
 10
183.26725
 20
139.2685
 30
0.0
 11
183.26725
 21
139.085625
 31
0.0
  0
LINE
  8
0
  6
CONTINUOUS
 62
     2
 10
181.87075
 20
139.76725
 30
0.0
 11
182.7685
 21
139.76725
 31
0.0
  0
ARC
  8
0
  6
CONTINUOUS
 62
     2
 10
182.7685
 20
139.2685
 30
0.0
 40
0.49875
 50
0.0
 51
90.0
  0
LINE
  8
0
  6
CONTINUOUS
 62
     2
 10
183.26725
 20
140.914375
 30
0.0
 11
183.26725
 21
140.7315
 31
0.0
  0
LINE
  8
0
  6
CONTINUOUS
 62
     2
 10
182.7685
 20
140.23275
 30
0.0
 11
181.853873125
 21
140.23275
 31
0.0
  0
ARC
  8
0
  6
CONTINUOUS
 62
     2
 10
182.7685
 20
140.7315
 30
0.0
 40
0.49875
 50
270.0
 51
0.0
  0
LINE
  8
0
  6
CONTINUOUS
 62
     2
 10
183.73275
 20
140.7315
 30
0.0
 11
183.73275
 21
140.914375
 31
0.0
  0
LINE
  8
0
  6
CONTINUOUS
 62
     2
 10
185.146126875
 20
140.23275
 30
0.0
 11
184.2315
 21
140.23275
 31
0.0
  0
ARC
  8
0
  6
CONTINUOUS
 62
     2
 10
184.2315
 20
140.7315
 30
0.0
 40
0.49875
 50
180.0
 51
270.0
  0
CIRCLE
  8
0
  6
CONTINUOUS
 62
     2
 10
190.0
 20
140.0
 30
0.0
 40
1.6625
  0
LINE
  8
0
  6
CONTINUOUS
 62
     2
 10
189.76725
 20
139.085625
 30
0.0
 11
190.23275
 21
139.085625
 31
0.0
  0
LINE
  8
0
  6
CONTINUOUS
 62
     2
 10
190.23275
 20
140.914375
 30
0.0
 11
189.76725
 21
140.914375
 31
0.0
  0
LINE
  8
0
  6
CONTINUOUS
 62
     2
 10
190.23275
 20
139.085625
 30
0.0
 11
190.23275
 21
139.2685
 31
0.0
  0
LINE
  8
0
  6
CONTINUOUS
 62
     2
 10
190.7315
 20
139.76725
 30
0.0
 11
191.646126875
 21
139.76725
 31
0.0
  0
ARC
  8
0
  6
CONTINUOUS
 62
     2
 10
190.7315
 20
139.2685
 30
0.0
 40
0.49875
 50
90.0
 51
180.0
  0
LINE
  8
0
  6
CONTINUOUS
 62
     2
 10
189.76725
 20
139.2685
 30
0.0
 11
189.76725
 21
139.085625
 31
0.0
  0
LINE
  8
0
  6
CONTINUOUS
 62
     2
 10
188.37075
 20
139.76725
 30
0.0
 11
189.2685
 21
139.76725
 31
0.0
  0
ARC
  8
0
  6
CONTINUOUS
 62
     2
 10
189.2685
 20
139.2685
 30
0.0
 40
0.49875
 50
0.0
 51
90.0
  0
LINE
  8
0
  6
CONTINUOUS
 62
     2
 10
189.76725
 20
140.914375
 30
0.0
 11
189.76725
 21
140.7315
 31
0.0
  0
LINE
  8
0
  6
CONTINUOUS
 62
     2
 10
189.2685
 20
140.23275
 30
0.0
 11
188.353873125
 21
140.23275
 31
0.0
  0
ARC
  8
0
  6
CONTINUOUS
 62
     2
 10
189.2685
 20
140.7315
 30
0.0
 40
0.49875
 50
270.0
 51
0.0
  0
LINE
  8
0
  6
CONTINUOUS
 62
     2
 10
190.23275
 20
140.7315
 30
0.0
 11
190.23275
 21
140.914375
 31
0.0
  0
LINE
  8
0
  6
CONTINUOUS
 62
     2
 10
191.646126875
 20
140.23275
 30
0.0
 11
190.7315
 21
140.23275
 31
0.0
  0
ARC
  8
0
  6
CONTINUOUS
 62
     2
 10
190.7315
 20
140.7315
 30
0.0
 40
0.49875
 50
180.0
 51
270.0
  0
CIRCLE
  8
0
  6
CONTINUOUS
 62
     2
 10
173.75
 20
132.0
 30
0.0
 40
1.6625
  0
LINE
  8
0
  6
CONTINUOUS
 62
     2
 10
173.51725
 20
131.085625
 30
0.0
 11
173.98275
 21
131.085625
 31
0.0
  0
LINE
  8
0
  6
CONTINUOUS
 62
     2
 10
173.98275
 20
132.914375
 30
0.0
 11
173.51725
 21
132.914375
 31
0.0
  0
LINE
  8
0
  6
CONTINUOUS
 62
     2
 10
173.98275
 20
131.085625
 30
0.0
 11
173.98275
 21
131.2685
 31
0.0
  0
LINE
  8
0
  6
CONTINUOUS
 62
     2
 10
174.4815
 20
131.76725
 30
0.0
 11
175.396126875
 21
131.76725
 31
0.0
  0
ARC
  8
0
  6
CONTINUOUS
 62
     2
 10
174.4815
 20
131.2685
 30
0.0
 40
0.49875
 50
90.0
 51
180.0
  0
LINE
  8
0
  6
CONTINUOUS
 62
     2
 10
173.51725
 20
131.2685
 30
0.0
 11
173.51725
 21
131.085625
 31
0.0
  0
LINE
  8
0
  6
CONTINUOUS
 62
     2
 10
172.12075
 20
131.76725
 30
0.0
 11
173.0185
 21
131.76725
 31
0.0
  0
ARC
  8
0
  6
CONTINUOUS
 62
     2
 10
173.0185
 20
131.2685
 30
0.0
 40
0.49875
 50
0.0
 51
90.0
  0
LINE
  8
0
  6
CONTINUOUS
 62
     2
 10
173.51725
 20
132.914375
 30
0.0
 11
173.51725
 21
132.7315
 31
0.0
  0
LINE
  8
0
  6
CONTINUOUS
 62
     2
 10
173.0185
 20
132.23275
 30
0.0
 11
172.103873125
 21
132.23275
 31
0.0
  0
ARC
  8
0
  6
CONTINUOUS
 62
     2
 10
173.0185
 20
132.7315
 30
0.0
 40
0.49875
 50
270.0
 51
0.0
  0
LINE
  8
0
  6
CONTINUOUS
 62
     2
 10
173.98275
 20
132.7315
 30
0.0
 11
173.98275
 21
132.914375
 31
0.0
  0
LINE
  8
0
  6
CONTINUOUS
 62
     2
 10
175.396126875
 20
132.23275
 30
0.0
 11
174.4815
 21
132.23275
 31
0.0
  0
ARC
  8
0
  6
CONTINUOUS
 62
     2
 10
174.4815
 20
132.7315
 30
0.0
 40
0.49875
 50
180.0
 51
270.0
  0
CIRCLE
  8
0
  6
CONTINUOUS
 62
     2
 10
180.25
 20
132.0
 30
0.0
 40
1.6625
  0
LINE
  8
0
  6
CONTINUOUS
 62
     2
 10
180.01725
 20
131.085625
 30
0.0
 11
180.48275
 21
131.085625
 31
0.0
  0
LINE
  8
0
  6
CONTINUOUS
 62
     2
 10
180.48275
 20
132.914375
 30
0.0
 11
180.01725
 21
132.914375
 31
0.0
  0
LINE
  8
0
  6
CONTINUOUS
 62
     2
 10
180.48275
 20
131.085625
 30
0.0
 11
180.48275
 21
131.2685
 31
0.0
  0
LINE
  8
0
  6
CONTINUOUS
 62
     2
 10
180.9815
 20
131.76725
 30
0.0
 11
181.896126875
 21
131.76725
 31
0.0
  0
ARC
  8
0
  6
CONTINUOUS
 62
     2
 10
180.9815
 20
131.2685
 30
0.0
 40
0.49875
 50
90.0
 51
180.0
  0
LINE
  8
0
  6
CONTINUOUS
 62
     2
 10
180.01725
 20
131.2685
 30
0.0
 11
180.01725
 21
131.085625
 31
0.0
  0
LINE
  8
0
  6
CONTINUOUS
 62
     2
 10
178.62075
 20
131.76725
 30
0.0
 11
179.5185
 21
131.76725
 31
0.0
  0
ARC
  8
0
  6
CONTINUOUS
 62
     2
 10
179.5185
 20
131.2685
 30
0.0
 40
0.49875
 50
0.0
 51
90.0
  0
LINE
  8
0
  6
CONTINUOUS
 62
     2
 10
180.01725
 20
132.914375
 30
0.0
 11
180.01725
 21
132.7315
 31
0.0
  0
LINE
  8
0
  6
CONTINUOUS
 62
     2
 10
179.5185
 20
132.23275
 30
0.0
 11
178.603873125
 21
132.23275
 31
0.0
  0
ARC
  8
0
  6
CONTINUOUS
 62
     2
 10
179.5185
 20
132.7315
 30
0.0
 40
0.49875
 50
270.0
 51
0.0
  0
LINE
  8
0
  6
CONTINUOUS
 62
     2
 10
180.48275
 20
132.7315
 30
0.0
 11
180.48275
 21
132.914375
 31
0.0
  0
LINE
  8
0
  6
CONTINUOUS
 62
     2
 10
181.896126875
 20
132.23275
 30
0.0
 11
180.9815
 21
132.23275
 31
0.0
  0
ARC
  8
0
  6
CONTINUOUS
 62
     2
 10
180.9815
 20
132.7315
 30
0.0
 40
0.49875
 50
180.0
 51
270.0
  0
CIRCLE
  8
0
  6
CONTINUOUS
 62
     2
 10
186.75
 20
132.0
 30
0.0
 40
1.6625
  0
LINE
  8
0
  6
CONTINUOUS
 62
     2
 10
186.51725
 20
131.085625
 30
0.0
 11
186.98275
 21
131.085625
 31
0.0
  0
LINE
  8
0
  6
CONTINUOUS
 62
     2
 10
186.98275
 20
132.914375
 30
0.0
 11
186.51725
 21
132.914375
 31
0.0
  0
LINE
  8
0
  6
CONTINUOUS
 62
     2
 10
186.98275
 20
131.085625
 30
0.0
 11
186.98275
 21
131.2685
 31
0.0
  0
LINE
  8
0
  6
CONTINUOUS
 62
     2
 10
187.4815
 20
131.76725
 30
0.0
 11
188.396126875
 21
131.76725
 31
0.0
  0
ARC
  8
0
  6
CONTINUOUS
 62
     2
 10
187.4815
 20
131.2685
 30
0.0
 40
0.49875
 50
90.0
 51
180.0
  0
LINE
  8
0
  6
CONTINUOUS
 62
     2
 10
186.51725
 20
131.2685
 30
0.0
 11
186.51725
 21
131.085625
 31
0.0
  0
LINE
  8
0
  6
CONTINUOUS
 62
     2
 10
185.12075
 20
131.76725
 30
0.0
 11
186.0185
 21
131.76725
 31
0.0
  0
ARC
  8
0
  6
CONTINUOUS
 62
     2
 10
186.0185
 20
131.2685
 30
0.0
 40
0.49875
 50
0.0
 51
90.0
  0
LINE
  8
0
  6
CONTINUOUS
 62
     2
 10
186.51725
 20
132.914375
 30
0.0
 11
186.51725
 21
132.7315
 31
0.0
  0
LINE
  8
0
  6
CONTINUOUS
 62
     2
 10
186.0185
 20
132.23275
 30
0.0
 11
185.103873125
 21
132.23275
 31
0.0
  0
ARC
  8
0
  6
CONTINUOUS
 62
     2
 10
186.0185
 20
132.7315
 30
0.0
 40
0.49875
 50
270.0
 51
0.0
  0
LINE
  8
0
  6
CONTINUOUS
 62
     2
 10
186.98275
 20
132.7315
 30
0.0
 11
186.98275
 21
132.914375
 31
0.0
  0
LINE
  8
0
  6
CONTINUOUS
 62
     2
 10
188.396126875
 20
132.23275
 30
0.0
 11
187.4815
 21
132.23275
 31
0.0
  0
ARC
  8
0
  6
CONTINUOUS
 62
     2
 10
187.4815
 20
132.7315
 30
0.0
 40
0.49875
 50
180.0
 51
270.0
  0
CIRCLE
  8
0
  6
CONTINUOUS
 62
     2
 10
193.25
 20
132.0
 30
0.0
 40
1.6625
  0
LINE
  8
0
  6
CONTINUOUS
 62
     2
 10
193.01725
 20
131.085625
 30
0.0
 11
193.48275
 21
131.085625
 31
0.0
  0
LINE
  8
0
  6
CONTINUOUS
 62
     2
 10
193.48275
 20
132.914375
 30
0.0
 11
193.01725
 21
132.914375
 31
0.0
  0
LINE
  8
0
  6
CONTINUOUS
 62
     2
 10
193.48275
 20
131.085625
 30
0.0
 11
193.48275
 21
131.2685
 31
0.0
  0
LINE
  8
0
  6
CONTINUOUS
 62
     2
 10
193.9815
 20
131.76725
 30
0.0
 11
194.896126875
 21
131.76725
 31
0.0
  0
ARC
  8
0
  6
CONTINUOUS
 62
     2
 10
193.9815
 20
131.2685
 30
0.0
 40
0.49875
 50
90.0
 51
180.0
  0
LINE
  8
0
  6
CONTINUOUS
 62
     2
 10
193.01725
 20
131.2685
 30
0.0
 11
193.01725
 21
131.085625
 31
0.0
  0
LINE
  8
0
  6
CONTINUOUS
 62
     2
 10
191.62075
 20
131.76725
 30
0.0
 11
192.5185
 21
131.76725
 31
0.0
  0
ARC
  8
0
  6
CONTINUOUS
 62
     2
 10
192.5185
 20
131.2685
 30
0.0
 40
0.49875
 50
0.0
 51
90.0
  0
LINE
  8
0
  6
CONTINUOUS
 62
     2
 10
193.01725
 20
132.914375
 30
0.0
 11
193.01725
 21
132.7315
 31
0.0
  0
LINE
  8
0
  6
CONTINUOUS
 62
     2
 10
192.5185
 20
132.23275
 30
0.0
 11
191.603873125
 21
132.23275
 31
0.0
  0
ARC
  8
0
  6
CONTINUOUS
 62
     2
 10
192.5185
 20
132.7315
 30
0.0
 40
0.49875
 50
270.0
 51
0.0
  0
LINE
  8
0
  6
CONTINUOUS
 62
     2
 10
193.48275
 20
132.7315
 30
0.0
 11
193.48275
 21
132.914375
 31
0.0
  0
LINE
  8
0
  6
CONTINUOUS
 62
     2
 10
194.896126875
 20
132.23275
 30
0.0
 11
193.9815
 21
132.23275
 31
0.0
  0
ARC
  8
0
  6
CONTINUOUS
 62
     2
 10
193.9815
 20
132.7315
 30
0.0
 40
0.49875
 50
180.0
 51
270.0
  0
CIRCLE
  8
0
  6
CONTINUOUS
 62
     2
 10
196.5
 20
140.0
 30
0.0
 40
1.6625
  0
LINE
  8
0
  6
CONTINUOUS
 62
     2
 10
196.26725
 20
139.085625
 30
0.0
 11
196.73275
 21
139.085625
 31
0.0
  0
LINE
  8
0
  6
CONTINUOUS
 62
     2
 10
196.73275
 20
140.914375
 30
0.0
 11
196.26725
 21
140.914375
 31
0.0
  0
LINE
  8
0
  6
CONTINUOUS
 62
     2
 10
196.73275
 20
139.085625
 30
0.0
 11
196.73275
 21
139.2685
 31
0.0
  0
LINE
  8
0
  6
CONTINUOUS
 62
     2
 10
197.2315
 20
139.76725
 30
0.0
 11
198.146126875
 21
139.76725
 31
0.0
  0
ARC
  8
0
  6
CONTINUOUS
 62
     2
 10
197.2315
 20
139.2685
 30
0.0
 40
0.49875
 50
90.0
 51
180.0
  0
LINE
  8
0
  6
CONTINUOUS
 62
     2
 10
196.26725
 20
139.2685
 30
0.0
 11
196.26725
 21
139.085625
 31
0.0
  0
LINE
  8
0
  6
CONTINUOUS
 62
     2
 10
194.87075
 20
139.76725
 30
0.0
 11
195.7685
 21
139.76725
 31
0.0
  0
ARC
  8
0
  6
CONTINUOUS
 62
     2
 10
195.7685
 20
139.2685
 30
0.0
 40
0.49875
 50
0.0
 51
90.0
  0
LINE
  8
0
  6
CONTINUOUS
 62
     2
 10
196.26725
 20
140.914375
 30
0.0
 11
196.26725
 21
140.7315
 31
0.0
  0
LINE
  8
0
  6
CONTINUOUS
 62
     2
 10
195.7685
 20
140.23275
 30
0.0
 11
194.853873125
 21
140.23275
 31
0.0
  0
ARC
  8
0
  6
CONTINUOUS
 62
     2
 10
195.7685
 20
140.7315
 30
0.0
 40
0.49875
 50
270.0
 51
0.0
  0
LINE
  8
0
  6
CONTINUOUS
 62
     2
 10
196.73275
 20
140.7315
 30
0.0
 11
196.73275
 21
140.914375
 31
0.0
  0
LINE
  8
0
  6
CONTINUOUS
 62
     2
 10
198.146126875
 20
140.23275
 30
0.0
 11
197.2315
 21
140.23275
 31
0.0
  0
ARC
  8
0
  6
CONTINUOUS
 62
     2
 10
197.2315
 20
140.7315
 30
0.0
 40
0.49875
 50
180.0
 51
270.0
  0
CIRCLE
  8
0
  6
CONTINUOUS
 62
     2
 10
203.0
 20
140.0
 30
0.0
 40
1.6625
  0
LINE
  8
0
  6
CONTINUOUS
 62
     2
 10
202.76725
 20
139.085625
 30
0.0
 11
203.23275
 21
139.085625
 31
0.0
  0
LINE
  8
0
  6
CONTINUOUS
 62
     2
 10
203.23275
 20
140.914375
 30
0.0
 11
202.76725
 21
140.914375
 31
0.0
  0
LINE
  8
0
  6
CONTINUOUS
 62
     2
 10
203.23275
 20
139.085625
 30
0.0
 11
203.23275
 21
139.2685
 31
0.0
  0
LINE
  8
0
  6
CONTINUOUS
 62
     2
 10
203.7315
 20
139.76725
 30
0.0
 11
204.646126875
 21
139.76725
 31
0.0
  0
ARC
  8
0
  6
CONTINUOUS
 62
     2
 10
203.7315
 20
139.2685
 30
0.0
 40
0.49875
 50
90.0
 51
180.0
  0
LINE
  8
0
  6
CONTINUOUS
 62
     2
 10
202.76725
 20
139.2685
 30
0.0
 11
202.76725
 21
139.085625
 31
0.0
  0
LINE
  8
0
  6
CONTINUOUS
 62
     2
 10
201.37075
 20
139.76725
 30
0.0
 11
202.2685
 21
139.76725
 31
0.0
  0
ARC
  8
0
  6
CONTINUOUS
 62
     2
 10
202.2685
 20
139.2685
 30
0.0
 40
0.49875
 50
0.0
 51
90.0
  0
LINE
  8
0
  6
CONTINUOUS
 62
     2
 10
202.76725
 20
140.914375
 30
0.0
 11
202.76725
 21
140.7315
 31
0.0
  0
LINE
  8
0
  6
CONTINUOUS
 62
     2
 10
202.2685
 20
140.23275
 30
0.0
 11
201.353873125
 21
140.23275
 31
0.0
  0
ARC
  8
0
  6
CONTINUOUS
 62
     2
 10
202.2685
 20
140.7315
 30
0.0
 40
0.49875
 50
270.0
 51
0.0
  0
LINE
  8
0
  6
CONTINUOUS
 62
     2
 10
203.23275
 20
140.7315
 30
0.0
 11
203.23275
 21
140.914375
 31
0.0
  0
LINE
  8
0
  6
CONTINUOUS
 62
     2
 10
204.646126875
 20
140.23275
 30
0.0
 11
203.7315
 21
140.23275
 31
0.0
  0
ARC
  8
0
  6
CONTINUOUS
 62
     2
 10
203.7315
 20
140.7315
 30
0.0
 40
0.49875
 50
180.0
 51
270.0
  0
CIRCLE
  8
0
  6
CONTINUOUS
 62
     2
 10
199.75
 20
132.0
 30
0.0
 40
1.6625
  0
LINE
  8
0
  6
CONTINUOUS
 62
     2
 10
199.51725
 20
131.085625
 30
0.0
 11
199.98275
 21
131.085625
 31
0.0
  0
LINE
  8
0
  6
CONTINUOUS
 62
     2
 10
199.98275
 20
132.914375
 30
0.0
 11
199.51725
 21
132.914375
 31
0.0
  0
LINE
  8
0
  6
CONTINUOUS
 62
     2
 10
199.98275
 20
131.085625
 30
0.0
 11
199.98275
 21
131.2685
 31
0.0
  0
LINE
  8
0
  6
CONTINUOUS
 62
     2
 10
200.4815
 20
131.76725
 30
0.0
 11
201.396126875
 21
131.76725
 31
0.0
  0
ARC
  8
0
  6
CONTINUOUS
 62
     2
 10
200.4815
 20
131.2685
 30
0.0
 40
0.49875
 50
90.0
 51
180.0
  0
LINE
  8
0
  6
CONTINUOUS
 62
     2
 10
199.51725
 20
131.2685
 30
0.0
 11
199.51725
 21
131.085625
 31
0.0
  0
LINE
  8
0
  6
CONTINUOUS
 62
     2
 10
198.12075
 20
131.76725
 30
0.0
 11
199.0185
 21
131.76725
 31
0.0
  0
ARC
  8
0
  6
CONTINUOUS
 62
     2
 10
199.0185
 20
131.2685
 30
0.0
 40
0.49875
 50
0.0
 51
90.0
  0
LINE
  8
0
  6
CONTINUOUS
 62
     2
 10
199.51725
 20
132.914375
 30
0.0
 11
199.51725
 21
132.7315
 31
0.0
  0
LINE
  8
0
  6
CONTINUOUS
 62
     2
 10
199.0185
 20
132.23275
 30
0.0
 11
198.103873125
 21
132.23275
 31
0.0
  0
ARC
  8
0
  6
CONTINUOUS
 62
     2
 10
199.0185
 20
132.7315
 30
0.0
 40
0.49875
 50
270.0
 51
0.0
  0
LINE
  8
0
  6
CONTINUOUS
 62
     2
 10
199.98275
 20
132.7315
 30
0.0
 11
199.98275
 21
132.914375
 31
0.0
  0
LINE
  8
0
  6
CONTINUOUS
 62
     2
 10
201.396126875
 20
132.23275
 30
0.0
 11
200.4815
 21
132.23275
 31
0.0
  0
ARC
  8
0
  6
CONTINUOUS
 62
     2
 10
200.4815
 20
132.7315
 30
0.0
 40
0.49875
 50
180.0
 51
270.0
  0
CIRCLE
  8
0
  6
CONTINUOUS
 62
     2
 10
206.25
 20
132.0
 30
0.0
 40
1.6625
  0
LINE
  8
0
  6
CONTINUOUS
 62
     2
 10
206.01725
 20
131.085625
 30
0.0
 11
206.48275
 21
131.085625
 31
0.0
  0
LINE
  8
0
  6
CONTINUOUS
 62
     2
 10
206.48275
 20
132.914375
 30
0.0
 11
206.01725
 21
132.914375
 31
0.0
  0
LINE
  8
0
  6
CONTINUOUS
 62
     2
 10
206.48275
 20
131.085625
 30
0.0
 11
206.48275
 21
131.2685
 31
0.0
  0
LINE
  8
0
  6
CONTINUOUS
 62
     2
 10
206.9815
 20
131.76725
 30
0.0
 11
207.896126875
 21
131.76725
 31
0.0
  0
ARC
  8
0
  6
CONTINUOUS
 62
     2
 10
206.9815
 20
131.2685
 30
0.0
 40
0.49875
 50
90.0
 51
180.0
  0
LINE
  8
0
  6
CONTINUOUS
 62
     2
 10
206.01725
 20
131.2685
 30
0.0
 11
206.01725
 21
131.085625
 31
0.0
  0
LINE
  8
0
  6
CONTINUOUS
 62
     2
 10
204.62075
 20
131.76725
 30
0.0
 11
205.5185
 21
131.76725
 31
0.0
  0
ARC
  8
0
  6
CONTINUOUS
 62
     2
 10
205.5185
 20
131.2685
 30
0.0
 40
0.49875
 50
0.0
 51
90.0
  0
LINE
  8
0
  6
CONTINUOUS
 62
     2
 10
206.01725
 20
132.914375
 30
0.0
 11
206.01725
 21
132.7315
 31
0.0
  0
LINE
  8
0
  6
CONTINUOUS
 62
     2
 10
205.5185
 20
132.23275
 30
0.0
 11
204.603873125
 21
132.23275
 31
0.0
  0
ARC
  8
0
  6
CONTINUOUS
 62
     2
 10
205.5185
 20
132.7315
 30
0.0
 40
0.49875
 50
270.0
 51
0.0
  0
LINE
  8
0
  6
CONTINUOUS
 62
     2
 10
206.48275
 20
132.7315
 30
0.0
 11
206.48275
 21
132.914375
 31
0.0
  0
LINE
  8
0
  6
CONTINUOUS
 62
     2
 10
207.896126875
 20
132.23275
 30
0.0
 11
206.9815
 21
132.23275
 31
0.0
  0
ARC
  8
0
  6
CONTINUOUS
 62
     2
 10
206.9815
 20
132.7315
 30
0.0
 40
0.49875
 50
180.0
 51
270.0
  0
POINT
  8
0
  6
LTYPE4
 62
     2
 10
190.0
 20
163.599998093
 30
0.0
  0
LINE
  8
0
  6
CONTINUOUS
 62
     2
 10
179.75
 20
143.55
 30
0.0
 11
174.25
 21
143.55
 31
0.0
  0
LINE
  8
0
  6
CONTINUOUS
 62
     2
 10
186.25
 20
143.55
 30
0.0
 11
180.75
 21
143.55
 31
0.0
  0
LINE
  8
0
  6
CONTINUOUS
 62
     2
 10
192.75
 20
143.55
 30
0.0
 11
187.25
 21
143.55
 31
0.0
  0
LINE
  8
0
  6
CONTINUOUS
 62
     2
 10
199.25
 20
143.55
 30
0.0
 11
193.75
 21
143.55
 31
0.0
  0
LINE
  8
0
  6
CONTINUOUS
 62
     2
 10
205.75
 20
143.55
 30
0.0
 11
200.25
 21
143.55
 31
0.0
  0
LINE
  8
0
  6
CONTINUOUS
 62
     2
 10
171.0
 20
128.45
 30
0.0
 11
176.5
 21
128.45
 31
0.0
  0
LINE
  8
0
  6
CONTINUOUS
 62
     2
 10
177.5
 20
128.45
 30
0.0
 11
183.0
 21
128.45
 31
0.0
  0
LINE
  8
0
  6
CONTINUOUS
 62
     2
 10
184.0
 20
128.45
 30
0.0
 11
189.5
 21
128.45
 31
0.0
  0
LINE
  8
0
  6
CONTINUOUS
 62
     2
 10
190.5
 20
128.45
 30
0.0
 11
196.0
 21
128.45
 31
0.0
  0
LINE
  8
0
  6
CONTINUOUS
 62
     2
 10
197.0
 20
128.45
 30
0.0
 11
202.5
 21
128.45
 31
0.0
  0
LINE
  8
0
  6
CONTINUOUS
 62
     2
 10
203.5
 20
128.45
 30
0.0
 11
209.0
 21
128.45
 31
0.0
  0
LINE
  8
0
  6
CONTINUOUS
 62
     2
 10
177.0
 20
97.5
 30
0.0
 11
178.7
 21
97.044486373
 31
0.0
  0
LINE
  8
0
  6
CONTINUOUS
 62
     2
 10
177.0
 20
97.5
 30
0.0
 11
178.7
 21
97.955513627
 31
0.0
  0
LINE
  8
0
  6
CONTINUOUS
 62
     2
 10
177.0
 20
129.5
 30
0.0
 11
177.0
 21
95.5
 31
0.0
  0
LINE
  8
0
  6
CONTINUOUS
 62
     2
 10
183.5
 20
97.5
 30
0.0
 11
181.8
 21
97.044486373
 31
0.0
  0
LINE
  8
0
  6
CONTINUOUS
 62
     2
 10
183.5
 20
97.5
 30
0.0
 11
181.8
 21
97.955513627
 31
0.0
  0
LINE
  8
0
  6
CONTINUOUS
 62
     2
 10
183.5
 20
129.5
 30
0.0
 11
183.5
 21
95.5
 31
0.0
  0
LINE
  8
0
  6
CONTINUOUS
 62
     2
 10
183.5
 20
97.5
 30
0.0
 11
177.0
 21
97.5
 31
0.0
  0
TEXT
  8
0
  6
CONTINUOUS
 62
     2
 10
177.6
 20
98.5
 30
0.2
 40
3.0
  1
１３
 50
0.0
 41
0.8
 51
0.0
  7
KANJI4
  0
LINE
  8
0
  6
CONTINUOUS
 62
     2
 10
187.25
 20
97.5
 30
0.0
 11
188.95
 21
97.044486373
 31
0.0
  0
LINE
  8
0
  6
CONTINUOUS
 62
     2
 10
187.25
 20
97.5
 30
0.0
 11
188.95
 21
97.955513627
 31
0.0
  0
LINE
  8
0
  6
CONTINUOUS
 62
     2
 10
187.25
 20
130.0
 30
0.0
 11
187.25
 21
95.5
 31
0.0
  0
LINE
  8
0
  6
CONTINUOUS
 62
     2
 10
192.75
 20
97.5
 30
0.0
 11
191.05
 21
97.044486373
 31
0.0
  0
LINE
  8
0
  6
CONTINUOUS
 62
     2
 10
192.75
 20
97.5
 30
0.0
 11
191.05
 21
97.955513627
 31
0.0
  0
LINE
  8
0
  6
CONTINUOUS
 62
     2
 10
192.75
 20
130.0
 30
0.0
 11
192.75
 21
95.5
 31
0.0
  0
LINE
  8
0
  6
CONTINUOUS
 62
     2
 10
187.25
 20
97.5
 30
0.0
 11
192.75
 21
97.5
 31
0.0
  0
TEXT
  8
0
  6
CONTINUOUS
 62
     2
 10
187.5
 20
98.5
 30
0.2
 40
3.0
  1
１１
 50
0.0
 41
0.8
 51
0.0
  7
KANJI4
  0
LINE
  8
0
  6
CONTINUOUS
 62
     2
 10
167.5
 20
172.5
 30
0.0
 11
169.914814566
 21
171.852952387
 31
0.0
  0
LINE
  8
0
  6
CONTINUOUS
 62
     2
 10
167.5
 20
172.5
 30
0.0
 11
169.914814566
 21
173.147047613
 31
0.0
  0
LINE
  8
0
  6
CONTINUOUS
 62
     2
 10
167.5
 20
159.0
 30
0.0
 11
167.5
 21
174.5
 31
0.0
  0
LINE
  8
0
  6
CONTINUOUS
 62
     2
 10
190.0
 20
172.5
 30
0.0
 11
187.585185434
 21
173.147047613
 31
0.0
  0
LINE
  8
0
  6
CONTINUOUS
 62
     2
 10
190.0
 20
172.5
 30
0.0
 11
187.585185434
 21
171.852952387
 31
0.0
  0
TEXT
  8
0
  6
CONTINUOUS
 62
     2
 10
174.37
 20
173.5
 30
0.3
 40
3.0
  1
４５
 50
0.0
 41
0.6
 51
0.0
  7
KANJI0
  0
TEXT
  8
0
  6
CONTINUOUS
 62
     2
 10
178.27
 20
173.5
 30
0.18
 40
1.8
  1
±０．５
 50
0.0
 41
0.6
 51
0.0
  7
KANJI1
  0
LINE
  8
0
  6
CONTINUOUS
 62
     2
 10
167.5
 20
172.5
 30
0.0
 11
190.0
 21
172.5
 31
0.0
  0
LINE
  8
0
  6
CONTINUOUS
 62
     2
 10
190.0
 20
172.5
 30
0.0
 11
192.414814566
 21
171.852952387
 31
0.0
  0
LINE
  8
0
  6
CONTINUOUS
 62
     2
 10
190.0
 20
172.5
 30
0.0
 11
192.414814566
 21
173.147047613
 31
0.0
  0
TEXT
  8
0
  6
CONTINUOUS
 62
     2
 10
196.87
 20
173.5
 30
0.3
 40
3.0
  1
４５
 50
0.0
 41
0.6
 51
0.0
  7
KANJI0
  0
TEXT
  8
0
  6
CONTINUOUS
 62
     2
 10
200.77
 20
173.5
 30
0.18
 40
1.8
  1
±０．５
 50
0.0
 41
0.6
 51
0.0
  7
KANJI1
  0
LINE
  8
0
  6
CONTINUOUS
 62
     2
 10
212.5
 20
159.0
 30
0.0
 11
212.5
 21
174.5
 31
0.0
  0
LINE
  8
0
  6
CONTINUOUS
 62
     2
 10
212.5
 20
172.5
 30
0.0
 11
210.085185434
 21
173.147047613
 31
0.0
  0
LINE
  8
0
  6
CONTINUOUS
 62
     2
 10
212.5
 20
172.5
 30
0.0
 11
210.085185434
 21
171.852952387
 31
0.0
  0
LINE
  8
0
  6
CONTINUOUS
 62
     2
 10
190.0
 20
172.5
 30
0.0
 11
212.5
 21
172.5
 31
0.0
  0
LINE
  8
0
  6
CONTINUOUS
 62
     2
 10
222.5
 20
154.5
 30
0.0
 11
221.852952387
 21
152.085185434
 31
0.0
  0
LINE
  8
0
  6
CONTINUOUS
 62
     2
 10
222.5
 20
154.5
 30
0.0
 11
223.147047613
 21
152.085185434
 31
0.0
  0
TEXT
  8
0
  6
CONTINUOUS
 62
     2
 10
221.5
 20
138.87
 30
0.3
 40
3.0
  1
４５
 50
90.0
 41
0.6
 51
0.0
  7
KANJI0
  0
TEXT
  8
0
  6
CONTINUOUS
 62
     2
 10
221.5
 20
142.77
 30
0.18
 40
1.8
  1
±０．５
 50
90.0
 41
0.6
 51
0.0
  7
KANJI1
  0
LINE
  8
0
  6
CONTINUOUS
 62
     2
 10
216.7
 20
154.5
 30
0.0
 11
224.5
 21
154.5
 31
0.0
  0
LINE
  8
0
  6
CONTINUOUS
 62
     2
 10
222.5
 20
132.0
 30
0.0
 11
223.147047613
 21
134.414814566
 31
0.0
  0
LINE
  8
0
  6
CONTINUOUS
 62
     2
 10
222.5
 20
132.0
 30
0.0
 11
221.852952387
 21
134.414814566
 31
0.0
  0
LINE
  8
0
  6
CONTINUOUS
 62
     2
 10
222.5
 20
132.0
 30
0.0
 11
221.852952387
 21
129.585185434
 31
0.0
  0
LINE
  8
0
  6
CONTINUOUS
 62
     2
 10
222.5
 20
132.0
 30
0.0
 11
223.147047613
 21
129.585185434
 31
0.0
  0
LINE
  8
0
  6
CONTINUOUS
 62
     2
 10
220.5
 20
132.0
 30
0.0
 11
224.5
 21
132.0
 31
0.0
  0
LINE
  8
0
  6
CONTINUOUS
 62
     2
 10
222.5
 20
132.0
 30
0.0
 11
222.5
 21
154.5
 31
0.0
  0
LINE
  8
0
  6
CONTINUOUS
 62
     2
 10
222.5
 20
109.5
 30
0.0
 11
223.147047613
 21
111.914814566
 31
0.0
  0
LINE
  8
0
  6
CONTINUOUS
 62
     2
 10
222.5
 20
109.5
 30
0.0
 11
221.852952387
 21
111.914814566
 31
0.0
  0
TEXT
  8
0
  6
CONTINUOUS
 62
     2
 10
221.5
 20
116.37
 30
0.3
 40
3.0
  1
４５
 50
90.0
 41
0.6
 51
0.0
  7
KANJI0
  0
TEXT
  8
0
  6
CONTINUOUS
 62
     2
 10
221.5
 20
120.27
 30
0.18
 40
1.8
  1
±０．５
 50
90.0
 41
0.6
 51
0.0
  7
KANJI1
  0
LINE
  8
0
  6
CONTINUOUS
 62
     2
 10
216.75
 20
109.5
 30
0.0
 11
224.5
 21
109.5
 31
0.0
  0
LINE
  8
0
  6
CONTINUOUS
 62
     2
 10
222.5
 20
109.5
 30
0.0
 11
222.5
 21
132.0
 31
0.0
  0
LINE
  8
0
  6
LTYPE4
 62
     2
 10
170.75
 20
140.0
 30
0.0
 11
209.25
 21
140.0
 31
0.0
  0
LINE
  8
0
  6
LTYPE1
 62
     2
 10
164.01
 20
154.5
 30
0.0
 11
170.99
 21
154.5
 31
0.0
  0
LINE
  8
0
  6
LTYPE1
 62
     2
 10
167.5
 20
151.01
 30
0.0
 11
167.5
 21
157.99
 31
0.0
  0
LINE
  8
0
  6
LTYPE1
 62
     2
 10
209.01
 20
154.5
 30
0.0
 11
215.99
 21
154.5
 31
0.0
  0
LINE
  8
0
  6
LTYPE1
 62
     2
 10
212.5
 20
151.01
 30
0.0
 11
212.5
 21
157.99
 31
0.0
  0
LINE
  8
0
  6
LTYPE1
 62
     2
 10
164.01
 20
109.5
 30
0.0
 11
170.99
 21
109.5
 31
0.0
  0
LINE
  8
0
  6
LTYPE1
 62
     2
 10
167.5
 20
106.01
 30
0.0
 11
167.5
 21
112.99
 31
0.0
  0
LINE
  8
0
  6
LTYPE1
 62
     2
 10
209.01
 20
109.5
 30
0.0
 11
215.99
 21
109.5
 31
0.0
  0
LINE
  8
0
  6
LTYPE1
 62
     2
 10
212.5
 20
106.01
 30
0.0
 11
212.5
 21
112.99
 31
0.0
  0
LINE
  8
0
  6
LTYPE2
 62
     2
 10
177.0
 20
143.237
 30
0.0
 11
177.0
 21
136.82525
 31
0.0
  0
LINE
  8
0
  6
LTYPE2
 62
     2
 10
183.5
 20
143.237
 30
0.0
 11
183.5
 21
136.82525
 31
0.0
  0
LINE
  8
0
  6
LTYPE2
 62
     2
 10
196.5
 20
143.237
 30
0.0
 11
196.5
 21
136.82525
 31
0.0
  0
LINE
  8
0
  6
LTYPE2
 62
     2
 10
203.0
 20
143.237
 30
0.0
 11
203.0
 21
136.82525
 31
0.0
  0
LINE
  8
0
  6
LTYPE2
 62
     2
 10
206.25
 20
135.237
 30
0.0
 11
206.25
 21
128.82525
 31
0.0
  0
LINE
  8
0
  6
LTYPE2
 62
     2
 10
199.75
 20
135.237
 30
0.0
 11
199.75
 21
128.82525
 31
0.0
  0
LINE
  8
0
  6
LTYPE2
 62
     2
 10
193.25
 20
135.237
 30
0.0
 11
193.25
 21
128.82525
 31
0.0
  0
LINE
  8
0
  6
LTYPE2
 62
     2
 10
186.75
 20
135.237
 30
0.0
 11
186.75
 21
128.82525
 31
0.0
  0
LINE
  8
0
  6
LTYPE2
 62
     2
 10
180.25
 20
135.237
 30
0.0
 11
180.25
 21
128.82525
 31
0.0
  0
LINE
  8
0
  6
LTYPE2
 62
     2
 10
173.75
 20
135.237
 30
0.0
 11
173.75
 21
128.82525
 31
0.0
  0
LINE
  8
0
  6
CONTINUOUS
 62
     2
 10
179.725895603
 20
130.422273525
 30
0.0
 11
178.544262051
 21
128.219152523
 31
0.0
  0
LINE
  8
0
  6
CONTINUOUS
 62
     2
 10
179.725895603
 20
130.422273525
 30
0.0
 11
179.804131429
 21
127.923497993
 31
0.0
  0
LINE
  8
0
  6
CONTINUOUS
 62
     2
 10
179.725895603
 20
130.422273525
 30
0.0
 11
172.0
 21
97.5
 31
0.0
  0
LINE
  8
0
  6
CONTINUOUS
 62
     2
 10
15.5
 20
159.5
 30
0.0
 11
14.852952387
 21
157.085185434
 31
0.0
  0
LINE
  8
0
  6
CONTINUOUS
 62
     2
 10
15.5
 20
159.5
 30
0.0
 11
16.147047613
 21
157.085185434
 31
0.0
  0
TEXT
  8
0
  6
CONTINUOUS
 62
     2
 10
14.5
 20
132.481754585
 30
0.18
 40
1.8
  1
±１．５
 50
90.0
 41
0.6
 51
0.0
  7
KANJI1
  0
TEXT
  8
0
  6
CONTINUOUS
 62
     2
 10
14.5
 20
126.481754585
 30
0.3
 40
3.0
  1
１１０
 50
90.0
 41
0.6
 51
0.0
  7
KANJI0
  0
LINE
  8
0
  6
CONTINUOUS
 62
     2
 10
15.5
 20
104.5
 30
0.0
 11
16.147047613
 21
106.914814566
 31
0.0
  0
LINE
  8
0
  6
CONTINUOUS
 62
     2
 10
15.5
 20
104.5
 30
0.0
 11
14.852952387
 21
106.914814566
 31
0.0
  0
LINE
  8
0
  6
CONTINUOUS
 62
     2
 10
15.5
 20
159.5
 30
0.0
 11
15.5
 21
104.5
 31
0.0
  0
LINE
  8
0
  6
CONTINUOUS
 62
     2
 10
21.5
 20
159.5
 30
0.0
 11
13.5
 21
159.5
 31
0.0
  0
LINE
  8
0
  6
CONTINUOUS
 62
     2
 10
21.5
 20
104.5
 30
0.0
 11
13.5
 21
104.5
 31
0.0
  0
TEXT
  8
0
  6
CONTINUOUS
 62
     2
 10
25.015
 20
13.7
 30
0.18
 40
1.8
  1
※
 50
0.0
 41
0.9
 51
0.0
  7
KANJI5
  0
TEXT
  8
0
  6
CONTINUOUS
 62
     2
 10
84.315
 20
13.4
 30
0.2
 40
2.5
  1
　　　　その他は、共用です。
 50
0.0
 41
0.8
 51
0.0
  7
KANJI6
  0
TEXT
  8
0
  6
CONTINUOUS
 62
     2
 10
14.0
 20
68.7
 30
0.3
 40
3.0
  1
１
 50
0.0
 41
0.9
 51
0.0
  7
KANJI7
  0
TEXT
  8
0
  6
CONTINUOUS
 62
     2
 10
14.0
 20
63.7
 30
0.3
 40
3.0
  1
２
 50
0.0
 41
0.9
 51
0.0
  7
KANJI7
  0
TEXT
  8
0
  6
CONTINUOUS
 62
     2
 10
14.0
 20
58.7
 30
0.3
 40
3.0
  1
３
 50
0.0
 41
0.9
 51
0.0
  7
KANJI7
  0
TEXT
  8
0
  6
CONTINUOUS
 62
     2
 10
14.0
 20
53.7
 30
0.3
 40
3.0
  1
４
 50
0.0
 41
0.9
 51
0.0
  7
KANJI7
  0
TEXT
  8
0
  6
CONTINUOUS
 62
     2
 10
14.0
 20
48.7
 30
0.3
 40
3.0
  1
５
 50
0.0
 41
0.9
 51
0.0
  7
KANJI7
  0
TEXT
  8
0
  6
CONTINUOUS
 62
     2
 10
14.0
 20
43.7
 30
0.3
 40
3.0
  1
６
 50
0.0
 41
0.9
 51
0.0
  7
KANJI7
  0
TEXT
  8
0
  6
CONTINUOUS
 62
     2
 10
14.0
 20
38.7
 30
0.3
 40
3.0
  1
７
 50
0.0
 41
0.9
 51
0.0
  7
KANJI7
  0
TEXT
  8
0
  6
CONTINUOUS
 62
     2
 10
14.1
 20
33.7
 30
0.3
 40
3.0
  1
８
 50
0.0
 41
0.9
 51
0.0
  7
KANJI7
  0
TEXT
  8
0
  6
CONTINUOUS
 62
     2
 10
14.1
 20
28.7
 30
0.3
 40
3.0
  1
９
 50
0.0
 41
0.9
 51
0.0
  7
KANJI7
  0
TEXT
  8
0
  6
CONTINUOUS
 62
     2
 10
14.0
 20
23.7
 30
0.3
 40
3.0
  1
１０
 50
0.0
 41
0.45
 51
0.0
  7
KANJI8
  0
TEXT
  8
0
  6
CONTINUOUS
 62
     2
 10
14.0
 20
18.7
 30
0.3
 40
3.0
  1
１１
 50
0.0
 41
0.45
 51
0.0
  7
KANJI8
  0
LINE
  8
0
  6
CONTINUOUS
 62
     2
 10
13.0
 20
82.7
 30
0.0
 11
13.0
 21
17.7
 31
0.0
  0
LINE
  8
0
  6
CONTINUOUS
 62
     2
 10
18.0
 20
82.7
 30
0.0
 11
18.0
 21
17.7
 31
0.0
  0
TEXT
  8
0
  6
CONTINUOUS
 62
     2
 10
14.0
 20
76.2
 30
0.3
 40
3.0
  1
項
 50
0.0
 41
0.9
 51
0.0
  7
KANJI7
  0
TEXT
  8
0
  6
CONTINUOUS
 62
     2
 10
19.425
 20
76.65
 30
3.0
 40
3.0
  1
　品　　名
 50
0.0
 41
0.9
 51
0.0
  7
KANJI9
  0
TEXT
  8
0
  6
CONTINUOUS
 62
     2
 10
20.0
 20
68.45
 30
0.3
 40
3.0
  1
単相電力計
 50
0.0
 41
0.9
 51
0.0
  7
KANJI7
  0
TEXT
  8
0
  6
CONTINUOUS
 62
     2
 10
20.0
 20
63.45
 30
0.3
 40
3.0
  1
単相３線式電力計
 50
0.0
 41
0.9
 51
0.0
  7
KANJI7
  0
TEXT
  8
0
  6
CONTINUOUS
 62
     2
 10
20.0
 20
48.45
 30
0.3
 40
3.0
  1
単相無効電力計
 50
0.0
 41
0.9
 51
0.0
  7
KANJI7
  0
TEXT
  8
0
  6
CONTINUOUS
 62
     2
 10
20.0
 20
58.45
 30
0.3
 40
3.0
  1
三相電力計
 50
0.0
 41
0.9
 51
0.0
  7
KANJI7
  0
TEXT
  8
0
  6
CONTINUOUS
 62
     2
 10
20.0
 20
23.45
 30
0.3
 40
3.0
  1
三相不平衡力率計
 50
0.0
 41
0.9
 51
0.0
  7
KANJI7
  0
TEXT
  8
0
  6
CONTINUOUS
 62
     2
 10
20.0
 20
18.45
 30
0.3
 40
3.0
  1
三相４線式不平衡力率計
 50
0.0
 41
0.9
 51
0.0
  7
KANJI7
  0
TEXT
  8
0
  6
CONTINUOUS
 62
     2
 10
20.0
 20
33.45
 30
0.3
 40
3.0
  1
単相力率計
 50
0.0
 41
0.9
 51
0.0
  7
KANJI7
  0
TEXT
  8
0
  6
CONTINUOUS
 62
     2
 10
20.0
 20
28.45
 30
0.3
 40
3.0
  1
三相平衡力率計
 50
0.0
 41
0.9
 51
0.0
  7
KANJI7
  0
LINE
  8
0
  6
CONTINUOUS
 62
     2
 10
157.5
 20
17.7
 30
0.0
 11
157.5
 21
82.7
 31
0.0
  0
TEXT
  8
0
  6
CONTINUOUS
 62
     2
 10
20.0
 20
53.45
 30
0.3
 40
3.0
  1
三相４線式電力計
 50
0.0
 41
0.9
 51
0.0
  7
KANJI7
  0
TEXT
  8
0
  6
CONTINUOUS
 62
     2
 10
20.0
 20
38.45
 30
0.3
 40
3.0
  1
三相４線式無効電力計
 50
0.0
 41
0.9
 51
0.0
  7
KANJI7
  0
TEXT
  8
0
  6
CONTINUOUS
 62
     2
 10
20.0
 20
43.45
 30
0.3
 40
3.0
  1
三相無効電力計
 50
0.0
 41
0.9
 51
0.0
  7
KANJI7
  0
TEXT
  8
0
  6
CONTINUOUS
 62
     2
 10
20.515
 20
13.5
 30
0.2
 40
2.5
  1
注）　印は，５０Ｈｚまたは６０Ｈｚの周波数指定を必要とします。
 50
0.0
 41
0.8
 51
0.0
  7
KANJI6
  0
TEXT
  8
0
  6
CONTINUOUS
 62
     1
 10
180.85
 20
19.749876358
 30
0.5
 40
3.0
  1
パネルカット
 50
0.0
 41
0.9
 51
0.0
  7
KANJI10
  0
LINE
  8
0
  6
CONTINUOUS
 62
     1
 10
179.6
 20
18.899876358
 30
0.0
 11
200.5
 21
18.899876358
 31
0.0
  0
TEXT
  8
0
  6
CONTINUOUS
 62
     2
 10
148.0
 20
98.5
 30
0.3
 40
3.0
  1
Ｍ４ターミナルネジ
 50
0.0
 41
0.8
 51
0.0
  7
KANJI11
  0
LINE
  8
0
  6
CONTINUOUS
 62
     2
 10
172.0
 20
97.5
 30
0.0
 11
148.0
 21
97.5
 31
0.0
  0
LINE
  8
0
  6
LTYPE4
 62
     2
 10
143.0
 20
140.0
 30
0.0
 11
158.0
 21
140.0
 31
0.0
  0
LINE
  8
0
  6
CONTINUOUS
 62
     2
 10
155.0
 20
144.5
 30
0.0
 11
155.0
 21
174.5
 31
0.0
  0
LINE
  8
0
  6
LTYPE4
 62
     2
 10
94.0
 20
109.5
 30
0.0
 11
105.0
 21
109.5
 31
0.0
  0
LINE
  8
0
  6
LTYPE4
 62
     2
 10
94.0
 20
154.5
 30
0.0
 11
105.0
 21
154.5
 31
0.0
  0
TEXT
  8
0
  6
CONTINUOUS
 62
     3
 10
234.0
 20
12.0
 30
0.0
 40
6.0
  1
ＭＳ－１３３４４　Ｄ
 50
0.0
 41
0.833333333
 51
0.0
  7
KANJI12
  0
LINE
  8
0
  6
CONTINUOUS
 62
     2
 10
27.0
 20
94.5
 30
0.0
 11
21.5
 21
94.5
 31
0.0
  0
TEXT
  8
0
  6
CONTINUOUS
 62
     2
 10
21.5
 20
95.5
 30
0.1
 40
3.0
  1
指針
 50
0.0
 41
0.9
 51
0.0
  7
KANJI2
  0
LINE
  8
0
  6
CONTINUOUS
 62
     2
 10
53.5
 20
94.5
 30
0.0
 11
77.0
 21
94.5
 31
0.0
  0
ARC
  8
0
  6
CONTINUOUS
 62
     1
 10
71.5
 20
107.5
 30
0.0
 40
3.0
 50
270.0
 51
0.0
  0
LINE
  8
0
  6
CONTINUOUS
 62
     1
 10
74.5
 20
107.5
 30
0.0
 11
74.5
 21
156.5
 31
0.0
  0
ARC
  8
0
  6
CONTINUOUS
 62
     1
 10
71.5
 20
156.5
 30
0.0
 40
3.0
 50
0.0
 51
90.0
  0
LINE
  8
0
  6
CONTINUOUS
 62
     1
 10
71.5
 20
159.5
 30
0.0
 11
22.5
 21
159.5
 31
0.0
  0
ARC
  8
0
  6
CONTINUOUS
 62
     1
 10
22.5
 20
156.5
 30
0.0
 40
3.0
 50
90.0
 51
180.0
  0
LINE
  8
0
  6
CONTINUOUS
 62
     1
 10
22.5
 20
104.5
 30
0.0
 11
71.5
 21
104.5
 31
0.0
  0
LINE
  8
0
  6
CONTINUOUS
 62
     1
 10
19.5
 20
156.5
 30
0.0
 11
19.5
 21
107.5
 31
0.0
  0
ARC
  8
0
  6
CONTINUOUS
 62
     1
 10
22.5
 20
107.5
 30
0.0
 40
3.0
 50
180.0
 51
270.0
  0
CIRCLE
  8
0
  6
CONTINUOUS
 62
     1
 10
47.0
 20
132.0
 30
0.0
 40
25.5
  0
CIRCLE
  8
0
  6
CONTINUOUS
 62
     2
 10
69.5
 20
154.5
 30
0.0
 40
1.5
  0
LINE
  8
0
  6
CONTINUOUS
 62
     2
 10
68.625
 20
154.7
 30
0.0
 11
69.1
 21
154.7
 31
0.0
  0
ARC
  8
0
  6
CONTINUOUS
 62
     2
 10
69.1
 20
154.9
 30
0.0
 40
0.2
 50
270.0
 51
0.0
  0
LINE
  8
0
  6
CONTINUOUS
 62
     2
 10
69.3
 20
154.9
 30
0.0
 11
69.3
 21
155.375
 31
0.0
  0
LINE
  8
0
  6
CONTINUOUS
 62
     2
 10
69.3
 20
155.375
 30
0.0
 11
69.7
 21
155.375
 31
0.0
  0
LINE
  8
0
  6
CONTINUOUS
 62
     2
 10
69.7
 20
155.375
 30
0.0
 11
69.7
 21
154.9
 31
0.0
  0
ARC
  8
0
  6
CONTINUOUS
 62
     2
 10
69.9
 20
154.9
 30
0.0
 40
0.2
 50
180.0
 51
270.0
  0
LINE
  8
0
  6
CONTINUOUS
 62
     2
 10
69.9
 20
154.7
 30
0.0
 11
70.375
 21
154.7
 31
0.0
  0
LINE
  8
0
  6
CONTINUOUS
 62
     2
 10
70.375
 20
154.7
 30
0.0
 11
70.375
 21
154.3
 31
0.0
  0
LINE
  8
0
  6
CONTINUOUS
 62
     2
 10
70.375
 20
154.3
 30
0.0
 11
69.9
 21
154.3
 31
0.0
  0
ARC
  8
0
  6
CONTINUOUS
 62
     2
 10
69.9
 20
154.1
 30
0.0
 40
0.2
 50
90.0
 51
180.0
  0
LINE
  8
0
  6
CONTINUOUS
 62
     2
 10
69.7
 20
154.1
 30
0.0
 11
69.7
 21
153.625
 31
0.0
  0
LINE
  8
0
  6
CONTINUOUS
 62
     2
 10
69.7
 20
153.625
 30
0.0
 11
69.3
 21
153.625
 31
0.0
  0
LINE
  8
0
  6
CONTINUOUS
 62
     2
 10
69.3
 20
153.625
 30
0.0
 11
69.3
 21
154.1
 31
0.0
  0
ARC
  8
0
  6
CONTINUOUS
 62
     2
 10
69.1
 20
154.1
 30
0.0
 40
0.2
 50
0.0
 51
90.0
  0
LINE
  8
0
  6
CONTINUOUS
 62
     2
 10
69.1
 20
154.3
 30
0.0
 11
68.625
 21
154.3
 31
0.0
  0
LINE
  8
0
  6
CONTINUOUS
 62
     2
 10
68.625
 20
154.3
 30
0.0
 11
68.625
 21
154.7
 31
0.0
  0
LINE
  8
0
  6
LTYPE2
 62
     2
 10
67.5
 20
154.5
 30
0.0
 11
71.5
 21
154.5
 31
0.0
  0
LINE
  8
0
  6
LTYPE2
 62
     2
 10
69.5
 20
156.5
 30
0.0
 11
69.5
 21
152.5
 31
0.0
  0
CIRCLE
  8
0
  6
CONTINUOUS
 62
     2
 10
24.5
 20
154.5
 30
0.0
 40
1.5
  0
LINE
  8
0
  6
CONTINUOUS
 62
     2
 10
23.625
 20
154.7
 30
0.0
 11
24.1
 21
154.7
 31
0.0
  0
ARC
  8
0
  6
CONTINUOUS
 62
     2
 10
24.1
 20
154.9
 30
0.0
 40
0.2
 50
270.0
 51
0.0
  0
LINE
  8
0
  6
CONTINUOUS
 62
     2
 10
24.3
 20
154.9
 30
0.0
 11
24.3
 21
155.375
 31
0.0
  0
LINE
  8
0
  6
CONTINUOUS
 62
     2
 10
24.3
 20
155.375
 30
0.0
 11
24.7
 21
155.375
 31
0.0
  0
LINE
  8
0
  6
CONTINUOUS
 62
     2
 10
24.7
 20
155.375
 30
0.0
 11
24.7
 21
154.9
 31
0.0
  0
ARC
  8
0
  6
CONTINUOUS
 62
     2
 10
24.9
 20
154.9
 30
0.0
 40
0.2
 50
180.0
 51
270.0
  0
LINE
  8
0
  6
CONTINUOUS
 62
     2
 10
24.9
 20
154.7
 30
0.0
 11
25.375
 21
154.7
 31
0.0
  0
LINE
  8
0
  6
CONTINUOUS
 62
     2
 10
25.375
 20
154.7
 30
0.0
 11
25.375
 21
154.3
 31
0.0
  0
LINE
  8
0
  6
CONTINUOUS
 62
     2
 10
25.375
 20
154.3
 30
0.0
 11
24.9
 21
154.3
 31
0.0
  0
ARC
  8
0
  6
CONTINUOUS
 62
     2
 10
24.9
 20
154.1
 30
0.0
 40
0.2
 50
90.0
 51
180.0
  0
LINE
  8
0
  6
CONTINUOUS
 62
     2
 10
24.7
 20
154.1
 30
0.0
 11
24.7
 21
153.625
 31
0.0
  0
LINE
  8
0
  6
CONTINUOUS
 62
     2
 10
24.7
 20
153.625
 30
0.0
 11
24.3
 21
153.625
 31
0.0
  0
LINE
  8
0
  6
CONTINUOUS
 62
     2
 10
24.3
 20
153.625
 30
0.0
 11
24.3
 21
154.1
 31
0.0
  0
ARC
  8
0
  6
CONTINUOUS
 62
     2
 10
24.1
 20
154.1
 30
0.0
 40
0.2
 50
0.0
 51
90.0
  0
LINE
  8
0
  6
CONTINUOUS
 62
     2
 10
24.1
 20
154.3
 30
0.0
 11
23.625
 21
154.3
 31
0.0
  0
LINE
  8
0
  6
CONTINUOUS
 62
     2
 10
23.625
 20
154.3
 30
0.0
 11
23.625
 21
154.7
 31
0.0
  0
LINE
  8
0
  6
LTYPE2
 62
     2
 10
22.5
 20
154.5
 30
0.0
 11
26.5
 21
154.5
 31
0.0
  0
LINE
  8
0
  6
LTYPE2
 62
     2
 10
24.5
 20
156.5
 30
0.0
 11
24.5
 21
152.5
 31
0.0
  0
CIRCLE
  8
0
  6
CONTINUOUS
 62
     2
 10
24.5
 20
109.5
 30
0.0
 40
1.5
  0
LINE
  8
0
  6
CONTINUOUS
 62
     2
 10
23.625
 20
109.7
 30
0.0
 11
24.1
 21
109.7
 31
0.0
  0
ARC
  8
0
  6
CONTINUOUS
 62
     2
 10
24.1
 20
109.9
 30
0.0
 40
0.2
 50
270.0
 51
0.0
  0
LINE
  8
0
  6
CONTINUOUS
 62
     2
 10
24.3
 20
109.9
 30
0.0
 11
24.3
 21
110.375
 31
0.0
  0
LINE
  8
0
  6
CONTINUOUS
 62
     2
 10
24.3
 20
110.375
 30
0.0
 11
24.7
 21
110.375
 31
0.0
  0
LINE
  8
0
  6
CONTINUOUS
 62
     2
 10
24.7
 20
110.375
 30
0.0
 11
24.7
 21
109.9
 31
0.0
  0
ARC
  8
0
  6
CONTINUOUS
 62
     2
 10
24.9
 20
109.9
 30
0.0
 40
0.2
 50
180.0
 51
270.0
  0
LINE
  8
0
  6
CONTINUOUS
 62
     2
 10
24.9
 20
109.7
 30
0.0
 11
25.375
 21
109.7
 31
0.0
  0
LINE
  8
0
  6
CONTINUOUS
 62
     2
 10
25.375
 20
109.7
 30
0.0
 11
25.375
 21
109.3
 31
0.0
  0
LINE
  8
0
  6
CONTINUOUS
 62
     2
 10
25.375
 20
109.3
 30
0.0
 11
24.9
 21
109.3
 31
0.0
  0
ARC
  8
0
  6
CONTINUOUS
 62
     2
 10
24.9
 20
109.1
 30
0.0
 40
0.2
 50
90.0
 51
180.0
  0
LINE
  8
0
  6
CONTINUOUS
 62
     2
 10
24.7
 20
109.1
 30
0.0
 11
24.7
 21
108.625
 31
0.0
  0
LINE
  8
0
  6
CONTINUOUS
 62
     2
 10
24.7
 20
108.625
 30
0.0
 11
24.3
 21
108.625
 31
0.0
  0
LINE
  8
0
  6
CONTINUOUS
 62
     2
 10
24.3
 20
108.625
 30
0.0
 11
24.3
 21
109.1
 31
0.0
  0
ARC
  8
0
  6
CONTINUOUS
 62
     2
 10
24.1
 20
109.1
 30
0.0
 40
0.2
 50
0.0
 51
90.0
  0
LINE
  8
0
  6
CONTINUOUS
 62
     2
 10
24.1
 20
109.3
 30
0.0
 11
23.625
 21
109.3
 31
0.0
  0
LINE
  8
0
  6
CONTINUOUS
 62
     2
 10
23.625
 20
109.3
 30
0.0
 11
23.625
 21
109.7
 31
0.0
  0
LINE
  8
0
  6
LTYPE2
 62
     2
 10
22.5
 20
109.5
 30
0.0
 11
26.5
 21
109.5
 31
0.0
  0
LINE
  8
0
  6
LTYPE2
 62
     2
 10
24.5
 20
111.5
 30
0.0
 11
24.5
 21
107.5
 31
0.0
  0
CIRCLE
  8
0
  6
CONTINUOUS
 62
     2
 10
69.5
 20
109.5
 30
0.0
 40
1.5
  0
LINE
  8
0
  6
CONTINUOUS
 62
     2
 10
68.625
 20
109.7
 30
0.0
 11
69.1
 21
109.7
 31
0.0
  0
ARC
  8
0
  6
CONTINUOUS
 62
     2
 10
69.1
 20
109.9
 30
0.0
 40
0.2
 50
270.0
 51
0.0
  0
LINE
  8
0
  6
CONTINUOUS
 62
     2
 10
69.3
 20
109.9
 30
0.0
 11
69.3
 21
110.375
 31
0.0
  0
LINE
  8
0
  6
CONTINUOUS
 62
     2
 10
69.3
 20
110.375
 30
0.0
 11
69.7
 21
110.375
 31
0.0
  0
LINE
  8
0
  6
CONTINUOUS
 62
     2
 10
69.7
 20
110.375
 30
0.0
 11
69.7
 21
109.9
 31
0.0
  0
ARC
  8
0
  6
CONTINUOUS
 62
     2
 10
69.9
 20
109.9
 30
0.0
 40
0.2
 50
180.0
 51
270.0
  0
LINE
  8
0
  6
CONTINUOUS
 62
     2
 10
69.9
 20
109.7
 30
0.0
 11
70.375
 21
109.7
 31
0.0
  0
LINE
  8
0
  6
CONTINUOUS
 62
     2
 10
70.375
 20
109.7
 30
0.0
 11
70.375
 21
109.3
 31
0.0
  0
LINE
  8
0
  6
CONTINUOUS
 62
     2
 10
70.375
 20
109.3
 30
0.0
 11
69.9
 21
109.3
 31
0.0
  0
ARC
  8
0
  6
CONTINUOUS
 62
     2
 10
69.9
 20
109.1
 30
0.0
 40
0.2
 50
90.0
 51
180.0
  0
LINE
  8
0
  6
CONTINUOUS
 62
     2
 10
69.7
 20
109.1
 30
0.0
 11
69.7
 21
108.625
 31
0.0
  0
LINE
  8
0
  6
CONTINUOUS
 62
     2
 10
69.7
 20
108.625
 30
0.0
 11
69.3
 21
108.625
 31
0.0
  0
LINE
  8
0
  6
CONTINUOUS
 62
     2
 10
69.3
 20
108.625
 30
0.0
 11
69.3
 21
109.1
 31
0.0
  0
ARC
  8
0
  6
CONTINUOUS
 62
     2
 10
69.1
 20
109.1
 30
0.0
 40
0.2
 50
0.0
 51
90.0
  0
LINE
  8
0
  6
CONTINUOUS
 62
     2
 10
69.1
 20
109.3
 30
0.0
 11
68.625
 21
109.3
 31
0.0
  0
LINE
  8
0
  6
CONTINUOUS
 62
     2
 10
68.625
 20
109.3
 30
0.0
 11
68.625
 21
109.7
 31
0.0
  0
LINE
  8
0
  6
LTYPE2
 62
     2
 10
67.5
 20
109.5
 30
0.0
 11
71.5
 21
109.5
 31
0.0
  0
LINE
  8
0
  6
LTYPE2
 62
     2
 10
69.5
 20
111.5
 30
0.0
 11
69.5
 21
107.5
 31
0.0
  0
CIRCLE
  8
0
  6
CONTINUOUS
 62
     2
 10
47.0
 20
132.0
 30
0.0
 40
24.25
  0
CIRCLE
  8
0
  6
CONTINUOUS
 62
     2
 10
47.0
 20
132.0
 30
0.0
 40
21.0
  0
CIRCLE
  8
0
  6
CONTINUOUS
 62
     2
 10
38.5
 20
116.5
 30
0.0
 40
1.5
  0
LINE
  8
0
  6
CONTINUOUS
 62
     2
 10
37.73986021
 20
116.022702923
 30
0.0
 11
38.075735931
 21
116.358578644
 31
0.0
  0
ARC
  8
0
  6
CONTINUOUS
 62
     2
 10
37.934314575
 20
116.5
 30
0.0
 40
0.2
 50
315.0
 51
45.0
  0
LINE
  8
0
  6
CONTINUOUS
 62
     2
 10
38.075735931
 20
116.641421356
 30
0.0
 11
37.73986021
 21
116.977297077
 31
0.0
  0
LINE
  8
0
  6
CONTINUOUS
 62
     2
 10
37.73986021
 20
116.977297077
 30
0.0
 11
38.022702923
 21
117.26013979
 31
0.0
  0
LINE
  8
0
  6
CONTINUOUS
 62
     2
 10
38.022702923
 20
117.26013979
 30
0.0
 11
38.358578644
 21
116.924264069
 31
0.0
  0
ARC
  8
0
  6
CONTINUOUS
 62
     2
 10
38.5
 20
117.065685425
 30
0.0
 40
0.2
 50
225.0
 51
315.0
  0
LINE
  8
0
  6
CONTINUOUS
 62
     2
 10
38.641421356
 20
116.924264069
 30
0.0
 11
38.977297077
 21
117.26013979
 31
0.0
  0
LINE
  8
0
  6
CONTINUOUS
 62
     2
 10
38.977297077
 20
117.26013979
 30
0.0
 11
39.26013979
 21
116.977297077
 31
0.0
  0
LINE
  8
0
  6
CONTINUOUS
 62
     2
 10
39.26013979
 20
116.977297077
 30
0.0
 11
38.924264069
 21
116.641421356
 31
0.0
  0
ARC
  8
0
  6
CONTINUOUS
 62
     2
 10
39.065685425
 20
116.5
 30
0.0
 40
0.2
 50
135.0
 51
225.0
  0
LINE
  8
0
  6
CONTINUOUS
 62
     2
 10
38.924264069
 20
116.358578644
 30
0.0
 11
39.26013979
 21
116.022702923
 31
0.0
  0
LINE
  8
0
  6
CONTINUOUS
 62
     2
 10
39.26013979
 20
116.022702923
 30
0.0
 11
38.977297077
 21
115.73986021
 31
0.0
  0
LINE
  8
0
  6
CONTINUOUS
 62
     2
 10
38.977297077
 20
115.73986021
 30
0.0
 11
38.641421356
 21
116.075735931
 31
0.0
  0
ARC
  8
0
  6
CONTINUOUS
 62
     2
 10
38.5
 20
115.934314575
 30
0.0
 40
0.2
 50
45.0
 51
135.0
  0
LINE
  8
0
  6
CONTINUOUS
 62
     2
 10
38.358578644
 20
116.075735931
 30
0.0
 11
38.022702923
 21
115.73986021
 31
0.0
  0
LINE
  8
0
  6
CONTINUOUS
 62
     2
 10
38.022702923
 20
115.73986021
 30
0.0
 11
37.73986021
 21
116.022702923
 31
0.0
  0
CIRCLE
  8
0
  6
CONTINUOUS
 62
     2
 10
55.5
 20
116.5
 30
0.0
 40
1.5
  0
LINE
  8
0
  6
CONTINUOUS
 62
     2
 10
54.73986021
 20
116.022702923
 30
0.0
 11
55.075735931
 21
116.358578644
 31
0.0
  0
ARC
  8
0
  6
CONTINUOUS
 62
     2
 10
54.934314575
 20
116.5
 30
0.0
 40
0.2
 50
315.0
 51
45.0
  0
LINE
  8
0
  6
CONTINUOUS
 62
     2
 10
55.075735931
 20
116.641421356
 30
0.0
 11
54.73986021
 21
116.977297077
 31
0.0
  0
LINE
  8
0
  6
CONTINUOUS
 62
     2
 10
54.73986021
 20
116.977297077
 30
0.0
 11
55.022702923
 21
117.26013979
 31
0.0
  0
LINE
  8
0
  6
CONTINUOUS
 62
     2
 10
55.022702923
 20
117.26013979
 30
0.0
 11
55.358578644
 21
116.924264069
 31
0.0
  0
ARC
  8
0
  6
CONTINUOUS
 62
     2
 10
55.5
 20
117.065685425
 30
0.0
 40
0.2
 50
225.0
 51
315.0
  0
LINE
  8
0
  6
CONTINUOUS
 62
     2
 10
55.641421356
 20
116.924264069
 30
0.0
 11
55.977297077
 21
117.26013979
 31
0.0
  0
LINE
  8
0
  6
CONTINUOUS
 62
     2
 10
55.977297077
 20
117.26013979
 30
0.0
 11
56.26013979
 21
116.977297077
 31
0.0
  0
LINE
  8
0
  6
CONTINUOUS
 62
     2
 10
56.26013979
 20
116.977297077
 30
0.0
 11
55.924264069
 21
116.641421356
 31
0.0
  0
ARC
  8
0
  6
CONTINUOUS
 62
     2
 10
56.065685425
 20
116.5
 30
0.0
 40
0.2
 50
135.0
 51
225.0
  0
LINE
  8
0
  6
CONTINUOUS
 62
     2
 10
55.924264069
 20
116.358578644
 30
0.0
 11
56.26013979
 21
116.022702923
 31
0.0
  0
LINE
  8
0
  6
CONTINUOUS
 62
     2
 10
56.26013979
 20
116.022702923
 30
0.0
 11
55.977297077
 21
115.73986021
 31
0.0
  0
LINE
  8
0
  6
CONTINUOUS
 62
     2
 10
55.977297077
 20
115.73986021
 30
0.0
 11
55.641421356
 21
116.075735931
 31
0.0
  0
ARC
  8
0
  6
CONTINUOUS
 62
     2
 10
55.5
 20
115.934314575
 30
0.0
 40
0.2
 50
45.0
 51
135.0
  0
LINE
  8
0
  6
CONTINUOUS
 62
     2
 10
55.358578644
 20
116.075735931
 30
0.0
 11
55.022702923
 21
115.73986021
 31
0.0
  0
LINE
  8
0
  6
CONTINUOUS
 62
     2
 10
55.022702923
 20
115.73986021
 30
0.0
 11
54.73986021
 21
116.022702923
 31
0.0
  0
LINE
  8
0
  6
CONTINUOUS
 62
     2
 10
31.702240015
 20
124.54741391
 30
0.0
 11
28.98424919
 21
122.218245415
 31
0.0
  0
LINE
  8
0
  6
CONTINUOUS
 62
     2
 10
28.98424919
 20
122.218245415
 30
0.0
 11
32.417978155
 21
123.229188241
 31
0.0
  0
LINE
  8
0
  6
CONTINUOUS
 62
     2
 10
32.417978155
 20
123.229188241
 30
0.0
 11
39.917058939
 21
127.300856895
 31
0.0
  0
LINE
  8
0
  6
CONTINUOUS
 62
     2
 10
31.181291972
 20
123.411142315
 30
0.0
 11
39.701656687
 21
127.642915552
 31
0.0
  0
LINE
  8
0
  6
CONTINUOUS
 62
     2
 10
39.370878852
 20
128.252132538
 30
0.0
 11
31.181291972
 21
123.411142315
 31
0.0
  0
LINE
  8
0
  6
CONTINUOUS
 62
     2
 10
39.201320798
 20
128.619082564
 30
0.0
 11
31.702240015
 21
124.54741391
 31
0.0
  0
LINE
  8
0
  6
LTYPE1
 62
     2
 10
47.0
 20
164.5
 30
0.0
 11
47.0
 21
99.5
 31
0.0
  0
CIRCLE
  8
0
  6
CONTINUOUS
 62
     1
 10
47.0
 20
132.0
 30
0.0
 40
3.05
  0
LINE
  8
0
  6
CONTINUOUS
 62
     2
 10
47.45
 20
128.983379374
 30
0.0
 11
47.45
 21
135.016620626
 31
0.0
  0
LINE
  8
0
  6
CONTINUOUS
 62
     2
 10
46.55
 20
135.016620626
 30
0.0
 11
46.55
 21
128.983379374
 31
0.0
  0
CIRCLE
  8
0
  6
CONTINUOUS
 62
     2
 10
47.0
 20
132.0
 30
0.0
 40
8.5
  0
CIRCLE
  8
0
  6
CONTINUOUS
 62
     2
 10
47.0
 20
132.0
 30
0.0
 40
7.8
  0
CIRCLE
  8
0
  6
CONTINUOUS
 62
     2
 10
47.0
 20
132.0
 30
0.0
 40
7.1
  0
CIRCLE
  8
0
  6
CONTINUOUS
 62
     2
 10
47.0
 20
132.0
 30
0.0
 40
6.4
  0
CIRCLE
  8
0
  6
CONTINUOUS
 62
     2
 10
47.0
 20
132.0
 30
0.0
 40
5.7
  0
CIRCLE
  8
0
  6
CONTINUOUS
 62
     2
 10
47.0
 20
132.0
 30
0.0
 40
5.0
  0
CIRCLE
  8
0
  6
CONTINUOUS
 62
     2
 10
47.0
 20
132.0
 30
0.0
 40
4.3
  0
CIRCLE
  8
0
  6
CONTINUOUS
 62
     2
 10
47.0
 20
132.0
 30
0.0
 40
3.6
  0
LINE
  8
0
  6
CONTINUOUS
 62
     2
 10
32.1
 20
123.0
 30
0.0
 11
31.037702186
 21
120.736921708
 31
0.0
  0
LINE
  8
0
  6
CONTINUOUS
 62
     2
 10
32.1
 20
123.0
 30
0.0
 11
32.311562253
 21
120.508967802
 31
0.0
  0
LINE
  8
0
  6
CONTINUOUS
 62
     2
 10
48.4
 20
129.3
 30
0.0
 11
48.109945883
 21
126.816883287
 31
0.0
  0
LINE
  8
0
  6
CONTINUOUS
 62
     2
 10
48.4
 20
129.3
 30
0.0
 11
49.390364123
 21
127.004530788
 31
0.0
  0
LINE
  8
0
  6
CONTINUOUS
 62
     2
 10
32.1
 20
123.0
 30
0.0
 11
27.0
 21
94.5
 31
0.0
  0
LINE
  8
0
  6
CONTINUOUS
 62
     2
 10
48.4
 20
129.3
 30
0.0
 11
53.5
 21
94.5
 31
0.0
  0
TEXT
  8
0
  6
CONTINUOUS
 62
     2
 10
54.0
 20
95.5
 30
0.1
 40
3.0
  1
機械的零位調整器
 50
0.0
 41
0.9
 51
0.0
  7
KANJI2
  0
LINE
  8
0
  6
CONTINUOUS
 62
     1
 10
95.5
 20
159.475
 30
0.0
 11
90.25
 21
159.475
 31
0.0
  0
ARC
  8
0
  6
CONTINUOUS
 62
     1
 10
90.25
 20
158.975
 30
0.0
 40
0.5
 50
90.0
 51
180.0
  0
LINE
  8
0
  6
CONTINUOUS
 62
     1
 10
89.75
 20
157.475
 30
0.0
 11
86.25
 21
157.475
 31
0.0
  0
ARC
  8
0
  6
CONTINUOUS
 62
     1
 10
86.25
 20
157.225
 30
0.0
 40
0.25
 50
90.0
 51
180.0
  0
LINE
  8
0
  6
CONTINUOUS
 62
     1
 10
95.5
 20
104.475
 30
0.0
 11
90.25
 21
104.475
 31
0.0
  0
ARC
  8
0
  6
CONTINUOUS
 62
     1
 10
90.25
 20
104.975
 30
0.0
 40
0.5
 50
180.0
 51
270.0
  0
LINE
  8
0
  6
CONTINUOUS
 62
     1
 10
89.75
 20
106.475
 30
0.0
 11
86.25
 21
106.475
 31
0.0
  0
ARC
  8
0
  6
CONTINUOUS
 62
     1
 10
86.25
 20
106.725
 30
0.0
 40
0.25
 50
180.0
 51
270.0
  0
LINE
  8
0
  6
CONTINUOUS
 62
     1
 10
89.75
 20
104.975
 30
0.0
 11
89.75
 21
131.975
 31
0.0
  0
LINE
  8
0
  6
CONTINUOUS
 62
     1
 10
85.177077922
 20
133.565990258
 30
0.0
 11
86.0
 21
157.225
 31
0.0
  0
LINE
  8
0
  6
CONTINUOUS
 62
     1
 10
89.75
 20
158.975
 30
0.0
 11
89.75
 21
157.625
 31
0.0
  0
LINE
  8
0
  6
CONTINUOUS
 62
     1
 10
89.75
 20
157.625
 30
0.0
 11
89.75
 21
157.475
 31
0.0
  0
LINE
  8
0
  6
CONTINUOUS
 62
     1
 10
89.75
 20
132.0
 30
0.0
 11
89.75
 21
157.475
 31
0.0
  0
LINE
  8
0
  6
CONTINUOUS
 62
     1
 10
89.75
 20
149.975
 30
0.0
 11
89.75
 21
158.975001907
 31
0.0
  0
LINE
  8
0
  6
CONTINUOUS
 62
     2
 10
89.75
 20
110.725
 30
0.0
 11
89.65
 21
110.725
 31
0.0
  0
LINE
  8
0
  6
CONTINUOUS
 62
     2
 10
89.65
 20
110.725
 30
0.0
 11
89.65
 21
108.225
 31
0.0
  0
LINE
  8
0
  6
CONTINUOUS
 62
     2
 10
89.65
 20
108.225
 30
0.0
 11
89.75
 21
108.225
 31
0.0
  0
LINE
  8
0
  6
CONTINUOUS
 62
     2
 10
89.65
 20
111.0
 30
0.0
 11
89.65
 21
108.0
 31
0.0
  0
LINE
  8
0
  6
CONTINUOUS
 62
     2
 10
89.3
 20
108.0
 30
0.0
 11
89.65
 21
108.0
 31
0.0
  0
ARC
  8
0
  6
CONTINUOUS
 62
     2
 10
89.3
 20
108.4
 30
0.0
 40
0.4
 50
180.0
 51
270.0
  0
LINE
  8
0
  6
CONTINUOUS
 62
     2
 10
89.3
 20
111.0
 30
0.0
 11
89.75
 21
111.0
 31
0.0
  0
LINE
  8
0
  6
CONTINUOUS
 62
     2
 10
88.9
 20
108.4
 30
0.0
 11
88.9
 21
110.6
 31
0.0
  0
ARC
  8
0
  6
CONTINUOUS
 62
     2
 10
89.3
 20
110.6
 30
0.0
 40
0.4
 50
90.0
 51
180.0
  0
LINE
  8
0
  6
CONTINUOUS
 62
     2
 10
88.9
 20
109.6
 30
0.0
 11
89.0
 21
109.6
 31
0.0
  0
LINE
  8
0
  6
CONTINUOUS
 62
     2
 10
89.0
 20
109.6
 30
0.0
 11
89.0
 21
109.4
 31
0.0
  0
LINE
  8
0
  6
CONTINUOUS
 62
     2
 10
89.0
 20
109.4
 30
0.0
 11
88.9
 21
109.4
 31
0.0
  0
LINE
  8
0
  6
CONTINUOUS
 62
     2
 10
89.75
 20
155.725
 30
0.0
 11
89.65
 21
155.725
 31
0.0
  0
LINE
  8
0
  6
CONTINUOUS
 62
     2
 10
89.65
 20
155.725
 30
0.0
 11
89.65
 21
153.225
 31
0.0
  0
LINE
  8
0
  6
CONTINUOUS
 62
     2
 10
89.65
 20
153.225
 30
0.0
 11
89.75
 21
153.225
 31
0.0
  0
LINE
  8
0
  6
CONTINUOUS
 62
     2
 10
89.65
 20
156.0
 30
0.0
 11
89.65
 21
153.0
 31
0.0
  0
LINE
  8
0
  6
CONTINUOUS
 62
     2
 10
89.3
 20
153.0
 30
0.0
 11
89.65
 21
153.0
 31
0.0
  0
ARC
  8
0
  6
CONTINUOUS
 62
     2
 10
89.3
 20
153.4
 30
0.0
 40
0.4
 50
180.0
 51
270.0
  0
LINE
  8
0
  6
CONTINUOUS
 62
     2
 10
89.3
 20
156.0
 30
0.0
 11
89.75
 21
156.0
 31
0.0
  0
LINE
  8
0
  6
CONTINUOUS
 62
     2
 10
88.9
 20
153.4
 30
0.0
 11
88.9
 21
155.6
 31
0.0
  0
ARC
  8
0
  6
CONTINUOUS
 62
     2
 10
89.3
 20
155.6
 30
0.0
 40
0.4
 50
90.0
 51
180.0
  0
LINE
  8
0
  6
CONTINUOUS
 62
     2
 10
88.9
 20
154.6
 30
0.0
 11
89.0
 21
154.6
 31
0.0
  0
LINE
  8
0
  6
CONTINUOUS
 62
     2
 10
89.0
 20
154.6
 30
0.0
 11
89.0
 21
154.4
 31
0.0
  0
LINE
  8
0
  6
CONTINUOUS
 62
     2
 10
89.0
 20
154.4
 30
0.0
 11
88.9
 21
154.4
 31
0.0
  0
LINE
  8
0
  6
CONTINUOUS
 62
     2
 10
86.05
 20
106.475
 30
0.0
 11
78.625
 21
106.475
 31
0.0
  0
LINE
  8
0
  6
CONTINUOUS
 62
     2
 10
80.625
 20
106.475
 30
0.0
 11
81.272047613
 21
108.889814566
 31
0.0
  0
LINE
  8
0
  6
CONTINUOUS
 62
     2
 10
80.625
 20
106.475
 30
0.0
 11
79.977952387
 21
108.889814566
 31
0.0
  0
LINE
  8
0
  6
CONTINUOUS
 62
     2
 10
80.625
 20
106.475
 30
0.0
 11
80.625
 21
157.475
 31
0.0
  0
LINE
  8
0
  6
CONTINUOUS
 62
     2
 10
80.625
 20
157.475
 30
0.0
 11
79.977952387
 21
155.060185434
 31
0.0
  0
LINE
  8
0
  6
CONTINUOUS
 62
     2
 10
80.625
 20
157.475
 30
0.0
 11
81.272047613
 21
155.060185434
 31
0.0
  0
LINE
  8
0
  6
CONTINUOUS
 62
     2
 10
86.05
 20
157.475
 30
0.0
 11
78.625
 21
157.475
 31
0.0
  0
TEXT
  8
0
  6
CONTINUOUS
 62
     2
 10
79.625
 20
127.925
 30
0.3
 40
3.0
  1
φ１０２
 50
90.0
 41
0.6
 51
0.0
  7
KANJI0
  0
LINE
  8
0
  6
CONTINUOUS
 62
     1
 10
85.0
 20
133.565990258
 30
0.0
 11
85.177077922
 21
133.565990258
 31
0.0
  0
LINE
  8
0
  6
CONTINUOUS
 62
     1
 10
85.0
 20
130.384009742
 30
0.0
 11
85.177077922
 21
130.384009742
 31
0.0
  0
LINE
  8
0
  6
CONTINUOUS
 62
     1
 10
85.177077922
 20
130.384009742
 30
0.0
 11
86.0
 21
106.725
 31
0.0
  0
LINE
  8
0
  6
CONTINUOUS
 62
     2
 10
85.0
 20
134.925
 30
0.0
 11
85.0
 21
129.025
 31
0.0
  0
POINT
  8
0
  6
CONTINUOUS
 62
     2
 10
85.0
 20
134.925
 30
0.0
  0
ARC
  8
0
  6
CONTINUOUS
 62
     2
 10
85.0
 20
133.425
 30
0.0
 40
1.5
 50
90.0
 51
180.0
  0
LINE
  8
0
  6
CONTINUOUS
 62
     2
 10
85.0
 20
129.025
 30
0.0
 11
84.9
 21
129.025
 31
0.0
  0
LINE
  8
0
  6
CONTINUOUS
 62
     2
 10
83.5
 20
130.425
 30
0.0
 11
83.5
 21
133.425
 31
0.0
  0
ARC
  8
0
  6
CONTINUOUS
 62
     2
 10
84.9
 20
130.425
 30
0.0
 40
1.4
 50
180.0
 51
270.0
  0
LINE
  8
0
  6
CONTINUOUS
 62
     2
 10
95.5
 20
172.5
 30
0.0
 11
93.085185434
 21
173.147047613
 31
0.0
  0
LINE
  8
0
  6
CONTINUOUS
 62
     2
 10
95.5
 20
172.5
 30
0.0
 11
93.085185434
 21
171.852952387
 31
0.0
  0
LINE
  8
0
  6
CONTINUOUS
 62
     2
 10
83.5
 20
172.5
 30
0.0
 11
85.914814566
 21
171.852952387
 31
0.0
  0
LINE
  8
0
  6
CONTINUOUS
 62
     2
 10
83.5
 20
172.5
 30
0.0
 11
85.914814566
 21
173.147047613
 31
0.0
  0
LINE
  8
0
  6
CONTINUOUS
 62
     2
 10
83.5
 20
172.5
 30
0.0
 11
95.5
 21
172.5
 31
0.0
  0
TEXT
  8
0
  6
CONTINUOUS
 62
     2
 10
87.05
 20
173.5
 30
0.3
 40
3.0
  1
２４
 50
0.0
 41
0.6
 51
0.0
  7
KANJI0
  0
LINE
  8
0
  6
CONTINUOUS
 62
     2
 10
83.5
 20
133.425
 30
0.0
 11
83.5
 21
174.5
 31
0.0
  0
ARC
  8
0
  6
CONTINUOUS
 62
     2
 10
99.62425
 20
107.729875
 30
0.0
 40
1.04125
 50
145.0
 51
215.0
  0
ARC
  8
0
  6
CONTINUOUS
 62
     2
 10
99.62425
 20
107.729875
 30
0.0
 40
1.04125
 50
325.0
 51
35.0
  0
LINE
  8
0
  6
CONTINUOUS
 62
     2
 10
100.482990804
 20
107.12595
 30
0.0
 11
98.583
 21
107.12595
 31
0.0
  0
LINE
  8
0
  6
CONTINUOUS
 62
     2
 10
109.5
 20
98.0
 30
0.0
 11
134.8
 21
98.0
 31
0.0
  0
TEXT
  8
0
  6
CONTINUOUS
 62
     2
 10
110.8
 20
93.0
 30
0.1
 40
3.0
  1
フランジ付六角ナット
 50
0.0
 41
0.833333333
 51
0.0
  7
KANJI13
  0
LINE
  8
0
  6
CONTINUOUS
 62
     2
 10
109.8
 20
92.0
 30
0.0
 11
136.3
 21
92.0
 31
0.0
  0
LINE
  8
0
  6
CONTINUOUS
 62
     2
 10
101.65
 20
108.575
 30
0.0
 11
102.569788785
 21
106.250351943
 31
0.0
  0
LINE
  8
0
  6
CONTINUOUS
 62
     2
 10
101.65
 20
108.575
 30
0.0
 11
103.608884483
 21
107.02169012
 31
0.0
  0
LINE
  8
0
  6
CONTINUOUS
 62
     2
 10
101.65
 20
108.575
 30
0.0
 11
109.5
 21
98.0
 31
0.0
  0
LINE
  8
0
  6
CONTINUOUS
 62
     2
 10
99.0
 20
107.175
 30
0.0
 11
99.873038748
 21
104.832393899
 31
0.0
  0
LINE
  8
0
  6
CONTINUOUS
 62
     2
 10
99.0
 20
107.175
 30
0.0
 11
100.927376785
 21
105.58276298
 31
0.0
  0
LINE
  8
0
  6
CONTINUOUS
 62
     2
 10
99.0
 20
107.175
 30
0.0
 11
109.8
 21
92.0
 31
0.0
  0
TEXT
  8
0
  6
CONTINUOUS
 62
     2
 10
109.5
 20
99.0
 30
0.1
 40
3.0
  1
４－Ｍ５取付ボルト
 50
0.0
 41
0.9
 51
0.0
  7
KANJI2
  0
TEXT
  8
0
  6
CONTINUOUS
 62
     2
 10
111.0
 20
133.8
 30
0.3
 40
3.0
  1
φ９９
 50
90.0
 41
0.6
 51
0.0
  7
KANJI0
  0
TEXT
  8
0
  6
CONTINUOUS
 62
     2
 10
111.0
 20
139.8
 30
0.18
 40
1.8
  1
±１
 50
90.0
 41
0.6
 51
0.0
  7
KANJI1
  0
TEXT
  8
0
  6
CONTINUOUS
 62
     2
 10
192.303880416
 20
56.609763855
 30
0.3
 40
3.0
  1
φ１０１
 50
46.346669025
 41
0.6
 51
0.0
  7
KANJI0
  0
ARC
  8
0
  6
CONTINUOUS
 62
     1
 10
176.0
 20
151.0
 30
0.0
 40
0.5
 50
90.0
 51
180.0
  0
LINE
  8
0
  6
CONTINUOUS
 62
     1
 10
175.5
 20
151.0
 30
0.0
 11
175.5
 21
148.5
 31
0.0
  0
ARC
  8
0
  6
CONTINUOUS
 62
     1
 10
176.0
 20
148.5
 30
0.0
 40
0.5
 50
180.0
 51
270.0
  0
LINE
  8
0
  6
CONTINUOUS
 62
     1
 10
176.0
 20
151.5
 30
0.0
 11
204.0
 21
151.5
 31
0.0
  0
ARC
  8
0
  6
CONTINUOUS
 62
     1
 10
204.0
 20
151.0
 30
0.0
 40
0.5
 50
0.0
 51
90.0
  0
LINE
  8
0
  6
CONTINUOUS
 62
     1
 10
176.0
 20
148.0
 30
0.0
 11
204.0
 21
148.0
 31
0.0
  0
LINE
  8
0
  6
CONTINUOUS
 62
     1
 10
204.5
 20
151.0
 30
0.0
 11
204.5
 21
148.5
 31
0.0
  0
ARC
  8
0
  6
CONTINUOUS
 62
     1
 10
204.0
 20
148.5
 30
0.0
 40
0.5
 50
270.0
 51
0.0
  0
TEXT
  8
0
  6
CONTINUOUS
 62
     2
 10
217.0
 20
165.0
 30
0.1
 40
3.0
  1
端子ラベル
 50
0.0
 41
0.8
 51
0.0
  7
KANJI14
  0
LINE
  8
0
  6
CONTINUOUS
 62
     2
 10
217.0
 20
164.0
 30
0.0
 11
230.0
 21
164.0
 31
0.0
  0
LINE
  8
0
  6
CONTINUOUS
 62
     2
 10
202.0
 20
151.5
 30
0.0
 11
204.269341723
 21
152.548850868
 31
0.0
  0
LINE
  8
0
  6
CONTINUOUS
 62
     2
 10
202.0
 20
151.5
 30
0.0
 11
203.440882148
 21
153.543002358
 31
0.0
  0
LINE
  8
0
  6
CONTINUOUS
 62
     2
 10
202.0
 20
151.5
 30
0.0
 11
217.0
 21
164.0
 31
0.0
  0
LINE
  8
0
  6
CONTINUOUS
 62
     2
 10
202.0
 20
124.0
 30
0.0
 11
203.45374756
 21
126.033867752
 31
0.0
  0
LINE
  8
0
  6
CONTINUOUS
 62
     2
 10
202.0
 20
124.0
 30
0.0
 11
202.242048442
 21
126.488254921
 31
0.0
  0
LINE
  8
0
  6
CONTINUOUS
 62
     2
 10
202.0
 20
124.0
 30
0.0
 11
217.0
 21
164.0
 31
0.0
  0
LINE
  8
0
  6
CONTINUOUS
 62
     2
 10
19.5
 20
172.5
 30
0.0
 11
21.914814566
 21
171.852952387
 31
0.0
  0
LINE
  8
0
  6
CONTINUOUS
 62
     2
 10
19.5
 20
172.5
 30
0.0
 11
21.914814566
 21
173.147047613
 31
0.0
  0
LINE
  8
0
  6
CONTINUOUS
 62
     2
 10
19.5
 20
172.5
 30
0.0
 11
74.5
 21
172.5
 31
0.0
  0
LINE
  8
0
  6
CONTINUOUS
 62
     2
 10
74.5
 20
172.5
 30
0.0
 11
72.085185434
 21
173.147047613
 31
0.0
  0
LINE
  8
0
  6
CONTINUOUS
 62
     2
 10
74.5
 20
172.5
 30
0.0
 11
72.085185434
 21
171.852952387
 31
0.0
  0
TEXT
  8
0
  6
CONTINUOUS
 62
     2
 10
41.57
 20
173.5
 30
0.3
 40
3.0
  1
１１０
 50
0.0
 41
0.6
 51
0.0
  7
KANJI0
  0
TEXT
  8
0
  6
CONTINUOUS
 62
     2
 10
47.57
 20
173.5
 30
0.18
 40
1.8
  1
±１．５
 50
0.0
 41
0.6
 51
0.0
  7
KANJI1
  0
LINE
  8
0
  6
CONTINUOUS
 62
     2
 10
19.5
 20
157.568245415
 30
0.0
 11
19.5
 21
174.5
 31
0.0
  0
LINE
  8
0
  6
CONTINUOUS
 62
     2
 10
74.5
 20
157.968245415
 30
0.0
 11
74.5
 21
174.5
 31
0.0
  0
TEXT
  8
0
  6
CONTINUOUS
 62
     2
 10
198.868
 20
98.5
 30
0.2
 40
3.0
  1
端子カバー（透明樹脂）
 50
0.0
 41
0.733333333
 51
0.0
  7
KANJI15
  0
LINE
  8
0
  6
CONTINUOUS
 62
     2
 10
198.0
 20
97.5
 30
0.0
 11
223.961
 21
97.5
 31
0.0
  0
LINE
  8
0
  6
CONTINUOUS
 62
     2
 10
195.0
 20
127.0
 30
0.0
 11
194.600586774
 21
124.532112427
 31
0.0
  0
LINE
  8
0
  6
CONTINUOUS
 62
     2
 10
195.0
 20
127.0
 30
0.0
 11
195.888041787
 21
124.663040055
 31
0.0
  0
LINE
  8
0
  6
CONTINUOUS
 62
     2
 10
195.0
 20
127.0
 30
0.0
 11
198.0
 21
97.5
 31
0.0
  0
TEXT
  8
0
  6
CONTINUOUS
 62
     2
 10
116.274499685
 20
173.5
 30
0.3
 40
3.0
  1
１１９
 50
0.0
 41
0.6
 51
0.0
  7
KANJI0
  0
ARC
  8
0
  6
CONTINUOUS
 62
     1
 10
173.5
 20
123.5
 30
0.0
 40
0.5
 50
90.0
 51
180.0
  0
LINE
  8
0
  6
CONTINUOUS
 62
     1
 10
173.0
 20
123.5
 30
0.0
 11
173.0
 21
121.0
 31
0.0
  0
ARC
  8
0
  6
CONTINUOUS
 62
     1
 10
173.5
 20
121.0
 30
0.0
 40
0.5
 50
180.0
 51
270.0
  0
LINE
  8
0
  6
CONTINUOUS
 62
     1
 10
173.5
 20
124.0
 30
0.0
 11
206.5
 21
124.0
 31
0.0
  0
ARC
  8
0
  6
CONTINUOUS
 62
     1
 10
206.5
 20
123.5
 30
0.0
 40
0.5
 50
0.0
 51
90.0
  0
LINE
  8
0
  6
CONTINUOUS
 62
     1
 10
173.5
 20
120.5
 30
0.0
 11
206.5
 21
120.5
 31
0.0
  0
LINE
  8
0
  6
CONTINUOUS
 62
     1
 10
207.0
 20
123.5
 30
0.0
 11
207.0
 21
121.0
 31
0.0
  0
ARC
  8
0
  6
CONTINUOUS
 62
     1
 10
206.5
 20
121.0
 30
0.0
 40
0.5
 50
270.0
 51
0.0
  0
TEXT
  8
0
  6
CONTINUOUS
 62
     6
 10
236.2
 20
31.0
 30
0.5
 40
5.0
  1
□ＶＦ－１１Ｍ
 50
0.0
 41
0.9
 51
0.0
  7
KANJI16
  0
TEXT
  8
0
  6
CONTINUOUS
 62
     1
 10
235.8
 20
22.5
 30
0.4
 40
4.0
  1
広角度計器　外形図
 50
0.0
 41
0.9
 51
0.0
  7
KANJI17
  0
LINE
  8
0
  6
LTYPE1
 62
     2
 10
190.0
 20
102.4
 30
0.0
 11
190.0
 21
164.5
 31
0.0
  0
LINE
  8
0
  6
LTYPE1
 62
     2
 10
190.0
 20
24.75
 30
0.0
 11
190.0
 21
87.1
 31
0.0
  0
LINE
  8
0
  6
LTYPE1
 62
     2
 10
161.3
 20
132.0
 30
0.0
 11
219.5
 21
132.0
 31
0.0
  0
LINE
  8
0
  6
LTYPE1
 62
     2
 10
81.8
 20
132.0
 30
0.0
 11
160.2
 21
132.0
 31
0.0
  0
LINE
  8
0
  6
LTYPE1
 62
     2
 10
16.5
 20
132.0
 30
0.0
 11
75.9
 21
132.0
 31
0.0
  0
POINT
  8
0
  6
CONTINUOUS
 62
     2
 10
64.0
 20
83.0
 30
0.0
  0
TEXT
  8
0
  6
CONTINUOUS
 62
     2
 10
55.5
 20
50.6
 30
0.18
 40
1.8
  1
※
 50
0.0
 41
0.9
 51
0.0
  7
KANJI5
  0
TEXT
  8
0
  6
CONTINUOUS
 62
     2
 10
55.5
 20
25.6
 30
0.18
 40
1.8
  1
※
 50
0.0
 41
0.9
 51
0.0
  7
KANJI5
  0
TEXT
  8
0
  6
CONTINUOUS
 62
     2
 10
55.5
 20
20.6
 30
0.18
 40
1.8
  1
※
 50
0.0
 41
0.9
 51
0.0
  7
KANJI5
  0
LINE
  8
0
  6
CONTINUOUS
 62
     2
 10
54.5
 20
17.7
 30
0.0
 11
54.5
 21
82.7
 31
0.0
  0
TEXT
  8
0
  6
CONTINUOUS
 62
     2
 10
60.6
 20
68.7
 30
0.1
 40
3.0
  1
ＥＶＦ－１１Ｍ
 50
0.0
 41
0.9
 51
0.0
  7
KANJI2
  0
TEXT
  8
0
  6
CONTINUOUS
 62
     2
 10
60.6
 20
63.7
 30
0.1
 40
3.0
  1
ＥＶＦ－１１Ｍ
 50
0.0
 41
0.9
 51
0.0
  7
KANJI2
  0
TEXT
  8
0
  6
CONTINUOUS
 62
     2
 10
60.6
 20
58.7
 30
0.1
 40
3.0
  1
ＥＶＦ－１１Ｍ
 50
0.0
 41
0.9
 51
0.0
  7
KANJI2
  0
TEXT
  8
0
  6
CONTINUOUS
 62
     2
 10
60.6
 20
53.7
 30
0.1
 40
3.0
  1
ＥＶＦ－１１Ｍ
 50
0.0
 41
0.9
 51
0.0
  7
KANJI2
  0
TEXT
  8
0
  6
CONTINUOUS
 62
     2
 10
60.6
 20
48.7
 30
0.1
 40
3.0
  1
ＲＶＦ－１１Ｍ
 50
0.0
 41
0.9
 51
0.0
  7
KANJI2
  0
TEXT
  8
0
  6
CONTINUOUS
 62
     2
 10
60.6
 20
43.7
 30
0.1
 40
3.0
  1
ＲＶＦ－１１Ｍ
 50
0.0
 41
0.9
 51
0.0
  7
KANJI2
  0
TEXT
  8
0
  6
CONTINUOUS
 62
     2
 10
60.6
 20
38.7
 30
0.1
 40
3.0
  1
ＲＶＦ－１１Ｍ
 50
0.0
 41
0.9
 51
0.0
  7
KANJI2
  0
TEXT
  8
0
  6
CONTINUOUS
 62
     2
 10
60.6
 20
33.7
 30
0.1
 40
3.0
  1
ＵＶＦ－１１Ｍ
 50
0.0
 41
0.9
 51
0.0
  7
KANJI2
  0
TEXT
  8
0
  6
CONTINUOUS
 62
     2
 10
60.6
 20
28.7
 30
0.1
 40
3.0
  1
ＵＶＦ－１１Ｍ
 50
0.0
 41
0.9
 51
0.0
  7
KANJI2
  0
TEXT
  8
0
  6
CONTINUOUS
 62
     2
 10
58.0
 20
23.8
 30
0.1
 40
3.0
  1
ＵｕＶＦ－１１Ｍ
 50
0.0
 41
0.9
 51
0.0
  7
KANJI2
  0
TEXT
  8
0
  6
CONTINUOUS
 62
     2
 10
57.7
 20
18.8
 30
0.1
 40
3.0
  1
ＵｕＶＦ－１１Ｍ
 50
0.0
 41
0.9
 51
0.0
  7
KANJI2
  0
LINE
  8
0
  6
CONTINUOUS
 62
     2
 10
84.5
 20
82.7
 30
0.0
 11
84.5
 21
17.7
 31
0.0
  0
TEXT
  8
0
  6
CONTINUOUS
 62
     2
 10
88.0
 20
76.2
 30
1.0
 40
3.0
  1
動作原理
 50
0.0
 41
0.9
 51
0.0
  7
KANJI18
  0
TEXT
  8
0
  6
CONTINUOUS
 62
     2
 10
86.5
 20
18.7
 30
0.3
 40
3.0
  1
位相検出方式
 50
0.0
 41
0.9
 51
0.0
  7
KANJI7
  0
TEXT
  8
0
  6
CONTINUOUS
 62
     2
 10
86.5
 20
23.7
 30
0.3
 40
3.0
  1
位相検出方式
 50
0.0
 41
0.9
 51
0.0
  7
KANJI7
  0
TEXT
  8
0
  6
CONTINUOUS
 62
     2
 10
86.5
 20
33.7
 30
0.3
 40
3.0
  1
位相検出方式
 50
0.0
 41
0.9
 51
0.0
  7
KANJI7
  0
TEXT
  8
0
  6
CONTINUOUS
 62
     2
 10
86.5
 20
28.7
 30
0.3
 40
3.0
  1
位相検出方式
 50
0.0
 41
0.9
 51
0.0
  7
KANJI7
  0
TEXT
  8
0
  6
CONTINUOUS
 62
     2
 10
62.2
 20
76.1
 30
1.0
 40
3.0
  1
計器形名
 50
0.0
 41
0.9
 51
0.0
  7
KANJI18
  0
TEXT
  8
0
  6
CONTINUOUS
 62
     2
 10
86.6
 20
68.7
 30
0.3
 40
3.0
  1
時分割掛算方式
 50
0.0
 41
0.8
 51
0.0
  7
KANJI11
  0
TEXT
  8
0
  6
CONTINUOUS
 62
     2
 10
86.6
 20
63.7
 30
0.3
 40
3.0
  1
時分割掛算方式
 50
0.0
 41
0.8
 51
0.0
  7
KANJI11
  0
TEXT
  8
0
  6
CONTINUOUS
 62
     2
 10
86.6
 20
58.7
 30
0.3
 40
3.0
  1
時分割掛算方式
 50
0.0
 41
0.8
 51
0.0
  7
KANJI11
  0
TEXT
  8
0
  6
CONTINUOUS
 62
     2
 10
86.6
 20
53.7
 30
0.3
 40
3.0
  1
時分割掛算方式
 50
0.0
 41
0.8
 51
0.0
  7
KANJI11
  0
TEXT
  8
0
  6
CONTINUOUS
 62
     2
 10
86.6
 20
48.7
 30
0.3
 40
3.0
  1
時分割掛算方式
 50
0.0
 41
0.8
 51
0.0
  7
KANJI11
  0
TEXT
  8
0
  6
CONTINUOUS
 62
     2
 10
86.6
 20
43.7
 30
0.3
 40
3.0
  1
時分割掛算方式
 50
0.0
 41
0.8
 51
0.0
  7
KANJI11
  0
TEXT
  8
0
  6
CONTINUOUS
 62
     2
 10
86.6
 20
38.7
 30
0.3
 40
3.0
  1
時分割掛算方式
 50
0.0
 41
0.8
 51
0.0
  7
KANJI11
  0
TEXT
  8
0
  6
CONTINUOUS
 62
     2
 10
55.5
 20
45.6
 30
0.18
 40
1.8
  1
※
 50
0.0
 41
0.9
 51
0.0
  7
KANJI5
  0
TEXT
  8
0
  6
CONTINUOUS
 62
     2
 10
55.5
 20
40.6
 30
0.18
 40
1.8
  1
※
 50
0.0
 41
0.9
 51
0.0
  7
KANJI5
  0
LINE
  8
0
  6
CONTINUOUS
 62
     2
 10
106.5
 20
17.7
 30
0.0
 11
106.5
 21
82.7
 31
0.0
  0
TEXT
  8
0
  6
CONTINUOUS
 62
     2
 10
110.7
 20
73.5
 30
0.3
 40
3.0
  1
電圧入力用
 50
0.0
 41
0.7
 51
0.0
  7
KANJI19
  0
TEXT
  8
0
  6
CONTINUOUS
 62
     2
 10
110.4
 20
68.6
 30
0.2
 40
3.0
  1
１，３
 50
0.0
 41
0.733333333
 51
0.0
  7
KANJI15
  0
TEXT
  8
0
  6
CONTINUOUS
 62
     2
 10
110.4
 20
63.6
 30
0.2
 40
3.0
  1
１，３，５
 50
0.0
 41
0.733333333
 51
0.0
  7
KANJI15
  0
TEXT
  8
0
  6
CONTINUOUS
 62
     2
 10
110.4
 20
58.6
 30
0.2
 40
3.0
  1
１，３，５
 50
0.0
 41
0.733333333
 51
0.0
  7
KANJI15
  0
TEXT
  8
0
  6
CONTINUOUS
 62
     2
 10
110.4
 20
43.6
 30
0.2
 40
3.0
  1
１，３，５
 50
0.0
 41
0.733333333
 51
0.0
  7
KANJI15
  0
TEXT
  8
0
  6
CONTINUOUS
 62
     2
 10
110.4
 20
23.6
 30
0.2
 40
3.0
  1
１，３，５
 50
0.0
 41
0.733333333
 51
0.0
  7
KANJI15
  0
TEXT
  8
0
  6
CONTINUOUS
 62
     2
 10
110.4
 20
48.6
 30
0.2
 40
3.0
  1
１，３
 50
0.0
 41
0.733333333
 51
0.0
  7
KANJI15
  0
TEXT
  8
0
  6
CONTINUOUS
 62
     2
 10
110.4
 20
33.6
 30
0.2
 40
3.0
  1
１，３
 50
0.0
 41
0.733333333
 51
0.0
  7
KANJI15
  0
TEXT
  8
0
  6
CONTINUOUS
 62
     2
 10
110.4
 20
28.6
 30
0.2
 40
3.0
  1
３，５
 50
0.0
 41
0.733333333
 51
0.0
  7
KANJI15
  0
TEXT
  8
0
  6
CONTINUOUS
 62
     2
 10
110.4
 20
53.6
 30
0.2
 40
3.0
  1
１，２，３，５
 50
0.0
 41
0.733333333
 51
0.0
  7
KANJI15
  0
TEXT
  8
0
  6
CONTINUOUS
 62
     2
 10
110.4
 20
38.6
 30
0.2
 40
3.0
  1
１，２，３，５
 50
0.0
 41
0.733333333
 51
0.0
  7
KANJI15
  0
TEXT
  8
0
  6
CONTINUOUS
 62
     2
 10
110.4
 20
18.6
 30
0.2
 40
3.0
  1
２，３
 50
0.0
 41
0.733333333
 51
0.0
  7
KANJI15
  0
LINE
  8
0
  6
CONTINUOUS
 62
     2
 10
128.5
 20
17.7
 30
0.0
 11
128.5
 21
77.7
 31
0.0
  0
TEXT
  8
0
  6
CONTINUOUS
 62
     2
 10
129.5
 20
18.6
 30
0.1
 40
3.0
  1
６，７，８，９，１０，１１
 50
0.0
 41
0.6
 51
0.0
  7
KANJI20
  0
TEXT
  8
0
  6
CONTINUOUS
 62
     2
 10
129.5
 20
53.6
 30
0.1
 40
3.0
  1
６，７，８，９，１０，１１
 50
0.0
 41
0.6
 51
0.0
  7
KANJI20
  0
TEXT
  8
0
  6
CONTINUOUS
 62
     2
 10
129.5
 20
38.6
 30
0.1
 40
3.0
  1
６，７，８，９，１０，１１
 50
0.0
 41
0.6
 51
0.0
  7
KANJI20
  0
TEXT
  8
0
  6
CONTINUOUS
 62
     2
 10
129.5
 20
68.6
 30
0.1
 40
3.0
  1
６，７
 50
0.0
 41
0.6
 51
0.0
  7
KANJI20
  0
TEXT
  8
0
  6
CONTINUOUS
 62
     2
 10
129.5
 20
58.6
 30
0.1
 40
3.0
  1
６，７，１０，１１
 50
0.0
 41
0.6
 51
0.0
  7
KANJI20
  0
TEXT
  8
0
  6
CONTINUOUS
 62
     2
 10
129.5
 20
48.6
 30
0.1
 40
3.0
  1
６，７
 50
0.0
 41
0.6
 51
0.0
  7
KANJI20
  0
TEXT
  8
0
  6
CONTINUOUS
 62
     2
 10
129.5
 20
43.6
 30
0.1
 40
3.0
  1
６，７，１０，１１
 50
0.0
 41
0.6
 51
0.0
  7
KANJI20
  0
TEXT
  8
0
  6
CONTINUOUS
 62
     2
 10
129.5
 20
23.6
 30
0.1
 40
3.0
  1
６，７，１０，１１
 50
0.0
 41
0.6
 51
0.0
  7
KANJI20
  0
TEXT
  8
0
  6
CONTINUOUS
 62
     2
 10
129.5
 20
33.6
 30
0.1
 40
3.0
  1
６，７
 50
0.0
 41
0.6
 51
0.0
  7
KANJI20
  0
TEXT
  8
0
  6
CONTINUOUS
 62
     2
 10
129.5
 20
28.6
 30
0.1
 40
3.0
  1
６，７
 50
0.0
 41
0.6
 51
0.0
  7
KANJI20
  0
TEXT
  8
0
  6
CONTINUOUS
 62
     2
 10
129.5
 20
63.6
 30
0.1
 40
3.0
  1
６，７，１０，１１
 50
0.0
 41
0.6
 51
0.0
  7
KANJI20
  0
TEXT
  8
0
  6
CONTINUOUS
 62
     2
 10
124.0
 20
78.7
 30
1.0
 40
3.0
  1
端子位置
 50
0.0
 41
0.9
 51
0.0
  7
KANJI18
  0
TEXT
  8
0
  6
CONTINUOUS
 62
     2
 10
135.7
 20
73.5
 30
0.3
 40
3.0
  1
電流入力用
 50
0.0
 41
0.7
 51
0.0
  7
KANJI19
  0
LINE
  8
0
  6
CONTINUOUS
 62
     2
 10
106.5
 20
77.7
 30
0.0
 11
157.5
 21
77.7
 31
0.0
  0
LINE
  8
0
  6
CONTINUOUS
 62
     2
 10
157.5
 20
67.7
 30
0.0
 11
41.5
 21
67.7
 31
0.0
  0
LINE
  8
0
  6
CONTINUOUS
 62
     2
 10
157.5
 20
37.7
 30
0.0
 11
13.0
 21
37.7
 31
0.0
  0
LINE
  8
0
  6
CONTINUOUS
 62
     2
 10
13.0
 20
42.7
 30
0.0
 11
157.5
 21
42.7
 31
0.0
  0
LINE
  8
0
  6
CONTINUOUS
 62
     2
 10
157.5
 20
47.7
 30
0.0
 11
13.0
 21
47.7
 31
0.0
  0
LINE
  8
0
  6
CONTINUOUS
 62
     2
 10
13.0
 20
52.7
 30
0.0
 11
157.5
 21
52.7
 31
0.0
  0
LINE
  8
0
  6
CONTINUOUS
 62
     2
 10
13.0
 20
72.7
 30
0.0
 11
157.5
 21
72.7
 31
0.0
  0
LINE
  8
0
  6
CONTINUOUS
 62
     2
 10
157.5
 20
67.7
 30
0.0
 11
13.0
 21
67.7
 31
0.0
  0
LINE
  8
0
  6
CONTINUOUS
 62
     2
 10
13.0
 20
62.7
 30
0.0
 11
157.5
 21
62.7
 31
0.0
  0
LINE
  8
0
  6
CONTINUOUS
 62
     2
 10
157.5
 20
57.7
 30
0.0
 11
13.0
 21
57.7
 31
0.0
  0
LINE
  8
0
  6
CONTINUOUS
 62
     2
 10
157.5
 20
17.7
 30
0.0
 11
13.0
 21
17.7
 31
0.0
  0
LINE
  8
0
  6
CONTINUOUS
 62
     2
 10
13.0
 20
22.7
 30
0.0
 11
157.5
 21
22.7
 31
0.0
  0
LINE
  8
0
  6
CONTINUOUS
 62
     2
 10
157.5
 20
32.7
 30
0.0
 11
13.0
 21
32.7
 31
0.0
  0
LINE
  8
0
  6
CONTINUOUS
 62
     2
 10
157.5
 20
27.7
 30
0.0
 11
13.0
 21
27.7
 31
0.0
  0
LINE
  8
0
  6
CONTINUOUS
 62
     2
 10
13.0
 20
82.7
 30
0.0
 11
157.5
 21
82.7
 31
0.0
  0
ENDSEC
  0
EOF
