  0
SECTION
  2
HEADER
  9
$ACADVER
  1
AC1009
  9
$DWGCODEPAGE
  3
dos932
  9
$EXTMIN
 10
0.0
 20
0.0
 30
0.0
  9
$EXTMAX
 10
297.0
 20
210.0
 30
0.0
  9
$LIMMIN
 10
0.0
 20
0.0
  9
$LIMMAX
 10
297.0
 20
210.0
  9
$LTSCALE
 40
1.0
  9
$PDMODE
 70
     0
  0
ENDSEC
  0
SECTION
  2
TABLES
  0
TABLE
  2
VPORT
 70
     1
  0
VPORT
  2
*ACTIVE
 70
     0
 10
0.0
 20
0.0
 11
1.0
 21
1.0
 12
148.5
 22
105.0
 13
0.0
 23
0.0
 14
10.0
 24
10.0
 15
10.0
 25
10.0
 16
0.0
 26
0.0
 36
1.0
 17
0.0
 27
0.0
 37
0.0
 40
297.0
 41
1.414285714
 42
50.0
 43
0.0
 44
0.0
 50
0.0
 51
0.0
 71
     0
 72
  1000
 73
     1
 74
     3
 75
     0
 76
     0
 77
     0
 78
     0
  0
ENDTAB
  0
TABLE
  2
LTYPE
 70
     4
  0
LTYPE
  2
CONTINUOUS
 70
    64
  3
Solid line
 72
    65
 73
     0
 40
0.0
  0
LTYPE
  2
LTYPE1
 70
    64
  3
CENTER
 72
    65
 73
     4
 40
15.0
 49
10.5
 49
-1.5
 49
1.5
 49
-1.5
  0
LTYPE
  2
LTYPE2
 70
    64
  3
CENTER
 72
    65
 73
     4
 40
8.0
 49
5.6
 49
-0.8
 49
0.8
 49
-0.8
  0
LTYPE
  2
LTYPE3
 70
    64
  3
CENTER
 72
    65
 73
     4
 40
10.0
 49
7.0
 49
-1.0
 49
1.0
 49
-1.0
  0
ENDTAB
  0
TABLE
  2
LAYER
 70
   128
  0
LAYER
  2
0
 70
     0
 62
     7
  6
CONTINUOUS
  0
LAYER
  2
2
 70
     0
 62
     7
  6
CONTINUOUS
  0
LAYER
  2
3
 70
     0
 62
     7
  6
CONTINUOUS
  0
LAYER
  2
4
 70
     0
 62
     7
  6
CONTINUOUS
  0
LAYER
  2
5
 70
     0
 62
     7
  6
CONTINUOUS
  0
LAYER
  2
6
 70
     0
 62
     7
  6
CONTINUOUS
  0
LAYER
  2
7
 70
     0
 62
     7
  6
CONTINUOUS
  0
LAYER
  2
8
 70
     0
 62
     7
  6
CONTINUOUS
  0
LAYER
  2
9
 70
     0
 62
     7
  6
CONTINUOUS
  0
LAYER
  2
10
 70
     0
 62
     7
  6
CONTINUOUS
  0
LAYER
  2
11
 70
     0
 62
     7
  6
CONTINUOUS
  0
LAYER
  2
12
 70
     0
 62
     7
  6
CONTINUOUS
  0
LAYER
  2
13
 70
     0
 62
     7
  6
CONTINUOUS
  0
LAYER
  2
14
 70
     0
 62
     7
  6
CONTINUOUS
  0
LAYER
  2
15
 70
     0
 62
     7
  6
CONTINUOUS
  0
LAYER
  2
16
 70
     0
 62
     7
  6
CONTINUOUS
  0
LAYER
  2
17
 70
     0
 62
     7
  6
CONTINUOUS
  0
LAYER
  2
18
 70
     0
 62
     7
  6
CONTINUOUS
  0
LAYER
  2
19
 70
     0
 62
     7
  6
CONTINUOUS
  0
LAYER
  2
20
 70
     0
 62
     7
  6
CONTINUOUS
  0
LAYER
  2
21
 70
     0
 62
     7
  6
CONTINUOUS
  0
LAYER
  2
22
 70
     0
 62
     7
  6
CONTINUOUS
  0
LAYER
  2
23
 70
     0
 62
     7
  6
CONTINUOUS
  0
LAYER
  2
24
 70
     0
 62
     7
  6
CONTINUOUS
  0
LAYER
  2
25
 70
     0
 62
     7
  6
CONTINUOUS
  0
LAYER
  2
26
 70
     0
 62
     7
  6
CONTINUOUS
  0
LAYER
  2
27
 70
     0
 62
     7
  6
CONTINUOUS
  0
LAYER
  2
28
 70
     0
 62
     7
  6
CONTINUOUS
  0
LAYER
  2
29
 70
     0
 62
     7
  6
CONTINUOUS
  0
LAYER
  2
30
 70
     0
 62
     7
  6
CONTINUOUS
  0
LAYER
  2
31
 70
     0
 62
     7
  6
CONTINUOUS
  0
LAYER
  2
32
 70
     0
 62
     7
  6
CONTINUOUS
  0
LAYER
  2
33
 70
     0
 62
     7
  6
CONTINUOUS
  0
LAYER
  2
34
 70
     0
 62
     7
  6
CONTINUOUS
  0
LAYER
  2
35
 70
     0
 62
     7
  6
CONTINUOUS
  0
LAYER
  2
36
 70
     0
 62
     7
  6
CONTINUOUS
  0
LAYER
  2
37
 70
     0
 62
     7
  6
CONTINUOUS
  0
LAYER
  2
38
 70
     0
 62
     7
  6
CONTINUOUS
  0
LAYER
  2
39
 70
     0
 62
     7
  6
CONTINUOUS
  0
LAYER
  2
40
 70
     0
 62
     7
  6
CONTINUOUS
  0
LAYER
  2
41
 70
     0
 62
     7
  6
CONTINUOUS
  0
LAYER
  2
42
 70
     0
 62
     7
  6
CONTINUOUS
  0
LAYER
  2
43
 70
     0
 62
     7
  6
CONTINUOUS
  0
LAYER
  2
44
 70
     0
 62
     7
  6
CONTINUOUS
  0
LAYER
  2
45
 70
     0
 62
     7
  6
CONTINUOUS
  0
LAYER
  2
46
 70
     0
 62
     7
  6
CONTINUOUS
  0
LAYER
  2
47
 70
     0
 62
     7
  6
CONTINUOUS
  0
LAYER
  2
48
 70
     0
 62
     7
  6
CONTINUOUS
  0
LAYER
  2
49
 70
     0
 62
     7
  6
CONTINUOUS
  0
LAYER
  2
50
 70
     0
 62
     7
  6
CONTINUOUS
  0
LAYER
  2
51
 70
     0
 62
     7
  6
CONTINUOUS
  0
LAYER
  2
52
 70
     0
 62
     7
  6
CONTINUOUS
  0
LAYER
  2
53
 70
     0
 62
     7
  6
CONTINUOUS
  0
LAYER
  2
54
 70
     0
 62
     7
  6
CONTINUOUS
  0
LAYER
  2
55
 70
     0
 62
     7
  6
CONTINUOUS
  0
LAYER
  2
56
 70
     0
 62
     7
  6
CONTINUOUS
  0
LAYER
  2
57
 70
     0
 62
     7
  6
CONTINUOUS
  0
LAYER
  2
58
 70
     0
 62
     7
  6
CONTINUOUS
  0
LAYER
  2
59
 70
     0
 62
     7
  6
CONTINUOUS
  0
LAYER
  2
60
 70
     0
 62
     7
  6
CONTINUOUS
  0
LAYER
  2
61
 70
     0
 62
     7
  6
CONTINUOUS
  0
LAYER
  2
62
 70
     0
 62
     7
  6
CONTINUOUS
  0
LAYER
  2
63
 70
     0
 62
     7
  6
CONTINUOUS
  0
LAYER
  2
64
 70
     0
 62
     7
  6
CONTINUOUS
  0
LAYER
  2
65
 70
     0
 62
     7
  6
CONTINUOUS
  0
LAYER
  2
66
 70
     0
 62
     7
  6
CONTINUOUS
  0
LAYER
  2
67
 70
     0
 62
     7
  6
CONTINUOUS
  0
LAYER
  2
68
 70
     0
 62
     7
  6
CONTINUOUS
  0
LAYER
  2
69
 70
     0
 62
     7
  6
CONTINUOUS
  0
LAYER
  2
70
 70
     0
 62
     7
  6
CONTINUOUS
  0
LAYER
  2
71
 70
     0
 62
     7
  6
CONTINUOUS
  0
LAYER
  2
72
 70
     0
 62
     7
  6
CONTINUOUS
  0
LAYER
  2
73
 70
     0
 62
     7
  6
CONTINUOUS
  0
LAYER
  2
74
 70
     0
 62
     7
  6
CONTINUOUS
  0
LAYER
  2
75
 70
     0
 62
     7
  6
CONTINUOUS
  0
LAYER
  2
76
 70
     0
 62
     7
  6
CONTINUOUS
  0
LAYER
  2
77
 70
     0
 62
     7
  6
CONTINUOUS
  0
LAYER
  2
78
 70
     0
 62
     7
  6
CONTINUOUS
  0
LAYER
  2
79
 70
     0
 62
     7
  6
CONTINUOUS
  0
LAYER
  2
80
 70
     0
 62
     7
  6
CONTINUOUS
  0
LAYER
  2
81
 70
     0
 62
     7
  6
CONTINUOUS
  0
LAYER
  2
82
 70
     0
 62
     7
  6
CONTINUOUS
  0
LAYER
  2
83
 70
     0
 62
     7
  6
CONTINUOUS
  0
LAYER
  2
84
 70
     0
 62
     7
  6
CONTINUOUS
  0
LAYER
  2
85
 70
     0
 62
     7
  6
CONTINUOUS
  0
LAYER
  2
86
 70
     0
 62
     7
  6
CONTINUOUS
  0
LAYER
  2
87
 70
     0
 62
     7
  6
CONTINUOUS
  0
LAYER
  2
88
 70
     0
 62
     7
  6
CONTINUOUS
  0
LAYER
  2
89
 70
     0
 62
     7
  6
CONTINUOUS
  0
LAYER
  2
90
 70
     0
 62
     7
  6
CONTINUOUS
  0
LAYER
  2
91
 70
     0
 62
     7
  6
CONTINUOUS
  0
LAYER
  2
92
 70
     0
 62
     7
  6
CONTINUOUS
  0
LAYER
  2
93
 70
     0
 62
     7
  6
CONTINUOUS
  0
LAYER
  2
94
 70
     0
 62
     7
  6
CONTINUOUS
  0
LAYER
  2
95
 70
     0
 62
     7
  6
CONTINUOUS
  0
LAYER
  2
96
 70
     0
 62
     7
  6
CONTINUOUS
  0
LAYER
  2
97
 70
     0
 62
     7
  6
CONTINUOUS
  0
LAYER
  2
98
 70
     0
 62
     7
  6
CONTINUOUS
  0
LAYER
  2
99
 70
     0
 62
     7
  6
CONTINUOUS
  0
LAYER
  2
100
 70
     0
 62
     7
  6
CONTINUOUS
  0
LAYER
  2
101
 70
     0
 62
     7
  6
CONTINUOUS
  0
LAYER
  2
102
 70
     0
 62
     7
  6
CONTINUOUS
  0
LAYER
  2
103
 70
     0
 62
     7
  6
CONTINUOUS
  0
LAYER
  2
104
 70
     0
 62
     7
  6
CONTINUOUS
  0
LAYER
  2
105
 70
     0
 62
     7
  6
CONTINUOUS
  0
LAYER
  2
106
 70
     0
 62
     7
  6
CONTINUOUS
  0
LAYER
  2
107
 70
     0
 62
     7
  6
CONTINUOUS
  0
LAYER
  2
108
 70
     0
 62
     7
  6
CONTINUOUS
  0
LAYER
  2
109
 70
     0
 62
     7
  6
CONTINUOUS
  0
LAYER
  2
110
 70
     0
 62
     7
  6
CONTINUOUS
  0
LAYER
  2
111
 70
     0
 62
     7
  6
CONTINUOUS
  0
LAYER
  2
112
 70
     0
 62
     7
  6
CONTINUOUS
  0
LAYER
  2
113
 70
     0
 62
     7
  6
CONTINUOUS
  0
LAYER
  2
114
 70
     0
 62
     7
  6
CONTINUOUS
  0
LAYER
  2
115
 70
     0
 62
     7
  6
CONTINUOUS
  0
LAYER
  2
116
 70
     0
 62
     7
  6
CONTINUOUS
  0
LAYER
  2
117
 70
     0
 62
     7
  6
CONTINUOUS
  0
LAYER
  2
118
 70
     0
 62
     7
  6
CONTINUOUS
  0
LAYER
  2
119
 70
     0
 62
     7
  6
CONTINUOUS
  0
LAYER
  2
120
 70
     0
 62
     7
  6
CONTINUOUS
  0
LAYER
  2
121
 70
     0
 62
     7
  6
CONTINUOUS
  0
LAYER
  2
122
 70
     0
 62
     7
  6
CONTINUOUS
  0
LAYER
  2
123
 70
     0
 62
     7
  6
CONTINUOUS
  0
LAYER
  2
124
 70
     0
 62
     7
  6
CONTINUOUS
  0
LAYER
  2
125
 70
     0
 62
     7
  6
CONTINUOUS
  0
LAYER
  2
126
 70
     0
 62
     7
  6
CONTINUOUS
  0
LAYER
  2
127
 70
     0
 62
     7
  6
CONTINUOUS
  0
LAYER
  2
128
 70
     0
 62
     7
  6
CONTINUOUS
  0
ENDTAB
  0
TABLE
  2
STYLE
 70
    13
  0
STYLE
  2
STANDARD
 70
     0
 40
0.0
 41
1.0
 50
0.0
 71
     0
 42
0.2
  3
txt.shx
  4
extfont.shx
  0
STYLE
  2
KANJI0
 70
     0
 40
6.0
 41
0.866666667
 50
0.0
 71
     0
 42
6.0
  3
txt.shx
  4
extfont.shx
  0
STYLE
  2
KANJI1
 70
     0
 40
3.0
 41
0.9
 50
0.0
 71
     0
 42
3.0
  3
txt.shx
  4
extfont.shx
  0
STYLE
  2
KANJI2
 70
     0
 40
3.0
 41
0.9
 50
0.0
 71
     0
 42
3.0
  3
txt.shx
  4
extfont.shx
  0
STYLE
  2
KANJI3
 70
     0
 40
1.8
 41
0.6
 50
0.0
 71
     0
 42
1.8
  3
txt.shx
  4
extfont.shx
  0
STYLE
  2
KANJI4
 70
     0
 40
3.0
 41
0.6
 50
0.0
 71
     0
 42
3.0
  3
txt.shx
  4
extfont.shx
  0
STYLE
  2
KANJI5
 70
     0
 40
3.0
 41
0.9
 50
0.0
 71
     0
 42
3.0
  3
txt.shx
  4
extfont.shx
  0
STYLE
  2
KANJI6
 70
     0
 40
3.0
 41
0.9
 50
0.0
 71
     0
 42
3.0
  3
txt.shx
  4
extfont.shx
  0
STYLE
  2
KANJI7
 70
     0
 40
3.0
 41
0.6
 50
0.0
 71
     0
 42
3.0
  3
txt.shx
  4
extfont.shx
  0
STYLE
  2
KANJI8
 70
     0
 40
3.0
 41
0.5
 50
0.0
 71
     0
 42
3.0
  3
txt.shx
  4
extfont.shx
  0
STYLE
  2
KANJI9
 70
     0
 40
3.0
 41
0.766666667
 50
0.0
 71
     0
 42
3.0
  3
txt.shx
  4
extfont.shx
  0
STYLE
  2
KANJI10
 70
     0
 40
4.2
 41
0.714285714
 50
0.0
 71
     0
 42
4.2
  3
txt.shx
  4
extfont.shx
  0
STYLE
  2
KANJI11
 70
     0
 40
4.0
 41
0.9
 50
0.0
 71
     0
 42
4.0
  3
txt.shx
  4
extfont.shx
  0
ENDTAB
  0
TABLE
  2
VIEW
 70
     0
  0
ENDTAB
  0
ENDSEC
  0
SECTION
  2
BLOCKS
  0
ENDSEC
  0
SECTION
  2
ENTITIES
  0
TEXT
  8
0
  6
CONTINUOUS
 62
     3
 10
233.0
 20
17.0
 30
0.0
 40
6.0
  1
ＭＳ－１３３９８
 50
0.0
 41
0.866666667
 51
0.0
  7
KANJI0
  0
ARC
  8
0
  6
CONTINUOUS
 62
     1
 10
78.3
 20
112.4
 30
0.0
 40
3.0
 50
270.0
 51
0.0
  0
LINE
  8
0
  6
CONTINUOUS
 62
     1
 10
81.3
 20
112.4
 30
0.0
 11
81.3
 21
161.4
 31
0.0
  0
ARC
  8
0
  6
CONTINUOUS
 62
     1
 10
78.3
 20
161.4
 30
0.0
 40
3.0
 50
0.0
 51
90.0
  0
LINE
  8
0
  6
CONTINUOUS
 62
     1
 10
78.3
 20
164.4
 30
0.0
 11
29.3
 21
164.4
 31
0.0
  0
ARC
  8
0
  6
CONTINUOUS
 62
     1
 10
29.3
 20
161.4
 30
0.0
 40
3.0
 50
90.0
 51
180.0
  0
LINE
  8
0
  6
CONTINUOUS
 62
     1
 10
29.3
 20
109.4
 30
0.0
 11
78.3
 21
109.4
 31
0.0
  0
LINE
  8
0
  6
CONTINUOUS
 62
     1
 10
26.3
 20
161.4
 30
0.0
 11
26.3
 21
112.4
 31
0.0
  0
ARC
  8
0
  6
CONTINUOUS
 62
     1
 10
29.3
 20
112.4
 30
0.0
 40
3.0
 50
180.0
 51
270.0
  0
CIRCLE
  8
0
  6
CONTINUOUS
 62
     1
 10
53.8
 20
136.9
 30
0.0
 40
25.5
  0
CIRCLE
  8
0
  6
CONTINUOUS
 62
     1
 10
53.8
 20
136.9
 30
0.0
 40
3.05
  0
LINE
  8
0
  6
CONTINUOUS
 62
     1
 10
143.4
 20
161.65
 30
0.0
 11
143.4
 21
112.15
 31
0.0
  0
ARC
  8
0
  6
CONTINUOUS
 62
     1
 10
145.4
 20
112.65
 30
0.0
 40
0.5
 50
270.0
 51
0.0
  0
LINE
  8
0
  6
CONTINUOUS
 62
     1
 10
145.9
 20
161.15
 30
0.0
 11
145.9
 21
112.65
 31
0.0
  0
ARC
  8
0
  6
CONTINUOUS
 62
     1
 10
145.4
 20
161.15
 30
0.0
 40
0.5
 50
360.0
 51
90.0
  0
ARC
  8
0
  6
CONTINUOUS
 62
     1
 10
211.7
 20
112.4
 30
0.0
 40
3.0
 50
270.0
 51
0.0
  0
LINE
  8
0
  6
CONTINUOUS
 62
     1
 10
162.7
 20
109.4
 30
0.0
 11
211.7
 21
109.4
 31
0.0
  0
ARC
  8
0
  6
CONTINUOUS
 62
     1
 10
162.7
 20
112.4
 30
0.0
 40
3.0
 50
180.0
 51
270.0
  0
LINE
  8
0
  6
CONTINUOUS
 62
     1
 10
159.7
 20
161.4
 30
0.0
 11
159.7
 21
112.4
 31
0.0
  0
ARC
  8
0
  6
CONTINUOUS
 62
     1
 10
162.7
 20
161.4
 30
0.0
 40
3.0
 50
90.0
 51
180.0
  0
LINE
  8
0
  6
CONTINUOUS
 62
     1
 10
214.7
 20
112.4
 30
0.0
 11
214.7
 21
161.4
 31
0.0
  0
LINE
  8
0
  6
CONTINUOUS
 62
     1
 10
211.7
 20
164.4
 30
0.0
 11
162.7
 21
164.4
 31
0.0
  0
ARC
  8
0
  6
CONTINUOUS
 62
     1
 10
211.7
 20
161.4
 30
0.0
 40
3.0
 50
360.0
 51
90.0
  0
CIRCLE
  8
0
  6
CONTINUOUS
 62
     1
 10
187.2
 20
136.9
 30
0.0
 40
24.75
  0
CIRCLE
  8
0
  6
CONTINUOUS
 62
     1
 10
187.2
 20
66.05
 30
0.0
 40
25.5
  0
TEXT
  8
0
  6
CONTINUOUS
 62
     1
 10
178.05
 20
31.8
 30
0.5
 40
3.0
  1
パネルカット
 50
0.0
 41
0.9
 51
0.0
  7
KANJI1
  0
LINE
  8
0
  6
CONTINUOUS
 62
     1
 10
176.8
 20
30.95
 30
0.0
 11
197.7
 21
30.95
 31
0.0
  0
TEXT
  8
0
  6
CONTINUOUS
 62
     1
 10
171.0
 20
135.9
 30
0.3
 40
3.0
  1
Ｌ
 50
0.0
 41
0.9
 51
0.0
  7
KANJI2
  0
TEXT
  8
0
  6
CONTINUOUS
 62
     1
 10
200.6
 20
136.2
 30
0.3
 40
3.0
  1
Ｌ
 50
0.0
 41
0.9
 51
0.0
  7
KANJI2
  0
TEXT
  8
0
  6
CONTINUOUS
 62
     1
 10
178.3
 20
146.2
 30
0.3
 40
3.0
  1
＋
 50
0.0
 41
0.9
 51
0.0
  7
KANJI2
  0
CIRCLE
  8
0
  6
CONTINUOUS
 62
     2
 10
76.3
 20
159.4
 30
0.0
 40
1.5
  0
LINE
  8
0
  6
CONTINUOUS
 62
     2
 10
75.425
 20
159.6
 30
0.0
 11
75.9
 21
159.6
 31
0.0
  0
ARC
  8
0
  6
CONTINUOUS
 62
     2
 10
75.9
 20
159.8
 30
0.0
 40
0.2
 50
270.0
 51
0.0
  0
LINE
  8
0
  6
CONTINUOUS
 62
     2
 10
76.1
 20
159.8
 30
0.0
 11
76.1
 21
160.275
 31
0.0
  0
LINE
  8
0
  6
CONTINUOUS
 62
     2
 10
76.1
 20
160.275
 30
0.0
 11
76.5
 21
160.275
 31
0.0
  0
LINE
  8
0
  6
CONTINUOUS
 62
     2
 10
76.5
 20
160.275
 30
0.0
 11
76.5
 21
159.8
 31
0.0
  0
ARC
  8
0
  6
CONTINUOUS
 62
     2
 10
76.7
 20
159.8
 30
0.0
 40
0.2
 50
180.0
 51
270.0
  0
LINE
  8
0
  6
CONTINUOUS
 62
     2
 10
76.7
 20
159.6
 30
0.0
 11
77.175
 21
159.6
 31
0.0
  0
LINE
  8
0
  6
CONTINUOUS
 62
     2
 10
77.175
 20
159.6
 30
0.0
 11
77.175
 21
159.2
 31
0.0
  0
LINE
  8
0
  6
CONTINUOUS
 62
     2
 10
77.175
 20
159.2
 30
0.0
 11
76.7
 21
159.2
 31
0.0
  0
ARC
  8
0
  6
CONTINUOUS
 62
     2
 10
76.7
 20
159.0
 30
0.0
 40
0.2
 50
90.0
 51
180.0
  0
LINE
  8
0
  6
CONTINUOUS
 62
     2
 10
76.5
 20
159.0
 30
0.0
 11
76.5
 21
158.525
 31
0.0
  0
LINE
  8
0
  6
CONTINUOUS
 62
     2
 10
76.5
 20
158.525
 30
0.0
 11
76.1
 21
158.525
 31
0.0
  0
LINE
  8
0
  6
CONTINUOUS
 62
     2
 10
76.1
 20
158.525
 30
0.0
 11
76.1
 21
159.0
 31
0.0
  0
ARC
  8
0
  6
CONTINUOUS
 62
     2
 10
75.9
 20
159.0
 30
0.0
 40
0.2
 50
0.0
 51
90.0
  0
LINE
  8
0
  6
CONTINUOUS
 62
     2
 10
75.9
 20
159.2
 30
0.0
 11
75.425
 21
159.2
 31
0.0
  0
LINE
  8
0
  6
CONTINUOUS
 62
     2
 10
75.425
 20
159.2
 30
0.0
 11
75.425
 21
159.6
 31
0.0
  0
LINE
  8
0
  6
LTYPE1
 62
     2
 10
74.3
 20
159.4
 30
0.0
 11
78.3
 21
159.4
 31
0.0
  0
LINE
  8
0
  6
LTYPE1
 62
     2
 10
76.3
 20
161.4
 30
0.0
 11
76.3
 21
157.4
 31
0.0
  0
CIRCLE
  8
0
  6
CONTINUOUS
 62
     2
 10
31.3
 20
159.4
 30
0.0
 40
1.5
  0
LINE
  8
0
  6
CONTINUOUS
 62
     2
 10
30.425
 20
159.6
 30
0.0
 11
30.9
 21
159.6
 31
0.0
  0
ARC
  8
0
  6
CONTINUOUS
 62
     2
 10
30.9
 20
159.8
 30
0.0
 40
0.2
 50
270.0
 51
0.0
  0
LINE
  8
0
  6
CONTINUOUS
 62
     2
 10
31.1
 20
159.8
 30
0.0
 11
31.1
 21
160.275
 31
0.0
  0
LINE
  8
0
  6
CONTINUOUS
 62
     2
 10
31.1
 20
160.275
 30
0.0
 11
31.5
 21
160.275
 31
0.0
  0
LINE
  8
0
  6
CONTINUOUS
 62
     2
 10
31.5
 20
160.275
 30
0.0
 11
31.5
 21
159.8
 31
0.0
  0
ARC
  8
0
  6
CONTINUOUS
 62
     2
 10
31.7
 20
159.8
 30
0.0
 40
0.2
 50
180.0
 51
270.0
  0
LINE
  8
0
  6
CONTINUOUS
 62
     2
 10
31.7
 20
159.6
 30
0.0
 11
32.175
 21
159.6
 31
0.0
  0
LINE
  8
0
  6
CONTINUOUS
 62
     2
 10
32.175
 20
159.6
 30
0.0
 11
32.175
 21
159.2
 31
0.0
  0
LINE
  8
0
  6
CONTINUOUS
 62
     2
 10
32.175
 20
159.2
 30
0.0
 11
31.7
 21
159.2
 31
0.0
  0
ARC
  8
0
  6
CONTINUOUS
 62
     2
 10
31.7
 20
159.0
 30
0.0
 40
0.2
 50
90.0
 51
180.0
  0
LINE
  8
0
  6
CONTINUOUS
 62
     2
 10
31.5
 20
159.0
 30
0.0
 11
31.5
 21
158.525
 31
0.0
  0
LINE
  8
0
  6
CONTINUOUS
 62
     2
 10
31.5
 20
158.525
 30
0.0
 11
31.1
 21
158.525
 31
0.0
  0
LINE
  8
0
  6
CONTINUOUS
 62
     2
 10
31.1
 20
158.525
 30
0.0
 11
31.1
 21
159.0
 31
0.0
  0
ARC
  8
0
  6
CONTINUOUS
 62
     2
 10
30.9
 20
159.0
 30
0.0
 40
0.2
 50
0.0
 51
90.0
  0
LINE
  8
0
  6
CONTINUOUS
 62
     2
 10
30.9
 20
159.2
 30
0.0
 11
30.425
 21
159.2
 31
0.0
  0
LINE
  8
0
  6
CONTINUOUS
 62
     2
 10
30.425
 20
159.2
 30
0.0
 11
30.425
 21
159.6
 31
0.0
  0
LINE
  8
0
  6
LTYPE1
 62
     2
 10
29.3
 20
159.4
 30
0.0
 11
33.3
 21
159.4
 31
0.0
  0
LINE
  8
0
  6
LTYPE1
 62
     2
 10
31.3
 20
161.4
 30
0.0
 11
31.3
 21
157.4
 31
0.0
  0
CIRCLE
  8
0
  6
CONTINUOUS
 62
     2
 10
31.3
 20
114.4
 30
0.0
 40
1.5
  0
LINE
  8
0
  6
CONTINUOUS
 62
     2
 10
30.425
 20
114.6
 30
0.0
 11
30.9
 21
114.6
 31
0.0
  0
ARC
  8
0
  6
CONTINUOUS
 62
     2
 10
30.9
 20
114.8
 30
0.0
 40
0.2
 50
270.0
 51
0.0
  0
LINE
  8
0
  6
CONTINUOUS
 62
     2
 10
31.1
 20
114.8
 30
0.0
 11
31.1
 21
115.275
 31
0.0
  0
LINE
  8
0
  6
CONTINUOUS
 62
     2
 10
31.1
 20
115.275
 30
0.0
 11
31.5
 21
115.275
 31
0.0
  0
LINE
  8
0
  6
CONTINUOUS
 62
     2
 10
31.5
 20
115.275
 30
0.0
 11
31.5
 21
114.8
 31
0.0
  0
ARC
  8
0
  6
CONTINUOUS
 62
     2
 10
31.7
 20
114.8
 30
0.0
 40
0.2
 50
180.0
 51
270.0
  0
LINE
  8
0
  6
CONTINUOUS
 62
     2
 10
31.7
 20
114.6
 30
0.0
 11
32.175
 21
114.6
 31
0.0
  0
LINE
  8
0
  6
CONTINUOUS
 62
     2
 10
32.175
 20
114.6
 30
0.0
 11
32.175
 21
114.2
 31
0.0
  0
LINE
  8
0
  6
CONTINUOUS
 62
     2
 10
32.175
 20
114.2
 30
0.0
 11
31.7
 21
114.2
 31
0.0
  0
ARC
  8
0
  6
CONTINUOUS
 62
     2
 10
31.7
 20
114.0
 30
0.0
 40
0.2
 50
90.0
 51
180.0
  0
LINE
  8
0
  6
CONTINUOUS
 62
     2
 10
31.5
 20
114.0
 30
0.0
 11
31.5
 21
113.525
 31
0.0
  0
LINE
  8
0
  6
CONTINUOUS
 62
     2
 10
31.5
 20
113.525
 30
0.0
 11
31.1
 21
113.525
 31
0.0
  0
LINE
  8
0
  6
CONTINUOUS
 62
     2
 10
31.1
 20
113.525
 30
0.0
 11
31.1
 21
114.0
 31
0.0
  0
ARC
  8
0
  6
CONTINUOUS
 62
     2
 10
30.9
 20
114.0
 30
0.0
 40
0.2
 50
0.0
 51
90.0
  0
LINE
  8
0
  6
CONTINUOUS
 62
     2
 10
30.9
 20
114.2
 30
0.0
 11
30.425
 21
114.2
 31
0.0
  0
LINE
  8
0
  6
CONTINUOUS
 62
     2
 10
30.425
 20
114.2
 30
0.0
 11
30.425
 21
114.6
 31
0.0
  0
LINE
  8
0
  6
LTYPE1
 62
     2
 10
29.3
 20
114.4
 30
0.0
 11
33.3
 21
114.4
 31
0.0
  0
LINE
  8
0
  6
LTYPE1
 62
     2
 10
31.3
 20
116.4
 30
0.0
 11
31.3
 21
112.4
 31
0.0
  0
CIRCLE
  8
0
  6
CONTINUOUS
 62
     2
 10
76.3
 20
114.4
 30
0.0
 40
1.5
  0
LINE
  8
0
  6
CONTINUOUS
 62
     2
 10
75.425
 20
114.6
 30
0.0
 11
75.9
 21
114.6
 31
0.0
  0
ARC
  8
0
  6
CONTINUOUS
 62
     2
 10
75.9
 20
114.8
 30
0.0
 40
0.2
 50
270.0
 51
0.0
  0
LINE
  8
0
  6
CONTINUOUS
 62
     2
 10
76.1
 20
114.8
 30
0.0
 11
76.1
 21
115.275
 31
0.0
  0
LINE
  8
0
  6
CONTINUOUS
 62
     2
 10
76.1
 20
115.275
 30
0.0
 11
76.5
 21
115.275
 31
0.0
  0
LINE
  8
0
  6
CONTINUOUS
 62
     2
 10
76.5
 20
115.275
 30
0.0
 11
76.5
 21
114.8
 31
0.0
  0
ARC
  8
0
  6
CONTINUOUS
 62
     2
 10
76.7
 20
114.8
 30
0.0
 40
0.2
 50
180.0
 51
270.0
  0
LINE
  8
0
  6
CONTINUOUS
 62
     2
 10
76.7
 20
114.6
 30
0.0
 11
77.175
 21
114.6
 31
0.0
  0
LINE
  8
0
  6
CONTINUOUS
 62
     2
 10
77.175
 20
114.6
 30
0.0
 11
77.175
 21
114.2
 31
0.0
  0
LINE
  8
0
  6
CONTINUOUS
 62
     2
 10
77.175
 20
114.2
 30
0.0
 11
76.7
 21
114.2
 31
0.0
  0
ARC
  8
0
  6
CONTINUOUS
 62
     2
 10
76.7
 20
114.0
 30
0.0
 40
0.2
 50
90.0
 51
180.0
  0
LINE
  8
0
  6
CONTINUOUS
 62
     2
 10
76.5
 20
114.0
 30
0.0
 11
76.5
 21
113.525
 31
0.0
  0
LINE
  8
0
  6
CONTINUOUS
 62
     2
 10
76.5
 20
113.525
 30
0.0
 11
76.1
 21
113.525
 31
0.0
  0
LINE
  8
0
  6
CONTINUOUS
 62
     2
 10
76.1
 20
113.525
 30
0.0
 11
76.1
 21
114.0
 31
0.0
  0
ARC
  8
0
  6
CONTINUOUS
 62
     2
 10
75.9
 20
114.0
 30
0.0
 40
0.2
 50
0.0
 51
90.0
  0
LINE
  8
0
  6
CONTINUOUS
 62
     2
 10
75.9
 20
114.2
 30
0.0
 11
75.425
 21
114.2
 31
0.0
  0
LINE
  8
0
  6
CONTINUOUS
 62
     2
 10
75.425
 20
114.2
 30
0.0
 11
75.425
 21
114.6
 31
0.0
  0
LINE
  8
0
  6
LTYPE1
 62
     2
 10
74.3
 20
114.4
 30
0.0
 11
78.3
 21
114.4
 31
0.0
  0
LINE
  8
0
  6
LTYPE1
 62
     2
 10
76.3
 20
116.4
 30
0.0
 11
76.3
 21
112.4
 31
0.0
  0
LINE
  8
0
  6
CONTINUOUS
 62
     2
 10
54.25
 20
133.883379374
 30
0.0
 11
54.25
 21
139.916620626
 31
0.0
  0
LINE
  8
0
  6
CONTINUOUS
 62
     2
 10
53.35
 20
139.916620626
 30
0.0
 11
53.35
 21
133.883379374
 31
0.0
  0
CIRCLE
  8
0
  6
CONTINUOUS
 62
     2
 10
53.8
 20
136.9
 30
0.0
 40
8.5
  0
CIRCLE
  8
0
  6
CONTINUOUS
 62
     2
 10
53.8
 20
136.9
 30
0.0
 40
7.8
  0
CIRCLE
  8
0
  6
CONTINUOUS
 62
     2
 10
53.8
 20
136.9
 30
0.0
 40
7.1
  0
CIRCLE
  8
0
  6
CONTINUOUS
 62
     2
 10
53.8
 20
136.9
 30
0.0
 40
6.4
  0
CIRCLE
  8
0
  6
CONTINUOUS
 62
     2
 10
53.8
 20
136.9
 30
0.0
 40
5.7
  0
CIRCLE
  8
0
  6
CONTINUOUS
 62
     2
 10
53.8
 20
136.9
 30
0.0
 40
5.0
  0
CIRCLE
  8
0
  6
CONTINUOUS
 62
     2
 10
53.8
 20
136.9
 30
0.0
 40
4.3
  0
CIRCLE
  8
0
  6
CONTINUOUS
 62
     2
 10
53.8
 20
136.9
 30
0.0
 40
3.6
  0
CIRCLE
  8
0
  6
CONTINUOUS
 62
     2
 10
53.8
 20
136.9
 30
0.0
 40
24.25
  0
CIRCLE
  8
0
  6
CONTINUOUS
 62
     2
 10
53.8
 20
136.9
 30
0.0
 40
21.0
  0
CIRCLE
  8
0
  6
CONTINUOUS
 62
     2
 10
45.3
 20
121.4
 30
0.0
 40
1.5
  0
LINE
  8
0
  6
CONTINUOUS
 62
     2
 10
44.53986021
 20
120.922702923
 30
0.0
 11
44.875735931
 21
121.258578644
 31
0.0
  0
ARC
  8
0
  6
CONTINUOUS
 62
     2
 10
44.734314575
 20
121.4
 30
0.0
 40
0.2
 50
315.0
 51
45.0
  0
LINE
  8
0
  6
CONTINUOUS
 62
     2
 10
44.875735931
 20
121.541421356
 30
0.0
 11
44.53986021
 21
121.877297077
 31
0.0
  0
LINE
  8
0
  6
CONTINUOUS
 62
     2
 10
44.53986021
 20
121.877297077
 30
0.0
 11
44.822702923
 21
122.16013979
 31
0.0
  0
LINE
  8
0
  6
CONTINUOUS
 62
     2
 10
44.822702923
 20
122.16013979
 30
0.0
 11
45.158578644
 21
121.824264069
 31
0.0
  0
ARC
  8
0
  6
CONTINUOUS
 62
     2
 10
45.3
 20
121.965685425
 30
0.0
 40
0.2
 50
225.0
 51
315.0
  0
LINE
  8
0
  6
CONTINUOUS
 62
     2
 10
45.441421356
 20
121.824264069
 30
0.0
 11
45.777297077
 21
122.16013979
 31
0.0
  0
LINE
  8
0
  6
CONTINUOUS
 62
     2
 10
45.777297077
 20
122.16013979
 30
0.0
 11
46.06013979
 21
121.877297077
 31
0.0
  0
LINE
  8
0
  6
CONTINUOUS
 62
     2
 10
46.06013979
 20
121.877297077
 30
0.0
 11
45.724264069
 21
121.541421356
 31
0.0
  0
ARC
  8
0
  6
CONTINUOUS
 62
     2
 10
45.865685425
 20
121.4
 30
0.0
 40
0.2
 50
135.0
 51
225.0
  0
LINE
  8
0
  6
CONTINUOUS
 62
     2
 10
45.724264069
 20
121.258578644
 30
0.0
 11
46.06013979
 21
120.922702923
 31
0.0
  0
LINE
  8
0
  6
CONTINUOUS
 62
     2
 10
46.06013979
 20
120.922702923
 30
0.0
 11
45.777297077
 21
120.63986021
 31
0.0
  0
LINE
  8
0
  6
CONTINUOUS
 62
     2
 10
45.777297077
 20
120.63986021
 30
0.0
 11
45.441421356
 21
120.975735931
 31
0.0
  0
ARC
  8
0
  6
CONTINUOUS
 62
     2
 10
45.3
 20
120.834314575
 30
0.0
 40
0.2
 50
45.0
 51
135.0
  0
LINE
  8
0
  6
CONTINUOUS
 62
     2
 10
45.158578644
 20
120.975735931
 30
0.0
 11
44.822702923
 21
120.63986021
 31
0.0
  0
LINE
  8
0
  6
CONTINUOUS
 62
     2
 10
44.822702923
 20
120.63986021
 30
0.0
 11
44.53986021
 21
120.922702923
 31
0.0
  0
CIRCLE
  8
0
  6
CONTINUOUS
 62
     2
 10
62.3
 20
121.4
 30
0.0
 40
1.5
  0
LINE
  8
0
  6
CONTINUOUS
 62
     2
 10
61.53986021
 20
120.922702923
 30
0.0
 11
61.875735931
 21
121.258578644
 31
0.0
  0
ARC
  8
0
  6
CONTINUOUS
 62
     2
 10
61.734314575
 20
121.4
 30
0.0
 40
0.2
 50
315.0
 51
45.0
  0
LINE
  8
0
  6
CONTINUOUS
 62
     2
 10
61.875735931
 20
121.541421356
 30
0.0
 11
61.53986021
 21
121.877297077
 31
0.0
  0
LINE
  8
0
  6
CONTINUOUS
 62
     2
 10
61.53986021
 20
121.877297077
 30
0.0
 11
61.822702923
 21
122.16013979
 31
0.0
  0
LINE
  8
0
  6
CONTINUOUS
 62
     2
 10
61.822702923
 20
122.16013979
 30
0.0
 11
62.158578644
 21
121.824264069
 31
0.0
  0
ARC
  8
0
  6
CONTINUOUS
 62
     2
 10
62.3
 20
121.965685425
 30
0.0
 40
0.2
 50
225.0
 51
315.0
  0
LINE
  8
0
  6
CONTINUOUS
 62
     2
 10
62.441421356
 20
121.824264069
 30
0.0
 11
62.777297077
 21
122.16013979
 31
0.0
  0
LINE
  8
0
  6
CONTINUOUS
 62
     2
 10
62.777297077
 20
122.16013979
 30
0.0
 11
63.06013979
 21
121.877297077
 31
0.0
  0
LINE
  8
0
  6
CONTINUOUS
 62
     2
 10
63.06013979
 20
121.877297077
 30
0.0
 11
62.724264069
 21
121.541421356
 31
0.0
  0
ARC
  8
0
  6
CONTINUOUS
 62
     2
 10
62.865685425
 20
121.4
 30
0.0
 40
0.2
 50
135.0
 51
225.0
  0
LINE
  8
0
  6
CONTINUOUS
 62
     2
 10
62.724264069
 20
121.258578644
 30
0.0
 11
63.06013979
 21
120.922702923
 31
0.0
  0
LINE
  8
0
  6
CONTINUOUS
 62
     2
 10
63.06013979
 20
120.922702923
 30
0.0
 11
62.777297077
 21
120.63986021
 31
0.0
  0
LINE
  8
0
  6
CONTINUOUS
 62
     2
 10
62.777297077
 20
120.63986021
 30
0.0
 11
62.441421356
 21
120.975735931
 31
0.0
  0
ARC
  8
0
  6
CONTINUOUS
 62
     2
 10
62.3
 20
120.834314575
 30
0.0
 40
0.2
 50
45.0
 51
135.0
  0
LINE
  8
0
  6
CONTINUOUS
 62
     2
 10
62.158578644
 20
120.975735931
 30
0.0
 11
61.822702923
 21
120.63986021
 31
0.0
  0
LINE
  8
0
  6
CONTINUOUS
 62
     2
 10
61.822702923
 20
120.63986021
 30
0.0
 11
61.53986021
 21
120.922702923
 31
0.0
  0
LINE
  8
0
  6
CONTINUOUS
 62
     2
 10
38.502240015
 20
129.44741391
 30
0.0
 11
35.78424919
 21
127.118245415
 31
0.0
  0
LINE
  8
0
  6
CONTINUOUS
 62
     2
 10
35.78424919
 20
127.118245415
 30
0.0
 11
39.217978155
 21
128.129188241
 31
0.0
  0
LINE
  8
0
  6
CONTINUOUS
 62
     2
 10
39.217978155
 20
128.129188241
 30
0.0
 11
46.717058939
 21
132.200856895
 31
0.0
  0
LINE
  8
0
  6
CONTINUOUS
 62
     2
 10
37.981291972
 20
128.311142315
 30
0.0
 11
46.501656687
 21
132.542915552
 31
0.0
  0
LINE
  8
0
  6
CONTINUOUS
 62
     2
 10
46.170878852
 20
133.152132538
 30
0.0
 11
37.981291972
 21
128.311142315
 31
0.0
  0
LINE
  8
0
  6
CONTINUOUS
 62
     2
 10
46.001320798
 20
133.519082564
 30
0.0
 11
38.502240015
 21
129.44741391
 31
0.0
  0
LINE
  8
0
  6
CONTINUOUS
 62
     2
 10
26.313820798
 20
162.468245415
 30
0.0
 11
26.313820798
 21
184.118245415
 31
0.0
  0
LINE
  8
0
  6
CONTINUOUS
 62
     2
 10
26.313820798
 20
182.118245415
 30
0.0
 11
28.728635364
 21
181.471197802
 31
0.0
  0
LINE
  8
0
  6
CONTINUOUS
 62
     2
 10
26.313820798
 20
182.118245415
 30
0.0
 11
28.728635364
 21
182.765293027
 31
0.0
  0
LINE
  8
0
  6
CONTINUOUS
 62
     2
 10
26.313820798
 20
182.118245415
 30
0.0
 11
81.313820798
 21
182.118245415
 31
0.0
  0
LINE
  8
0
  6
CONTINUOUS
 62
     2
 10
81.313820798
 20
182.118245415
 30
0.0
 11
78.899006233
 21
182.765293027
 31
0.0
  0
LINE
  8
0
  6
CONTINUOUS
 62
     2
 10
81.313820798
 20
182.118245415
 30
0.0
 11
78.899006233
 21
181.471197802
 31
0.0
  0
LINE
  8
0
  6
CONTINUOUS
 62
     2
 10
81.313820798
 20
162.868245415
 30
0.0
 11
81.313820798
 21
184.118245415
 31
0.0
  0
TEXT
  8
0
  6
CONTINUOUS
 62
     2
 10
54.383820798
 20
183.118245415
 30
0.18
 40
1.8
  1
±１．５
 50
0.0
 41
0.6
 51
0.0
  7
KANJI3
  0
LINE
  8
0
  6
CONTINUOUS
 62
     2
 10
28.663820798
 20
164.418245415
 30
0.0
 11
13.763820798
 21
164.418245415
 31
0.0
  0
LINE
  8
0
  6
CONTINUOUS
 62
     2
 10
15.763820798
 20
164.418245415
 30
0.0
 11
15.116773186
 21
162.003430849
 31
0.0
  0
LINE
  8
0
  6
CONTINUOUS
 62
     2
 10
15.763820798
 20
164.418245415
 30
0.0
 11
16.410868411
 21
162.003430849
 31
0.0
  0
LINE
  8
0
  6
CONTINUOUS
 62
     2
 10
15.763820798
 20
164.418245415
 30
0.0
 11
15.763820798
 21
109.418245415
 31
0.0
  0
LINE
  8
0
  6
CONTINUOUS
 62
     2
 10
15.763820798
 20
109.418245415
 30
0.0
 11
16.410868411
 21
111.83305998
 31
0.0
  0
LINE
  8
0
  6
CONTINUOUS
 62
     2
 10
15.763820798
 20
109.418245415
 30
0.0
 11
15.116773186
 21
111.83305998
 31
0.0
  0
LINE
  8
0
  6
CONTINUOUS
 62
     2
 10
28.663820798
 20
109.418245415
 30
0.0
 11
13.763820798
 21
109.418245415
 31
0.0
  0
TEXT
  8
0
  6
CONTINUOUS
 62
     2
 10
14.763820798
 20
137.488245415
 30
0.18
 40
1.8
  1
±１．５
 50
90.0
 41
0.6
 51
0.0
  7
KANJI3
  0
LINE
  8
0
  6
LTYPE1
 62
     2
 10
103.65
 20
136.875
 30
0.0
 11
105.9
 21
136.875
 31
0.0
  0
LINE
  8
0
  6
CONTINUOUS
 62
     2
 10
93.95
 20
111.375
 30
0.0
 11
86.525
 21
111.375
 31
0.0
  0
LINE
  8
0
  6
CONTINUOUS
 62
     2
 10
88.525
 20
111.375
 30
0.0
 11
89.172047613
 21
113.789814566
 31
0.0
  0
LINE
  8
0
  6
CONTINUOUS
 62
     2
 10
88.525
 20
111.375
 30
0.0
 11
87.877952387
 21
113.789814566
 31
0.0
  0
LINE
  8
0
  6
CONTINUOUS
 62
     2
 10
88.525
 20
111.375
 30
0.0
 11
88.525
 21
162.375
 31
0.0
  0
LINE
  8
0
  6
CONTINUOUS
 62
     2
 10
88.525
 20
162.375
 30
0.0
 11
87.877952387
 21
159.960185434
 31
0.0
  0
LINE
  8
0
  6
CONTINUOUS
 62
     2
 10
88.525
 20
162.375
 30
0.0
 11
89.172047613
 21
159.960185434
 31
0.0
  0
LINE
  8
0
  6
CONTINUOUS
 62
     2
 10
103.4
 20
164.6
 30
0.0
 11
103.4
 21
184.325001907
 31
0.0
  0
LINE
  8
0
  6
CONTINUOUS
 62
     2
 10
103.4
 20
182.325001907
 30
0.0
 11
105.814814566
 21
181.677954295
 31
0.0
  0
LINE
  8
0
  6
CONTINUOUS
 62
     2
 10
103.4
 20
182.325001907
 30
0.0
 11
105.814814566
 21
182.97204952
 31
0.0
  0
LINE
  8
0
  6
CONTINUOUS
 62
     2
 10
145.9
 20
161.500001907
 30
0.0
 11
145.9
 21
174.775001907
 31
0.0
  0
LINE
  8
0
  6
CONTINUOUS
 62
     2
 10
145.9
 20
172.775001907
 30
0.0
 11
148.314814566
 21
172.127954295
 31
0.0
  0
LINE
  8
0
  6
CONTINUOUS
 62
     2
 10
145.9
 20
172.775001907
 30
0.0
 11
148.314814566
 21
173.42204952
 31
0.0
  0
LINE
  8
0
  6
CONTINUOUS
 62
     2
 10
103.65
 20
162.65
 30
0.0
 11
103.65
 21
174.775001907
 31
0.0
  0
LINE
  8
0
  6
CONTINUOUS
 62
     2
 10
103.65
 20
172.775001907
 30
0.0
 11
106.064814566
 21
172.127954295
 31
0.0
  0
LINE
  8
0
  6
CONTINUOUS
 62
     2
 10
103.65
 20
172.775001907
 30
0.0
 11
106.064814566
 21
173.42204952
 31
0.0
  0
LINE
  8
0
  6
CONTINUOUS
 62
     2
 10
103.65
 20
172.775001907
 30
0.0
 11
106.064814566
 21
172.127954295
 31
0.0
  0
LINE
  8
0
  6
CONTINUOUS
 62
     2
 10
103.65
 20
172.775001907
 30
0.0
 11
106.064814566
 21
173.42204952
 31
0.0
  0
POINT
  8
0
  6
LTYPE1
 62
     2
 10
187.2
 20
36.4
 30
0.0
  0
POINT
  8
0
  6
LTYPE1
 62
     2
 10
187.2
 20
167.9
 30
0.0
  0
ARC
  8
0
  6
CONTINUOUS
 62
     2
 10
162.45
 20
112.15
 30
0.0
 40
1.5
 50
180.0
 51
270.0
  0
LINE
  8
0
  6
CONTINUOUS
 62
     2
 10
160.95
 20
161.65
 30
0.0
 11
160.95
 21
112.15
 31
0.0
  0
ARC
  8
0
  6
CONTINUOUS
 62
     2
 10
162.45
 20
161.65
 30
0.0
 40
1.5
 50
90.0
 51
180.0
  0
LINE
  8
0
  6
CONTINUOUS
 62
     2
 10
211.95
 20
163.15
 30
0.0
 11
162.45
 21
163.15
 31
0.0
  0
ARC
  8
0
  6
CONTINUOUS
 62
     2
 10
211.95
 20
161.65
 30
0.0
 40
1.5
 50
0.0
 51
90.0
  0
LINE
  8
0
  6
CONTINUOUS
 62
     2
 10
162.45
 20
110.65
 30
0.0
 11
211.95
 21
110.65
 31
0.0
  0
LINE
  8
0
  6
CONTINUOUS
 62
     2
 10
213.45
 20
112.15
 30
0.0
 11
213.45
 21
161.65
 31
0.0
  0
ARC
  8
0
  6
CONTINUOUS
 62
     2
 10
211.95
 20
112.15
 30
0.0
 40
1.5
 50
270.0
 51
360.0
  0
LINE
  8
0
  6
LTYPE1
 62
     2
 10
205.825
 20
159.4
 30
0.0
 11
213.8
 21
159.4
 31
0.0
  0
LINE
  8
0
  6
LTYPE1
 62
     2
 10
209.7
 20
163.3
 30
0.0
 11
209.7
 21
155.575
 31
0.0
  0
LINE
  8
0
  6
LTYPE1
 62
     2
 10
160.825
 20
159.4
 30
0.0
 11
168.8
 21
159.4
 31
0.0
  0
LINE
  8
0
  6
LTYPE1
 62
     2
 10
164.7
 20
163.3
 30
0.0
 11
164.7
 21
155.575
 31
0.0
  0
LINE
  8
0
  6
LTYPE1
 62
     2
 10
160.825
 20
114.4
 30
0.0
 11
168.8
 21
114.4
 31
0.0
  0
LINE
  8
0
  6
LTYPE1
 62
     2
 10
164.7
 20
118.3
 30
0.0
 11
164.7
 21
110.575
 31
0.0
  0
LINE
  8
0
  6
LTYPE1
 62
     2
 10
205.825
 20
114.4
 30
0.0
 11
213.8
 21
114.4
 31
0.0
  0
LINE
  8
0
  6
LTYPE1
 62
     2
 10
209.7
 20
118.3
 30
0.0
 11
209.7
 21
110.575
 31
0.0
  0
CIRCLE
  8
0
  6
CONTINUOUS
 62
     2
 10
206.252558883
 20
125.9
 30
0.0
 40
1.75
  0
CIRCLE
  8
0
  6
CONTINUOUS
 62
     2
 10
187.2
 20
158.9
 30
0.0
 40
1.75
  0
CIRCLE
  8
0
  6
CONTINUOUS
 62
     2
 10
168.147441117
 20
125.9
 30
0.0
 40
1.75
  0
CIRCLE
  8
0
  6
CONTINUOUS
 62
     2
 10
168.147441117
 20
125.9
 30
0.0
 40
1.5
  0
LINE
  8
0
  6
CONTINUOUS
 62
     2
 10
167.272441117
 20
126.1
 30
0.0
 11
167.747441117
 21
126.1
 31
0.0
  0
ARC
  8
0
  6
CONTINUOUS
 62
     2
 10
167.747441117
 20
126.3
 30
0.0
 40
0.2
 50
270.0
 51
0.0
  0
LINE
  8
0
  6
CONTINUOUS
 62
     2
 10
167.947441117
 20
126.3
 30
0.0
 11
167.947441117
 21
126.775
 31
0.0
  0
LINE
  8
0
  6
CONTINUOUS
 62
     2
 10
167.947441117
 20
126.775
 30
0.0
 11
168.347441117
 21
126.775
 31
0.0
  0
LINE
  8
0
  6
CONTINUOUS
 62
     2
 10
168.347441117
 20
126.775
 30
0.0
 11
168.347441117
 21
126.3
 31
0.0
  0
ARC
  8
0
  6
CONTINUOUS
 62
     2
 10
168.547441117
 20
126.3
 30
0.0
 40
0.2
 50
180.0
 51
270.0
  0
LINE
  8
0
  6
CONTINUOUS
 62
     2
 10
168.547441117
 20
126.1
 30
0.0
 11
169.022441117
 21
126.1
 31
0.0
  0
LINE
  8
0
  6
CONTINUOUS
 62
     2
 10
169.022441117
 20
126.1
 30
0.0
 11
169.022441117
 21
125.7
 31
0.0
  0
LINE
  8
0
  6
CONTINUOUS
 62
     2
 10
169.022441117
 20
125.7
 30
0.0
 11
168.547441117
 21
125.7
 31
0.0
  0
ARC
  8
0
  6
CONTINUOUS
 62
     2
 10
168.547441117
 20
125.5
 30
0.0
 40
0.2
 50
90.0
 51
180.0
  0
LINE
  8
0
  6
CONTINUOUS
 62
     2
 10
168.347441117
 20
125.5
 30
0.0
 11
168.347441117
 21
125.025
 31
0.0
  0
LINE
  8
0
  6
CONTINUOUS
 62
     2
 10
168.347441117
 20
125.025
 30
0.0
 11
167.947441117
 21
125.025
 31
0.0
  0
LINE
  8
0
  6
CONTINUOUS
 62
     2
 10
167.947441117
 20
125.025
 30
0.0
 11
167.947441117
 21
125.5
 31
0.0
  0
ARC
  8
0
  6
CONTINUOUS
 62
     2
 10
167.747441117
 20
125.5
 30
0.0
 40
0.2
 50
0.0
 51
90.0
  0
LINE
  8
0
  6
CONTINUOUS
 62
     2
 10
167.747441117
 20
125.7
 30
0.0
 11
167.272441117
 21
125.7
 31
0.0
  0
LINE
  8
0
  6
CONTINUOUS
 62
     2
 10
167.272441117
 20
125.7
 30
0.0
 11
167.272441117
 21
126.1
 31
0.0
  0
LINE
  8
0
  6
LTYPE1
 62
     2
 10
166.147441117
 20
125.9
 30
0.0
 11
170.147441117
 21
125.9
 31
0.0
  0
LINE
  8
0
  6
LTYPE1
 62
     2
 10
168.147441117
 20
127.9
 30
0.0
 11
168.147441117
 21
123.9
 31
0.0
  0
CIRCLE
  8
0
  6
CONTINUOUS
 62
     2
 10
187.2
 20
158.9
 30
0.0
 40
1.5
  0
LINE
  8
0
  6
CONTINUOUS
 62
     2
 10
186.325
 20
159.1
 30
0.0
 11
186.8
 21
159.1
 31
0.0
  0
ARC
  8
0
  6
CONTINUOUS
 62
     2
 10
186.8
 20
159.3
 30
0.0
 40
0.2
 50
270.0
 51
0.0
  0
LINE
  8
0
  6
CONTINUOUS
 62
     2
 10
187.0
 20
159.3
 30
0.0
 11
187.0
 21
159.775
 31
0.0
  0
LINE
  8
0
  6
CONTINUOUS
 62
     2
 10
187.0
 20
159.775
 30
0.0
 11
187.4
 21
159.775
 31
0.0
  0
LINE
  8
0
  6
CONTINUOUS
 62
     2
 10
187.4
 20
159.775
 30
0.0
 11
187.4
 21
159.3
 31
0.0
  0
ARC
  8
0
  6
CONTINUOUS
 62
     2
 10
187.6
 20
159.3
 30
0.0
 40
0.2
 50
180.0
 51
270.0
  0
LINE
  8
0
  6
CONTINUOUS
 62
     2
 10
187.6
 20
159.1
 30
0.0
 11
188.075
 21
159.1
 31
0.0
  0
LINE
  8
0
  6
CONTINUOUS
 62
     2
 10
188.075
 20
159.1
 30
0.0
 11
188.075
 21
158.7
 31
0.0
  0
LINE
  8
0
  6
CONTINUOUS
 62
     2
 10
188.075
 20
158.7
 30
0.0
 11
187.6
 21
158.7
 31
0.0
  0
ARC
  8
0
  6
CONTINUOUS
 62
     2
 10
187.6
 20
158.5
 30
0.0
 40
0.2
 50
90.0
 51
180.0
  0
LINE
  8
0
  6
CONTINUOUS
 62
     2
 10
187.4
 20
158.5
 30
0.0
 11
187.4
 21
158.025
 31
0.0
  0
LINE
  8
0
  6
CONTINUOUS
 62
     2
 10
187.4
 20
158.025
 30
0.0
 11
187.0
 21
158.025
 31
0.0
  0
LINE
  8
0
  6
CONTINUOUS
 62
     2
 10
187.0
 20
158.025
 30
0.0
 11
187.0
 21
158.5
 31
0.0
  0
ARC
  8
0
  6
CONTINUOUS
 62
     2
 10
186.8
 20
158.5
 30
0.0
 40
0.2
 50
0.0
 51
90.0
  0
LINE
  8
0
  6
CONTINUOUS
 62
     2
 10
186.8
 20
158.7
 30
0.0
 11
186.325
 21
158.7
 31
0.0
  0
LINE
  8
0
  6
CONTINUOUS
 62
     2
 10
186.325
 20
158.7
 30
0.0
 11
186.325
 21
159.1
 31
0.0
  0
LINE
  8
0
  6
LTYPE1
 62
     2
 10
185.2
 20
158.9
 30
0.0
 11
189.2
 21
158.9
 31
0.0
  0
LINE
  8
0
  6
LTYPE1
 62
     2
 10
187.2
 20
160.9
 30
0.0
 11
187.2
 21
156.9
 31
0.0
  0
CIRCLE
  8
0
  6
CONTINUOUS
 62
     2
 10
206.252558883
 20
125.9
 30
0.0
 40
1.5
  0
LINE
  8
0
  6
CONTINUOUS
 62
     2
 10
205.377558883
 20
126.1
 30
0.0
 11
205.852558883
 21
126.1
 31
0.0
  0
ARC
  8
0
  6
CONTINUOUS
 62
     2
 10
205.852558883
 20
126.3
 30
0.0
 40
0.2
 50
270.0
 51
0.0
  0
LINE
  8
0
  6
CONTINUOUS
 62
     2
 10
206.052558883
 20
126.3
 30
0.0
 11
206.052558883
 21
126.775
 31
0.0
  0
LINE
  8
0
  6
CONTINUOUS
 62
     2
 10
206.052558883
 20
126.775
 30
0.0
 11
206.452558883
 21
126.775
 31
0.0
  0
LINE
  8
0
  6
CONTINUOUS
 62
     2
 10
206.452558883
 20
126.775
 30
0.0
 11
206.452558883
 21
126.3
 31
0.0
  0
ARC
  8
0
  6
CONTINUOUS
 62
     2
 10
206.652558883
 20
126.3
 30
0.0
 40
0.2
 50
180.0
 51
270.0
  0
LINE
  8
0
  6
CONTINUOUS
 62
     2
 10
206.652558883
 20
126.1
 30
0.0
 11
207.127558883
 21
126.1
 31
0.0
  0
LINE
  8
0
  6
CONTINUOUS
 62
     2
 10
207.127558883
 20
126.1
 30
0.0
 11
207.127558883
 21
125.7
 31
0.0
  0
LINE
  8
0
  6
CONTINUOUS
 62
     2
 10
207.127558883
 20
125.7
 30
0.0
 11
206.652558883
 21
125.7
 31
0.0
  0
ARC
  8
0
  6
CONTINUOUS
 62
     2
 10
206.652558883
 20
125.5
 30
0.0
 40
0.2
 50
90.0
 51
180.0
  0
LINE
  8
0
  6
CONTINUOUS
 62
     2
 10
206.452558883
 20
125.5
 30
0.0
 11
206.452558883
 21
125.025
 31
0.0
  0
LINE
  8
0
  6
CONTINUOUS
 62
     2
 10
206.452558883
 20
125.025
 30
0.0
 11
206.052558883
 21
125.025
 31
0.0
  0
LINE
  8
0
  6
CONTINUOUS
 62
     2
 10
206.052558883
 20
125.025
 30
0.0
 11
206.052558883
 21
125.5
 31
0.0
  0
ARC
  8
0
  6
CONTINUOUS
 62
     2
 10
205.852558883
 20
125.5
 30
0.0
 40
0.2
 50
0.0
 51
90.0
  0
LINE
  8
0
  6
CONTINUOUS
 62
     2
 10
205.852558883
 20
125.7
 30
0.0
 11
205.377558883
 21
125.7
 31
0.0
  0
LINE
  8
0
  6
CONTINUOUS
 62
     2
 10
205.377558883
 20
125.7
 30
0.0
 11
205.377558883
 21
126.1
 31
0.0
  0
LINE
  8
0
  6
LTYPE1
 62
     2
 10
204.252558883
 20
125.9
 30
0.0
 11
208.252558883
 21
125.9
 31
0.0
  0
LINE
  8
0
  6
LTYPE1
 62
     2
 10
206.252558883
 20
127.9
 30
0.0
 11
206.252558883
 21
123.9
 31
0.0
  0
LINE
  8
0
  6
CONTINUOUS
 62
     2
 10
164.7
 20
163.5
 30
0.0
 11
164.7
 21
184.25
 31
0.0
  0
LINE
  8
0
  6
CONTINUOUS
 62
     2
 10
164.7
 20
182.25
 30
0.0
 11
167.114814566
 21
181.602952387
 31
0.0
  0
LINE
  8
0
  6
CONTINUOUS
 62
     2
 10
164.7
 20
182.25
 30
0.0
 11
167.114814566
 21
182.897047613
 31
0.0
  0
LINE
  8
0
  6
CONTINUOUS
 62
     2
 10
164.7
 20
182.25
 30
0.0
 11
187.2
 21
182.25
 31
0.0
  0
LINE
  8
0
  6
CONTINUOUS
 62
     2
 10
187.2
 20
182.25
 30
0.0
 11
184.785185434
 21
182.897047613
 31
0.0
  0
LINE
  8
0
  6
CONTINUOUS
 62
     2
 10
187.2
 20
182.25
 30
0.0
 11
184.785185434
 21
181.602952387
 31
0.0
  0
LINE
  8
0
  6
CONTINUOUS
 62
     2
 10
187.2
 20
168.1
 30
0.0
 11
187.2
 21
184.25
 31
0.0
  0
TEXT
  8
0
  6
CONTINUOUS
 62
     2
 10
175.47
 20
183.25
 30
0.18
 40
1.8
  1
±０．５
 50
0.0
 41
0.6
 51
0.0
  7
KANJI3
  0
LINE
  8
0
  6
CONTINUOUS
 62
     2
 10
187.2
 20
182.25
 30
0.0
 11
189.614814566
 21
181.602952387
 31
0.0
  0
LINE
  8
0
  6
CONTINUOUS
 62
     2
 10
187.2
 20
182.25
 30
0.0
 11
189.614814566
 21
182.897047613
 31
0.0
  0
LINE
  8
0
  6
CONTINUOUS
 62
     2
 10
187.2
 20
182.25
 30
0.0
 11
209.7
 21
182.25
 31
0.0
  0
LINE
  8
0
  6
CONTINUOUS
 62
     2
 10
209.7
 20
182.25
 30
0.0
 11
207.285185434
 21
182.897047613
 31
0.0
  0
LINE
  8
0
  6
CONTINUOUS
 62
     2
 10
209.7
 20
182.25
 30
0.0
 11
207.285185434
 21
181.602952387
 31
0.0
  0
LINE
  8
0
  6
CONTINUOUS
 62
     2
 10
209.7
 20
163.4
 30
0.0
 11
209.7
 21
184.25
 31
0.0
  0
TEXT
  8
0
  6
CONTINUOUS
 62
     2
 10
197.97
 20
183.25
 30
0.18
 40
1.8
  1
±０．５
 50
0.0
 41
0.6
 51
0.0
  7
KANJI3
  0
LINE
  8
0
  6
CONTINUOUS
 62
     2
 10
213.95
 20
114.4
 30
0.0
 11
223.8
 21
114.4
 31
0.0
  0
LINE
  8
0
  6
CONTINUOUS
 62
     2
 10
221.8
 20
114.4
 30
0.0
 11
222.447047613
 21
116.814814566
 31
0.0
  0
LINE
  8
0
  6
CONTINUOUS
 62
     2
 10
221.8
 20
114.4
 30
0.0
 11
221.152952387
 21
116.814814566
 31
0.0
  0
LINE
  8
0
  6
CONTINUOUS
 62
     2
 10
221.8
 20
114.4
 30
0.0
 11
221.8
 21
136.9
 31
0.0
  0
LINE
  8
0
  6
CONTINUOUS
 62
     2
 10
221.8
 20
136.9
 30
0.0
 11
221.152952387
 21
134.485185434
 31
0.0
  0
LINE
  8
0
  6
CONTINUOUS
 62
     2
 10
221.8
 20
136.9
 30
0.0
 11
222.447047613
 21
134.485185434
 31
0.0
  0
LINE
  8
0
  6
CONTINUOUS
 62
     2
 10
209.4
 20
136.9
 30
0.0
 11
223.8
 21
136.9
 31
0.0
  0
TEXT
  8
0
  6
CONTINUOUS
 62
     2
 10
220.8
 20
125.17
 30
0.18
 40
1.8
  1
±０．５
 50
90.0
 41
0.6
 51
0.0
  7
KANJI3
  0
LINE
  8
0
  6
CONTINUOUS
 62
     2
 10
221.8
 20
136.9
 30
0.0
 11
222.447047613
 21
139.314814566
 31
0.0
  0
LINE
  8
0
  6
CONTINUOUS
 62
     2
 10
221.8
 20
136.9
 30
0.0
 11
221.152952387
 21
139.314814566
 31
0.0
  0
LINE
  8
0
  6
CONTINUOUS
 62
     2
 10
221.8
 20
136.9
 30
0.0
 11
221.8
 21
159.4
 31
0.0
  0
LINE
  8
0
  6
CONTINUOUS
 62
     2
 10
221.8
 20
159.4
 30
0.0
 11
221.152952387
 21
156.985185434
 31
0.0
  0
LINE
  8
0
  6
CONTINUOUS
 62
     2
 10
221.8
 20
159.4
 30
0.0
 11
222.447047613
 21
156.985185434
 31
0.0
  0
LINE
  8
0
  6
CONTINUOUS
 62
     2
 10
213.9
 20
159.4
 30
0.0
 11
223.8
 21
159.4
 31
0.0
  0
TEXT
  8
0
  6
CONTINUOUS
 62
     2
 10
220.8
 20
147.67
 30
0.18
 40
1.8
  1
±０．５
 50
90.0
 41
0.6
 51
0.0
  7
KANJI3
  0
LINE
  8
0
  6
CONTINUOUS
 62
     2
 10
109.55
 20
113.05
 30
0.0
 11
110.196786092
 21
110.635115375
 31
0.0
  0
LINE
  8
0
  6
CONTINUOUS
 62
     2
 10
109.55
 20
113.05
 30
0.0
 11
111.317575499
 21
111.282041614
 31
0.0
  0
LINE
  8
0
  6
CONTINUOUS
 62
     2
 10
109.55
 20
113.05
 30
0.0
 11
117.4
 21
99.45
 31
0.0
  0
LINE
  8
0
  6
CONTINUOUS
 62
     2
 10
117.4
 20
99.45
 30
0.0
 11
137.6
 21
99.45
 31
0.0
  0
LINE
  8
0
  6
LTYPE1
 62
     2
 10
157.9
 20
66.05
 30
0.0
 11
216.6
 21
66.05
 31
0.0
  0
LINE
  8
0
  6
CONTINUOUS
 62
     2
 10
214.75
 20
43.55
 30
0.0
 11
223.2
 21
43.55
 31
0.0
  0
LINE
  8
0
  6
CONTINUOUS
 62
     2
 10
221.2
 20
43.55
 30
0.0
 11
221.847047613
 21
45.964814566
 31
0.0
  0
LINE
  8
0
  6
CONTINUOUS
 62
     2
 10
221.2
 20
43.55
 30
0.0
 11
220.552952387
 21
45.964814566
 31
0.0
  0
LINE
  8
0
  6
CONTINUOUS
 62
     2
 10
221.2
 20
66.05
 30
0.0
 11
220.552952387
 21
63.635185434
 31
0.0
  0
LINE
  8
0
  6
CONTINUOUS
 62
     2
 10
221.2
 20
66.05
 30
0.0
 11
221.847047613
 21
63.635185434
 31
0.0
  0
LINE
  8
0
  6
CONTINUOUS
 62
     2
 10
216.6
 20
66.05
 30
0.0
 11
223.2
 21
66.05
 31
0.0
  0
LINE
  8
0
  6
CONTINUOUS
 62
     2
 10
221.2
 20
66.05
 30
0.0
 11
221.847047613
 21
68.464814566
 31
0.0
  0
LINE
  8
0
  6
CONTINUOUS
 62
     2
 10
221.2
 20
66.05
 30
0.0
 11
220.552952387
 21
68.464814566
 31
0.0
  0
LINE
  8
0
  6
CONTINUOUS
 62
     2
 10
221.2
 20
66.05
 30
0.0
 11
221.2
 21
88.55
 31
0.0
  0
LINE
  8
0
  6
CONTINUOUS
 62
     2
 10
221.2
 20
88.55
 30
0.0
 11
220.552952387
 21
86.135185434
 31
0.0
  0
LINE
  8
0
  6
CONTINUOUS
 62
     2
 10
221.2
 20
88.55
 30
0.0
 11
221.847047613
 21
86.135185434
 31
0.0
  0
LINE
  8
0
  6
CONTINUOUS
 62
     2
 10
216.95
 20
88.55
 30
0.0
 11
223.2
 21
88.55
 31
0.0
  0
TEXT
  8
0
  6
CONTINUOUS
 62
     2
 10
220.2
 20
76.82
 30
0.18
 40
1.8
  1
±０．５
 50
90.0
 41
0.6
 51
0.0
  7
KANJI3
  0
LINE
  8
0
  6
CONTINUOUS
 62
     2
 10
221.2
 20
43.55
 30
0.0
 11
221.2
 21
66.05
 31
0.0
  0
TEXT
  8
0
  6
CONTINUOUS
 62
     2
 10
220.2
 20
54.32
 30
0.18
 40
1.8
  1
±０．５
 50
90.0
 41
0.6
 51
0.0
  7
KANJI3
  0
LINE
  8
0
  6
CONTINUOUS
 62
     2
 10
173.369080919
 20
103.8
 30
0.0
 11
148.569080919
 21
103.8
 31
0.0
  0
LINE
  8
0
  6
CONTINUOUS
 62
     2
 10
148.592057942
 20
104.05
 30
0.0
 11
148.569080919
 21
103.8
 31
0.0
  0
LINE
  8
0
  6
CONTINUOUS
 62
     2
 10
164.7
 20
94.9
 30
0.0
 11
164.7
 21
97.55
 31
0.0
  0
LINE
  8
0
  6
CONTINUOUS
 62
     2
 10
164.7
 20
95.55
 30
0.0
 11
167.114814566
 21
94.902952387
 31
0.0
  0
LINE
  8
0
  6
CONTINUOUS
 62
     2
 10
164.7
 20
95.55
 30
0.0
 11
167.114814566
 21
96.197047613
 31
0.0
  0
LINE
  8
0
  6
CONTINUOUS
 62
     2
 10
164.7
 20
95.55
 30
0.0
 11
187.2
 21
95.55
 31
0.0
  0
LINE
  8
0
  6
CONTINUOUS
 62
     2
 10
187.2
 20
95.55
 30
0.0
 11
184.785185434
 21
96.197047613
 31
0.0
  0
LINE
  8
0
  6
CONTINUOUS
 62
     2
 10
187.2
 20
95.55
 30
0.0
 11
184.785185434
 21
94.902952387
 31
0.0
  0
LINE
  8
0
  6
CONTINUOUS
 62
     2
 10
187.2
 20
94.9
 30
0.0
 11
187.2
 21
97.55
 31
0.0
  0
TEXT
  8
0
  6
CONTINUOUS
 62
     2
 10
175.47
 20
96.55
 30
0.18
 40
1.8
  1
±０．５
 50
0.0
 41
0.6
 51
0.0
  7
KANJI3
  0
LINE
  8
0
  6
CONTINUOUS
 62
     2
 10
187.2
 20
95.55
 30
0.0
 11
189.614814566
 21
94.902952387
 31
0.0
  0
LINE
  8
0
  6
CONTINUOUS
 62
     2
 10
187.2
 20
95.55
 30
0.0
 11
189.614814566
 21
96.197047613
 31
0.0
  0
LINE
  8
0
  6
CONTINUOUS
 62
     2
 10
187.2
 20
95.55
 30
0.0
 11
209.7
 21
95.55
 31
0.0
  0
LINE
  8
0
  6
CONTINUOUS
 62
     2
 10
209.7
 20
95.55
 30
0.0
 11
207.285185434
 21
96.197047613
 31
0.0
  0
LINE
  8
0
  6
CONTINUOUS
 62
     2
 10
209.7
 20
95.55
 30
0.0
 11
207.285185434
 21
94.902952387
 31
0.0
  0
TEXT
  8
0
  6
CONTINUOUS
 62
     2
 10
197.97
 20
96.55
 30
0.18
 40
1.8
  1
±０．５
 50
0.0
 41
0.6
 51
0.0
  7
KANJI3
  0
LINE
  8
0
  6
CONTINUOUS
 62
     2
 10
169.597520726
 20
47.599993946
 30
0.0
 11
171.732609185
 21
48.900531246
 31
0.0
  0
LINE
  8
0
  6
CONTINUOUS
 62
     2
 10
169.597520726
 20
47.599993946
 30
0.0
 11
170.796292921
 21
49.793836516
 31
0.0
  0
LINE
  8
0
  6
CONTINUOUS
 62
     2
 10
169.597520726
 20
47.599993946
 30
0.0
 11
204.802479274
 21
84.500006054
 31
0.0
  0
LINE
  8
0
  6
CONTINUOUS
 62
     2
 10
204.802479274
 20
84.500006054
 30
0.0
 11
202.667390815
 21
83.199468754
 31
0.0
  0
LINE
  8
0
  6
CONTINUOUS
 62
     2
 10
204.802479274
 20
84.500006054
 30
0.0
 11
203.603707079
 21
82.306163484
 31
0.0
  0
LINE
  8
0
  6
CONTINUOUS
 62
     2
 10
163.8
 20
42.0
 30
0.0
 11
162.352635312
 21
39.961585062
 31
0.0
  0
LINE
  8
0
  6
CONTINUOUS
 62
     2
 10
163.8
 20
42.0
 30
0.0
 11
163.565752881
 21
39.510998536
 31
0.0
  0
LINE
  8
0
  6
CONTINUOUS
 62
     2
 10
163.8
 20
42.0
 30
0.0
 11
160.55
 21
33.25
 31
0.0
  0
LINE
  8
0
  6
CONTINUOUS
 62
     2
 10
160.55
 20
33.25
 30
0.0
 11
151.85
 21
33.25
 31
0.0
  0
CIRCLE
  8
0
  6
CONTINUOUS
 62
     2
 10
53.8
 20
149.9
 30
0.0
 40
1.5
  0
LINE
  8
0
  6
CONTINUOUS
 62
     2
 10
53.03986021
 20
149.422702923
 30
0.0
 11
53.375735931
 21
149.758578644
 31
0.0
  0
ARC
  8
0
  6
CONTINUOUS
 62
     2
 10
53.234314575
 20
149.9
 30
0.0
 40
0.2
 50
315.0
 51
45.0
  0
LINE
  8
0
  6
CONTINUOUS
 62
     2
 10
53.375735931
 20
150.041421356
 30
0.0
 11
53.03986021
 21
150.377297077
 31
0.0
  0
LINE
  8
0
  6
CONTINUOUS
 62
     2
 10
53.03986021
 20
150.377297077
 30
0.0
 11
53.322702923
 21
150.66013979
 31
0.0
  0
LINE
  8
0
  6
CONTINUOUS
 62
     2
 10
53.322702923
 20
150.66013979
 30
0.0
 11
53.658578644
 21
150.324264069
 31
0.0
  0
ARC
  8
0
  6
CONTINUOUS
 62
     2
 10
53.8
 20
150.465685425
 30
0.0
 40
0.2
 50
225.0
 51
315.0
  0
LINE
  8
0
  6
CONTINUOUS
 62
     2
 10
53.941421356
 20
150.324264069
 30
0.0
 11
54.277297077
 21
150.66013979
 31
0.0
  0
LINE
  8
0
  6
CONTINUOUS
 62
     2
 10
54.277297077
 20
150.66013979
 30
0.0
 11
54.56013979
 21
150.377297077
 31
0.0
  0
LINE
  8
0
  6
CONTINUOUS
 62
     2
 10
54.56013979
 20
150.377297077
 30
0.0
 11
54.224264069
 21
150.041421356
 31
0.0
  0
ARC
  8
0
  6
CONTINUOUS
 62
     2
 10
54.365685425
 20
149.9
 30
0.0
 40
0.2
 50
135.0
 51
225.0
  0
LINE
  8
0
  6
CONTINUOUS
 62
     2
 10
54.224264069
 20
149.758578644
 30
0.0
 11
54.56013979
 21
149.422702923
 31
0.0
  0
LINE
  8
0
  6
CONTINUOUS
 62
     2
 10
54.56013979
 20
149.422702923
 30
0.0
 11
54.277297077
 21
149.13986021
 31
0.0
  0
LINE
  8
0
  6
CONTINUOUS
 62
     2
 10
54.277297077
 20
149.13986021
 30
0.0
 11
53.941421356
 21
149.475735931
 31
0.0
  0
ARC
  8
0
  6
CONTINUOUS
 62
     2
 10
53.8
 20
149.334314575
 30
0.0
 40
0.2
 50
45.0
 51
135.0
  0
LINE
  8
0
  6
CONTINUOUS
 62
     2
 10
53.658578644
 20
149.475735931
 30
0.0
 11
53.322702923
 21
149.13986021
 31
0.0
  0
LINE
  8
0
  6
CONTINUOUS
 62
     2
 10
53.322702923
 20
149.13986021
 30
0.0
 11
53.03986021
 21
149.422702923
 31
0.0
  0
LINE
  8
0
  6
LTYPE1
 62
     2
 10
51.5
 20
149.9
 30
0.0
 11
56.3
 21
149.9
 31
0.0
  0
LINE
  8
0
  6
LTYPE1
 62
     2
 10
42.9
 20
121.4
 30
0.0
 11
47.9
 21
121.4
 31
0.0
  0
LINE
  8
0
  6
LTYPE1
 62
     2
 10
59.9
 20
121.4
 30
0.0
 11
64.9
 21
121.4
 31
0.0
  0
LINE
  8
0
  6
LTYPE1
 62
     2
 10
62.3
 20
124.4
 30
0.0
 11
62.3
 21
119.4
 31
0.0
  0
LINE
  8
0
  6
LTYPE1
 62
     2
 10
45.3
 20
124.4
 30
0.0
 11
45.3
 21
119.1
 31
0.0
  0
LINE
  8
0
  6
LTYPE1
 62
     2
 10
143.125
 20
131.9
 30
0.0
 11
155.85
 21
131.9
 31
0.0
  0
LINE
  8
0
  6
CONTINUOUS
 62
     2
 10
152.2
 20
129.9
 30
0.0
 11
151.226389907
 21
127.597374675
 31
0.0
  0
LINE
  8
0
  6
CONTINUOUS
 62
     2
 10
152.2
 20
129.9
 30
0.0
 11
152.508141588
 21
127.419062927
 31
0.0
  0
LINE
  8
0
  6
CONTINUOUS
 62
     2
 10
152.2
 20
129.9
 30
0.0
 11
148.569080919
 21
103.8
 31
0.0
  0
LINE
  8
0
  6
LTYPE1
 62
     2
 10
174.669080919
 20
136.9
 30
0.0
 11
199.669080919
 21
136.9
 31
0.0
  0
LINE
  8
0
  6
LTYPE1
 62
     2
 10
204.669080919
 20
136.9
 30
0.0
 11
209.1
 21
136.9
 31
0.0
  0
TEXT
  8
0
  6
CONTINUOUS
 62
     2
 10
87.525
 20
132.825
 30
0.3
 40
3.0
  1
φ　１０２
 50
90.0
 41
0.6
 51
0.0
  7
KANJI4
  0
TEXT
  8
0
  6
CONTINUOUS
 62
     2
 10
171.57
 20
183.25
 30
0.3
 40
3.0
  1
４５
 50
0.0
 41
0.6
 51
0.0
  7
KANJI4
  0
TEXT
  8
0
  6
CONTINUOUS
 62
     2
 10
194.07
 20
183.25
 30
0.3
 40
3.0
  1
４５
 50
0.0
 41
0.6
 51
0.0
  7
KANJI4
  0
TEXT
  8
0
  6
CONTINUOUS
 62
     2
 10
220.8
 20
143.77
 30
0.3
 40
3.0
  1
４５
 50
90.0
 41
0.6
 51
0.0
  7
KANJI4
  0
TEXT
  8
0
  6
CONTINUOUS
 62
     2
 10
220.8
 20
121.27
 30
0.3
 40
3.0
  1
４５
 50
90.0
 41
0.6
 51
0.0
  7
KANJI4
  0
TEXT
  8
0
  6
CONTINUOUS
 62
     2
 10
194.07
 20
96.55
 30
0.3
 40
3.0
  1
４５
 50
0.0
 41
0.6
 51
0.0
  7
KANJI4
  0
TEXT
  8
0
  6
CONTINUOUS
 62
     2
 10
171.57
 20
96.55
 30
0.3
 40
3.0
  1
４５
 50
0.0
 41
0.6
 51
0.0
  7
KANJI4
  0
TEXT
  8
0
  6
CONTINUOUS
 62
     2
 10
220.2
 20
72.92
 30
0.3
 40
3.0
  1
４５
 50
90.0
 41
0.6
 51
0.0
  7
KANJI4
  0
TEXT
  8
0
  6
CONTINUOUS
 62
     2
 10
220.2
 20
50.42
 30
0.3
 40
3.0
  1
４５
 50
90.0
 41
0.6
 51
0.0
  7
KANJI4
  0
TEXT
  8
0
  6
CONTINUOUS
 62
     2
 10
190.576470351
 20
71.190293305
 30
0.3
 40
3.0
  1
φ　１０２
 50
46.346669025
 41
0.6
 51
0.0
  7
KANJI4
  0
TEXT
  8
0
  6
CONTINUOUS
 62
     2
 10
14.763820798
 20
130.488245415
 30
0.3
 40
3.0
  1
１１０
 50
90.0
 41
0.6
 51
0.0
  7
KANJI4
  0
TEXT
  8
0
  6
CONTINUOUS
 62
     2
 10
46.883820798
 20
183.118245415
 30
0.3
 40
3.0
  1
１１０
 50
0.0
 41
0.6
 51
0.0
  7
KANJI4
  0
LINE
  8
0
  6
CONTINUOUS
 62
     2
 10
54.8
 20
135.525
 30
0.0
 11
55.362639119
 21
133.089135221
 31
0.0
  0
LINE
  8
0
  6
CONTINUOUS
 62
     2
 10
54.8
 20
135.525
 30
0.0
 11
56.50519216
 21
133.696798781
 31
0.0
  0
LINE
  8
0
  6
CONTINUOUS
 62
     2
 10
54.8
 20
135.525
 30
0.0
 11
71.5
 21
104.125
 31
0.0
  0
LINE
  8
0
  6
LTYPE1
 62
     2
 10
53.75
 20
167.332
 30
0.0
 11
53.75
 21
105.8
 31
0.0
  0
TEXT
  8
0
  6
CONTINUOUS
 62
     2
 10
22.614213562
 20
70.1
 30
0.2
 40
3.0
  1
注）１，ＥＬ板の電源は、Ｌ－Ｌ端子間に印加して下さい。
 50
0.0
 41
0.9
 51
0.0
  7
KANJI5
  0
TEXT
  8
0
  6
CONTINUOUS
 62
     2
 10
28.614213562
 20
65.1
 30
0.2
 40
3.0
  1
２，ＥＬ板の発光色は、グリーンまたはオレンジ色のいずれかをご指示下さい。
 50
0.0
 41
0.9
 51
0.0
  7
KANJI5
  0
TEXT
  8
0
  6
CONTINUOUS
 62
     2
 10
72.1
 20
105.075
 30
0.2
 40
3.0
  1
機械的零位調整器
 50
0.0
 41
0.9
 51
0.0
  7
KANJI5
  0
LINE
  8
0
  6
CONTINUOUS
 62
     2
 10
71.5
 20
104.125
 30
0.0
 11
95.1
 21
104.125
 31
0.0
  0
LINE
  8
0
  6
CONTINUOUS
 62
     2
 10
94.95
 20
162.375
 30
0.0
 11
86.525
 21
162.375
 31
0.0
  0
LINE
  8
0
  6
CONTINUOUS
 62
     2
 10
153.2
 20
182.325001907
 30
0.0
 11
150.785185434
 21
182.97204952
 31
0.0
  0
LINE
  8
0
  6
CONTINUOUS
 62
     2
 10
153.2
 20
182.325001907
 30
0.0
 11
150.785185434
 21
181.677954295
 31
0.0
  0
LINE
  8
0
  6
CONTINUOUS
 62
     2
 10
153.2
 20
172.775001907
 30
0.0
 11
150.785185434
 21
173.42204952
 31
0.0
  0
LINE
  8
0
  6
CONTINUOUS
 62
     2
 10
153.2
 20
172.775001907
 30
0.0
 11
150.785185434
 21
172.127954295
 31
0.0
  0
LINE
  8
0
  6
CONTINUOUS
 62
     2
 10
153.2
 20
173.050001907
 30
0.0
 11
153.2
 21
170.775001907
 31
0.0
  0
LINE
  8
0
  6
CONTINUOUS
 62
     2
 10
103.4
 20
182.325001907
 30
0.0
 11
153.2
 21
182.325001907
 31
0.0
  0
LINE
  8
0
  6
CONTINUOUS
 62
     2
 10
145.9
 20
172.775001907
 30
0.0
 11
153.2
 21
172.775001907
 31
0.0
  0
LINE
  8
0
  6
CONTINUOUS
 62
     2
 10
153.2
 20
143.8
 30
0.0
 11
153.2
 21
184.325001907
 31
0.0
  0
LINE
  8
0
  6
CONTINUOUS
 62
     2
 10
153.2
 20
172.775001907
 30
0.0
 11
145.9
 21
172.775001907
 31
0.0
  0
TEXT
  8
0
  6
CONTINUOUS
 62
     2
 10
147.425
 20
173.775001907
 30
0.3
 40
3.0
  1
１５
 50
0.0
 41
0.6
 51
0.0
  7
KANJI4
  0
TEXT
  8
0
  6
CONTINUOUS
 62
     2
 10
108.0
 20
184.05
 30
0.3
 40
3.0
  1
　　　　７５
 50
0.0
 41
0.9
 51
0.0
  7
KANJI2
  0
LINE
  8
0
  6
LTYPE2
 62
     2
 10
187.2
 20
165.9
 30
0.0
 11
187.2
 21
105.9
 31
0.0
  0
LINE
  8
0
  6
LTYPE2
 62
     2
 10
187.2
 20
93.9
 30
0.0
 11
187.2
 21
37.9
 31
0.0
  0
LINE
  8
0
  6
CONTINUOUS
 62
     2
 10
39.8
 20
128.5
 30
0.0
 11
40.472373811
 21
126.092114318
 31
0.0
  0
LINE
  8
0
  6
CONTINUOUS
 62
     2
 10
39.8
 20
128.5
 30
0.0
 11
41.586235642
 21
126.750896735
 31
0.0
  0
LINE
  8
0
  6
CONTINUOUS
 62
     2
 10
39.8
 20
128.5
 30
0.0
 11
54.763827354
 21
103.199330623
 31
0.0
  0
LINE
  8
0
  6
CONTINUOUS
 62
     2
 10
62.863827354
 20
103.199330623
 30
0.0
 11
54.763827354
 21
103.199330623
 31
0.0
  0
TEXT
  8
0
  6
CONTINUOUS
 62
     2
 10
55.263827354
 20
104.199330623
 30
2.0
 40
3.0
  1
指針
 50
0.0
 41
0.9
 51
0.0
  7
KANJI6
  0
LINE
  8
0
  6
CONTINUOUS
 62
     2
 10
166.719917652
 20
160.5662
 30
0.0
 11
164.7
 21
161.7324
 31
0.0
  0
LINE
  8
0
  6
CONTINUOUS
 62
     2
 10
164.7
 20
161.7324
 30
0.0
 11
162.680082348
 21
160.5662
 31
0.0
  0
LINE
  8
0
  6
CONTINUOUS
 62
     2
 10
162.680082348
 20
160.5662
 30
0.0
 11
162.680082348
 21
158.2338
 31
0.0
  0
LINE
  8
0
  6
CONTINUOUS
 62
     2
 10
162.680082348
 20
158.2338
 30
0.0
 11
164.7
 21
157.0676
 31
0.0
  0
LINE
  8
0
  6
CONTINUOUS
 62
     2
 10
164.7
 20
157.0676
 30
0.0
 11
166.719917652
 21
158.2338
 31
0.0
  0
LINE
  8
0
  6
CONTINUOUS
 62
     2
 10
166.719917652
 20
158.2338
 30
0.0
 11
166.719917652
 21
160.5662
 31
0.0
  0
CIRCLE
  8
0
  6
CONTINUOUS
 62
     2
 10
164.7
 20
159.4
 30
0.0
 40
1.2495
  0
CIRCLE
  8
0
  6
CONTINUOUS
 62
     2
 10
164.7
 20
159.4
 30
0.0
 40
1.1662
  0
CIRCLE
  8
0
  6
CONTINUOUS
 62
     2
 10
164.7
 20
159.4
 30
0.0
 40
2.499
  0
CIRCLE
  8
0
  6
CONTINUOUS
 62
     2
 10
164.7
 20
159.4
 30
0.0
 40
2.0825
  0
LINE
  8
0
  6
CONTINUOUS
 62
     2
 10
211.719917652
 20
160.5662
 30
0.0
 11
209.7
 21
161.7324
 31
0.0
  0
LINE
  8
0
  6
CONTINUOUS
 62
     2
 10
209.7
 20
161.7324
 30
0.0
 11
207.680082348
 21
160.5662
 31
0.0
  0
LINE
  8
0
  6
CONTINUOUS
 62
     2
 10
207.680082348
 20
160.5662
 30
0.0
 11
207.680082348
 21
158.2338
 31
0.0
  0
LINE
  8
0
  6
CONTINUOUS
 62
     2
 10
207.680082348
 20
158.2338
 30
0.0
 11
209.7
 21
157.0676
 31
0.0
  0
LINE
  8
0
  6
CONTINUOUS
 62
     2
 10
209.7
 20
157.0676
 30
0.0
 11
211.719917652
 21
158.2338
 31
0.0
  0
LINE
  8
0
  6
CONTINUOUS
 62
     2
 10
211.719917652
 20
158.2338
 30
0.0
 11
211.719917652
 21
160.5662
 31
0.0
  0
CIRCLE
  8
0
  6
CONTINUOUS
 62
     2
 10
209.7
 20
159.4
 30
0.0
 40
1.2495
  0
CIRCLE
  8
0
  6
CONTINUOUS
 62
     2
 10
209.7
 20
159.4
 30
0.0
 40
1.1662
  0
CIRCLE
  8
0
  6
CONTINUOUS
 62
     2
 10
209.7
 20
159.4
 30
0.0
 40
2.499
  0
CIRCLE
  8
0
  6
CONTINUOUS
 62
     2
 10
209.7
 20
159.4
 30
0.0
 40
2.0825
  0
LINE
  8
0
  6
CONTINUOUS
 62
     2
 10
211.719917652
 20
115.5662
 30
0.0
 11
209.7
 21
116.7324
 31
0.0
  0
LINE
  8
0
  6
CONTINUOUS
 62
     2
 10
209.7
 20
116.7324
 30
0.0
 11
207.680082348
 21
115.5662
 31
0.0
  0
LINE
  8
0
  6
CONTINUOUS
 62
     2
 10
207.680082348
 20
115.5662
 30
0.0
 11
207.680082348
 21
113.2338
 31
0.0
  0
LINE
  8
0
  6
CONTINUOUS
 62
     2
 10
207.680082348
 20
113.2338
 30
0.0
 11
209.7
 21
112.0676
 31
0.0
  0
LINE
  8
0
  6
CONTINUOUS
 62
     2
 10
209.7
 20
112.0676
 30
0.0
 11
211.719917652
 21
113.2338
 31
0.0
  0
LINE
  8
0
  6
CONTINUOUS
 62
     2
 10
211.719917652
 20
113.2338
 30
0.0
 11
211.719917652
 21
115.5662
 31
0.0
  0
CIRCLE
  8
0
  6
CONTINUOUS
 62
     2
 10
209.7
 20
114.4
 30
0.0
 40
1.2495
  0
CIRCLE
  8
0
  6
CONTINUOUS
 62
     2
 10
209.7
 20
114.4
 30
0.0
 40
1.1662
  0
CIRCLE
  8
0
  6
CONTINUOUS
 62
     2
 10
209.7
 20
114.4
 30
0.0
 40
2.499
  0
CIRCLE
  8
0
  6
CONTINUOUS
 62
     2
 10
209.7
 20
114.4
 30
0.0
 40
2.0825
  0
LINE
  8
0
  6
CONTINUOUS
 62
     2
 10
166.719917652
 20
115.5662
 30
0.0
 11
164.7
 21
116.7324
 31
0.0
  0
LINE
  8
0
  6
CONTINUOUS
 62
     2
 10
164.7
 20
116.7324
 30
0.0
 11
162.680082348
 21
115.5662
 31
0.0
  0
LINE
  8
0
  6
CONTINUOUS
 62
     2
 10
162.680082348
 20
115.5662
 30
0.0
 11
162.680082348
 21
113.2338
 31
0.0
  0
LINE
  8
0
  6
CONTINUOUS
 62
     2
 10
162.680082348
 20
113.2338
 30
0.0
 11
164.7
 21
112.0676
 31
0.0
  0
LINE
  8
0
  6
CONTINUOUS
 62
     2
 10
164.7
 20
112.0676
 30
0.0
 11
166.719917652
 21
113.2338
 31
0.0
  0
LINE
  8
0
  6
CONTINUOUS
 62
     2
 10
166.719917652
 20
113.2338
 30
0.0
 11
166.719917652
 21
115.5662
 31
0.0
  0
CIRCLE
  8
0
  6
CONTINUOUS
 62
     2
 10
164.7
 20
114.4
 30
0.0
 40
1.2495
  0
CIRCLE
  8
0
  6
CONTINUOUS
 62
     2
 10
164.7
 20
114.4
 30
0.0
 40
1.1662
  0
CIRCLE
  8
0
  6
CONTINUOUS
 62
     2
 10
164.7
 20
114.4
 30
0.0
 40
2.499
  0
CIRCLE
  8
0
  6
CONTINUOUS
 62
     2
 10
164.7
 20
114.4
 30
0.0
 40
2.0825
  0
TEXT
  8
0
  6
CONTINUOUS
 62
     2
 10
117.4
 20
100.45
 30
0.5
 40
3.0
  1
４－Ｍ６取付ボルト
 50
0.0
 41
0.6
 51
0.0
  7
KANJI7
  0
LINE
  8
0
  6
LTYPE1
 62
     2
 10
105.9
 20
136.875
 30
0.0
 11
223.8
 21
136.875
 31
0.0
  0
TEXT
  8
0
  6
CONTINUOUS
 62
     2
 10
149.569080919
 20
104.8
 30
0.5
 40
3.0
  1
４－Ｍ６ターミナルネジ
 50
0.0
 41
0.6
 51
0.0
  7
KANJI7
  0
LINE
  8
0
  6
CONTINUOUS
 62
     2
 10
111.15
 20
172.775001907
 30
0.0
 11
108.735185434
 21
173.42204952
 31
0.0
  0
LINE
  8
0
  6
CONTINUOUS
 62
     2
 10
111.15
 20
172.775001907
 30
0.0
 11
108.735185434
 21
172.127954295
 31
0.0
  0
LINE
  8
0
  6
CONTINUOUS
 62
     2
 10
111.15
 20
161.15
 30
0.0
 11
111.15
 21
174.775001907
 31
0.0
  0
TEXT
  8
0
  6
CONTINUOUS
 62
     2
 10
105.409
 20
173.775001907
 30
0.3
 40
3.0
  1
１５
 50
0.0
 41
0.6
 51
0.0
  7
KANJI4
  0
POLYLINE
  8
0
  6
CONTINUOUS
 62
     2
 66
     1
  0
VERTEX
  8
0
  6
CONTINUOUS
 62
     2
 10
103.4
 20
111.4
 30
0.0
  0
VERTEX
  8
0
  6
CONTINUOUS
 62
     2
 10
103.65
 20
111.4
 30
0.0
  0
VERTEX
  8
0
  6
CONTINUOUS
 62
     2
 10
103.65
 20
117.4
 30
0.0
  0
VERTEX
  8
0
  6
CONTINUOUS
 62
     2
 10
103.4
 20
117.4
 30
0.0
  0
SEQEND
  0
LINE
  8
0
  6
CONTINUOUS
 62
     2
 10
109.15
 20
115.9
 30
0.0
 11
111.15
 21
115.9
 31
0.0
  0
LINE
  8
0
  6
CONTINUOUS
 62
     2
 10
111.15
 20
115.9
 30
0.0
 11
111.15
 21
112.9
 31
0.0
  0
LINE
  8
0
  6
CONTINUOUS
 62
     2
 10
111.15
 20
112.9
 30
0.0
 11
109.15
 21
112.9
 31
0.0
  0
LINE
  8
0
  6
LTYPE1
 62
     2
 10
101.6
 20
114.4
 30
0.0
 11
113.45
 21
114.4
 31
0.0
  0
ARC
  8
0
  6
CONTINUOUS
 62
     2
 10
104.15
 20
114.4
 30
0.0
 40
5.0
 50
343.5
 51
16.5
  0
ARC
  8
0
  6
CONTINUOUS
 62
     2
 10
111.65
 20
114.4
 30
0.0
 40
5.0
 50
163.5
 51
196.3
  0
ARC
  8
0
  6
CONTINUOUS
 62
     2
 10
107.9
 20
116.525
 30
0.0
 40
1.25
 50
325.0
 51
35.0
  0
ARC
  8
0
  6
CONTINUOUS
 62
     2
 10
107.9
 20
116.525
 30
0.0
 40
1.25
 50
145.0
 51
215.0
  0
ARC
  8
0
  6
CONTINUOUS
 62
     2
 10
107.9
 20
112.275
 30
0.0
 40
1.25
 50
145.0
 51
215.0
  0
ARC
  8
0
  6
CONTINUOUS
 62
     2
 10
107.9
 20
112.275
 30
0.0
 40
1.25
 50
325.0
 51
35.0
  0
LINE
  8
0
  6
CONTINUOUS
 62
     2
 10
106.85097354
 20
112.996666455
 30
0.0
 11
108.92597354
 21
112.996666455
 31
0.0
  0
LINE
  8
0
  6
CONTINUOUS
 62
     2
 10
108.944098674
 20
115.820076724
 30
0.0
 11
106.855901326
 21
115.820076724
 31
0.0
  0
LINE
  8
0
  6
CONTINUOUS
 62
     2
 10
108.930901326
 20
117.25
 30
0.0
 11
106.65
 21
117.25
 31
0.0
  0
LINE
  8
0
  6
CONTINUOUS
 62
     2
 10
109.15
 20
112.275
 30
0.0
 11
109.15
 21
116.525
 31
0.0
  0
LINE
  8
0
  6
CONTINUOUS
 62
     2
 10
106.875
 20
111.55
 30
0.0
 11
108.925
 21
111.55
 31
0.0
  0
LINE
  8
0
  6
CONTINUOUS
 62
     2
 10
106.65
 20
117.25
 30
0.0
 11
106.65
 21
112.275
 31
0.0
  0
LINE
  8
0
  6
CONTINUOUS
 62
     2
 10
105.0
 20
111.4
 30
0.0
 11
105.8
 21
111.4
 31
0.0
  0
LINE
  8
0
  6
CONTINUOUS
 62
     2
 10
104.65
 20
114.45
 30
0.0
 11
105.45
 21
114.45
 31
0.0
  0
LINE
  8
0
  6
CONTINUOUS
 62
     2
 10
105.45
 20
114.45
 30
0.0
 11
105.8
 21
117.4
 31
0.0
  0
LINE
  8
0
  6
CONTINUOUS
 62
     2
 10
105.8
 20
117.4
 30
0.0
 11
105.0
 21
117.4
 31
0.0
  0
LINE
  8
0
  6
CONTINUOUS
 62
     2
 10
105.0
 20
117.4
 30
0.0
 11
104.65
 21
114.45
 31
0.0
  0
LINE
  8
0
  6
CONTINUOUS
 62
     2
 10
106.15
 20
114.35
 30
0.0
 11
105.35
 21
114.35
 31
0.0
  0
LINE
  8
0
  6
CONTINUOUS
 62
     2
 10
105.35
 20
114.35
 30
0.0
 11
105.0
 21
111.4
 31
0.0
  0
LINE
  8
0
  6
CONTINUOUS
 62
     2
 10
105.8
 20
111.4
 30
0.0
 11
106.15
 21
114.35
 31
0.0
  0
LINE
  8
0
  6
CONTINUOUS
 62
     2
 10
103.85
 20
117.45
 30
0.0
 11
104.65
 21
117.45
 31
0.0
  0
LINE
  8
0
  6
CONTINUOUS
 62
     2
 10
104.65
 20
117.45
 30
0.0
 11
104.65
 21
111.3475
 31
0.0
  0
LINE
  8
0
  6
CONTINUOUS
 62
     2
 10
104.65
 20
111.3475
 30
0.0
 11
103.855
 21
111.3475
 31
0.0
  0
LINE
  8
0
  6
CONTINUOUS
 62
     2
 10
103.855
 20
111.3475
 30
0.0
 11
103.855
 21
117.45
 31
0.0
  0
LINE
  8
0
  6
CONTINUOUS
 62
     2
 10
106.645
 20
115.9
 30
0.0
 11
105.63
 21
115.9
 31
0.0
  0
LINE
  8
0
  6
CONTINUOUS
 62
     2
 10
104.835
 20
115.9
 30
0.0
 11
104.66
 21
115.9
 31
0.0
  0
LINE
  8
0
  6
CONTINUOUS
 62
     2
 10
103.85
 20
115.9
 30
0.0
 11
103.66
 21
115.9
 31
0.0
  0
LINE
  8
0
  6
CONTINUOUS
 62
     2
 10
103.66
 20
112.905
 30
0.0
 11
103.84
 21
112.905
 31
0.0
  0
LINE
  8
0
  6
CONTINUOUS
 62
     2
 10
104.65
 20
112.905
 30
0.0
 11
105.17
 21
112.905
 31
0.0
  0
LINE
  8
0
  6
CONTINUOUS
 62
     2
 10
105.97
 20
112.905
 30
0.0
 11
106.64
 21
112.905
 31
0.0
  0
LINE
  8
0
  6
CONTINUOUS
 62
     2
 10
106.65
 20
113.025
 30
0.0
 11
105.995
 21
113.025
 31
0.0
  0
LINE
  8
0
  6
CONTINUOUS
 62
     2
 10
105.2
 20
113.025
 30
0.0
 11
104.665
 21
113.025
 31
0.0
  0
LINE
  8
0
  6
CONTINUOUS
 62
     2
 10
109.155
 20
113.025
 30
0.0
 11
111.13
 21
113.025
 31
0.0
  0
LINE
  8
0
  6
CONTINUOUS
 62
     2
 10
111.15
 20
115.785
 30
0.0
 11
109.16
 21
115.785
 31
0.0
  0
LINE
  8
0
  6
CONTINUOUS
 62
     2
 10
106.65
 20
115.785
 30
0.0
 11
105.615
 21
115.785
 31
0.0
  0
LINE
  8
0
  6
CONTINUOUS
 62
     2
 10
104.815
 20
115.785
 30
0.0
 11
104.655
 21
115.785
 31
0.0
  0
POLYLINE
  8
0
  6
CONTINUOUS
 62
     2
 66
     1
  0
VERTEX
  8
0
  6
CONTINUOUS
 62
     2
 10
103.4
 20
156.4
 30
0.0
  0
VERTEX
  8
0
  6
CONTINUOUS
 62
     2
 10
103.65
 20
156.4
 30
0.0
  0
VERTEX
  8
0
  6
CONTINUOUS
 62
     2
 10
103.65
 20
162.4
 30
0.0
  0
VERTEX
  8
0
  6
CONTINUOUS
 62
     2
 10
103.4
 20
162.4
 30
0.0
  0
SEQEND
  0
LINE
  8
0
  6
CONTINUOUS
 62
     2
 10
109.15
 20
160.9
 30
0.0
 11
111.15
 21
160.9
 31
0.0
  0
LINE
  8
0
  6
CONTINUOUS
 62
     2
 10
111.15
 20
160.9
 30
0.0
 11
111.15
 21
157.9
 31
0.0
  0
LINE
  8
0
  6
CONTINUOUS
 62
     2
 10
111.15
 20
157.9
 30
0.0
 11
109.15
 21
157.9
 31
0.0
  0
LINE
  8
0
  6
LTYPE1
 62
     2
 10
101.6
 20
159.4
 30
0.0
 11
113.45
 21
159.4
 31
0.0
  0
ARC
  8
0
  6
CONTINUOUS
 62
     2
 10
104.15
 20
159.4
 30
0.0
 40
5.0
 50
343.5
 51
16.5
  0
ARC
  8
0
  6
CONTINUOUS
 62
     2
 10
111.65
 20
159.4
 30
0.0
 40
5.0
 50
163.5
 51
196.3
  0
ARC
  8
0
  6
CONTINUOUS
 62
     2
 10
107.9
 20
161.525
 30
0.0
 40
1.25
 50
325.0
 51
35.0
  0
ARC
  8
0
  6
CONTINUOUS
 62
     2
 10
107.9
 20
161.525
 30
0.0
 40
1.25
 50
145.0
 51
215.0
  0
ARC
  8
0
  6
CONTINUOUS
 62
     2
 10
107.9
 20
157.275
 30
0.0
 40
1.25
 50
145.0
 51
215.0
  0
ARC
  8
0
  6
CONTINUOUS
 62
     2
 10
107.9
 20
157.275
 30
0.0
 40
1.25
 50
325.0
 51
35.0
  0
LINE
  8
0
  6
CONTINUOUS
 62
     2
 10
106.85097354
 20
157.996666455
 30
0.0
 11
108.92597354
 21
157.996666455
 31
0.0
  0
LINE
  8
0
  6
CONTINUOUS
 62
     2
 10
108.944098674
 20
160.820076724
 30
0.0
 11
106.855901326
 21
160.820076724
 31
0.0
  0
LINE
  8
0
  6
CONTINUOUS
 62
     2
 10
108.930901326
 20
162.25
 30
0.0
 11
106.65
 21
162.25
 31
0.0
  0
LINE
  8
0
  6
CONTINUOUS
 62
     2
 10
109.15
 20
157.275
 30
0.0
 11
109.15
 21
161.525
 31
0.0
  0
LINE
  8
0
  6
CONTINUOUS
 62
     2
 10
106.875
 20
156.55
 30
0.0
 11
108.925
 21
156.55
 31
0.0
  0
LINE
  8
0
  6
CONTINUOUS
 62
     2
 10
106.65
 20
162.25
 30
0.0
 11
106.65
 21
157.275
 31
0.0
  0
LINE
  8
0
  6
CONTINUOUS
 62
     2
 10
105.0
 20
156.4
 30
0.0
 11
105.8
 21
156.4
 31
0.0
  0
LINE
  8
0
  6
CONTINUOUS
 62
     2
 10
104.65
 20
159.45
 30
0.0
 11
105.45
 21
159.45
 31
0.0
  0
LINE
  8
0
  6
CONTINUOUS
 62
     2
 10
105.45
 20
159.45
 30
0.0
 11
105.8
 21
162.4
 31
0.0
  0
LINE
  8
0
  6
CONTINUOUS
 62
     2
 10
105.8
 20
162.4
 30
0.0
 11
105.0
 21
162.4
 31
0.0
  0
LINE
  8
0
  6
CONTINUOUS
 62
     2
 10
105.0
 20
162.4
 30
0.0
 11
104.65
 21
159.45
 31
0.0
  0
LINE
  8
0
  6
CONTINUOUS
 62
     2
 10
106.15
 20
159.35
 30
0.0
 11
105.35
 21
159.35
 31
0.0
  0
LINE
  8
0
  6
CONTINUOUS
 62
     2
 10
105.35
 20
159.35
 30
0.0
 11
105.0
 21
156.4
 31
0.0
  0
LINE
  8
0
  6
CONTINUOUS
 62
     2
 10
105.8
 20
156.4
 30
0.0
 11
106.15
 21
159.35
 31
0.0
  0
LINE
  8
0
  6
CONTINUOUS
 62
     2
 10
103.85
 20
162.45
 30
0.0
 11
104.65
 21
162.45
 31
0.0
  0
LINE
  8
0
  6
CONTINUOUS
 62
     2
 10
104.65
 20
162.45
 30
0.0
 11
104.65
 21
156.3475
 31
0.0
  0
LINE
  8
0
  6
CONTINUOUS
 62
     2
 10
104.65
 20
156.3475
 30
0.0
 11
103.855
 21
156.3475
 31
0.0
  0
LINE
  8
0
  6
CONTINUOUS
 62
     2
 10
103.855
 20
156.3475
 30
0.0
 11
103.855
 21
162.45
 31
0.0
  0
LINE
  8
0
  6
CONTINUOUS
 62
     2
 10
106.645
 20
160.9
 30
0.0
 11
105.63
 21
160.9
 31
0.0
  0
LINE
  8
0
  6
CONTINUOUS
 62
     2
 10
104.835
 20
160.9
 30
0.0
 11
104.66
 21
160.9
 31
0.0
  0
LINE
  8
0
  6
CONTINUOUS
 62
     2
 10
103.85
 20
160.9
 30
0.0
 11
103.66
 21
160.9
 31
0.0
  0
LINE
  8
0
  6
CONTINUOUS
 62
     2
 10
103.66
 20
157.905
 30
0.0
 11
103.84
 21
157.905
 31
0.0
  0
LINE
  8
0
  6
CONTINUOUS
 62
     2
 10
104.65
 20
157.905
 30
0.0
 11
105.17
 21
157.905
 31
0.0
  0
LINE
  8
0
  6
CONTINUOUS
 62
     2
 10
105.97
 20
157.905
 30
0.0
 11
106.64
 21
157.905
 31
0.0
  0
LINE
  8
0
  6
CONTINUOUS
 62
     2
 10
106.65
 20
158.025
 30
0.0
 11
105.995
 21
158.025
 31
0.0
  0
LINE
  8
0
  6
CONTINUOUS
 62
     2
 10
105.2
 20
158.025
 30
0.0
 11
104.665
 21
158.025
 31
0.0
  0
LINE
  8
0
  6
CONTINUOUS
 62
     2
 10
109.155
 20
158.025
 30
0.0
 11
111.13
 21
158.025
 31
0.0
  0
LINE
  8
0
  6
CONTINUOUS
 62
     2
 10
111.15
 20
160.785
 30
0.0
 11
109.16
 21
160.785
 31
0.0
  0
LINE
  8
0
  6
CONTINUOUS
 62
     2
 10
106.65
 20
160.785
 30
0.0
 11
105.615
 21
160.785
 31
0.0
  0
LINE
  8
0
  6
CONTINUOUS
 62
     2
 10
104.815
 20
160.785
 30
0.0
 11
104.655
 21
160.785
 31
0.0
  0
LINE
  8
0
  6
CONTINUOUS
 62
     1
 10
103.855
 20
112.15
 30
0.0
 11
103.65
 21
112.15
 31
0.0
  0
LINE
  8
0
  6
CONTINUOUS
 62
     1
 10
105.088983051
 20
112.15
 30
0.0
 11
104.65
 21
112.15
 31
0.0
  0
LINE
  8
0
  6
CONTINUOUS
 62
     1
 10
106.656265704
 20
112.15
 30
0.0
 11
105.888983051
 21
112.15
 31
0.0
  0
LINE
  8
0
  6
CONTINUOUS
 62
     1
 10
145.4
 20
112.15
 30
0.0
 11
109.143734296
 21
112.15
 31
0.0
  0
LINE
  8
0
  6
CONTINUOUS
 62
     1
 10
109.143734296
 20
161.65
 30
0.0
 11
145.4
 21
161.65
 31
0.0
  0
LINE
  8
0
  6
CONTINUOUS
 62
     1
 10
105.711016949
 20
161.65
 30
0.0
 11
106.656265704
 21
161.65
 31
0.0
  0
LINE
  8
0
  6
CONTINUOUS
 62
     1
 10
104.65
 20
161.65
 30
0.0
 11
104.911016949
 21
161.65
 31
0.0
  0
LINE
  8
0
  6
CONTINUOUS
 62
     1
 10
103.65
 20
161.65
 30
0.0
 11
103.855
 21
161.65
 31
0.0
  0
LINE
  8
0
  6
CONTINUOUS
 62
     2
 10
114.003
 20
92.278
 30
0.0
 11
134.253
 21
92.278
 31
0.0
  0
TEXT
  8
0
  6
CONTINUOUS
 62
     2
 10
114.003
 20
93.278
 30
0.3
 40
3.0
  1
六角ナットＳＷ，Ｌ付
 50
0.0
 41
0.9
 51
0.0
  7
KANJI2
  0
LINE
  8
0
  6
CONTINUOUS
 62
     2
 10
105.828981586
 20
111.644273371
 30
0.0
 11
106.103296328
 21
109.663174832
 31
0.0
  0
LINE
  8
0
  6
CONTINUOUS
 62
     2
 10
105.828981586
 20
111.644273371
 30
0.0
 11
107.057094391
 21
110.065749079
 31
0.0
  0
LINE
  8
0
  6
CONTINUOUS
 62
     2
 10
105.828981586
 20
111.644273371
 30
0.0
 11
114.003
 21
92.278
 31
0.0
  0
LINE
  8
0
  6
CONTINUOUS
 62
     2
 10
103.65
 20
172.775001907
 30
0.0
 11
111.15
 21
172.775001907
 31
0.0
  0
LINE
  8
0
  6
CONTINUOUS
 62
     1
 10
103.4
 20
164.125
 30
0.0
 11
98.15
 21
164.125
 31
0.0
  0
ARC
  8
0
  6
CONTINUOUS
 62
     1
 10
98.15
 20
163.625
 30
0.0
 40
0.5
 50
90.0
 51
180.0
  0
LINE
  8
0
  6
CONTINUOUS
 62
     1
 10
97.65
 20
162.125
 30
0.0
 11
94.15
 21
162.125
 31
0.0
  0
ARC
  8
0
  6
CONTINUOUS
 62
     1
 10
94.15
 20
161.875
 30
0.0
 40
0.25
 50
90.0
 51
180.0
  0
LINE
  8
0
  6
CONTINUOUS
 62
     1
 10
92.9
 20
134.375
 30
0.0
 11
93.1
 21
134.375
 31
0.0
  0
LINE
  8
0
  6
CONTINUOUS
 62
     1
 10
103.4
 20
109.125
 30
0.0
 11
98.15
 21
109.125
 31
0.0
  0
ARC
  8
0
  6
CONTINUOUS
 62
     1
 10
98.15
 20
109.625
 30
0.0
 40
0.5
 50
180.0
 51
270.0
  0
LINE
  8
0
  6
CONTINUOUS
 62
     1
 10
97.65
 20
111.125
 30
0.0
 11
94.15
 21
111.125
 31
0.0
  0
ARC
  8
0
  6
CONTINUOUS
 62
     1
 10
94.15
 20
111.375
 30
0.0
 40
0.25
 50
180.0
 51
270.0
  0
LINE
  8
0
  6
CONTINUOUS
 62
     1
 10
93.1
 20
134.375
 30
0.0
 11
93.9
 21
111.375
 31
0.0
  0
LINE
  8
0
  6
CONTINUOUS
 62
     1
 10
97.65
 20
109.625
 30
0.0
 11
97.65
 21
136.625
 31
0.0
  0
LINE
  8
0
  6
CONTINUOUS
 62
     1
 10
93.077077922
 20
138.215990258
 30
0.0
 11
93.9
 21
161.875
 31
0.0
  0
LINE
  8
0
  6
CONTINUOUS
 62
     1
 10
97.65
 20
163.625
 30
0.0
 11
97.65
 21
162.275
 31
0.0
  0
LINE
  8
0
  6
CONTINUOUS
 62
     1
 10
103.4
 20
164.125
 30
0.0
 11
103.4
 21
163.475
 31
0.0
  0
LINE
  8
0
  6
CONTINUOUS
 62
     1
 10
97.65
 20
162.275
 30
0.0
 11
97.65
 21
162.125
 31
0.0
  0
LINE
  8
0
  6
CONTINUOUS
 62
     1
 10
103.4
 20
163.475
 30
0.0
 11
103.4
 21
136.875
 31
0.0
  0
LINE
  8
0
  6
CONTINUOUS
 62
     1
 10
103.4
 20
136.875
 30
0.0
 11
103.4
 21
109.125
 31
0.0
  0
LINE
  8
0
  6
CONTINUOUS
 62
     1
 10
92.9
 20
138.215990258
 30
0.0
 11
92.9
 21
134.375
 31
0.0
  0
LINE
  8
0
  6
CONTINUOUS
 62
     1
 10
97.65
 20
136.65
 30
0.0
 11
97.65
 21
162.125
 31
0.0
  0
LINE
  8
0
  6
CONTINUOUS
 62
     1
 10
97.65
 20
154.625
 30
0.0
 11
97.65
 21
163.625001907
 31
0.0
  0
LINE
  8
0
  6
CONTINUOUS
 62
     2
 10
92.9
 20
139.8
 30
0.0
 11
92.9
 21
133.9
 31
0.0
  0
LINE
  8
0
  6
CONTINUOUS
 62
     2
 10
92.9
 20
139.8
 30
0.0
 11
92.9
 21
139.8
 31
0.0
  0
ARC
  8
0
  6
CONTINUOUS
 62
     2
 10
92.9
 20
138.3
 30
0.0
 40
1.5
 50
90.0
 51
180.0
  0
LINE
  8
0
  6
CONTINUOUS
 62
     2
 10
92.9
 20
133.9
 30
0.0
 11
92.8
 21
133.9
 31
0.0
  0
LINE
  8
0
  6
CONTINUOUS
 62
     2
 10
91.4
 20
135.3
 30
0.0
 11
91.4
 21
138.3
 31
0.0
  0
ARC
  8
0
  6
CONTINUOUS
 62
     2
 10
92.8
 20
135.3
 30
0.0
 40
1.4
 50
180.0
 51
270.0
  0
LINE
  8
0
  6
CONTINUOUS
 62
     2
 10
91.4
 20
182.325001907
 30
0.0
 11
93.814814566
 21
181.677954295
 31
0.0
  0
LINE
  8
0
  6
CONTINUOUS
 62
     2
 10
91.4
 20
182.325001907
 30
0.0
 11
93.814814566
 21
182.97204952
 31
0.0
  0
LINE
  8
0
  6
CONTINUOUS
 62
     2
 10
91.4
 20
182.325001907
 30
0.0
 11
103.4
 21
182.325001907
 31
0.0
  0
LINE
  8
0
  6
CONTINUOUS
 62
     2
 10
103.4
 20
182.325001907
 30
0.0
 11
100.985185434
 21
182.97204952
 31
0.0
  0
LINE
  8
0
  6
CONTINUOUS
 62
     2
 10
103.4
 20
182.325001907
 30
0.0
 11
100.985185434
 21
181.677954295
 31
0.0
  0
TEXT
  8
0
  6
CONTINUOUS
 62
     2
 10
95.45
 20
183.325001907
 30
0.3
 40
3.0
  1
２４
 50
0.0
 41
0.6
 51
0.0
  7
KANJI4
  0
LINE
  8
0
  6
CONTINUOUS
 62
     2
 10
91.4
 20
138.75
 30
0.0
 11
91.4
 21
184.325001907
 31
0.0
  0
LINE
  8
0
  6
CONTINUOUS
 62
     2
 10
103.4
 20
172.775001907
 30
0.0
 11
100.985185434
 21
173.42204952
 31
0.0
  0
LINE
  8
0
  6
CONTINUOUS
 62
     2
 10
103.4
 20
172.775001907
 30
0.0
 11
100.985185434
 21
172.127954295
 31
0.0
  0
TEXT
  8
0
  6
CONTINUOUS
 62
     2
 10
95.75
 20
173.775001907
 30
0.1
 40
3.0
  1
０．５
 50
0.0
 41
0.5
 51
0.0
  7
KANJI8
  0
LINE
  8
0
  6
CONTINUOUS
 62
     2
 10
97.85
 20
172.775001907
 30
0.0
 11
103.65
 21
172.775001907
 31
0.0
  0
POLYLINE
  8
0
  6
CONTINUOUS
 62
     2
 66
     1
  0
VERTEX
  8
0
  6
CONTINUOUS
 62
     2
 10
97.65
 20
160.625
 30
0.0
  0
VERTEX
  8
0
  6
CONTINUOUS
 62
     2
 10
97.55
 20
160.625
 30
0.0
  0
VERTEX
  8
0
  6
CONTINUOUS
 62
     2
 10
97.55
 20
158.125
 30
0.0
  0
VERTEX
  8
0
  6
CONTINUOUS
 62
     2
 10
97.65
 20
158.125
 30
0.0
  0
SEQEND
  0
LINE
  8
0
  6
CONTINUOUS
 62
     2
 10
97.55
 20
160.9
 30
0.0
 11
97.55
 21
157.9
 31
0.0
  0
LINE
  8
0
  6
CONTINUOUS
 62
     2
 10
97.2
 20
157.9
 30
0.0
 11
97.55
 21
157.9
 31
0.0
  0
ARC
  8
0
  6
CONTINUOUS
 62
     2
 10
97.2
 20
158.3
 30
0.0
 40
0.4
 50
180.0
 51
270.0
  0
LINE
  8
0
  6
CONTINUOUS
 62
     2
 10
97.2
 20
160.9
 30
0.0
 11
97.65
 21
160.9
 31
0.0
  0
LINE
  8
0
  6
CONTINUOUS
 62
     2
 10
96.8
 20
158.3
 30
0.0
 11
96.8
 21
160.5
 31
0.0
  0
ARC
  8
0
  6
CONTINUOUS
 62
     2
 10
97.2
 20
160.5
 30
0.0
 40
0.4
 50
90.0
 51
180.0
  0
LINE
  8
0
  6
CONTINUOUS
 62
     2
 10
96.8
 20
159.5
 30
0.0
 11
96.9
 21
159.5
 31
0.0
  0
LINE
  8
0
  6
CONTINUOUS
 62
     2
 10
96.9
 20
159.5
 30
0.0
 11
96.9
 21
159.3
 31
0.0
  0
LINE
  8
0
  6
CONTINUOUS
 62
     2
 10
96.9
 20
159.3
 30
0.0
 11
96.8
 21
159.3
 31
0.0
  0
POLYLINE
  8
0
  6
CONTINUOUS
 62
     2
 66
     1
  0
VERTEX
  8
0
  6
CONTINUOUS
 62
     2
 10
97.65
 20
113.125
 30
0.0
  0
VERTEX
  8
0
  6
CONTINUOUS
 62
     2
 10
97.55
 20
113.125
 30
0.0
  0
VERTEX
  8
0
  6
CONTINUOUS
 62
     2
 10
97.55
 20
115.625
 30
0.0
  0
VERTEX
  8
0
  6
CONTINUOUS
 62
     2
 10
97.65
 20
115.625
 30
0.0
  0
SEQEND
  0
LINE
  8
0
  6
CONTINUOUS
 62
     2
 10
97.55
 20
112.85
 30
0.0
 11
97.55
 21
115.85
 31
0.0
  0
LINE
  8
0
  6
CONTINUOUS
 62
     2
 10
97.2
 20
115.85
 30
0.0
 11
97.55
 21
115.85
 31
0.0
  0
ARC
  8
0
  6
CONTINUOUS
 62
     2
 10
97.2
 20
115.45
 30
0.0
 40
0.4
 50
90.0
 51
180.0
  0
LINE
  8
0
  6
CONTINUOUS
 62
     2
 10
97.2
 20
112.85
 30
0.0
 11
97.65
 21
112.85
 31
0.0
  0
LINE
  8
0
  6
CONTINUOUS
 62
     2
 10
96.8
 20
115.45
 30
0.0
 11
96.8
 21
113.25
 31
0.0
  0
ARC
  8
0
  6
CONTINUOUS
 62
     2
 10
97.2
 20
113.25
 30
0.0
 40
0.4
 50
180.0
 51
270.0
  0
LINE
  8
0
  6
CONTINUOUS
 62
     2
 10
96.8
 20
114.25
 30
0.0
 11
96.9
 21
114.25
 31
0.0
  0
LINE
  8
0
  6
CONTINUOUS
 62
     2
 10
96.9
 20
114.25
 30
0.0
 11
96.9
 21
114.45
 31
0.0
  0
LINE
  8
0
  6
CONTINUOUS
 62
     2
 10
96.9
 20
114.45
 30
0.0
 11
96.8
 21
114.45
 31
0.0
  0
LINE
  8
0
  6
LTYPE3
 62
     2
 10
158.95
 20
43.55
 30
0.0
 11
170.45
 21
43.55
 31
0.0
  0
LINE
  8
0
  6
LTYPE3
 62
     2
 10
164.7
 20
37.8
 30
0.0
 11
164.7
 21
49.3
 31
0.0
  0
CIRCLE
  8
0
  6
CONTINUOUS
 62
     1
 10
164.7
 20
43.55
 30
0.0
 40
1.75
  0
LINE
  8
0
  6
LTYPE3
 62
     2
 10
209.7
 20
37.8
 30
0.0
 11
209.7
 21
49.3
 31
0.0
  0
LINE
  8
0
  6
LTYPE3
 62
     2
 10
215.45
 20
43.55
 30
0.0
 11
203.95
 21
43.55
 31
0.0
  0
CIRCLE
  8
0
  6
CONTINUOUS
 62
     1
 10
209.7
 20
43.55
 30
0.0
 40
1.75
  0
LINE
  8
0
  6
LTYPE3
 62
     2
 10
215.45
 20
88.55
 30
0.0
 11
203.95
 21
88.55
 31
0.0
  0
LINE
  8
0
  6
LTYPE3
 62
     2
 10
209.7
 20
94.3
 30
0.0
 11
209.7
 21
82.8
 31
0.0
  0
CIRCLE
  8
0
  6
CONTINUOUS
 62
     1
 10
209.7
 20
88.55
 30
0.0
 40
1.75
  0
LINE
  8
0
  6
LTYPE3
 62
     2
 10
164.7
 20
94.3
 30
0.0
 11
164.7
 21
82.8
 31
0.0
  0
LINE
  8
0
  6
LTYPE3
 62
     2
 10
158.95
 20
88.55
 30
0.0
 11
170.45
 21
88.55
 31
0.0
  0
CIRCLE
  8
0
  6
CONTINUOUS
 62
     1
 10
164.7
 20
88.55
 30
0.0
 40
1.75
  0
LINE
  8
0
  6
CONTINUOUS
 62
     2
 10
145.9
 20
143.915103459
 30
0.0
 11
145.9
 21
139.915103459
 31
0.0
  0
LINE
  8
0
  6
CONTINUOUS
 62
     2
 10
149.875
 20
139.162603459
 30
0.0
 11
149.875
 21
144.665103459
 31
0.0
  0
LINE
  8
0
  6
CONTINUOUS
 62
     2
 10
149.4
 20
138.740103459
 30
0.0
 11
149.875
 21
138.740103459
 31
0.0
  0
LINE
  8
0
  6
CONTINUOUS
 62
     2
 10
149.875
 20
138.740103459
 30
0.0
 11
149.875
 21
145.090103459
 31
0.0
  0
LINE
  8
0
  6
CONTINUOUS
 62
     2
 10
149.875
 20
145.090103459
 30
0.0
 11
149.4
 21
145.090103459
 31
0.0
  0
LINE
  8
0
  6
CONTINUOUS
 62
     2
 10
149.4
 20
145.090103459
 30
0.0
 11
149.4
 21
138.740103459
 31
0.0
  0
ARC
  8
0
  6
CONTINUOUS
 62
     2
 10
151.425
 20
140.840103459
 30
0.0
 40
1.475
 50
270.0
 51
0.0
  0
ARC
  8
0
  6
CONTINUOUS
 62
     2
 10
151.425
 20
142.990103459
 30
0.0
 40
1.475
 50
0.0
 51
90.0
  0
LINE
  8
0
  6
CONTINUOUS
 62
     2
 10
152.9
 20
142.990103459
 30
0.0
 11
152.9
 21
140.840103459
 31
0.0
  0
LINE
  8
0
  6
CONTINUOUS
 62
     2
 10
151.425
 20
139.365103459
 30
0.0
 11
150.925
 21
139.365103459
 31
0.0
  0
LINE
  8
0
  6
CONTINUOUS
 62
     2
 10
150.925
 20
139.365103459
 30
0.0
 11
150.925
 21
144.465103459
 31
0.0
  0
LINE
  8
0
  6
CONTINUOUS
 62
     2
 10
145.9
 20
143.915103459
 30
0.0
 11
149.4
 21
143.915103459
 31
0.0
  0
LINE
  8
0
  6
CONTINUOUS
 62
     2
 10
149.4
 20
139.915103459
 30
0.0
 11
145.9
 21
139.915103459
 31
0.0
  0
LINE
  8
0
  6
CONTINUOUS
 62
     2
 10
150.225
 20
141.962603459
 30
0.0
 11
149.875
 21
144.912603459
 31
0.0
  0
LINE
  8
0
  6
CONTINUOUS
 62
     2
 10
149.875
 20
144.912603459
 30
0.0
 11
150.475
 21
144.912603459
 31
0.0
  0
LINE
  8
0
  6
CONTINUOUS
 62
     2
 10
150.825
 20
141.962603459
 30
0.0
 11
150.225
 21
141.962603459
 31
0.0
  0
LINE
  8
0
  6
CONTINUOUS
 62
     2
 10
150.475
 20
144.912603459
 30
0.0
 11
150.825
 21
141.962603459
 31
0.0
  0
LINE
  8
0
  6
CONTINUOUS
 62
     2
 10
150.924999868
 20
144.465103459
 30
0.0
 11
151.425
 21
144.465103459
 31
0.0
  0
LINE
  8
0
  6
CONTINUOUS
 62
     2
 10
150.325
 20
138.912603459
 30
0.0
 11
149.975
 21
141.862603459
 31
0.0
  0
LINE
  8
0
  6
CONTINUOUS
 62
     2
 10
149.975
 20
141.862603459
 30
0.0
 11
150.574309841
 21
141.875103459
 31
0.0
  0
LINE
  8
0
  6
CONTINUOUS
 62
     2
 10
150.937877515
 20
138.912603459
 30
0.0
 11
150.325
 21
138.912603459
 31
0.0
  0
LINE
  8
0
  6
CONTINUOUS
 62
     2
 10
150.574309841
 20
141.875103459
 30
0.0
 11
150.937877515
 21
138.912603459
 31
0.0
  0
LINE
  8
0
  6
LTYPE1
 62
     2
 10
143.125
 20
141.9
 30
0.0
 11
155.85
 21
141.9
 31
0.0
  0
LINE
  8
0
  6
CONTINUOUS
 62
     2
 10
145.9
 20
133.915103459
 30
0.0
 11
145.9
 21
129.915103459
 31
0.0
  0
LINE
  8
0
  6
CONTINUOUS
 62
     2
 10
149.875
 20
129.162603459
 30
0.0
 11
149.875
 21
134.665103459
 31
0.0
  0
LINE
  8
0
  6
CONTINUOUS
 62
     2
 10
149.4
 20
128.740103459
 30
0.0
 11
149.875
 21
128.740103459
 31
0.0
  0
LINE
  8
0
  6
CONTINUOUS
 62
     2
 10
149.875
 20
128.740103459
 30
0.0
 11
149.875
 21
135.090103459
 31
0.0
  0
LINE
  8
0
  6
CONTINUOUS
 62
     2
 10
149.875
 20
135.090103459
 30
0.0
 11
149.4
 21
135.090103459
 31
0.0
  0
LINE
  8
0
  6
CONTINUOUS
 62
     2
 10
149.4
 20
135.090103459
 30
0.0
 11
149.4
 21
128.740103459
 31
0.0
  0
ARC
  8
0
  6
CONTINUOUS
 62
     2
 10
151.425
 20
130.840103459
 30
0.0
 40
1.475
 50
270.0
 51
0.0
  0
ARC
  8
0
  6
CONTINUOUS
 62
     2
 10
151.425
 20
132.990103459
 30
0.0
 40
1.475
 50
0.0
 51
90.0
  0
LINE
  8
0
  6
CONTINUOUS
 62
     2
 10
152.9
 20
132.990103459
 30
0.0
 11
152.9
 21
130.840103459
 31
0.0
  0
LINE
  8
0
  6
CONTINUOUS
 62
     2
 10
151.425
 20
129.365103459
 30
0.0
 11
150.925
 21
129.365103459
 31
0.0
  0
LINE
  8
0
  6
CONTINUOUS
 62
     2
 10
150.925
 20
129.365103459
 30
0.0
 11
150.925
 21
134.465103459
 31
0.0
  0
LINE
  8
0
  6
CONTINUOUS
 62
     2
 10
145.9
 20
133.915103459
 30
0.0
 11
149.4
 21
133.915103459
 31
0.0
  0
LINE
  8
0
  6
CONTINUOUS
 62
     2
 10
149.4
 20
129.915103459
 30
0.0
 11
145.9
 21
129.915103459
 31
0.0
  0
LINE
  8
0
  6
CONTINUOUS
 62
     2
 10
150.225
 20
131.962603459
 30
0.0
 11
149.875
 21
134.912603459
 31
0.0
  0
LINE
  8
0
  6
CONTINUOUS
 62
     2
 10
149.875
 20
134.912603459
 30
0.0
 11
150.475
 21
134.912603459
 31
0.0
  0
LINE
  8
0
  6
CONTINUOUS
 62
     2
 10
150.825
 20
131.962603459
 30
0.0
 11
150.225
 21
131.962603459
 31
0.0
  0
LINE
  8
0
  6
CONTINUOUS
 62
     2
 10
150.475
 20
134.912603459
 30
0.0
 11
150.825
 21
131.962603459
 31
0.0
  0
LINE
  8
0
  6
CONTINUOUS
 62
     2
 10
150.924999868
 20
134.465103459
 30
0.0
 11
151.425
 21
134.465103459
 31
0.0
  0
LINE
  8
0
  6
CONTINUOUS
 62
     2
 10
150.325
 20
128.912603459
 30
0.0
 11
149.975
 21
131.862603459
 31
0.0
  0
LINE
  8
0
  6
CONTINUOUS
 62
     2
 10
149.975
 20
131.862603459
 30
0.0
 11
150.574309841
 21
131.875103459
 31
0.0
  0
LINE
  8
0
  6
CONTINUOUS
 62
     2
 10
150.937877515
 20
128.912603459
 30
0.0
 11
150.325
 21
128.912603459
 31
0.0
  0
LINE
  8
0
  6
CONTINUOUS
 62
     2
 10
150.574309841
 20
131.875103459
 30
0.0
 11
150.937877515
 21
128.912603459
 31
0.0
  0
CIRCLE
  8
0
  6
CONTINUOUS
 62
     2
 10
179.7
 20
141.9
 30
0.0
 40
3.175
  0
CIRCLE
  8
0
  6
CONTINUOUS
 62
     2
 10
179.7
 20
141.9
 30
0.0
 40
2.5
  0
LINE
  8
0
  6
CONTINUOUS
 62
     2
 10
181.075
 20
141.55
 30
0.0
 11
181.075
 21
142.25
 31
0.0
  0
LINE
  8
0
  6
CONTINUOUS
 62
     2
 10
178.325
 20
142.25
 30
0.0
 11
178.325
 21
141.55
 31
0.0
  0
LINE
  8
0
  6
CONTINUOUS
 62
     2
 10
181.075
 20
142.25
 30
0.0
 11
180.8
 21
142.25
 31
0.0
  0
LINE
  8
0
  6
CONTINUOUS
 62
     2
 10
180.05
 20
143.0
 30
0.0
 11
180.05
 21
144.375378759
 31
0.0
  0
ARC
  8
0
  6
CONTINUOUS
 62
     2
 10
180.8
 20
143.0
 30
0.0
 40
0.75
 50
180.0
 51
270.0
  0
LINE
  8
0
  6
CONTINUOUS
 62
     2
 10
180.8
 20
141.55
 30
0.0
 11
181.075
 21
141.55
 31
0.0
  0
LINE
  8
0
  6
CONTINUOUS
 62
     2
 10
180.05
 20
139.45
 30
0.0
 11
180.05
 21
140.8
 31
0.0
  0
ARC
  8
0
  6
CONTINUOUS
 62
     2
 10
180.8
 20
140.8
 30
0.0
 40
0.75
 50
90.0
 51
180.0
  0
LINE
  8
0
  6
CONTINUOUS
 62
     2
 10
178.325
 20
141.55
 30
0.0
 11
178.6
 21
141.55
 31
0.0
  0
LINE
  8
0
  6
CONTINUOUS
 62
     2
 10
179.35
 20
140.8
 30
0.0
 11
179.35
 21
139.424621241
 31
0.0
  0
ARC
  8
0
  6
CONTINUOUS
 62
     2
 10
178.6
 20
140.8
 30
0.0
 40
0.75
 50
0.0
 51
90.0
  0
LINE
  8
0
  6
CONTINUOUS
 62
     2
 10
178.6
 20
142.25
 30
0.0
 11
178.325
 21
142.25
 31
0.0
  0
LINE
  8
0
  6
CONTINUOUS
 62
     2
 10
179.35
 20
144.375378759
 30
0.0
 11
179.35
 21
143.0
 31
0.0
  0
ARC
  8
0
  6
CONTINUOUS
 62
     2
 10
178.6
 20
143.0
 30
0.0
 40
0.75
 50
270.0
 51
0.0
  0
CIRCLE
  8
0
  6
CONTINUOUS
 62
     2
 10
194.7
 20
141.9
 30
0.0
 40
3.175
  0
CIRCLE
  8
0
  6
CONTINUOUS
 62
     2
 10
194.7
 20
141.9
 30
0.0
 40
2.5
  0
LINE
  8
0
  6
CONTINUOUS
 62
     2
 10
196.075
 20
141.55
 30
0.0
 11
196.075
 21
142.25
 31
0.0
  0
LINE
  8
0
  6
CONTINUOUS
 62
     2
 10
193.325
 20
142.25
 30
0.0
 11
193.325
 21
141.55
 31
0.0
  0
LINE
  8
0
  6
CONTINUOUS
 62
     2
 10
196.075
 20
142.25
 30
0.0
 11
195.8
 21
142.25
 31
0.0
  0
LINE
  8
0
  6
CONTINUOUS
 62
     2
 10
195.05
 20
143.0
 30
0.0
 11
195.05
 21
144.375378759
 31
0.0
  0
ARC
  8
0
  6
CONTINUOUS
 62
     2
 10
195.8
 20
143.0
 30
0.0
 40
0.75
 50
180.0
 51
270.0
  0
LINE
  8
0
  6
CONTINUOUS
 62
     2
 10
195.8
 20
141.55
 30
0.0
 11
196.075
 21
141.55
 31
0.0
  0
LINE
  8
0
  6
CONTINUOUS
 62
     2
 10
195.05
 20
139.45
 30
0.0
 11
195.05
 21
140.8
 31
0.0
  0
ARC
  8
0
  6
CONTINUOUS
 62
     2
 10
195.8
 20
140.8
 30
0.0
 40
0.75
 50
90.0
 51
180.0
  0
LINE
  8
0
  6
CONTINUOUS
 62
     2
 10
193.325
 20
141.55
 30
0.0
 11
193.6
 21
141.55
 31
0.0
  0
LINE
  8
0
  6
CONTINUOUS
 62
     2
 10
194.35
 20
140.8
 30
0.0
 11
194.35
 21
139.424621241
 31
0.0
  0
ARC
  8
0
  6
CONTINUOUS
 62
     2
 10
193.6
 20
140.8
 30
0.0
 40
0.75
 50
0.0
 51
90.0
  0
LINE
  8
0
  6
CONTINUOUS
 62
     2
 10
193.6
 20
142.25
 30
0.0
 11
193.325
 21
142.25
 31
0.0
  0
LINE
  8
0
  6
CONTINUOUS
 62
     2
 10
194.35
 20
144.375378759
 30
0.0
 11
194.35
 21
143.0
 31
0.0
  0
ARC
  8
0
  6
CONTINUOUS
 62
     2
 10
193.6
 20
143.0
 30
0.0
 40
0.75
 50
270.0
 51
0.0
  0
CIRCLE
  8
0
  6
CONTINUOUS
 62
     2
 10
202.2
 20
131.9
 30
0.0
 40
3.175
  0
CIRCLE
  8
0
  6
CONTINUOUS
 62
     2
 10
202.2
 20
131.9
 30
0.0
 40
2.5
  0
LINE
  8
0
  6
CONTINUOUS
 62
     2
 10
203.575
 20
131.55
 30
0.0
 11
203.575
 21
132.25
 31
0.0
  0
LINE
  8
0
  6
CONTINUOUS
 62
     2
 10
200.825
 20
132.25
 30
0.0
 11
200.825
 21
131.55
 31
0.0
  0
LINE
  8
0
  6
CONTINUOUS
 62
     2
 10
203.575
 20
132.25
 30
0.0
 11
203.3
 21
132.25
 31
0.0
  0
LINE
  8
0
  6
CONTINUOUS
 62
     2
 10
202.55
 20
133.0
 30
0.0
 11
202.55
 21
134.375378759
 31
0.0
  0
ARC
  8
0
  6
CONTINUOUS
 62
     2
 10
203.3
 20
133.0
 30
0.0
 40
0.75
 50
180.0
 51
270.0
  0
LINE
  8
0
  6
CONTINUOUS
 62
     2
 10
203.3
 20
131.55
 30
0.0
 11
203.575
 21
131.55
 31
0.0
  0
LINE
  8
0
  6
CONTINUOUS
 62
     2
 10
202.55
 20
129.45
 30
0.0
 11
202.55
 21
130.8
 31
0.0
  0
ARC
  8
0
  6
CONTINUOUS
 62
     2
 10
203.3
 20
130.8
 30
0.0
 40
0.75
 50
90.0
 51
180.0
  0
LINE
  8
0
  6
CONTINUOUS
 62
     2
 10
200.825
 20
131.55
 30
0.0
 11
201.1
 21
131.55
 31
0.0
  0
LINE
  8
0
  6
CONTINUOUS
 62
     2
 10
201.85
 20
130.8
 30
0.0
 11
201.85
 21
129.424621241
 31
0.0
  0
ARC
  8
0
  6
CONTINUOUS
 62
     2
 10
201.1
 20
130.8
 30
0.0
 40
0.75
 50
0.0
 51
90.0
  0
LINE
  8
0
  6
CONTINUOUS
 62
     2
 10
201.1
 20
132.25
 30
0.0
 11
200.825
 21
132.25
 31
0.0
  0
LINE
  8
0
  6
CONTINUOUS
 62
     2
 10
201.85
 20
134.375378759
 30
0.0
 11
201.85
 21
133.0
 31
0.0
  0
ARC
  8
0
  6
CONTINUOUS
 62
     2
 10
201.1
 20
133.0
 30
0.0
 40
0.75
 50
270.0
 51
0.0
  0
CIRCLE
  8
0
  6
CONTINUOUS
 62
     2
 10
172.2
 20
131.9
 30
0.0
 40
3.175
  0
CIRCLE
  8
0
  6
CONTINUOUS
 62
     2
 10
172.2
 20
131.9
 30
0.0
 40
2.5
  0
LINE
  8
0
  6
CONTINUOUS
 62
     2
 10
173.575
 20
131.55
 30
0.0
 11
173.575
 21
132.25
 31
0.0
  0
LINE
  8
0
  6
CONTINUOUS
 62
     2
 10
170.825
 20
132.25
 30
0.0
 11
170.825
 21
131.55
 31
0.0
  0
LINE
  8
0
  6
CONTINUOUS
 62
     2
 10
173.575
 20
132.25
 30
0.0
 11
173.3
 21
132.25
 31
0.0
  0
LINE
  8
0
  6
CONTINUOUS
 62
     2
 10
172.55
 20
133.0
 30
0.0
 11
172.55
 21
134.375378759
 31
0.0
  0
ARC
  8
0
  6
CONTINUOUS
 62
     2
 10
173.3
 20
133.0
 30
0.0
 40
0.75
 50
180.0
 51
270.0
  0
LINE
  8
0
  6
CONTINUOUS
 62
     2
 10
173.3
 20
131.55
 30
0.0
 11
173.575
 21
131.55
 31
0.0
  0
LINE
  8
0
  6
CONTINUOUS
 62
     2
 10
172.55
 20
129.45
 30
0.0
 11
172.55
 21
130.8
 31
0.0
  0
ARC
  8
0
  6
CONTINUOUS
 62
     2
 10
173.3
 20
130.8
 30
0.0
 40
0.75
 50
90.0
 51
180.0
  0
LINE
  8
0
  6
CONTINUOUS
 62
     2
 10
170.825
 20
131.55
 30
0.0
 11
171.1
 21
131.55
 31
0.0
  0
LINE
  8
0
  6
CONTINUOUS
 62
     2
 10
171.85
 20
130.8
 30
0.0
 11
171.85
 21
129.424621241
 31
0.0
  0
ARC
  8
0
  6
CONTINUOUS
 62
     2
 10
171.1
 20
130.8
 30
0.0
 40
0.75
 50
0.0
 51
90.0
  0
LINE
  8
0
  6
CONTINUOUS
 62
     2
 10
171.1
 20
132.25
 30
0.0
 11
170.825
 21
132.25
 31
0.0
  0
LINE
  8
0
  6
CONTINUOUS
 62
     2
 10
171.85
 20
134.375378759
 30
0.0
 11
171.85
 21
133.0
 31
0.0
  0
ARC
  8
0
  6
CONTINUOUS
 62
     2
 10
171.1
 20
133.0
 30
0.0
 40
0.75
 50
270.0
 51
0.0
  0
TEXT
  8
0
  6
CONTINUOUS
 62
     2
 10
151.85
 20
34.25
 30
0.5
 40
3.0
  1
４－φ７
 50
0.0
 41
0.6
 51
0.0
  7
KANJI7
  0
TEXT
  8
0
  6
CONTINUOUS
 62
     2
 10
28.614213562
 20
58.462
 30
0.2
 40
3.0
  1
３，ＥＬ板の電源は、　　　　　　または、　　　　　　のいずれかをご指示下さい。
 50
0.0
 41
0.9
 51
0.0
  7
KANJI5
  0
TEXT
  8
0
  6
CONTINUOUS
 62
     2
 10
56.225213562
 20
60.055
 30
0.2
 40
3.0
  1
ＡＣ１００Ｖ
 50
0.0
 41
0.9
 51
0.0
  7
KANJI5
  0
TEXT
  8
0
  6
CONTINUOUS
 62
     2
 10
56.227213562
 20
55.676
 30
0.2
 40
3.0
  1
ＡＣ１１０Ｖ
 50
0.0
 41
0.9
 51
0.0
  7
KANJI5
  0
TEXT
  8
0
  6
CONTINUOUS
 62
     2
 10
85.162213562
 20
60.454
 30
0.2
 40
3.0
  1
ＡＣ２００Ｖ
 50
0.0
 41
0.9
 51
0.0
  7
KANJI5
  0
TEXT
  8
0
  6
CONTINUOUS
 62
     2
 10
85.295213562
 20
55.94
 30
0.2
 40
3.0
  1
ＡＣ２２０Ｖ
 50
0.0
 41
0.9
 51
0.0
  7
KANJI5
  0
LINE
  8
0
  6
CONTINUOUS
 62
     2
 10
54.392
 20
46.427001907
 30
0.0
 11
54.392
 21
31.427001907
 31
0.0
  0
TEXT
  8
0
  6
CONTINUOUS
 62
     2
 10
40.884213562
 20
37.758
 30
0.2
 40
3.0
  1
計器形名
 50
0.0
 41
0.9
 51
0.0
  7
KANJI5
  0
TEXT
  8
0
  6
CONTINUOUS
 62
     2
 10
35.205640687
 20
32.758
 30
0.2
 40
3.0
  1
ＥＬ板入力端子
 50
0.0
 41
0.9
 51
0.0
  7
KANJI5
  0
LINE
  8
0
  6
CONTINUOUS
 62
     2
 10
86.392
 20
46.427001907
 30
0.0
 11
86.392
 21
31.427001907
 31
0.0
  0
TEXT
  8
0
  6
CONTINUOUS
 62
     2
 10
55.635718626
 20
42.532
 30
0.2
 40
3.0
  1
ＥＬ板照明なし直流計器
 50
0.0
 41
0.9
 51
0.0
  7
KANJI5
  0
TEXT
  8
0
  6
CONTINUOUS
 62
     2
 10
87.635718626
 20
42.532
 30
0.2
 40
3.0
  1
ＥＬ板照明付直流計器
 50
0.0
 41
0.9
 51
0.0
  7
KANJI5
  0
TEXT
  8
0
  6
CONTINUOUS
 62
     2
 10
63.620698372
 20
37.758
 30
0.2
 40
3.0
  1
ＤＶＦ－１１
 50
0.0
 41
0.766666667
 51
0.0
  7
KANJI9
  0
TEXT
  8
0
  6
CONTINUOUS
 62
     2
 10
91.975698372
 20
37.758
 30
0.2
 40
3.0
  1
ＤＶＦ－１１Ｅ
 50
0.0
 41
0.766666667
 51
0.0
  7
KANJI9
  0
TEXT
  8
0
  6
CONTINUOUS
 62
     2
 10
67.147193309
 20
32.758
 30
0.3
 40
3.0
  1
なし
 50
0.0
 41
0.9
 51
0.0
  7
KANJI2
  0
TEXT
  8
0
  6
CONTINUOUS
 62
     2
 10
92.036173055
 20
32.758
 30
0.3
 40
3.0
  1
Ｌ－Ｌ端子付
 50
0.0
 41
0.9
 51
0.0
  7
KANJI2
  0
LINE
  8
0
  6
CONTINUOUS
 62
     2
 10
32.820640687
 20
36.427001907
 30
0.0
 11
114.747
 21
36.427001907
 31
0.0
  0
LINE
  8
0
  6
CONTINUOUS
 62
     2
 10
32.820640687
 20
41.427001907
 30
0.0
 11
114.747
 21
41.427001907
 31
0.0
  0
LINE
  8
0
  6
CONTINUOUS
 62
     2
 10
32.820640687
 20
46.427001907
 30
0.0
 11
114.747
 21
46.427001907
 31
0.0
  0
LINE
  8
0
  6
CONTINUOUS
 62
     2
 10
32.820640687
 20
31.427001907
 30
0.0
 11
114.747
 21
31.427001907
 31
0.0
  0
TEXT
  8
0
  6
CONTINUOUS
 62
     1
 10
231.8
 20
38.752
 30
0.3
 40
4.2
  1
ＤＶＦ－１１，（Ｅ）（短胴形７５ｍｍ）
 50
0.0
 41
0.714285714
 51
0.0
  7
KANJI10
  0
TEXT
  8
0
  6
CONTINUOUS
 62
     1
 10
234.567
 20
29.064
 30
0.4
 40
4.0
  1
広角度計器　外形図
 50
0.0
 41
0.9
 51
0.0
  7
KANJI11
  0
LINE
  8
0
  6
LTYPE1
 62
     2
 10
22.7
 20
136.9
 30
0.0
 11
82.9
 21
136.9
 31
0.0
  0
LINE
  8
0
  6
LTYPE1
 62
     2
 10
89.9
 20
136.875
 30
0.0
 11
103.65
 21
136.875
 31
0.0
  0
ENDSEC
  0
EOF
