  0
SECTION
  2
HEADER
  9
$ACADVER
  1
AC1009
  9
$DWGCODEPAGE
  3
dos932
  9
$EXTMIN
 10
0.0
 20
0.0
 30
0.0
  9
$EXTMAX
 10
297.0
 20
210.0
 30
0.0
  9
$LIMMIN
 10
0.0
 20
0.0
  9
$LIMMAX
 10
297.0
 20
210.0
  9
$LTSCALE
 40
1.0
  9
$PDMODE
 70
     0
  0
ENDSEC
  0
SECTION
  2
TABLES
  0
TABLE
  2
VPORT
 70
     1
  0
VPORT
  2
*ACTIVE
 70
     0
 10
0.0
 20
0.0
 11
1.0
 21
1.0
 12
148.5
 22
105.0
 13
0.0
 23
0.0
 14
10.0
 24
10.0
 15
10.0
 25
10.0
 16
0.0
 26
0.0
 36
1.0
 17
0.0
 27
0.0
 37
0.0
 40
297.0
 41
1.414285714
 42
50.0
 43
0.0
 44
0.0
 50
0.0
 51
0.0
 71
     0
 72
  1000
 73
     1
 74
     3
 75
     0
 76
     0
 77
     0
 78
     0
  0
ENDTAB
  0
TABLE
  2
LTYPE
 70
     4
  0
LTYPE
  2
CONTINUOUS
 70
    64
  3
Solid line
 72
    65
 73
     0
 40
0.0
  0
LTYPE
  2
LTYPE1
 70
    64
  3
CENTER
 72
    65
 73
     4
 40
5.0
 49
3.5
 49
-0.5
 49
0.5
 49
-0.5
  0
LTYPE
  2
LTYPE2
 70
    64
  3
CENTER
 72
    65
 73
     4
 40
15.0
 49
10.5
 49
-1.5
 49
1.5
 49
-1.5
  0
LTYPE
  2
LTYPE3
 70
    64
  3
HIDDEN
 72
    65
 73
     2
 40
1.0
 49
0.6
 49
-0.4
  0
ENDTAB
  0
TABLE
  2
LAYER
 70
   128
  0
LAYER
  2
0
 70
     0
 62
     7
  6
CONTINUOUS
  0
LAYER
  2
2
 70
     0
 62
     7
  6
CONTINUOUS
  0
LAYER
  2
3
 70
     0
 62
     7
  6
CONTINUOUS
  0
LAYER
  2
4
 70
     0
 62
     7
  6
CONTINUOUS
  0
LAYER
  2
5
 70
     0
 62
     7
  6
CONTINUOUS
  0
LAYER
  2
6
 70
     0
 62
     7
  6
CONTINUOUS
  0
LAYER
  2
7
 70
     0
 62
     7
  6
CONTINUOUS
  0
LAYER
  2
8
 70
     0
 62
     7
  6
CONTINUOUS
  0
LAYER
  2
9
 70
     0
 62
     7
  6
CONTINUOUS
  0
LAYER
  2
10
 70
     0
 62
     7
  6
CONTINUOUS
  0
LAYER
  2
11
 70
     0
 62
     7
  6
CONTINUOUS
  0
LAYER
  2
12
 70
     0
 62
     7
  6
CONTINUOUS
  0
LAYER
  2
13
 70
     0
 62
     7
  6
CONTINUOUS
  0
LAYER
  2
14
 70
     0
 62
     7
  6
CONTINUOUS
  0
LAYER
  2
15
 70
     0
 62
     7
  6
CONTINUOUS
  0
LAYER
  2
16
 70
     0
 62
     7
  6
CONTINUOUS
  0
LAYER
  2
17
 70
     0
 62
     7
  6
CONTINUOUS
  0
LAYER
  2
18
 70
     0
 62
     7
  6
CONTINUOUS
  0
LAYER
  2
19
 70
     0
 62
     7
  6
CONTINUOUS
  0
LAYER
  2
20
 70
     0
 62
     7
  6
CONTINUOUS
  0
LAYER
  2
21
 70
     0
 62
     7
  6
CONTINUOUS
  0
LAYER
  2
22
 70
     0
 62
     7
  6
CONTINUOUS
  0
LAYER
  2
23
 70
     0
 62
     7
  6
CONTINUOUS
  0
LAYER
  2
24
 70
     0
 62
     7
  6
CONTINUOUS
  0
LAYER
  2
25
 70
     0
 62
     7
  6
CONTINUOUS
  0
LAYER
  2
26
 70
     0
 62
     7
  6
CONTINUOUS
  0
LAYER
  2
27
 70
     0
 62
     7
  6
CONTINUOUS
  0
LAYER
  2
28
 70
     0
 62
     7
  6
CONTINUOUS
  0
LAYER
  2
29
 70
     0
 62
     7
  6
CONTINUOUS
  0
LAYER
  2
30
 70
     0
 62
     7
  6
CONTINUOUS
  0
LAYER
  2
31
 70
     0
 62
     7
  6
CONTINUOUS
  0
LAYER
  2
32
 70
     0
 62
     7
  6
CONTINUOUS
  0
LAYER
  2
33
 70
     0
 62
     7
  6
CONTINUOUS
  0
LAYER
  2
34
 70
     0
 62
     7
  6
CONTINUOUS
  0
LAYER
  2
35
 70
     0
 62
     7
  6
CONTINUOUS
  0
LAYER
  2
36
 70
     0
 62
     7
  6
CONTINUOUS
  0
LAYER
  2
37
 70
     0
 62
     7
  6
CONTINUOUS
  0
LAYER
  2
38
 70
     0
 62
     7
  6
CONTINUOUS
  0
LAYER
  2
39
 70
     0
 62
     7
  6
CONTINUOUS
  0
LAYER
  2
40
 70
     0
 62
     7
  6
CONTINUOUS
  0
LAYER
  2
41
 70
     0
 62
     7
  6
CONTINUOUS
  0
LAYER
  2
42
 70
     0
 62
     7
  6
CONTINUOUS
  0
LAYER
  2
43
 70
     0
 62
     7
  6
CONTINUOUS
  0
LAYER
  2
44
 70
     0
 62
     7
  6
CONTINUOUS
  0
LAYER
  2
45
 70
     0
 62
     7
  6
CONTINUOUS
  0
LAYER
  2
46
 70
     0
 62
     7
  6
CONTINUOUS
  0
LAYER
  2
47
 70
     0
 62
     7
  6
CONTINUOUS
  0
LAYER
  2
48
 70
     0
 62
     7
  6
CONTINUOUS
  0
LAYER
  2
49
 70
     0
 62
     7
  6
CONTINUOUS
  0
LAYER
  2
50
 70
     0
 62
     7
  6
CONTINUOUS
  0
LAYER
  2
51
 70
     0
 62
     7
  6
CONTINUOUS
  0
LAYER
  2
52
 70
     0
 62
     7
  6
CONTINUOUS
  0
LAYER
  2
53
 70
     0
 62
     7
  6
CONTINUOUS
  0
LAYER
  2
54
 70
     0
 62
     7
  6
CONTINUOUS
  0
LAYER
  2
55
 70
     0
 62
     7
  6
CONTINUOUS
  0
LAYER
  2
56
 70
     0
 62
     7
  6
CONTINUOUS
  0
LAYER
  2
57
 70
     0
 62
     7
  6
CONTINUOUS
  0
LAYER
  2
58
 70
     0
 62
     7
  6
CONTINUOUS
  0
LAYER
  2
59
 70
     0
 62
     7
  6
CONTINUOUS
  0
LAYER
  2
60
 70
     0
 62
     7
  6
CONTINUOUS
  0
LAYER
  2
61
 70
     0
 62
     7
  6
CONTINUOUS
  0
LAYER
  2
62
 70
     0
 62
     7
  6
CONTINUOUS
  0
LAYER
  2
63
 70
     0
 62
     7
  6
CONTINUOUS
  0
LAYER
  2
64
 70
     0
 62
     7
  6
CONTINUOUS
  0
LAYER
  2
65
 70
     0
 62
     7
  6
CONTINUOUS
  0
LAYER
  2
66
 70
     0
 62
     7
  6
CONTINUOUS
  0
LAYER
  2
67
 70
     0
 62
     7
  6
CONTINUOUS
  0
LAYER
  2
68
 70
     0
 62
     7
  6
CONTINUOUS
  0
LAYER
  2
69
 70
     0
 62
     7
  6
CONTINUOUS
  0
LAYER
  2
70
 70
     0
 62
     7
  6
CONTINUOUS
  0
LAYER
  2
71
 70
     0
 62
     7
  6
CONTINUOUS
  0
LAYER
  2
72
 70
     0
 62
     7
  6
CONTINUOUS
  0
LAYER
  2
73
 70
     0
 62
     7
  6
CONTINUOUS
  0
LAYER
  2
74
 70
     0
 62
     7
  6
CONTINUOUS
  0
LAYER
  2
75
 70
     0
 62
     7
  6
CONTINUOUS
  0
LAYER
  2
76
 70
     0
 62
     7
  6
CONTINUOUS
  0
LAYER
  2
77
 70
     0
 62
     7
  6
CONTINUOUS
  0
LAYER
  2
78
 70
     0
 62
     7
  6
CONTINUOUS
  0
LAYER
  2
79
 70
     0
 62
     7
  6
CONTINUOUS
  0
LAYER
  2
80
 70
     0
 62
     7
  6
CONTINUOUS
  0
LAYER
  2
81
 70
     0
 62
     7
  6
CONTINUOUS
  0
LAYER
  2
82
 70
     0
 62
     7
  6
CONTINUOUS
  0
LAYER
  2
83
 70
     0
 62
     7
  6
CONTINUOUS
  0
LAYER
  2
84
 70
     0
 62
     7
  6
CONTINUOUS
  0
LAYER
  2
85
 70
     0
 62
     7
  6
CONTINUOUS
  0
LAYER
  2
86
 70
     0
 62
     7
  6
CONTINUOUS
  0
LAYER
  2
87
 70
     0
 62
     7
  6
CONTINUOUS
  0
LAYER
  2
88
 70
     0
 62
     7
  6
CONTINUOUS
  0
LAYER
  2
89
 70
     0
 62
     7
  6
CONTINUOUS
  0
LAYER
  2
90
 70
     0
 62
     7
  6
CONTINUOUS
  0
LAYER
  2
91
 70
     0
 62
     7
  6
CONTINUOUS
  0
LAYER
  2
92
 70
     0
 62
     7
  6
CONTINUOUS
  0
LAYER
  2
93
 70
     0
 62
     7
  6
CONTINUOUS
  0
LAYER
  2
94
 70
     0
 62
     7
  6
CONTINUOUS
  0
LAYER
  2
95
 70
     0
 62
     7
  6
CONTINUOUS
  0
LAYER
  2
96
 70
     0
 62
     7
  6
CONTINUOUS
  0
LAYER
  2
97
 70
     0
 62
     7
  6
CONTINUOUS
  0
LAYER
  2
98
 70
     0
 62
     7
  6
CONTINUOUS
  0
LAYER
  2
99
 70
     0
 62
     7
  6
CONTINUOUS
  0
LAYER
  2
100
 70
     0
 62
     7
  6
CONTINUOUS
  0
LAYER
  2
101
 70
     0
 62
     7
  6
CONTINUOUS
  0
LAYER
  2
102
 70
     0
 62
     7
  6
CONTINUOUS
  0
LAYER
  2
103
 70
     0
 62
     7
  6
CONTINUOUS
  0
LAYER
  2
104
 70
     0
 62
     7
  6
CONTINUOUS
  0
LAYER
  2
105
 70
     0
 62
     7
  6
CONTINUOUS
  0
LAYER
  2
106
 70
     0
 62
     7
  6
CONTINUOUS
  0
LAYER
  2
107
 70
     0
 62
     7
  6
CONTINUOUS
  0
LAYER
  2
108
 70
     0
 62
     7
  6
CONTINUOUS
  0
LAYER
  2
109
 70
     0
 62
     7
  6
CONTINUOUS
  0
LAYER
  2
110
 70
     0
 62
     7
  6
CONTINUOUS
  0
LAYER
  2
111
 70
     0
 62
     7
  6
CONTINUOUS
  0
LAYER
  2
112
 70
     0
 62
     7
  6
CONTINUOUS
  0
LAYER
  2
113
 70
     0
 62
     7
  6
CONTINUOUS
  0
LAYER
  2
114
 70
     0
 62
     7
  6
CONTINUOUS
  0
LAYER
  2
115
 70
     0
 62
     7
  6
CONTINUOUS
  0
LAYER
  2
116
 70
     0
 62
     7
  6
CONTINUOUS
  0
LAYER
  2
117
 70
     0
 62
     7
  6
CONTINUOUS
  0
LAYER
  2
118
 70
     0
 62
     7
  6
CONTINUOUS
  0
LAYER
  2
119
 70
     0
 62
     7
  6
CONTINUOUS
  0
LAYER
  2
120
 70
     0
 62
     7
  6
CONTINUOUS
  0
LAYER
  2
121
 70
     0
 62
     7
  6
CONTINUOUS
  0
LAYER
  2
122
 70
     0
 62
     7
  6
CONTINUOUS
  0
LAYER
  2
123
 70
     0
 62
     7
  6
CONTINUOUS
  0
LAYER
  2
124
 70
     0
 62
     7
  6
CONTINUOUS
  0
LAYER
  2
125
 70
     0
 62
     7
  6
CONTINUOUS
  0
LAYER
  2
126
 70
     0
 62
     7
  6
CONTINUOUS
  0
LAYER
  2
127
 70
     0
 62
     7
  6
CONTINUOUS
  0
LAYER
  2
128
 70
     0
 62
     7
  6
CONTINUOUS
  0
ENDTAB
  0
TABLE
  2
STYLE
 70
    14
  0
STYLE
  2
STANDARD
 70
     0
 40
0.0
 41
1.0
 50
0.0
 71
     0
 42
0.2
  3
txt.shx
  4
extfont.shx
  0
STYLE
  2
KANJI0
 70
     0
 40
4.0
 41
0.9
 50
0.0
 71
     0
 42
4.0
  3
txt.shx
  4
extfont.shx
  0
STYLE
  2
KANJI1
 70
     0
 40
3.0
 41
0.6
 50
0.0
 71
     0
 42
3.0
  3
txt.shx
  4
extfont.shx
  0
STYLE
  2
KANJI2
 70
     0
 40
1.8
 41
0.6
 50
0.0
 71
     0
 42
1.8
  3
txt.shx
  4
extfont.shx
  0
STYLE
  2
KANJI3
 70
     0
 40
4.0
 41
0.9
 50
0.0
 71
     0
 42
4.0
  3
txt.shx
  4
extfont.shx
  0
STYLE
  2
KANJI4
 70
     0
 40
3.0
 41
0.9
 50
0.0
 71
     0
 42
3.0
  3
txt.shx
  4
extfont.shx
  0
STYLE
  2
KANJI5
 70
     0
 40
3.0
 41
0.833333333
 50
0.0
 71
     0
 42
3.0
  3
txt.shx
  4
extfont.shx
  0
STYLE
  2
KANJI6
 70
     0
 40
3.0
 41
0.833333333
 50
0.0
 71
     0
 42
3.0
  3
txt.shx
  4
extfont.shx
  0
STYLE
  2
KANJI7
 70
     0
 40
3.0
 41
0.9
 50
0.0
 71
     0
 42
3.0
  3
txt.shx
  4
extfont.shx
  0
STYLE
  2
KANJI8
 70
     0
 40
3.0
 41
0.45
 50
0.0
 71
     0
 42
3.0
  3
txt.shx
  4
extfont.shx
  0
STYLE
  2
KANJI9
 70
     0
 40
3.0
 41
0.9
 50
0.0
 71
     0
 42
3.0
  3
txt.shx
  4
extfont.shx
  0
STYLE
  2
KANJI10
 70
     0
 40
3.0
 41
0.666666667
 50
0.0
 71
     0
 42
3.0
  3
txt.shx
  4
extfont.shx
  0
STYLE
  2
KANJI11
 70
     0
 40
5.0
 41
0.9
 50
0.0
 71
     0
 42
5.0
  3
txt.shx
  4
extfont.shx
  0
STYLE
  2
KANJI12
 70
     0
 40
5.8
 41
0.827586207
 50
0.0
 71
     0
 42
5.8
  3
txt.shx
  4
extfont.shx
  0
ENDTAB
  0
TABLE
  2
VIEW
 70
     0
  0
ENDTAB
  0
ENDSEC
  0
SECTION
  2
BLOCKS
  0
ENDSEC
  0
SECTION
  2
ENTITIES
  0
CIRCLE
  8
0
  6
CONTINUOUS
 62
     1
 10
54.0
 20
132.0
 30
0.0
 40
18.75
  0
CIRCLE
  8
0
  6
CONTINUOUS
 62
     1
 10
54.0
 20
132.0
 30
0.0
 40
3.0
  0
LINE
  8
0
  6
CONTINUOUS
 62
     1
 10
41.138342919
 20
125.304645108
 30
0.0
 11
42.03447535
 21
125.207451151
 31
0.0
  0
LINE
  8
0
  6
CONTINUOUS
 62
     1
 10
41.138342919
 20
125.304645108
 30
0.0
 11
41.572726737
 21
126.094461985
 31
0.0
  0
LINE
  8
0
  6
CONTINUOUS
 62
     1
 10
41.572726737
 20
126.094461985
 30
0.0
 11
47.001107291
 21
129.202143526
 31
0.0
  0
LINE
  8
0
  6
CONTINUOUS
 62
     1
 10
47.693730211
 20
127.871627276
 30
0.0
 11
42.03447535
 21
125.207451151
 31
0.0
  0
LINE
  8
0
  6
CONTINUOUS
 62
     1
 10
51.65
 20
132.45
 30
0.0
 11
56.35
 21
132.45
 31
0.0
  0
LINE
  8
0
  6
CONTINUOUS
 62
     1
 10
56.35
 20
131.6
 30
0.0
 11
51.65
 21
131.6
 31
0.0
  0
CIRCLE
  8
0
  6
CONTINUOUS
 62
     1
 10
54.0
 20
132.0
 30
0.0
 40
2.4
  0
ARC
  8
0
  6
CONTINUOUS
 62
     1
 10
36.0
 20
150.0
 30
0.0
 40
2.0
 50
90.0
 51
180.0
  0
LINE
  8
0
  6
CONTINUOUS
 62
     1
 10
72.0
 20
152.0
 30
0.0
 11
36.0
 21
152.0
 31
0.0
  0
ARC
  8
0
  6
CONTINUOUS
 62
     1
 10
72.0
 20
150.0
 30
0.0
 40
2.0
 50
0.0
 51
90.0
  0
LINE
  8
0
  6
CONTINUOUS
 62
     1
 10
74.0
 20
114.0
 30
0.0
 11
74.0
 21
150.0
 31
0.0
  0
ARC
  8
0
  6
CONTINUOUS
 62
     1
 10
72.0
 20
114.0
 30
0.0
 40
2.0
 50
270.0
 51
0.0
  0
LINE
  8
0
  6
CONTINUOUS
 62
     1
 10
34.0
 20
150.0
 30
0.0
 11
34.0
 21
114.0
 31
0.0
  0
LINE
  8
0
  6
CONTINUOUS
 62
     1
 10
36.0
 20
112.0
 30
0.0
 11
72.0
 21
112.0
 31
0.0
  0
ARC
  8
0
  6
CONTINUOUS
 62
     1
 10
36.0
 20
114.0
 30
0.0
 40
2.0
 50
180.0
 51
270.0
  0
LINE
  8
0
  6
CONTINUOUS
 62
     1
 10
104.0
 20
112.0
 30
0.0
 11
104.0
 21
152.0
 31
0.0
  0
LINE
  8
0
  6
CONTINUOUS
 62
     1
 10
101.5
 20
112.0
 30
0.0
 11
104.0
 21
112.0
 31
0.0
  0
ARC
  8
0
  6
CONTINUOUS
 62
     1
 10
101.5
 20
113.0
 30
0.0
 40
1.0
 50
180.0
 51
270.0
  0
LINE
  8
0
  6
CONTINUOUS
 62
     1
 10
104.0
 20
152.0
 30
0.0
 11
101.5
 21
152.0
 31
0.0
  0
LINE
  8
0
  6
CONTINUOUS
 62
     1
 10
100.5
 20
151.0
 30
0.0
 11
100.5
 21
113.0
 31
0.0
  0
ARC
  8
0
  6
CONTINUOUS
 62
     1
 10
101.5
 20
151.0
 30
0.0
 40
1.0
 50
90.0
 51
180.0
  0
LINE
  8
0
  6
CONTINUOUS
 62
     1
 10
96.5
 20
134.4
 30
0.0
 11
96.5
 21
129.6
 31
0.0
  0
LINE
  8
0
  6
CONTINUOUS
 62
     1
 10
95.8
 20
132.45
 30
0.0
 11
96.5
 21
132.45
 31
0.0
  0
LINE
  8
0
  6
CONTINUOUS
 62
     1
 10
95.8
 20
131.6
 30
0.0
 11
96.5
 21
131.6
 31
0.0
  0
LINE
  8
0
  6
CONTINUOUS
 62
     1
 10
96.5
 20
134.4
 30
0.0
 11
96.5
 21
134.75
 31
0.0
  0
ARC
  8
0
  6
CONTINUOUS
 62
     1
 10
96.75
 20
134.75
 30
0.0
 40
0.25
 50
90.0
 51
180.0
  0
LINE
  8
0
  6
CONTINUOUS
 62
     1
 10
96.5
 20
129.6
 30
0.0
 11
96.5
 21
129.25
 31
0.0
  0
ARC
  8
0
  6
CONTINUOUS
 62
     1
 10
96.75
 20
129.25
 30
0.0
 40
0.25
 50
180.0
 51
270.0
  0
LINE
  8
0
  6
CONTINUOUS
 62
     1
 10
96.75
 20
129.0
 30
0.0
 11
96.9
 21
129.0
 31
0.0
  0
ARC
  8
0
  6
CONTINUOUS
 62
     1
 10
96.9
 20
129.1
 30
0.0
 40
0.1
 50
270.0
 51
0.0
  0
LINE
  8
0
  6
CONTINUOUS
 62
     1
 10
96.9
 20
135.0
 30
0.0
 11
96.75
 21
135.0
 31
0.0
  0
LINE
  8
0
  6
CONTINUOUS
 62
     1
 10
97.0
 20
129.1
 30
0.0
 11
97.0
 21
134.9
 31
0.0
  0
ARC
  8
0
  6
CONTINUOUS
 62
     1
 10
96.9
 20
134.9
 30
0.0
 40
0.1
 50
0.0
 51
90.0
  0
ARC
  8
0
  6
CONTINUOUS
 62
     1
 10
100.25
 20
132.0
 30
0.0
 40
4.5
 50
185.07960786
 51
212.619243071
  0
ARC
  8
0
  6
CONTINUOUS
 62
     1
 10
100.25
 20
132.0
 30
0.0
 40
4.5
 50
147.380756929
 51
174.289406862
  0
LINE
  8
0
  6
CONTINUOUS
 62
     1
 10
97.35
 20
129.75
 30
0.0
 11
97.05
 21
129.75
 31
0.0
  0
LINE
  8
0
  6
CONTINUOUS
 62
     1
 10
97.35
 20
134.3
 30
0.0
 11
97.05
 21
134.3
 31
0.0
  0
LINE
  8
0
  6
CONTINUOUS
 62
     1
 10
97.35
 20
134.3
 30
0.0
 11
97.35
 21
129.75
 31
0.0
  0
LINE
  8
0
  6
CONTINUOUS
 62
     1
 10
100.5
 20
150.75
 30
0.0
 11
98.961266683
 21
150.75
 31
0.0
  0
LINE
  8
0
  6
CONTINUOUS
 62
     1
 10
97.35
 20
134.3
 30
0.0
 11
97.962046435
 21
149.789482867
 31
0.0
  0
ARC
  8
0
  6
CONTINUOUS
 62
     1
 10
98.961266683
 20
149.75
 30
0.0
 40
1.0
 50
90.0
 51
177.737210193
  0
LINE
  8
0
  6
CONTINUOUS
 62
     1
 10
100.5
 20
113.25
 30
0.0
 11
98.961381701
 21
113.25
 31
0.0
  0
LINE
  8
0
  6
CONTINUOUS
 62
     1
 10
97.35
 20
129.75
 30
0.0
 11
97.96215674
 21
114.210636592
 31
0.0
  0
ARC
  8
0
  6
CONTINUOUS
 62
     1
 10
98.961381701
 20
114.25
 30
0.0
 40
1.0
 50
182.255939964
 51
270.0
  0
LINE
  8
0
  6
CONTINUOUS
 62
     1
 10
104.0
 20
150.5
 30
0.0
 11
104.25
 21
150.5
 31
0.0
  0
LINE
  8
0
  6
CONTINUOUS
 62
     1
 10
104.25
 20
150.5
 30
0.0
 11
104.25
 21
145.5
 31
0.0
  0
LINE
  8
0
  6
CONTINUOUS
 62
     1
 10
104.25
 20
145.5
 30
0.0
 11
104.0
 21
145.5
 31
0.0
  0
POINT
  8
0
  6
CONTINUOUS
 62
     1
 10
104.0
 20
113.5
 30
0.0
  0
LINE
  8
0
  6
CONTINUOUS
 62
     1
 10
104.0
 20
113.5
 30
0.0
 11
104.25
 21
113.5
 31
0.0
  0
LINE
  8
0
  6
CONTINUOUS
 62
     1
 10
104.25
 20
113.5
 30
0.0
 11
104.25
 21
118.5
 31
0.0
  0
LINE
  8
0
  6
CONTINUOUS
 62
     1
 10
104.25
 20
118.5
 30
0.0
 11
104.0
 21
118.5
 31
0.0
  0
ARC
  8
0
  6
CONTINUOUS
 62
     1
 10
100.45834
 20
149.20814
 30
0.0
 40
0.04166
 50
0.0
 51
90.0
  0
LINE
  8
0
  6
CONTINUOUS
 62
     1
 10
100.5
 20
146.79186
 30
0.0
 11
100.5
 21
149.20814
 31
0.0
  0
ARC
  8
0
  6
CONTINUOUS
 62
     1
 10
100.45834
 20
146.79186
 30
0.0
 40
0.04166
 50
270.0
 51
0.0
  0
LINE
  8
0
  6
CONTINUOUS
 62
     1
 10
100.0834
 20
146.7502
 30
0.0
 11
100.45834
 21
146.7502
 31
0.0
  0
ARC
  8
0
  6
CONTINUOUS
 62
     1
 10
100.0834
 20
146.83352
 30
0.0
 40
0.08332
 50
180.0
 51
270.0
  0
LINE
  8
0
  6
CONTINUOUS
 62
     1
 10
100.45834
 20
149.2498
 30
0.0
 11
100.0834
 21
149.2498
 31
0.0
  0
ARC
  8
0
  6
CONTINUOUS
 62
     1
 10
100.0834
 20
149.16648
 30
0.0
 40
0.08332
 50
90.0
 51
180.0
  0
LINE
  8
0
  6
CONTINUOUS
 62
     1
 10
100.04174
 20
146.770336245
 30
0.0
 11
100.04174
 21
149.217861245
 31
0.0
  0
LINE
  8
0
  6
CONTINUOUS
 62
     1
 10
99.70846
 20
147.89585
 30
0.0
 11
99.79178
 21
147.89585
 31
0.0
  0
LINE
  8
0
  6
CONTINUOUS
 62
     1
 10
99.79178
 20
147.89585
 30
0.0
 11
99.79178
 21
148.10415
 31
0.0
  0
LINE
  8
0
  6
CONTINUOUS
 62
     1
 10
99.79178
 20
148.10415
 30
0.0
 11
99.70846
 21
148.10415
 31
0.0
  0
ARC
  8
0
  6
CONTINUOUS
 62
     1
 10
102.20806
 20
148.0
 30
0.0
 40
2.4996
 50
151.294758009
 51
177.611984537
  0
ARC
  8
0
  6
CONTINUOUS
 62
     1
 10
102.20806
 20
148.0
 30
0.0
 40
2.4996
 50
182.388015463
 51
208.942689997
  0
ARC
  8
0
  6
CONTINUOUS
 62
     1
 10
100.45834
 20
117.20814
 30
0.0
 40
0.04166
 50
0.0
 51
90.0
  0
LINE
  8
0
  6
CONTINUOUS
 62
     1
 10
100.5
 20
114.79186
 30
0.0
 11
100.5
 21
117.20814
 31
0.0
  0
ARC
  8
0
  6
CONTINUOUS
 62
     1
 10
100.45834
 20
114.79186
 30
0.0
 40
0.04166
 50
270.0
 51
0.0
  0
LINE
  8
0
  6
CONTINUOUS
 62
     1
 10
100.0834
 20
114.7502
 30
0.0
 11
100.45834
 21
114.7502
 31
0.0
  0
ARC
  8
0
  6
CONTINUOUS
 62
     1
 10
100.0834
 20
114.83352
 30
0.0
 40
0.08332
 50
180.0
 51
270.0
  0
LINE
  8
0
  6
CONTINUOUS
 62
     1
 10
100.45834
 20
117.2498
 30
0.0
 11
100.0834
 21
117.2498
 31
0.0
  0
ARC
  8
0
  6
CONTINUOUS
 62
     1
 10
100.0834
 20
117.16648
 30
0.0
 40
0.08332
 50
90.0
 51
180.0
  0
LINE
  8
0
  6
CONTINUOUS
 62
     1
 10
100.04174
 20
114.770336245
 30
0.0
 11
100.04174
 21
117.217861245
 31
0.0
  0
LINE
  8
0
  6
CONTINUOUS
 62
     1
 10
99.70846
 20
115.89585
 30
0.0
 11
99.79178
 21
115.89585
 31
0.0
  0
LINE
  8
0
  6
CONTINUOUS
 62
     1
 10
99.79178
 20
115.89585
 30
0.0
 11
99.79178
 21
116.10415
 31
0.0
  0
LINE
  8
0
  6
CONTINUOUS
 62
     1
 10
99.79178
 20
116.10415
 30
0.0
 11
99.70846
 21
116.10415
 31
0.0
  0
ARC
  8
0
  6
CONTINUOUS
 62
     1
 10
102.20806
 20
116.0
 30
0.0
 40
2.4996
 50
151.294758009
 51
177.611984537
  0
ARC
  8
0
  6
CONTINUOUS
 62
     1
 10
102.20806
 20
116.0
 30
0.0
 40
2.4996
 50
182.388015463
 51
208.942689997
  0
CIRCLE
  8
0
  6
CONTINUOUS
 62
     1
 10
70.0
 20
116.0
 30
0.0
 40
1.2
  0
LINE
  8
0
  6
CONTINUOUS
 62
     1
 10
69.3
 20
116.16
 30
0.0
 11
69.68
 21
116.16
 31
0.0
  0
ARC
  8
0
  6
CONTINUOUS
 62
     1
 10
69.68
 20
116.32
 30
0.0
 40
0.16
 50
270.0
 51
0.0
  0
LINE
  8
0
  6
CONTINUOUS
 62
     1
 10
69.84
 20
116.32
 30
0.0
 11
69.84
 21
116.7
 31
0.0
  0
LINE
  8
0
  6
CONTINUOUS
 62
     1
 10
69.84
 20
116.7
 30
0.0
 11
70.16
 21
116.7
 31
0.0
  0
LINE
  8
0
  6
CONTINUOUS
 62
     1
 10
70.16
 20
116.7
 30
0.0
 11
70.16
 21
116.32
 31
0.0
  0
ARC
  8
0
  6
CONTINUOUS
 62
     1
 10
70.32
 20
116.32
 30
0.0
 40
0.16
 50
180.0
 51
270.0
  0
LINE
  8
0
  6
CONTINUOUS
 62
     1
 10
70.32
 20
116.16
 30
0.0
 11
70.7
 21
116.16
 31
0.0
  0
LINE
  8
0
  6
CONTINUOUS
 62
     1
 10
70.7
 20
116.16
 30
0.0
 11
70.7
 21
115.84
 31
0.0
  0
LINE
  8
0
  6
CONTINUOUS
 62
     1
 10
70.7
 20
115.84
 30
0.0
 11
70.32
 21
115.84
 31
0.0
  0
ARC
  8
0
  6
CONTINUOUS
 62
     1
 10
70.32
 20
115.68
 30
0.0
 40
0.16
 50
90.0
 51
180.0
  0
LINE
  8
0
  6
CONTINUOUS
 62
     1
 10
70.16
 20
115.68
 30
0.0
 11
70.16
 21
115.3
 31
0.0
  0
LINE
  8
0
  6
CONTINUOUS
 62
     1
 10
70.16
 20
115.3
 30
0.0
 11
69.84
 21
115.3
 31
0.0
  0
LINE
  8
0
  6
CONTINUOUS
 62
     1
 10
69.84
 20
115.3
 30
0.0
 11
69.84
 21
115.68
 31
0.0
  0
ARC
  8
0
  6
CONTINUOUS
 62
     1
 10
69.68
 20
115.68
 30
0.0
 40
0.16
 50
0.0
 51
90.0
  0
LINE
  8
0
  6
CONTINUOUS
 62
     1
 10
69.68
 20
115.84
 30
0.0
 11
69.3
 21
115.84
 31
0.0
  0
LINE
  8
0
  6
CONTINUOUS
 62
     1
 10
69.3
 20
115.84
 30
0.0
 11
69.3
 21
116.16
 31
0.0
  0
CIRCLE
  8
0
  6
CONTINUOUS
 62
     1
 10
70.0
 20
148.0
 30
0.0
 40
1.2
  0
LINE
  8
0
  6
CONTINUOUS
 62
     1
 10
69.3
 20
148.16
 30
0.0
 11
69.68
 21
148.16
 31
0.0
  0
ARC
  8
0
  6
CONTINUOUS
 62
     1
 10
69.68
 20
148.32
 30
0.0
 40
0.16
 50
270.0
 51
0.0
  0
LINE
  8
0
  6
CONTINUOUS
 62
     1
 10
69.84
 20
148.32
 30
0.0
 11
69.84
 21
148.7
 31
0.0
  0
LINE
  8
0
  6
CONTINUOUS
 62
     1
 10
69.84
 20
148.7
 30
0.0
 11
70.16
 21
148.7
 31
0.0
  0
LINE
  8
0
  6
CONTINUOUS
 62
     1
 10
70.16
 20
148.7
 30
0.0
 11
70.16
 21
148.32
 31
0.0
  0
ARC
  8
0
  6
CONTINUOUS
 62
     1
 10
70.32
 20
148.32
 30
0.0
 40
0.16
 50
180.0
 51
270.0
  0
LINE
  8
0
  6
CONTINUOUS
 62
     1
 10
70.32
 20
148.16
 30
0.0
 11
70.7
 21
148.16
 31
0.0
  0
LINE
  8
0
  6
CONTINUOUS
 62
     1
 10
70.7
 20
148.16
 30
0.0
 11
70.7
 21
147.84
 31
0.0
  0
LINE
  8
0
  6
CONTINUOUS
 62
     1
 10
70.7
 20
147.84
 30
0.0
 11
70.32
 21
147.84
 31
0.0
  0
ARC
  8
0
  6
CONTINUOUS
 62
     1
 10
70.32
 20
147.68
 30
0.0
 40
0.16
 50
90.0
 51
180.0
  0
LINE
  8
0
  6
CONTINUOUS
 62
     1
 10
70.16
 20
147.68
 30
0.0
 11
70.16
 21
147.3
 31
0.0
  0
LINE
  8
0
  6
CONTINUOUS
 62
     1
 10
70.16
 20
147.3
 30
0.0
 11
69.84
 21
147.3
 31
0.0
  0
LINE
  8
0
  6
CONTINUOUS
 62
     1
 10
69.84
 20
147.3
 30
0.0
 11
69.84
 21
147.68
 31
0.0
  0
ARC
  8
0
  6
CONTINUOUS
 62
     1
 10
69.68
 20
147.68
 30
0.0
 40
0.16
 50
0.0
 51
90.0
  0
LINE
  8
0
  6
CONTINUOUS
 62
     1
 10
69.68
 20
147.84
 30
0.0
 11
69.3
 21
147.84
 31
0.0
  0
LINE
  8
0
  6
CONTINUOUS
 62
     1
 10
69.3
 20
147.84
 30
0.0
 11
69.3
 21
148.16
 31
0.0
  0
CIRCLE
  8
0
  6
CONTINUOUS
 62
     1
 10
38.0
 20
148.0
 30
0.0
 40
1.2
  0
LINE
  8
0
  6
CONTINUOUS
 62
     1
 10
37.3
 20
148.16
 30
0.0
 11
37.68
 21
148.16
 31
0.0
  0
ARC
  8
0
  6
CONTINUOUS
 62
     1
 10
37.68
 20
148.32
 30
0.0
 40
0.16
 50
270.0
 51
0.0
  0
LINE
  8
0
  6
CONTINUOUS
 62
     1
 10
37.84
 20
148.32
 30
0.0
 11
37.84
 21
148.7
 31
0.0
  0
LINE
  8
0
  6
CONTINUOUS
 62
     1
 10
37.84
 20
148.7
 30
0.0
 11
38.16
 21
148.7
 31
0.0
  0
LINE
  8
0
  6
CONTINUOUS
 62
     1
 10
38.16
 20
148.7
 30
0.0
 11
38.16
 21
148.32
 31
0.0
  0
ARC
  8
0
  6
CONTINUOUS
 62
     1
 10
38.32
 20
148.32
 30
0.0
 40
0.16
 50
180.0
 51
270.0
  0
LINE
  8
0
  6
CONTINUOUS
 62
     1
 10
38.32
 20
148.16
 30
0.0
 11
38.7
 21
148.16
 31
0.0
  0
LINE
  8
0
  6
CONTINUOUS
 62
     1
 10
38.7
 20
148.16
 30
0.0
 11
38.7
 21
147.84
 31
0.0
  0
LINE
  8
0
  6
CONTINUOUS
 62
     1
 10
38.7
 20
147.84
 30
0.0
 11
38.32
 21
147.84
 31
0.0
  0
ARC
  8
0
  6
CONTINUOUS
 62
     1
 10
38.32
 20
147.68
 30
0.0
 40
0.16
 50
90.0
 51
180.0
  0
LINE
  8
0
  6
CONTINUOUS
 62
     1
 10
38.16
 20
147.68
 30
0.0
 11
38.16
 21
147.3
 31
0.0
  0
LINE
  8
0
  6
CONTINUOUS
 62
     1
 10
38.16
 20
147.3
 30
0.0
 11
37.84
 21
147.3
 31
0.0
  0
LINE
  8
0
  6
CONTINUOUS
 62
     1
 10
37.84
 20
147.3
 30
0.0
 11
37.84
 21
147.68
 31
0.0
  0
ARC
  8
0
  6
CONTINUOUS
 62
     1
 10
37.68
 20
147.68
 30
0.0
 40
0.16
 50
0.0
 51
90.0
  0
LINE
  8
0
  6
CONTINUOUS
 62
     1
 10
37.68
 20
147.84
 30
0.0
 11
37.3
 21
147.84
 31
0.0
  0
LINE
  8
0
  6
CONTINUOUS
 62
     1
 10
37.3
 20
147.84
 30
0.0
 11
37.3
 21
148.16
 31
0.0
  0
CIRCLE
  8
0
  6
CONTINUOUS
 62
     1
 10
38.0
 20
116.0
 30
0.0
 40
1.2
  0
LINE
  8
0
  6
CONTINUOUS
 62
     1
 10
37.3
 20
116.16
 30
0.0
 11
37.68
 21
116.16
 31
0.0
  0
ARC
  8
0
  6
CONTINUOUS
 62
     1
 10
37.68
 20
116.32
 30
0.0
 40
0.16
 50
270.0
 51
0.0
  0
LINE
  8
0
  6
CONTINUOUS
 62
     1
 10
37.84
 20
116.32
 30
0.0
 11
37.84
 21
116.7
 31
0.0
  0
LINE
  8
0
  6
CONTINUOUS
 62
     1
 10
37.84
 20
116.7
 30
0.0
 11
38.16
 21
116.7
 31
0.0
  0
LINE
  8
0
  6
CONTINUOUS
 62
     1
 10
38.16
 20
116.7
 30
0.0
 11
38.16
 21
116.32
 31
0.0
  0
ARC
  8
0
  6
CONTINUOUS
 62
     1
 10
38.32
 20
116.32
 30
0.0
 40
0.16
 50
180.0
 51
270.0
  0
LINE
  8
0
  6
CONTINUOUS
 62
     1
 10
38.32
 20
116.16
 30
0.0
 11
38.7
 21
116.16
 31
0.0
  0
LINE
  8
0
  6
CONTINUOUS
 62
     1
 10
38.7
 20
116.16
 30
0.0
 11
38.7
 21
115.84
 31
0.0
  0
LINE
  8
0
  6
CONTINUOUS
 62
     1
 10
38.7
 20
115.84
 30
0.0
 11
38.32
 21
115.84
 31
0.0
  0
ARC
  8
0
  6
CONTINUOUS
 62
     1
 10
38.32
 20
115.68
 30
0.0
 40
0.16
 50
90.0
 51
180.0
  0
LINE
  8
0
  6
CONTINUOUS
 62
     1
 10
38.16
 20
115.68
 30
0.0
 11
38.16
 21
115.3
 31
0.0
  0
LINE
  8
0
  6
CONTINUOUS
 62
     1
 10
38.16
 20
115.3
 30
0.0
 11
37.84
 21
115.3
 31
0.0
  0
LINE
  8
0
  6
CONTINUOUS
 62
     1
 10
37.84
 20
115.3
 30
0.0
 11
37.84
 21
115.68
 31
0.0
  0
ARC
  8
0
  6
CONTINUOUS
 62
     1
 10
37.68
 20
115.68
 30
0.0
 40
0.16
 50
0.0
 51
90.0
  0
LINE
  8
0
  6
CONTINUOUS
 62
     1
 10
37.68
 20
115.84
 30
0.0
 11
37.3
 21
115.84
 31
0.0
  0
LINE
  8
0
  6
CONTINUOUS
 62
     1
 10
37.3
 20
115.84
 30
0.0
 11
37.3
 21
116.16
 31
0.0
  0
LINE
  8
0
  6
CONTINUOUS
 62
     1
 10
111.75
 20
115.2866845
 30
0.0
 11
111.75
 21
115.0866895
 31
0.0
  0
LINE
  8
0
  6
CONTINUOUS
 62
     1
 10
110.350035
 20
113.9733825
 30
0.0
 11
110.616695
 21
114.2400425
 31
0.0
  0
LINE
  8
0
  6
CONTINUOUS
 62
     1
 10
110.350035
 20
113.9733825
 30
0.0
 11
109.016735
 21
113.9733825
 31
0.0
  0
LINE
  8
0
  6
CONTINUOUS
 62
     1
 10
110.350035
 20
118.1066125
 30
0.0
 11
110.616695
 21
117.8399525
 31
0.0
  0
LINE
  8
0
  6
CONTINUOUS
 62
     1
 10
110.3167025
 20
117.00664
 30
0.0
 11
110.5833625
 21
117.2733
 31
0.0
  0
LINE
  8
0
  6
CONTINUOUS
 62
     1
 10
110.5833625
 20
116.73998
 30
0.0
 11
110.3167025
 21
117.00664
 31
0.0
  0
LINE
  8
0
  6
CONTINUOUS
 62
     1
 10
109.016735
 20
117.00664
 30
0.0
 11
110.3167025
 21
117.00664
 31
0.0
  0
LINE
  8
0
  6
CONTINUOUS
 62
     1
 10
110.616695
 20
117.0399725
 30
0.0
 11
111.75
 21
117.0399725
 31
0.0
  0
LINE
  8
0
  6
CONTINUOUS
 62
     1
 10
111.723334
 20
116.806645
 30
0.0
 11
110.643361
 21
116.806645
 31
0.0
  0
LINE
  8
0
  6
CONTINUOUS
 62
     1
 10
109.016735
 20
118.1066125
 30
0.0
 11
110.350035
 21
118.1066125
 31
0.0
  0
LINE
  8
0
  6
CONTINUOUS
 62
     1
 10
111.75
 20
115.2266845
 30
0.0
 11
111.75
 21
115.0266895
 31
0.0
  0
LINE
  8
0
  6
CONTINUOUS
 62
     1
 10
110.643361
 20
115.206685
 30
0.0
 11
111.723334
 21
115.206685
 31
0.0
  0
LINE
  8
0
  6
CONTINUOUS
 62
     1
 10
109.016735
 20
113.9733825
 30
0.0
 11
109.016735
 21
118.1066125
 31
0.0
  0
LINE
  8
0
  6
CONTINUOUS
 62
     1
 10
110.616695
 20
117.8399525
 30
0.0
 11
110.616695
 21
114.2400425
 31
0.0
  0
LINE
  8
0
  6
CONTINUOUS
 62
     1
 10
111.75
 20
117.0399725
 30
0.0
 11
111.75
 21
115.2266845
 31
0.0
  0
LINE
  8
0
  6
CONTINUOUS
 62
     1
 10
110.616735
 20
115.00669
 30
0.0
 11
111.746735
 21
115.00669
 31
0.0
  0
LINE
  8
0
  6
CONTINUOUS
 62
     1
 10
110.3167025
 20
115.00669
 30
0.0
 11
110.5833625
 21
115.27335
 31
0.0
  0
LINE
  8
0
  6
CONTINUOUS
 62
     1
 10
110.5833625
 20
114.74003
 30
0.0
 11
110.3167025
 21
115.00669
 31
0.0
  0
LINE
  8
0
  6
CONTINUOUS
 62
     1
 10
109.016735
 20
115.00669
 30
0.0
 11
110.3167025
 21
115.00669
 31
0.0
  0
LINE
  8
0
  6
CONTINUOUS
 62
     1
 10
110.350035
 20
145.9733825
 30
0.0
 11
110.616695
 21
146.2400425
 31
0.0
  0
LINE
  8
0
  6
CONTINUOUS
 62
     1
 10
110.350035
 20
145.9733825
 30
0.0
 11
109.016735
 21
145.9733825
 31
0.0
  0
LINE
  8
0
  6
CONTINUOUS
 62
     1
 10
110.350035
 20
150.1066125
 30
0.0
 11
110.616695
 21
149.8399525
 31
0.0
  0
LINE
  8
0
  6
CONTINUOUS
 62
     1
 10
110.3167025
 20
149.00664
 30
0.0
 11
110.5833625
 21
149.2733
 31
0.0
  0
LINE
  8
0
  6
CONTINUOUS
 62
     1
 10
110.5833625
 20
148.73998
 30
0.0
 11
110.3167025
 21
149.00664
 31
0.0
  0
LINE
  8
0
  6
CONTINUOUS
 62
     1
 10
109.016735
 20
149.00664
 30
0.0
 11
110.3167025
 21
149.00664
 31
0.0
  0
LINE
  8
0
  6
CONTINUOUS
 62
     1
 10
110.616695
 20
149.0399725
 30
0.0
 11
111.75
 21
149.0399725
 31
0.0
  0
LINE
  8
0
  6
CONTINUOUS
 62
     1
 10
111.723334
 20
148.806645
 30
0.0
 11
110.643361
 21
148.806645
 31
0.0
  0
LINE
  8
0
  6
CONTINUOUS
 62
     1
 10
109.016735
 20
150.1066125
 30
0.0
 11
110.350035
 21
150.1066125
 31
0.0
  0
LINE
  8
0
  6
CONTINUOUS
 62
     1
 10
111.75
 20
147.2266845
 30
0.0
 11
111.75
 21
147.0266895
 31
0.0
  0
LINE
  8
0
  6
CONTINUOUS
 62
     1
 10
110.643361
 20
147.206685
 30
0.0
 11
111.723334
 21
147.206685
 31
0.0
  0
LINE
  8
0
  6
CONTINUOUS
 62
     1
 10
109.016735
 20
145.9733825
 30
0.0
 11
109.016735
 21
150.1066125
 31
0.0
  0
LINE
  8
0
  6
CONTINUOUS
 62
     1
 10
110.616695
 20
149.8399525
 30
0.0
 11
110.616695
 21
146.2400425
 31
0.0
  0
LINE
  8
0
  6
CONTINUOUS
 62
     1
 10
111.75
 20
149.0399725
 30
0.0
 11
111.75
 21
147.2266845
 31
0.0
  0
LINE
  8
0
  6
CONTINUOUS
 62
     1
 10
110.616735
 20
147.00669
 30
0.0
 11
111.746735
 21
147.00669
 31
0.0
  0
LINE
  8
0
  6
CONTINUOUS
 62
     1
 10
110.3167025
 20
147.00669
 30
0.0
 11
110.5833625
 21
147.27335
 31
0.0
  0
LINE
  8
0
  6
CONTINUOUS
 62
     1
 10
110.5833625
 20
146.74003
 30
0.0
 11
110.3167025
 21
147.00669
 31
0.0
  0
LINE
  8
0
  6
CONTINUOUS
 62
     1
 10
109.016735
 20
147.00669
 30
0.0
 11
110.3167025
 21
147.00669
 31
0.0
  0
LINE
  8
0
  6
CONTINUOUS
 62
     1
 10
122.75
 20
115.75
 30
0.0
 11
111.75
 21
115.75
 31
0.0
  0
ARC
  8
0
  6
CONTINUOUS
 62
     1
 10
122.75
 20
116.25
 30
0.0
 40
0.5
 50
270.0
 51
0.0
  0
LINE
  8
0
  6
CONTINUOUS
 62
     1
 10
111.75
 20
148.25
 30
0.0
 11
122.75
 21
148.25
 31
0.0
  0
LINE
  8
0
  6
CONTINUOUS
 62
     1
 10
123.25
 20
147.75
 30
0.0
 11
123.25
 21
116.25
 31
0.0
  0
ARC
  8
0
  6
CONTINUOUS
 62
     1
 10
122.75
 20
147.75
 30
0.0
 40
0.5
 50
0.0
 51
90.0
  0
ARC
  8
0
  6
CONTINUOUS
 62
     1
 10
190.75
 20
150.0
 30
0.0
 40
1.0
 50
0.0
 51
90.0
  0
LINE
  8
0
  6
CONTINUOUS
 62
     1
 10
190.75
 20
151.0
 30
0.0
 11
154.75
 21
151.0
 31
0.0
  0
ARC
  8
0
  6
CONTINUOUS
 62
     1
 10
154.75
 20
150.0
 30
0.0
 40
1.0
 50
90.0
 51
180.0
  0
LINE
  8
0
  6
CONTINUOUS
 62
     1
 10
153.75
 20
150.0
 30
0.0
 11
153.75
 21
114.0
 31
0.0
  0
ARC
  8
0
  6
CONTINUOUS
 62
     1
 10
154.75
 20
114.0
 30
0.0
 40
1.0
 50
180.0
 51
270.0
  0
LINE
  8
0
  6
CONTINUOUS
 62
     1
 10
191.75
 20
114.0
 30
0.0
 11
191.75
 21
150.0
 31
0.0
  0
LINE
  8
0
  6
CONTINUOUS
 62
     1
 10
154.75
 20
113.0
 30
0.0
 11
190.75
 21
113.0
 31
0.0
  0
ARC
  8
0
  6
CONTINUOUS
 62
     1
 10
190.75
 20
114.0
 30
0.0
 40
1.0
 50
270.0
 51
0.0
  0
ARC
  8
0
  6
CONTINUOUS
 62
     1
 10
190.75
 20
114.0
 30
0.0
 40
2.0
 50
270.0
 51
0.0
  0
LINE
  8
0
  6
CONTINUOUS
 62
     1
 10
154.75
 20
112.0
 30
0.0
 11
190.75
 21
112.0
 31
0.0
  0
ARC
  8
0
  6
CONTINUOUS
 62
     1
 10
154.75
 20
114.0
 30
0.0
 40
2.0
 50
180.0
 51
270.0
  0
LINE
  8
0
  6
CONTINUOUS
 62
     1
 10
152.75
 20
150.0
 30
0.0
 11
152.75
 21
114.0
 31
0.0
  0
ARC
  8
0
  6
CONTINUOUS
 62
     1
 10
154.75
 20
150.0
 30
0.0
 40
2.0
 50
90.0
 51
180.0
  0
LINE
  8
0
  6
CONTINUOUS
 62
     1
 10
192.75
 20
114.0
 30
0.0
 11
192.75
 21
150.0
 31
0.0
  0
LINE
  8
0
  6
CONTINUOUS
 62
     1
 10
190.75
 20
152.0
 30
0.0
 11
154.75
 21
152.0
 31
0.0
  0
ARC
  8
0
  6
CONTINUOUS
 62
     1
 10
190.75
 20
150.0
 30
0.0
 40
2.0
 50
0.0
 51
90.0
  0
CIRCLE
  8
0
  6
CONTINUOUS
 62
     1
 10
172.75
 20
132.0
 30
0.0
 40
16.25
  0
LINE
  8
0
  6
CONTINUOUS
 62
     1
 10
156.75
 20
118.025
 30
0.0
 11
154.996298557
 21
117.0125
 31
0.0
  0
LINE
  8
0
  6
CONTINUOUS
 62
     1
 10
154.996298557
 20
117.0125
 30
0.0
 11
154.996298557
 21
114.9875
 31
0.0
  0
LINE
  8
0
  6
CONTINUOUS
 62
     1
 10
154.996298557
 20
114.9875
 30
0.0
 11
156.75
 21
113.975
 31
0.0
  0
LINE
  8
0
  6
CONTINUOUS
 62
     1
 10
156.75
 20
113.975
 30
0.0
 11
158.503701443
 21
114.9875
 31
0.0
  0
LINE
  8
0
  6
CONTINUOUS
 62
     1
 10
158.503701443
 20
114.9875
 30
0.0
 11
158.503701443
 21
117.0125
 31
0.0
  0
LINE
  8
0
  6
CONTINUOUS
 62
     1
 10
158.503701443
 20
117.0125
 30
0.0
 11
156.75
 21
118.025
 31
0.0
  0
CIRCLE
  8
0
  6
CONTINUOUS
 62
     1
 10
156.75
 20
116.0
 30
0.0
 40
0.8
  0
CIRCLE
  8
0
  6
CONTINUOUS
 62
     1
 10
156.75
 20
116.0
 30
0.0
 40
1.0
  0
LINE
  8
0
  6
CONTINUOUS
 62
     1
 10
188.75
 20
118.025
 30
0.0
 11
186.996298557
 21
117.0125
 31
0.0
  0
LINE
  8
0
  6
CONTINUOUS
 62
     1
 10
186.996298557
 20
117.0125
 30
0.0
 11
186.996298557
 21
114.9875
 31
0.0
  0
LINE
  8
0
  6
CONTINUOUS
 62
     1
 10
186.996298557
 20
114.9875
 30
0.0
 11
188.75
 21
113.975
 31
0.0
  0
LINE
  8
0
  6
CONTINUOUS
 62
     1
 10
188.75
 20
113.975
 30
0.0
 11
190.503701443
 21
114.9875
 31
0.0
  0
LINE
  8
0
  6
CONTINUOUS
 62
     1
 10
190.503701443
 20
114.9875
 30
0.0
 11
190.503701443
 21
117.0125
 31
0.0
  0
LINE
  8
0
  6
CONTINUOUS
 62
     1
 10
190.503701443
 20
117.0125
 30
0.0
 11
188.75
 21
118.025
 31
0.0
  0
CIRCLE
  8
0
  6
CONTINUOUS
 62
     1
 10
188.75
 20
116.0
 30
0.0
 40
0.8
  0
CIRCLE
  8
0
  6
CONTINUOUS
 62
     1
 10
188.75
 20
116.0
 30
0.0
 40
1.0
  0
LINE
  8
0
  6
CONTINUOUS
 62
     1
 10
156.75
 20
150.025
 30
0.0
 11
154.996298557
 21
149.0125
 31
0.0
  0
LINE
  8
0
  6
CONTINUOUS
 62
     1
 10
154.996298557
 20
149.0125
 30
0.0
 11
154.996298557
 21
146.9875
 31
0.0
  0
LINE
  8
0
  6
CONTINUOUS
 62
     1
 10
154.996298557
 20
146.9875
 30
0.0
 11
156.75
 21
145.975
 31
0.0
  0
LINE
  8
0
  6
CONTINUOUS
 62
     1
 10
156.75
 20
145.975
 30
0.0
 11
158.503701443
 21
146.9875
 31
0.0
  0
LINE
  8
0
  6
CONTINUOUS
 62
     1
 10
158.503701443
 20
146.9875
 30
0.0
 11
158.503701443
 21
149.0125
 31
0.0
  0
LINE
  8
0
  6
CONTINUOUS
 62
     1
 10
158.503701443
 20
149.0125
 30
0.0
 11
156.75
 21
150.025
 31
0.0
  0
CIRCLE
  8
0
  6
CONTINUOUS
 62
     1
 10
156.75
 20
148.0
 30
0.0
 40
0.8
  0
CIRCLE
  8
0
  6
CONTINUOUS
 62
     1
 10
156.75
 20
148.0
 30
0.0
 40
1.0
  0
LINE
  8
0
  6
CONTINUOUS
 62
     1
 10
188.75
 20
150.025
 30
0.0
 11
186.996298557
 21
149.0125
 31
0.0
  0
LINE
  8
0
  6
CONTINUOUS
 62
     1
 10
186.996298557
 20
149.0125
 30
0.0
 11
186.996298557
 21
146.9875
 31
0.0
  0
LINE
  8
0
  6
CONTINUOUS
 62
     1
 10
186.996298557
 20
146.9875
 30
0.0
 11
188.75
 21
145.975
 31
0.0
  0
LINE
  8
0
  6
CONTINUOUS
 62
     1
 10
188.75
 20
145.975
 30
0.0
 11
190.503701443
 21
146.9875
 31
0.0
  0
LINE
  8
0
  6
CONTINUOUS
 62
     1
 10
190.503701443
 20
146.9875
 30
0.0
 11
190.503701443
 21
149.0125
 31
0.0
  0
LINE
  8
0
  6
CONTINUOUS
 62
     1
 10
190.503701443
 20
149.0125
 30
0.0
 11
188.75
 21
150.025
 31
0.0
  0
CIRCLE
  8
0
  6
CONTINUOUS
 62
     1
 10
188.75
 20
148.0
 30
0.0
 40
0.8
  0
CIRCLE
  8
0
  6
CONTINUOUS
 62
     1
 10
188.75
 20
148.0
 30
0.0
 40
1.0
  0
CIRCLE
  8
0
  6
CONTINUOUS
 62
     1
 10
179.0
 20
127.0
 30
0.0
 40
2.75
  0
CIRCLE
  8
0
  6
CONTINUOUS
 62
     1
 10
166.5
 20
127.0
 30
0.0
 40
2.75
  0
CIRCLE
  8
0
  6
CONTINUOUS
 62
     1
 10
156.75
 20
116.0
 30
0.0
 40
2.5
  0
CIRCLE
  8
0
  6
CONTINUOUS
 62
     1
 10
156.75
 20
148.0
 30
0.0
 40
2.5
  0
CIRCLE
  8
0
  6
CONTINUOUS
 62
     1
 10
188.75
 20
148.0
 30
0.0
 40
2.5
  0
CIRCLE
  8
0
  6
CONTINUOUS
 62
     1
 10
188.75
 20
116.0
 30
0.0
 40
2.5
  0
CIRCLE
  8
0
  6
CONTINUOUS
 62
     1
 10
172.75
 20
67.0
 30
0.0
 40
16.75
  0
CIRCLE
  8
0
  6
CONTINUOUS
 62
     1
 10
188.75
 20
83.0
 30
0.0
 40
1.25
  0
CIRCLE
  8
0
  6
CONTINUOUS
 62
     1
 10
156.75
 20
83.0
 30
0.0
 40
1.25
  0
CIRCLE
  8
0
  6
CONTINUOUS
 62
     1
 10
156.75
 20
51.0
 30
0.0
 40
1.25
  0
CIRCLE
  8
0
  6
CONTINUOUS
 62
     1
 10
188.75
 20
51.0
 30
0.0
 40
1.25
  0
TEXT
  8
0
  6
CONTINUOUS
 62
     1
 10
161.955925513
 20
33.275
 30
1.0
 40
4.0
  1
パネルカット
 50
0.0
 41
0.9
 51
0.0
  7
KANJI0
  0
LINE
  8
0
  6
CONTINUOUS
 62
     1
 10
160.855925513
 20
32.275
 30
0.0
 11
188.855925513
 21
32.275
 31
0.0
  0
CIRCLE
  8
0
  6
CONTINUOUS
 62
     2
 10
54.0
 20
132.0
 30
0.0
 40
7.5
  0
CIRCLE
  8
0
  6
CONTINUOUS
 62
     2
 10
54.0
 20
132.0
 30
0.0
 40
7.0
  0
CIRCLE
  8
0
  6
CONTINUOUS
 62
     2
 10
54.0
 20
132.0
 30
0.0
 40
6.5
  0
CIRCLE
  8
0
  6
CONTINUOUS
 62
     2
 10
54.0
 20
132.0
 30
0.0
 40
6.0
  0
CIRCLE
  8
0
  6
CONTINUOUS
 62
     2
 10
54.0
 20
132.0
 30
0.0
 40
6.0
  0
CIRCLE
  8
0
  6
CONTINUOUS
 62
     2
 10
54.0
 20
132.0
 30
0.0
 40
5.5
  0
CIRCLE
  8
0
  6
CONTINUOUS
 62
     2
 10
54.0
 20
132.0
 30
0.0
 40
5.0
  0
CIRCLE
  8
0
  6
CONTINUOUS
 62
     2
 10
54.0
 20
132.0
 30
0.0
 40
4.5
  0
CIRCLE
  8
0
  6
CONTINUOUS
 62
     2
 10
54.0
 20
132.0
 30
0.0
 40
4.0
  0
CIRCLE
  8
0
  6
CONTINUOUS
 62
     2
 10
54.0
 20
132.0
 30
0.0
 40
3.5
  0
CIRCLE
  8
0
  6
CONTINUOUS
 62
     2
 10
54.0
 20
132.0
 30
0.0
 40
17.5
  0
CIRCLE
  8
0
  6
CONTINUOUS
 62
     2
 10
54.0
 20
132.0
 30
0.0
 40
17.0
  0
CIRCLE
  8
0
  6
CONTINUOUS
 62
     2
 10
54.0
 20
132.0
 30
0.0
 40
14.75
  0
LINE
  8
0
  6
CONTINUOUS
 62
     2
 10
48.329225
 20
125.65332
 30
0.0
 11
48.69336
 21
125.65332
 31
0.0
  0
ARC
  8
0
  6
CONTINUOUS
 62
     2
 10
48.69336
 20
125.80664
 30
0.0
 40
0.15332
 50
270.0
 51
0.0
  0
LINE
  8
0
  6
CONTINUOUS
 62
     2
 10
48.84668
 20
125.80664
 30
0.0
 11
48.84668
 21
126.170775
 31
0.0
  0
LINE
  8
0
  6
CONTINUOUS
 62
     2
 10
48.84668
 20
126.170775
 30
0.0
 11
49.15332
 21
126.170775
 31
0.0
  0
LINE
  8
0
  6
CONTINUOUS
 62
     2
 10
49.15332
 20
126.170775
 30
0.0
 11
49.15332
 21
125.80664
 31
0.0
  0
ARC
  8
0
  6
CONTINUOUS
 62
     2
 10
49.30664
 20
125.80664
 30
0.0
 40
0.15332
 50
180.0
 51
270.0
  0
LINE
  8
0
  6
CONTINUOUS
 62
     2
 10
49.30664
 20
125.65332
 30
0.0
 11
49.670775
 21
125.65332
 31
0.0
  0
LINE
  8
0
  6
CONTINUOUS
 62
     2
 10
49.670775
 20
125.65332
 30
0.0
 11
49.670775
 21
125.34668
 31
0.0
  0
LINE
  8
0
  6
CONTINUOUS
 62
     2
 10
49.670775
 20
125.34668
 30
0.0
 11
49.30664
 21
125.34668
 31
0.0
  0
ARC
  8
0
  6
CONTINUOUS
 62
     2
 10
49.30664
 20
125.19336
 30
0.0
 40
0.15332
 50
90.0
 51
180.0
  0
LINE
  8
0
  6
CONTINUOUS
 62
     2
 10
49.15332
 20
125.19336
 30
0.0
 11
49.15332
 21
124.829225
 31
0.0
  0
LINE
  8
0
  6
CONTINUOUS
 62
     2
 10
49.15332
 20
124.829225
 30
0.0
 11
48.84668
 21
124.829225
 31
0.0
  0
LINE
  8
0
  6
CONTINUOUS
 62
     2
 10
48.84668
 20
124.829225
 30
0.0
 11
48.84668
 21
125.19336
 31
0.0
  0
ARC
  8
0
  6
CONTINUOUS
 62
     2
 10
48.69336
 20
125.19336
 30
0.0
 40
0.15332
 50
0.0
 51
90.0
  0
LINE
  8
0
  6
CONTINUOUS
 62
     2
 10
48.69336
 20
125.34668
 30
0.0
 11
48.329225
 21
125.34668
 31
0.0
  0
LINE
  8
0
  6
CONTINUOUS
 62
     2
 10
48.329225
 20
125.34668
 30
0.0
 11
48.329225
 21
125.65332
 31
0.0
  0
LINE
  8
0
  6
LTYPE1
 62
     2
 10
47.4668
 20
125.5
 30
0.0
 11
50.5332
 21
125.5
 31
0.0
  0
LINE
  8
0
  6
LTYPE1
 62
     2
 10
49.0
 20
127.0332
 30
0.0
 11
49.0
 21
123.9668
 31
0.0
  0
LINE
  8
0
  6
CONTINUOUS
 62
     2
 10
58.329225
 20
125.65332
 30
0.0
 11
58.69336
 21
125.65332
 31
0.0
  0
ARC
  8
0
  6
CONTINUOUS
 62
     2
 10
58.69336
 20
125.80664
 30
0.0
 40
0.15332
 50
270.0
 51
0.0
  0
LINE
  8
0
  6
CONTINUOUS
 62
     2
 10
58.84668
 20
125.80664
 30
0.0
 11
58.84668
 21
126.170775
 31
0.0
  0
LINE
  8
0
  6
CONTINUOUS
 62
     2
 10
58.84668
 20
126.170775
 30
0.0
 11
59.15332
 21
126.170775
 31
0.0
  0
LINE
  8
0
  6
CONTINUOUS
 62
     2
 10
59.15332
 20
126.170775
 30
0.0
 11
59.15332
 21
125.80664
 31
0.0
  0
ARC
  8
0
  6
CONTINUOUS
 62
     2
 10
59.30664
 20
125.80664
 30
0.0
 40
0.15332
 50
180.0
 51
270.0
  0
LINE
  8
0
  6
CONTINUOUS
 62
     2
 10
59.30664
 20
125.65332
 30
0.0
 11
59.670775
 21
125.65332
 31
0.0
  0
LINE
  8
0
  6
CONTINUOUS
 62
     2
 10
59.670775
 20
125.65332
 30
0.0
 11
59.670775
 21
125.34668
 31
0.0
  0
LINE
  8
0
  6
CONTINUOUS
 62
     2
 10
59.670775
 20
125.34668
 30
0.0
 11
59.30664
 21
125.34668
 31
0.0
  0
ARC
  8
0
  6
CONTINUOUS
 62
     2
 10
59.30664
 20
125.19336
 30
0.0
 40
0.15332
 50
90.0
 51
180.0
  0
LINE
  8
0
  6
CONTINUOUS
 62
     2
 10
59.15332
 20
125.19336
 30
0.0
 11
59.15332
 21
124.829225
 31
0.0
  0
LINE
  8
0
  6
CONTINUOUS
 62
     2
 10
59.15332
 20
124.829225
 30
0.0
 11
58.84668
 21
124.829225
 31
0.0
  0
LINE
  8
0
  6
CONTINUOUS
 62
     2
 10
58.84668
 20
124.829225
 30
0.0
 11
58.84668
 21
125.19336
 31
0.0
  0
ARC
  8
0
  6
CONTINUOUS
 62
     2
 10
58.69336
 20
125.19336
 30
0.0
 40
0.15332
 50
0.0
 51
90.0
  0
LINE
  8
0
  6
CONTINUOUS
 62
     2
 10
58.69336
 20
125.34668
 30
0.0
 11
58.329225
 21
125.34668
 31
0.0
  0
LINE
  8
0
  6
CONTINUOUS
 62
     2
 10
58.329225
 20
125.34668
 30
0.0
 11
58.329225
 21
125.65332
 31
0.0
  0
LINE
  8
0
  6
LTYPE1
 62
     2
 10
57.4668
 20
125.5
 30
0.0
 11
60.5332
 21
125.5
 31
0.0
  0
LINE
  8
0
  6
LTYPE1
 62
     2
 10
59.0
 20
127.0332
 30
0.0
 11
59.0
 21
123.9668
 31
0.0
  0
ARC
  8
0
  6
CONTINUOUS
 62
     2
 10
59.0
 20
125.5
 30
0.0
 40
1.1499
 50
176.772955224
 51
0.0
  0
ARC
  8
0
  6
CONTINUOUS
 62
     2
 10
59.0
 20
125.5
 30
0.0
 40
1.1499
 50
0.0
 51
78.364228834
  0
ARC
  8
0
  6
CONTINUOUS
 62
     2
 10
49.0
 20
125.5
 30
0.0
 40
1.1499
 50
101.635771167
 51
0.0
  0
ARC
  8
0
  6
CONTINUOUS
 62
     2
 10
49.0
 20
125.5
 30
0.0
 40
1.1499
 50
0.0
 51
5.706808691
  0
LINE
  8
0
  6
LTYPE1
 62
     2
 10
36.4
 20
116.0
 30
0.0
 11
39.6
 21
116.0
 31
0.0
  0
LINE
  8
0
  6
LTYPE1
 62
     2
 10
38.0
 20
117.6
 30
0.0
 11
38.0
 21
114.4
 31
0.0
  0
LINE
  8
0
  6
LTYPE1
 62
     2
 10
36.4
 20
148.0
 30
0.0
 11
39.6
 21
148.0
 31
0.0
  0
LINE
  8
0
  6
LTYPE1
 62
     2
 10
38.0
 20
149.6
 30
0.0
 11
38.0
 21
146.4
 31
0.0
  0
LINE
  8
0
  6
LTYPE1
 62
     2
 10
68.4
 20
148.0
 30
0.0
 11
71.6
 21
148.0
 31
0.0
  0
LINE
  8
0
  6
LTYPE1
 62
     2
 10
70.0
 20
149.6
 30
0.0
 11
70.0
 21
146.4
 31
0.0
  0
LINE
  8
0
  6
LTYPE1
 62
     2
 10
68.4
 20
116.0
 30
0.0
 11
71.6
 21
116.0
 31
0.0
  0
LINE
  8
0
  6
LTYPE1
 62
     2
 10
70.0
 20
117.6
 30
0.0
 11
70.0
 21
114.4
 31
0.0
  0
LINE
  8
0
  6
LTYPE2
 62
     2
 10
99.08
 20
116.0
 30
0.0
 11
113.549955
 21
116.0
 31
0.0
  0
LINE
  8
0
  6
LTYPE2
 62
     2
 10
99.06
 20
148.0
 30
0.0
 11
113.549955
 21
148.0
 31
0.0
  0
LINE
  8
0
  6
LTYPE2
 62
     2
 10
121.183535
 20
126.98331
 30
0.0
 11
131.049955
 21
126.98331
 31
0.0
  0
LINE
  8
0
  6
LTYPE2
 62
     2
 10
153.75
 20
116.0
 30
0.0
 11
159.75
 21
116.0
 31
0.0
  0
LINE
  8
0
  6
LTYPE2
 62
     2
 10
156.75
 20
119.0
 30
0.0
 11
156.75
 21
113.0
 31
0.0
  0
LINE
  8
0
  6
LTYPE2
 62
     2
 10
185.75
 20
116.0
 30
0.0
 11
191.75
 21
116.0
 31
0.0
  0
LINE
  8
0
  6
LTYPE2
 62
     2
 10
188.75
 20
119.0
 30
0.0
 11
188.75
 21
113.0
 31
0.0
  0
LINE
  8
0
  6
LTYPE2
 62
     2
 10
153.75
 20
148.0
 30
0.0
 11
159.75
 21
148.0
 31
0.0
  0
LINE
  8
0
  6
LTYPE2
 62
     2
 10
156.75
 20
151.0
 30
0.0
 11
156.75
 21
145.0
 31
0.0
  0
LINE
  8
0
  6
LTYPE2
 62
     2
 10
185.75
 20
148.0
 30
0.0
 11
191.75
 21
148.0
 31
0.0
  0
LINE
  8
0
  6
LTYPE2
 62
     2
 10
188.75
 20
151.0
 30
0.0
 11
188.75
 21
145.0
 31
0.0
  0
LINE
  8
0
  6
LTYPE2
 62
     2
 10
163.5
 20
127.0
 30
0.0
 11
169.5
 21
127.0
 31
0.0
  0
LINE
  8
0
  6
LTYPE2
 62
     2
 10
166.5
 20
130.0
 30
0.0
 11
166.5
 21
124.0
 31
0.0
  0
LINE
  8
0
  6
LTYPE2
 62
     2
 10
176.0
 20
127.0
 30
0.0
 11
182.0
 21
127.0
 31
0.0
  0
LINE
  8
0
  6
LTYPE2
 62
     2
 10
179.0
 20
130.0
 30
0.0
 11
179.0
 21
124.0
 31
0.0
  0
LINE
  8
0
  6
LTYPE1
 62
     2
 10
152.75
 20
51.0
 30
0.0
 11
160.25
 21
51.0
 31
0.0
  0
LINE
  8
0
  6
LTYPE1
 62
     2
 10
184.75
 20
51.0
 30
0.0
 11
193.75
 21
51.0
 31
0.0
  0
LINE
  8
0
  6
LTYPE1
 62
     2
 10
152.25
 20
83.0
 30
0.0
 11
160.75
 21
83.0
 31
0.0
  0
LINE
  8
0
  6
LTYPE1
 62
     2
 10
184.75
 20
83.0
 30
0.0
 11
193.75
 21
83.0
 31
0.0
  0
LINE
  8
0
  6
LTYPE1
 62
     2
 10
188.75
 20
87.0
 30
0.0
 11
188.75
 21
78.5
 31
0.0
  0
LINE
  8
0
  6
LTYPE1
 62
     2
 10
188.75
 20
55.0
 30
0.0
 11
188.75
 21
45.5
 31
0.0
  0
LINE
  8
0
  6
LTYPE1
 62
     2
 10
156.75
 20
78.5
 30
0.0
 11
156.75
 21
87.5
 31
0.0
  0
LINE
  8
0
  6
LTYPE1
 62
     2
 10
141.25
 20
67.0
 30
0.0
 11
202.75
 21
67.0
 31
0.0
  0
CIRCLE
  8
0
  6
CONTINUOUS
 62
     2
 10
166.5
 20
122.0
 30
0.0
 40
1.25
  0
LINE
  8
0
  6
CONTINUOUS
 62
     2
 10
165.5
 20
122.0
 30
0.0
 11
167.5
 21
122.0
 31
0.0
  0
LINE
  8
0
  6
CONTINUOUS
 62
     2
 10
166.5
 20
123.0
 30
0.0
 11
166.5
 21
121.0
 31
0.0
  0
LINE
  8
0
  6
CONTINUOUS
 62
     2
 10
191.75
 20
148.0
 30
0.0
 11
204.85
 21
148.0
 31
0.0
  0
LINE
  8
0
  6
CONTINUOUS
 62
     2
 10
202.85
 20
148.0
 30
0.0
 11
202.202952387
 21
145.585185434
 31
0.0
  0
LINE
  8
0
  6
CONTINUOUS
 62
     2
 10
202.85
 20
148.0
 30
0.0
 11
203.497047613
 21
145.585185434
 31
0.0
  0
LINE
  8
0
  6
CONTINUOUS
 62
     2
 10
202.85
 20
148.0
 30
0.0
 11
202.85
 21
132.0
 31
0.0
  0
LINE
  8
0
  6
CONTINUOUS
 62
     2
 10
202.85
 20
132.0
 30
0.0
 11
203.497047613
 21
134.414814566
 31
0.0
  0
LINE
  8
0
  6
CONTINUOUS
 62
     2
 10
202.85
 20
132.0
 30
0.0
 11
202.202952387
 21
134.414814566
 31
0.0
  0
LINE
  8
0
  6
CONTINUOUS
 62
     2
 10
199.75
 20
132.0
 30
0.0
 11
204.85
 21
132.0
 31
0.0
  0
TEXT
  8
0
  6
CONTINUOUS
 62
     2
 10
201.85
 20
135.62
 30
0.3
 40
3.0
  1
３２
 50
90.0
 41
0.6
 51
0.0
  7
KANJI1
  0
TEXT
  8
0
  6
CONTINUOUS
 62
     2
 10
201.85
 20
139.52
 30
0.18
 40
1.8
  1
±０．５
 50
90.0
 41
0.6
 51
0.0
  7
KANJI2
  0
LINE
  8
0
  6
CONTINUOUS
 62
     2
 10
202.85
 20
132.0
 30
0.0
 11
202.202952387
 21
129.585185434
 31
0.0
  0
LINE
  8
0
  6
CONTINUOUS
 62
     2
 10
202.85
 20
132.0
 30
0.0
 11
203.497047613
 21
129.585185434
 31
0.0
  0
LINE
  8
0
  6
CONTINUOUS
 62
     2
 10
202.85
 20
132.0
 30
0.0
 11
202.85
 21
116.0
 31
0.0
  0
LINE
  8
0
  6
CONTINUOUS
 62
     2
 10
202.85
 20
116.0
 30
0.0
 11
203.497047613
 21
118.414814566
 31
0.0
  0
LINE
  8
0
  6
CONTINUOUS
 62
     2
 10
202.85
 20
116.0
 30
0.0
 11
202.202952387
 21
118.414814566
 31
0.0
  0
LINE
  8
0
  6
CONTINUOUS
 62
     2
 10
191.75
 20
116.0
 30
0.0
 11
204.85
 21
116.0
 31
0.0
  0
TEXT
  8
0
  6
CONTINUOUS
 62
     2
 10
201.85
 20
119.62
 30
0.3
 40
3.0
  1
３２
 50
90.0
 41
0.6
 51
0.0
  7
KANJI1
  0
TEXT
  8
0
  6
CONTINUOUS
 62
     2
 10
201.85
 20
123.52
 30
0.18
 40
1.8
  1
±０．５
 50
90.0
 41
0.6
 51
0.0
  7
KANJI2
  0
LINE
  8
0
  6
CONTINUOUS
 62
     2
 10
156.75
 20
151.2
 30
0.0
 11
156.75
 21
164.0
 31
0.0
  0
LINE
  8
0
  6
CONTINUOUS
 62
     2
 10
156.75
 20
162.0
 30
0.0
 11
159.164814566
 21
161.352952387
 31
0.0
  0
LINE
  8
0
  6
CONTINUOUS
 62
     2
 10
156.75
 20
162.0
 30
0.0
 11
159.164814566
 21
162.647047613
 31
0.0
  0
LINE
  8
0
  6
CONTINUOUS
 62
     2
 10
156.75
 20
162.0
 30
0.0
 11
172.75
 21
162.0
 31
0.0
  0
LINE
  8
0
  6
CONTINUOUS
 62
     2
 10
172.75
 20
162.0
 30
0.0
 11
170.335185434
 21
162.647047613
 31
0.0
  0
LINE
  8
0
  6
CONTINUOUS
 62
     2
 10
172.75
 20
162.0
 30
0.0
 11
170.335185434
 21
161.352952387
 31
0.0
  0
LINE
  8
0
  6
CONTINUOUS
 62
     2
 10
172.75
 20
156.5
 30
0.0
 11
172.75
 21
164.0
 31
0.0
  0
TEXT
  8
0
  6
CONTINUOUS
 62
     2
 10
160.37
 20
163.0
 30
0.3
 40
3.0
  1
３２
 50
0.0
 41
0.6
 51
0.0
  7
KANJI1
  0
TEXT
  8
0
  6
CONTINUOUS
 62
     2
 10
164.27
 20
163.0
 30
0.18
 40
1.8
  1
±０．５
 50
0.0
 41
0.6
 51
0.0
  7
KANJI2
  0
LINE
  8
0
  6
CONTINUOUS
 62
     2
 10
172.75
 20
162.0
 30
0.0
 11
175.164814566
 21
161.352952387
 31
0.0
  0
LINE
  8
0
  6
CONTINUOUS
 62
     2
 10
172.75
 20
162.0
 30
0.0
 11
175.164814566
 21
162.647047613
 31
0.0
  0
LINE
  8
0
  6
CONTINUOUS
 62
     2
 10
172.75
 20
162.0
 30
0.0
 11
188.75
 21
162.0
 31
0.0
  0
LINE
  8
0
  6
CONTINUOUS
 62
     2
 10
188.75
 20
162.0
 30
0.0
 11
186.335185434
 21
162.647047613
 31
0.0
  0
LINE
  8
0
  6
CONTINUOUS
 62
     2
 10
188.75
 20
162.0
 30
0.0
 11
186.335185434
 21
161.352952387
 31
0.0
  0
LINE
  8
0
  6
CONTINUOUS
 62
     2
 10
188.75
 20
151.0
 30
0.0
 11
188.75
 21
164.0
 31
0.0
  0
TEXT
  8
0
  6
CONTINUOUS
 62
     2
 10
176.37
 20
163.0
 30
0.3
 40
3.0
  1
３２
 50
0.0
 41
0.6
 51
0.0
  7
KANJI1
  0
TEXT
  8
0
  6
CONTINUOUS
 62
     2
 10
180.27
 20
163.0
 30
0.18
 40
1.8
  1
±０．５
 50
0.0
 41
0.6
 51
0.0
  7
KANJI2
  0
LINE
  8
0
  6
CONTINUOUS
 62
     2
 10
156.75
 20
87.5
 30
0.0
 11
156.75
 21
95.0
 31
0.0
  0
LINE
  8
0
  6
CONTINUOUS
 62
     2
 10
156.75
 20
93.0
 30
0.0
 11
159.164814566
 21
92.352952387
 31
0.0
  0
LINE
  8
0
  6
CONTINUOUS
 62
     2
 10
156.75
 20
93.0
 30
0.0
 11
159.164814566
 21
93.647047613
 31
0.0
  0
LINE
  8
0
  6
CONTINUOUS
 62
     2
 10
156.75
 20
93.0
 30
0.0
 11
172.75
 21
93.0
 31
0.0
  0
LINE
  8
0
  6
CONTINUOUS
 62
     2
 10
172.75
 20
93.0
 30
0.0
 11
170.335185434
 21
93.647047613
 31
0.0
  0
LINE
  8
0
  6
CONTINUOUS
 62
     2
 10
172.75
 20
93.0
 30
0.0
 11
170.335185434
 21
92.352952387
 31
0.0
  0
LINE
  8
0
  6
CONTINUOUS
 62
     2
 10
172.75
 20
93.0
 30
0.0
 11
172.75
 21
95.0
 31
0.0
  0
TEXT
  8
0
  6
CONTINUOUS
 62
     2
 10
160.37
 20
94.0
 30
0.3
 40
3.0
  1
３２
 50
0.0
 41
0.6
 51
0.0
  7
KANJI1
  0
TEXT
  8
0
  6
CONTINUOUS
 62
     2
 10
164.27
 20
94.0
 30
0.18
 40
1.8
  1
±０．５
 50
0.0
 41
0.6
 51
0.0
  7
KANJI2
  0
LINE
  8
0
  6
CONTINUOUS
 62
     2
 10
172.75
 20
93.0
 30
0.0
 11
175.164814566
 21
92.352952387
 31
0.0
  0
LINE
  8
0
  6
CONTINUOUS
 62
     2
 10
172.75
 20
93.0
 30
0.0
 11
175.164814566
 21
93.647047613
 31
0.0
  0
LINE
  8
0
  6
CONTINUOUS
 62
     2
 10
172.75
 20
93.0
 30
0.0
 11
188.75
 21
93.0
 31
0.0
  0
LINE
  8
0
  6
CONTINUOUS
 62
     2
 10
188.75
 20
93.0
 30
0.0
 11
186.335185434
 21
93.647047613
 31
0.0
  0
LINE
  8
0
  6
CONTINUOUS
 62
     2
 10
188.75
 20
93.0
 30
0.0
 11
186.335185434
 21
92.352952387
 31
0.0
  0
LINE
  8
0
  6
CONTINUOUS
 62
     2
 10
188.75
 20
87.0
 30
0.0
 11
188.75
 21
95.0
 31
0.0
  0
TEXT
  8
0
  6
CONTINUOUS
 62
     2
 10
176.37
 20
94.0
 30
0.3
 40
3.0
  1
３２
 50
0.0
 41
0.6
 51
0.0
  7
KANJI1
  0
TEXT
  8
0
  6
CONTINUOUS
 62
     2
 10
180.27
 20
94.0
 30
0.18
 40
1.8
  1
±０．５
 50
0.0
 41
0.6
 51
0.0
  7
KANJI2
  0
LINE
  8
0
  6
CONTINUOUS
 62
     2
 10
193.75
 20
83.0
 30
0.0
 11
200.75
 21
83.0
 31
0.0
  0
LINE
  8
0
  6
CONTINUOUS
 62
     2
 10
198.75
 20
83.0
 30
0.0
 11
198.102952387
 21
80.585185434
 31
0.0
  0
LINE
  8
0
  6
CONTINUOUS
 62
     2
 10
198.75
 20
83.0
 30
0.0
 11
199.397047613
 21
80.585185434
 31
0.0
  0
LINE
  8
0
  6
CONTINUOUS
 62
     2
 10
198.75
 20
83.0
 30
0.0
 11
198.75
 21
67.0
 31
0.0
  0
LINE
  8
0
  6
CONTINUOUS
 62
     2
 10
198.75
 20
67.0
 30
0.0
 11
199.397047613
 21
69.414814566
 31
0.0
  0
LINE
  8
0
  6
CONTINUOUS
 62
     2
 10
198.75
 20
67.0
 30
0.0
 11
198.102952387
 21
69.414814566
 31
0.0
  0
LINE
  8
0
  6
CONTINUOUS
 62
     2
 10
198.85
 20
67.0
 30
0.0
 11
196.75
 21
67.0
 31
0.0
  0
TEXT
  8
0
  6
CONTINUOUS
 62
     2
 10
197.75
 20
70.62
 30
0.3
 40
3.0
  1
３２
 50
90.0
 41
0.6
 51
0.0
  7
KANJI1
  0
TEXT
  8
0
  6
CONTINUOUS
 62
     2
 10
197.75
 20
74.52
 30
0.18
 40
1.8
  1
±０．５
 50
90.0
 41
0.6
 51
0.0
  7
KANJI2
  0
LINE
  8
0
  6
CONTINUOUS
 62
     2
 10
198.75
 20
67.0
 30
0.0
 11
198.102952387
 21
64.585185434
 31
0.0
  0
LINE
  8
0
  6
CONTINUOUS
 62
     2
 10
198.75
 20
67.0
 30
0.0
 11
199.397047613
 21
64.585185434
 31
0.0
  0
LINE
  8
0
  6
CONTINUOUS
 62
     2
 10
198.75
 20
67.0
 30
0.0
 11
198.75
 21
51.0
 31
0.0
  0
LINE
  8
0
  6
CONTINUOUS
 62
     2
 10
198.75
 20
51.0
 30
0.0
 11
199.397047613
 21
53.414814566
 31
0.0
  0
LINE
  8
0
  6
CONTINUOUS
 62
     2
 10
198.75
 20
51.0
 30
0.0
 11
198.102952387
 21
53.414814566
 31
0.0
  0
LINE
  8
0
  6
CONTINUOUS
 62
     2
 10
193.75
 20
51.0
 30
0.0
 11
200.75
 21
51.0
 31
0.0
  0
TEXT
  8
0
  6
CONTINUOUS
 62
     2
 10
197.75
 20
54.62
 30
0.3
 40
3.0
  1
３２
 50
90.0
 41
0.6
 51
0.0
  7
KANJI1
  0
TEXT
  8
0
  6
CONTINUOUS
 62
     2
 10
197.75
 20
58.52
 30
0.18
 40
1.8
  1
±０．５
 50
90.0
 41
0.6
 51
0.0
  7
KANJI2
  0
LINE
  8
0
  6
CONTINUOUS
 62
     2
 10
156.409055505
 20
63.320865182
 30
0.0
 11
158.907021247
 21
63.220032896
 31
0.0
  0
LINE
  8
0
  6
CONTINUOUS
 62
     2
 10
156.409055505
 20
63.320865182
 30
0.0
 11
158.622773438
 21
64.482524732
 31
0.0
  0
LINE
  8
0
  6
CONTINUOUS
 62
     2
 10
156.409055505
 20
63.320865182
 30
0.0
 11
189.090944495
 21
70.679134818
 31
0.0
  0
LINE
  8
0
  6
CONTINUOUS
 62
     2
 10
189.090944495
 20
70.679134818
 30
0.0
 11
186.592978753
 21
70.779967104
 31
0.0
  0
LINE
  8
0
  6
CONTINUOUS
 62
     2
 10
189.090944495
 20
70.679134818
 30
0.0
 11
186.877226562
 21
69.517475268
 31
0.0
  0
LINE
  8
0
  6
CONTINUOUS
 62
     2
 10
98.6
 20
150.75
 30
0.0
 11
85.5
 21
150.75
 31
0.0
  0
LINE
  8
0
  6
CONTINUOUS
 62
     2
 10
87.5
 20
150.75
 30
0.0
 11
86.852952387
 21
148.335185434
 31
0.0
  0
LINE
  8
0
  6
CONTINUOUS
 62
     2
 10
87.5
 20
150.75
 30
0.0
 11
88.147047613
 21
148.335185434
 31
0.0
  0
LINE
  8
0
  6
CONTINUOUS
 62
     2
 10
87.5
 20
150.75
 30
0.0
 11
87.5
 21
113.25
 31
0.0
  0
LINE
  8
0
  6
CONTINUOUS
 62
     2
 10
87.5
 20
113.25
 30
0.0
 11
88.147047613
 21
115.664814566
 31
0.0
  0
LINE
  8
0
  6
CONTINUOUS
 62
     2
 10
87.5
 20
113.25
 30
0.0
 11
86.852952387
 21
115.664814566
 31
0.0
  0
LINE
  8
0
  6
CONTINUOUS
 62
     2
 10
98.561381701
 20
113.25
 30
0.0
 11
85.5
 21
113.25
 31
0.0
  0
TEXT
  8
0
  6
CONTINUOUS
 62
     2
 10
86.5
 20
129.0
 30
0.3
 40
3.0
  1
φ７５
 50
90.0
 41
0.6
 51
0.0
  7
KANJI1
  0
LINE
  8
0
  6
CONTINUOUS
 62
     2
 10
104.25
 20
150.7
 30
0.0
 11
104.25
 21
160.0
 31
0.0
  0
LINE
  8
0
  6
CONTINUOUS
 62
     2
 10
104.25
 20
158.0
 30
0.0
 11
106.664814566
 21
157.352952387
 31
0.0
  0
LINE
  8
0
  6
CONTINUOUS
 62
     2
 10
104.25
 20
158.0
 30
0.0
 11
106.664814566
 21
158.647047613
 31
0.0
  0
LINE
  8
0
  6
CONTINUOUS
 62
     2
 10
104.25
 20
158.0
 30
0.0
 11
111.75
 21
158.0
 31
0.0
  0
LINE
  8
0
  6
CONTINUOUS
 62
     2
 10
111.75
 20
158.0
 30
0.0
 11
109.335185434
 21
158.647047613
 31
0.0
  0
LINE
  8
0
  6
CONTINUOUS
 62
     2
 10
111.75
 20
158.0
 30
0.0
 11
109.335185434
 21
157.352952387
 31
0.0
  0
LINE
  8
0
  6
CONTINUOUS
 62
     2
 10
111.75
 20
149.2399725
 30
0.0
 11
111.75
 21
160.0
 31
0.0
  0
TEXT
  8
0
  6
CONTINUOUS
 62
     2
 10
106.05
 20
159.0
 30
0.3
 40
3.0
  1
１５
 50
0.0
 41
0.6
 51
0.0
  7
KANJI1
  0
LINE
  8
0
  6
CONTINUOUS
 62
     2
 10
104.25
 20
158.0
 30
0.0
 11
106.664814566
 21
157.352952387
 31
0.0
  0
LINE
  8
0
  6
CONTINUOUS
 62
     2
 10
104.25
 20
158.0
 30
0.0
 11
106.664814566
 21
158.647047613
 31
0.0
  0
LINE
  8
0
  6
CONTINUOUS
 62
     2
 10
104.0
 20
158.0
 30
0.0
 11
101.585185434
 21
158.647047613
 31
0.0
  0
LINE
  8
0
  6
CONTINUOUS
 62
     2
 10
104.0
 20
158.0
 30
0.0
 11
101.585185434
 21
157.352952387
 31
0.0
  0
LINE
  8
0
  6
CONTINUOUS
 62
     2
 10
104.0
 20
152.2
 30
0.0
 11
104.0
 21
160.0
 31
0.0
  0
LINE
  8
0
  6
CONTINUOUS
 62
     2
 10
104.25
 20
160.0
 30
0.0
 11
104.25
 21
174.0
 31
0.0
  0
LINE
  8
0
  6
CONTINUOUS
 62
     2
 10
104.25
 20
172.0
 30
0.0
 11
101.835185434
 21
172.647047613
 31
0.0
  0
LINE
  8
0
  6
CONTINUOUS
 62
     2
 10
104.25
 20
172.0
 30
0.0
 11
101.835185434
 21
171.352952387
 31
0.0
  0
LINE
  8
0
  6
CONTINUOUS
 62
     2
 10
104.25
 20
172.0
 30
0.0
 11
95.772556533
 21
172.0
 31
0.0
  0
LINE
  8
0
  6
CONTINUOUS
 62
     2
 10
95.772556533
 20
172.0
 30
0.0
 11
98.187371099
 21
171.352952387
 31
0.0
  0
LINE
  8
0
  6
CONTINUOUS
 62
     2
 10
95.772556533
 20
172.0
 30
0.0
 11
98.187371099
 21
172.647047613
 31
0.0
  0
LINE
  8
0
  6
CONTINUOUS
 62
     2
 10
95.772556533
 20
132.85
 30
0.0
 11
95.772556533
 21
174.0
 31
0.0
  0
TEXT
  8
0
  6
CONTINUOUS
 62
     2
 10
98.061278267
 20
173.0
 30
0.3
 40
3.0
  1
１７
 50
0.0
 41
0.6
 51
0.0
  7
KANJI1
  0
LINE
  8
0
  6
CONTINUOUS
 62
     2
 10
104.25
 20
172.0
 30
0.0
 11
106.664814566
 21
171.352952387
 31
0.0
  0
LINE
  8
0
  6
CONTINUOUS
 62
     2
 10
104.25
 20
172.0
 30
0.0
 11
106.664814566
 21
172.647047613
 31
0.0
  0
LINE
  8
0
  6
CONTINUOUS
 62
     2
 10
104.25
 20
172.0
 30
0.0
 11
123.25
 21
172.0
 31
0.0
  0
LINE
  8
0
  6
CONTINUOUS
 62
     2
 10
123.25
 20
148.150001907
 30
0.0
 11
123.25
 21
174.0
 31
0.0
  0
TEXT
  8
0
  6
CONTINUOUS
 62
     2
 10
111.8
 20
173.0
 30
0.3
 40
3.0
  1
３８
 50
0.0
 41
0.6
 51
0.0
  7
KANJI1
  0
LINE
  8
0
  6
CONTINUOUS
 62
     2
 10
123.25
 20
172.0
 30
0.0
 11
120.835185434
 21
172.647047613
 31
0.0
  0
LINE
  8
0
  6
CONTINUOUS
 62
     2
 10
123.25
 20
172.0
 30
0.0
 11
120.835185434
 21
171.352952387
 31
0.0
  0
LINE
  8
0
  6
CONTINUOUS
 62
     2
 10
129.25
 20
172.0
 30
0.0
 11
131.664814566
 21
171.352952387
 31
0.0
  0
LINE
  8
0
  6
CONTINUOUS
 62
     2
 10
129.25
 20
172.0
 30
0.0
 11
131.664814566
 21
172.647047613
 31
0.0
  0
LINE
  8
0
  6
CONTINUOUS
 62
     2
 10
129.25
 20
128.2832825
 30
0.0
 11
129.25
 21
174.0
 31
0.0
  0
TEXT
  8
0
  6
CONTINUOUS
 62
     2
 10
124.3
 20
173.0
 30
0.3
 40
3.0
  1
１２
 50
0.0
 41
0.6
 51
0.0
  7
KANJI1
  0
LINE
  8
0
  6
CONTINUOUS
 62
     2
 10
123.25
 20
172.0
 30
0.0
 11
134.25
 21
172.0
 31
0.0
  0
LINE
  8
0
  6
CONTINUOUS
 62
     2
 10
116.55
 20
115.7
 30
0.0
 11
117.197047613
 21
118.114814566
 31
0.0
  0
LINE
  8
0
  6
CONTINUOUS
 62
     2
 10
116.55
 20
115.7
 30
0.0
 11
115.902952387
 21
118.114814566
 31
0.0
  0
LINE
  8
0
  6
CONTINUOUS
 62
     2
 10
116.55
 20
115.7
 30
0.0
 11
116.55
 21
148.25
 31
0.0
  0
LINE
  8
0
  6
CONTINUOUS
 62
     2
 10
116.55
 20
148.25
 30
0.0
 11
115.902952387
 21
145.835185434
 31
0.0
  0
LINE
  8
0
  6
CONTINUOUS
 62
     2
 10
116.55
 20
148.25
 30
0.0
 11
117.197047613
 21
145.835185434
 31
0.0
  0
TEXT
  8
0
  6
CONTINUOUS
 62
     2
 10
115.55
 20
128.975
 30
0.3
 40
3.0
  1
φ６５
 50
90.0
 41
0.6
 51
0.0
  7
KANJI1
  0
LINE
  8
0
  6
CONTINUOUS
 62
     2
 10
110.95
 20
115.05
 30
0.0
 11
111.306511462
 21
112.575550652
 31
0.0
  0
LINE
  8
0
  6
CONTINUOUS
 62
     2
 10
110.95
 20
115.05
 30
0.0
 11
112.495972657
 21
113.085319735
 31
0.0
  0
TEXT
  8
0
  6
CONTINUOUS
 62
     2
 10
97.1
 20
159.0
 30
0.3
 40
3.0
  1
０．５
 50
0.0
 41
0.6
 51
0.0
  7
KANJI1
  0
LINE
  8
0
  6
CONTINUOUS
 62
     2
 10
104.0
 20
158.0
 30
0.0
 11
96.75
 21
158.0
 31
0.0
  0
LINE
  8
0
  6
CONTINUOUS
 62
     2
 10
54.45
 20
130.7
 30
0.0
 11
54.517535139
 21
128.200912365
 31
0.0
  0
LINE
  8
0
  6
CONTINUOUS
 62
     2
 10
54.45
 20
130.7
 30
0.0
 11
55.758030964
 21
128.569494192
 31
0.0
  0
LINE
  8
0
  6
CONTINUOUS
 62
     2
 10
54.45
 20
130.7
 30
0.0
 11
63.75
 21
99.4
 31
0.0
  0
LINE
  8
0
  6
CONTINUOUS
 62
     2
 10
42.35
 20
125.7
 30
0.0
 11
41.229650587
 21
123.465091234
 31
0.0
  0
LINE
  8
0
  6
CONTINUOUS
 62
     2
 10
42.35
 20
125.7
 30
0.0
 11
42.49720333
 21
123.204337527
 31
0.0
  0
LINE
  8
0
  6
CONTINUOUS
 62
     2
 10
42.35
 20
125.7
 30
0.0
 11
36.95
 21
99.45
 31
0.0
  0
LINE
  8
0
  6
CONTINUOUS
 62
     2
 10
36.95
 20
99.45
 30
0.0
 11
28.95
 21
99.45
 31
0.0
  0
LINE
  8
0
  6
CONTINUOUS
 62
     2
 10
166.5
 20
130.4
 30
0.0
 11
166.5
 21
139.0
 31
0.0
  0
LINE
  8
0
  6
CONTINUOUS
 62
     2
 10
166.5
 20
137.0
 30
0.0
 11
168.914814566
 21
136.352952387
 31
0.0
  0
LINE
  8
0
  6
CONTINUOUS
 62
     2
 10
166.5
 20
137.0
 30
0.0
 11
168.914814566
 21
137.647047613
 31
0.0
  0
LINE
  8
0
  6
CONTINUOUS
 62
     2
 10
166.5
 20
137.0
 30
0.0
 11
179.0
 21
137.0
 31
0.0
  0
LINE
  8
0
  6
CONTINUOUS
 62
     2
 10
179.0
 20
137.0
 30
0.0
 11
176.585185434
 21
137.647047613
 31
0.0
  0
LINE
  8
0
  6
CONTINUOUS
 62
     2
 10
179.0
 20
137.0
 30
0.0
 11
176.585185434
 21
136.352952387
 31
0.0
  0
LINE
  8
0
  6
CONTINUOUS
 62
     2
 10
179.0
 20
130.3
 30
0.0
 11
179.0
 21
139.0
 31
0.0
  0
LINE
  8
0
  6
CONTINUOUS
 62
     2
 10
182.2
 20
127.0
 30
0.0
 11
187.0
 21
127.0
 31
0.0
  0
LINE
  8
0
  6
CONTINUOUS
 62
     2
 10
185.1
 20
132.0
 30
0.0
 11
183.0
 21
132.0
 31
0.0
  0
LINE
  8
0
  6
CONTINUOUS
 62
     2
 10
185.8
 20
127.0
 30
0.0
 11
185.8
 21
132.0
 31
0.0
  0
TEXT
  8
0
  6
CONTINUOUS
 62
     2
 10
184.8
 20
127.55
 30
0.3
 40
3.0
  1
１０
 50
90.0
 41
0.6
 51
0.0
  7
KANJI1
  0
LINE
  8
0
  6
CONTINUOUS
 62
     2
 10
185.8
 20
127.0
 30
0.0
 11
185.264101615
 21
129.0
 31
0.0
  0
LINE
  8
0
  6
CONTINUOUS
 62
     2
 10
185.8
 20
127.0
 30
0.0
 11
186.335898385
 21
129.0
 31
0.0
  0
LINE
  8
0
  6
CONTINUOUS
 62
     2
 10
185.8
 20
132.0
 30
0.0
 11
186.335898385
 21
130.0
 31
0.0
  0
LINE
  8
0
  6
CONTINUOUS
 62
     2
 10
185.8
 20
132.0
 30
0.0
 11
185.264101615
 21
130.0
 31
0.0
  0
TEXT
  8
0
  6
CONTINUOUS
 62
     1
 10
233.6
 20
85.9
 30
0.4
 40
4.0
  1
広角度計器　外形図
 50
0.0
 41
0.9
 51
0.0
  7
KANJI3
  0
LINE
  8
0
  6
LTYPE3
 62
     2
 10
127.25
 20
118.98331
 30
0.0
 11
123.25
 21
118.98331
 31
0.0
  0
LINE
  8
0
  6
LTYPE3
 62
     2
 10
123.25
 20
119.58331
 30
0.0
 11
123.5
 21
119.58331
 31
0.0
  0
ARC
  8
0
  6
LTYPE3
 62
     2
 10
127.25
 20
127.48331
 30
0.0
 40
3.0
 50
0.0
 51
90.0
  0
LINE
  8
0
  6
LTYPE3
 62
     2
 10
130.25
 20
127.48331
 30
0.0
 11
130.25
 21
121.98331
 31
0.0
  0
ARC
  8
0
  6
LTYPE3
 62
     2
 10
127.25
 20
121.98331
 30
0.0
 40
3.0
 50
270.0
 51
0.0
  0
LINE
  8
0
  6
LTYPE3
 62
     2
 10
123.25
 20
129.88331
 30
0.0
 11
123.5
 21
129.88331
 31
0.0
  0
LINE
  8
0
  6
LTYPE3
 62
     2
 10
123.5
 20
118.98331
 30
0.0
 11
123.5
 21
129.88331
 31
0.0
  0
LINE
  8
0
  6
LTYPE3
 62
     2
 10
123.25
 20
130.48331
 30
0.0
 11
127.25
 21
130.48331
 31
0.0
  0
POINT
  8
0
  6
LTYPE3
 62
     2
 10
167.75
 20
123.6
 30
0.0
  0
LINE
  8
0
  6
LTYPE3
 62
     2
 10
167.75
 20
123.6
 30
0.0
 11
165.25
 21
123.6
 31
0.0
  0
LINE
  8
0
  6
LTYPE3
 62
     2
 10
167.75
 20
123.6
 30
0.0
 11
167.75
 21
120.6
 31
0.0
  0
LINE
  8
0
  6
LTYPE3
 62
     2
 10
165.25
 20
123.6
 30
0.0
 11
165.25
 21
120.6
 31
0.0
  0
POINT
  8
0
  6
LTYPE3
 62
     2
 10
180.25
 20
123.6
 30
0.0
  0
LINE
  8
0
  6
LTYPE3
 62
     2
 10
180.25
 20
123.6
 30
0.0
 11
177.75
 21
123.6
 31
0.0
  0
LINE
  8
0
  6
LTYPE3
 62
     2
 10
180.25
 20
123.6
 30
0.0
 11
180.25
 21
120.6
 31
0.0
  0
LINE
  8
0
  6
LTYPE3
 62
     2
 10
177.75
 20
123.6
 30
0.0
 11
177.75
 21
120.6
 31
0.0
  0
ARC
  8
0
  6
LTYPE3
 62
     2
 10
166.0
 20
127.5
 30
0.0
 40
3.0
 50
90.0
 51
180.0
  0
LINE
  8
0
  6
LTYPE3
 62
     2
 10
163.0
 20
122.0
 30
0.0
 11
163.0
 21
127.5
 31
0.0
  0
LINE
  8
0
  6
LTYPE3
 62
     2
 10
179.5
 20
119.0
 30
0.0
 11
166.0
 21
119.0
 31
0.0
  0
ARC
  8
0
  6
LTYPE3
 62
     2
 10
166.0
 20
122.0
 30
0.0
 40
3.0
 50
180.0
 51
270.0
  0
LINE
  8
0
  6
LTYPE3
 62
     2
 10
166.025
 20
130.5
 30
0.0
 11
179.5
 21
130.5
 31
0.0
  0
ARC
  8
0
  6
LTYPE3
 62
     2
 10
179.5
 20
127.5
 30
0.0
 40
3.0
 50
0.0
 51
90.0
  0
ARC
  8
0
  6
LTYPE3
 62
     2
 10
179.5
 20
122.0
 30
0.0
 40
3.0
 50
270.0
 51
0.0
  0
LINE
  8
0
  6
LTYPE3
 62
     2
 10
182.5
 20
127.5
 30
0.0
 11
182.5
 21
122.0
 31
0.0
  0
ARC
  8
0
  6
LTYPE3
 62
     2
 10
166.5
 20
127.0
 30
0.0
 40
1.975
 50
328.025496594
 51
217.415803658
  0
LINE
  8
0
  6
LTYPE3
 62
     2
 10
164.931362056
 20
125.8
 30
0.0
 11
165.588529527
 21
124.850758098
 31
0.0
  0
ARC
  8
0
  6
LTYPE3
 62
     2
 10
163.944145143
 20
123.71233814
 30
0.0
 40
2.0
 50
10.612929601
 51
34.695153531
  0
ARC
  8
0
  6
LTYPE3
 62
     2
 10
169.055858303
 20
123.712343118
 30
0.0
 40
2.0
 50
145.304846469
 51
169.387402194
  0
LINE
  8
0
  6
LTYPE3
 62
     2
 10
167.090068544
 20
124.080678053
 30
0.0
 11
167.000002697
 21
123.6
 31
0.0
  0
LINE
  8
0
  6
LTYPE3
 62
     2
 10
165.909932769
 20
124.080684458
 30
0.0
 11
166.000002697
 21
123.6
 31
0.0
  0
CIRCLE
  8
0
  6
CONTINUOUS
 62
     2
 10
166.5
 20
127.0
 30
0.0
 40
2.25
  0
ARC
  8
0
  6
LTYPE3
 62
     2
 10
179.0
 20
127.0
 30
0.0
 40
1.975
 50
328.025496594
 51
217.415803658
  0
LINE
  8
0
  6
LTYPE3
 62
     2
 10
180.568637944
 20
125.8
 30
0.0
 11
179.91147392
 21
124.850763076
 31
0.0
  0
LINE
  8
0
  6
LTYPE3
 62
     2
 10
177.431362056
 20
125.8
 30
0.0
 11
178.088529527
 21
124.850758098
 31
0.0
  0
ARC
  8
0
  6
LTYPE3
 62
     2
 10
176.444145143
 20
123.71233814
 30
0.0
 40
2.0
 50
10.612929601
 51
34.695153531
  0
ARC
  8
0
  6
LTYPE3
 62
     2
 10
181.555858303
 20
123.712343118
 30
0.0
 40
2.0
 50
145.304846469
 51
169.387402194
  0
LINE
  8
0
  6
LTYPE3
 62
     2
 10
179.590068544
 20
124.080678053
 30
0.0
 11
179.500002697
 21
123.6
 31
0.0
  0
LINE
  8
0
  6
LTYPE3
 62
     2
 10
178.409932769
 20
124.080684458
 30
0.0
 11
178.500002697
 21
123.6
 31
0.0
  0
CIRCLE
  8
0
  6
CONTINUOUS
 62
     2
 10
179.0
 20
127.0
 30
0.0
 40
2.25
  0
LINE
  8
0
  6
LTYPE3
 62
     2
 10
168.068637944
 20
125.8
 30
0.0
 11
167.41147392
 21
124.850763076
 31
0.0
  0
LINE
  8
0
  6
CONTINUOUS
 62
     2
 10
129.85
 20
124.3
 30
0.0
 11
130.087086346
 21
121.811267378
 31
0.0
  0
LINE
  8
0
  6
CONTINUOUS
 62
     2
 10
129.85
 20
124.3
 30
0.0
 11
131.299689109
 21
122.263237499
 31
0.0
  0
LINE
  8
0
  6
CONTINUOUS
 62
     1
 10
108.516735
 20
145.5
 30
0.0
 11
108.516735
 21
150.5
 31
0.0
  0
LINE
  8
0
  6
CONTINUOUS
 62
     1
 10
108.516735
 20
150.5
 30
0.0
 11
109.016735
 21
150.1066125
 31
0.0
  0
LINE
  8
0
  6
CONTINUOUS
 62
     1
 10
109.016735
 20
145.9733825
 30
0.0
 11
108.516735
 21
145.5
 31
0.0
  0
LINE
  8
0
  6
CONTINUOUS
 62
     1
 10
108.516735
 20
148.806645
 30
0.0
 11
104.25
 21
148.806645
 31
0.0
  0
LINE
  8
0
  6
CONTINUOUS
 62
     1
 10
104.25
 20
149.00664
 30
0.0
 11
108.516735
 21
149.00664
 31
0.0
  0
LINE
  8
0
  6
CONTINUOUS
 62
     1
 10
108.516735
 20
147.00669
 30
0.0
 11
104.25
 21
147.00669
 31
0.0
  0
LINE
  8
0
  6
CONTINUOUS
 62
     1
 10
104.25
 20
147.206685
 30
0.0
 11
108.516735
 21
147.206685
 31
0.0
  0
LINE
  8
0
  6
CONTINUOUS
 62
     1
 10
109.016735
 20
113.9733825
 30
0.0
 11
109.016735
 21
118.1066125
 31
0.0
  0
LINE
  8
0
  6
CONTINUOUS
 62
     1
 10
108.516735
 20
113.5
 30
0.0
 11
108.516735
 21
118.5
 31
0.0
  0
LINE
  8
0
  6
CONTINUOUS
 62
     1
 10
108.516735
 20
118.5
 30
0.0
 11
109.016735
 21
118.1066125
 31
0.0
  0
LINE
  8
0
  6
CONTINUOUS
 62
     1
 10
109.016735
 20
113.9733825
 30
0.0
 11
108.516735
 21
113.5
 31
0.0
  0
LINE
  8
0
  6
CONTINUOUS
 62
     1
 10
108.516735
 20
116.806645
 30
0.0
 11
104.25
 21
116.806645
 31
0.0
  0
LINE
  8
0
  6
CONTINUOUS
 62
     1
 10
104.25
 20
117.00664
 30
0.0
 11
108.516735
 21
117.00664
 31
0.0
  0
LINE
  8
0
  6
CONTINUOUS
 62
     1
 10
108.516735
 20
115.00669
 30
0.0
 11
104.25
 21
115.00669
 31
0.0
  0
LINE
  8
0
  6
CONTINUOUS
 62
     1
 10
104.25
 20
115.206685
 30
0.0
 11
108.516735
 21
115.206685
 31
0.0
  0
LINE
  8
0
  6
CONTINUOUS
 62
     2
 10
132.086363636
 20
118.3
 30
0.0
 11
151.65
 21
118.3
 31
0.0
  0
LINE
  8
0
  6
CONTINUOUS
 62
     2
 10
129.85
 20
124.3
 30
0.0
 11
132.086363636
 21
118.3
 31
0.0
  0
LINE
  8
0
  6
CONTINUOUS
 62
     2
 10
118.407142857
 20
97.65
 30
0.0
 11
136.05
 21
97.65
 31
0.0
  0
LINE
  8
0
  6
CONTINUOUS
 62
     2
 10
110.95
 20
115.05
 30
0.0
 11
118.407142857
 21
97.65
 31
0.0
  0
TEXT
  8
0
  6
CONTINUOUS
 62
     2
 10
233.6
 20
90.9
 30
0.3
 40
3.0
  1
端子キャップ付（オプション）
 50
0.0
 41
0.9
 51
0.0
  7
KANJI4
  0
LINE
  8
0
  6
LTYPE3
 62
     2
 10
124.85
 20
123.58331
 30
0.0
 11
127.35
 21
123.58331
 31
0.0
  0
LINE
  8
0
  6
LTYPE3
 62
     2
 10
127.35
 20
123.58331
 30
0.0
 11
127.35
 21
120.58331
 31
0.0
  0
LINE
  8
0
  6
LTYPE3
 62
     2
 10
124.85
 20
123.58331
 30
0.0
 11
124.85
 21
120.58331
 31
0.0
  0
LINE
  8
0
  6
LTYPE3
 62
     2
 10
125.75
 20
128.95831
 30
0.0
 11
125.75
 21
123.58331
 31
0.0
  0
LINE
  8
0
  6
LTYPE3
 62
     2
 10
125.35
 20
128.95831
 30
0.0
 11
125.75
 21
128.95831
 31
0.0
  0
LINE
  8
0
  6
LTYPE3
 62
     2
 10
125.35
 20
125.30831
 30
0.0
 11
125.35
 21
123.58331
 31
0.0
  0
LINE
  8
0
  6
CONTINUOUS
 62
     2
 10
123.25
 20
124.25
 30
0.0
 11
123.75
 21
124.5
 31
0.0
  0
LINE
  8
0
  6
CONTINUOUS
 62
     2
 10
123.75
 20
124.5
 30
0.0
 11
123.75
 21
129.5
 31
0.0
  0
LINE
  8
0
  6
CONTINUOUS
 62
     2
 10
123.75
 20
129.5
 30
0.0
 11
123.25
 21
129.75
 31
0.0
  0
LINE
  8
0
  6
CONTINUOUS
 62
     2
 10
124.7264835
 20
126.05
 30
0.0
 11
123.8764835
 21
126.05
 31
0.0
  0
LINE
  8
0
  6
CONTINUOUS
 62
     2
 10
123.8764835
 20
128.04995
 30
0.0
 11
124.7264835
 21
128.04995
 31
0.0
  0
LINE
  8
0
  6
CONTINUOUS
 62
     2
 10
125.0833
 20
125.0166925
 30
0.0
 11
125.34996
 21
125.2833525
 31
0.0
  0
LINE
  8
0
  6
CONTINUOUS
 62
     2
 10
125.0833
 20
125.0166925
 30
0.0
 11
123.75
 21
125.0166925
 31
0.0
  0
LINE
  8
0
  6
CONTINUOUS
 62
     2
 10
125.0833
 20
129.1499225
 30
0.0
 11
125.34996
 21
128.8832625
 31
0.0
  0
LINE
  8
0
  6
CONTINUOUS
 62
     2
 10
125.0499675
 20
128.04995
 30
0.0
 11
125.3166275
 21
128.31661
 31
0.0
  0
LINE
  8
0
  6
CONTINUOUS
 62
     2
 10
125.3166275
 20
127.78329
 30
0.0
 11
125.0499675
 21
128.04995
 31
0.0
  0
LINE
  8
0
  6
CONTINUOUS
 62
     2
 10
123.75
 20
128.04995
 30
0.0
 11
125.0499675
 21
128.04995
 31
0.0
  0
LINE
  8
0
  6
CONTINUOUS
 62
     2
 10
123.75
 20
129.1499225
 30
0.0
 11
125.0833
 21
129.1499225
 31
0.0
  0
LINE
  8
0
  6
CONTINUOUS
 62
     2
 10
125.34996
 20
128.8832625
 30
0.0
 11
125.34996
 21
125.2833525
 31
0.0
  0
LINE
  8
0
  6
CONTINUOUS
 62
     2
 10
125.0499675
 20
126.05
 30
0.0
 11
125.3166275
 21
126.31666
 31
0.0
  0
LINE
  8
0
  6
CONTINUOUS
 62
     2
 10
125.3166275
 20
125.78334
 30
0.0
 11
125.0499675
 21
126.05
 31
0.0
  0
LINE
  8
0
  6
CONTINUOUS
 62
     2
 10
123.75
 20
126.05
 30
0.0
 11
125.0499675
 21
126.05
 31
0.0
  0
LINE
  8
0
  6
CONTINUOUS
 62
     2
 10
123.75
 20
125.0166925
 30
0.0
 11
123.75
 21
129.1499225
 31
0.0
  0
LINE
  8
0
  6
CONTINUOUS
 62
     2
 10
125.74996
 20
129.396583
 30
0.0
 11
125.74996
 21
124.730033
 31
0.0
  0
LINE
  8
0
  6
CONTINUOUS
 62
     2
 10
129.15
 20
126.2699945
 30
0.0
 11
129.15
 21
126.0699995
 31
0.0
  0
LINE
  8
0
  6
CONTINUOUS
 62
     2
 10
129.15
 20
128.0832825
 30
0.0
 11
129.15
 21
126.2699945
 31
0.0
  0
LINE
  8
0
  6
CONTINUOUS
 62
     2
 10
128.2765185
 20
125.0166925
 30
0.0
 11
128.5431785
 21
125.2833525
 31
0.0
  0
LINE
  8
0
  6
CONTINUOUS
 62
     2
 10
128.2765185
 20
125.0166925
 30
0.0
 11
126.9432185
 21
125.0166925
 31
0.0
  0
LINE
  8
0
  6
CONTINUOUS
 62
     2
 10
128.243186
 20
126.05
 30
0.0
 11
128.509846
 21
126.31666
 31
0.0
  0
LINE
  8
0
  6
CONTINUOUS
 62
     2
 10
128.509846
 20
125.78334
 30
0.0
 11
128.243186
 21
126.05
 31
0.0
  0
LINE
  8
0
  6
CONTINUOUS
 62
     2
 10
126.9432185
 20
126.05
 30
0.0
 11
128.243186
 21
126.05
 31
0.0
  0
LINE
  8
0
  6
CONTINUOUS
 62
     2
 10
126.103272
 20
125.25002
 30
0.0
 11
126.569927
 21
125.25002
 31
0.0
  0
LINE
  8
0
  6
CONTINUOUS
 62
     2
 10
126.903252
 20
126.84998
 30
0.0
 11
126.489929
 21
126.84998
 31
0.0
  0
LINE
  8
0
  6
CONTINUOUS
 62
     2
 10
126.463263
 20
126.863313
 30
0.0
 11
126.103272
 21
125.25002
 31
0.0
  0
LINE
  8
0
  6
CONTINUOUS
 62
     2
 10
126.569927
 20
125.25002
 30
0.0
 11
126.903252
 21
126.84998
 31
0.0
  0
LINE
  8
0
  6
CONTINUOUS
 62
     2
 10
125.74996
 20
124.730033
 30
0.0
 11
126.083285
 21
124.730033
 31
0.0
  0
LINE
  8
0
  6
CONTINUOUS
 62
     2
 10
126.083285
 20
126.24995
 30
0.0
 11
126.333285
 21
126.24995
 31
0.0
  0
LINE
  8
0
  6
CONTINUOUS
 62
     2
 10
126.283285
 20
126.04995
 30
0.0
 11
126.083285
 21
126.04995
 31
0.0
  0
LINE
  8
0
  6
CONTINUOUS
 62
     2
 10
128.5431785
 20
126.249995
 30
0.0
 11
129.123334
 21
126.249995
 31
0.0
  0
LINE
  8
0
  6
CONTINUOUS
 62
     2
 10
128.5431785
 20
126.05
 30
0.0
 11
129.146735
 21
126.05
 31
0.0
  0
LINE
  8
0
  6
CONTINUOUS
 62
     2
 10
126.9432185
 20
126.05
 30
0.0
 11
126.7365895
 21
126.05
 31
0.0
  0
LINE
  8
0
  6
CONTINUOUS
 62
     2
 10
126.778255125
 20
126.249995
 30
0.0
 11
126.9432185
 21
126.249995
 31
0.0
  0
LINE
  8
0
  6
CONTINUOUS
 62
     2
 10
128.2765185
 20
129.1499225
 30
0.0
 11
128.5431785
 21
128.8832625
 31
0.0
  0
LINE
  8
0
  6
CONTINUOUS
 62
     2
 10
128.243186
 20
128.04995
 30
0.0
 11
128.509846
 21
128.31661
 31
0.0
  0
LINE
  8
0
  6
CONTINUOUS
 62
     2
 10
128.509846
 20
127.78329
 30
0.0
 11
128.243186
 21
128.04995
 31
0.0
  0
LINE
  8
0
  6
CONTINUOUS
 62
     2
 10
126.9432185
 20
128.04995
 30
0.0
 11
128.243186
 21
128.04995
 31
0.0
  0
LINE
  8
0
  6
CONTINUOUS
 62
     2
 10
126.9432185
 20
129.1499225
 30
0.0
 11
128.2765185
 21
129.1499225
 31
0.0
  0
LINE
  8
0
  6
CONTINUOUS
 62
     2
 10
126.476596
 20
128.84993
 30
0.0
 11
126.943251
 21
128.84993
 31
0.0
  0
LINE
  8
0
  6
CONTINUOUS
 62
     2
 10
126.943251
 20
128.84993
 30
0.0
 11
126.569927
 21
127.24997
 31
0.0
  0
LINE
  8
0
  6
CONTINUOUS
 62
     2
 10
126.103272
 20
127.24997
 30
0.0
 11
126.463263
 21
128.836597
 31
0.0
  0
LINE
  8
0
  6
CONTINUOUS
 62
     2
 10
126.569927
 20
127.24997
 30
0.0
 11
126.103272
 21
127.24997
 31
0.0
  0
LINE
  8
0
  6
CONTINUOUS
 62
     2
 10
126.083285
 20
128.04995
 30
0.0
 11
126.283285
 21
128.04995
 31
0.0
  0
LINE
  8
0
  6
CONTINUOUS
 62
     2
 10
126.233285
 20
127.84995
 30
0.0
 11
126.083285
 21
127.84995
 31
0.0
  0
LINE
  8
0
  6
CONTINUOUS
 62
     2
 10
128.5431785
 20
128.0832825
 30
0.0
 11
129.15
 21
128.0832825
 31
0.0
  0
LINE
  8
0
  6
CONTINUOUS
 62
     2
 10
129.123334
 20
127.849955
 30
0.0
 11
128.5431785
 21
127.849955
 31
0.0
  0
LINE
  8
0
  6
CONTINUOUS
 62
     2
 10
126.756589
 20
128.04995
 30
0.0
 11
126.9432185
 21
128.04995
 31
0.0
  0
LINE
  8
0
  6
CONTINUOUS
 62
     2
 10
126.9298855
 20
127.849955
 30
0.0
 11
126.7099235
 21
127.849955
 31
0.0
  0
LINE
  8
0
  6
CONTINUOUS
 62
     2
 10
126.083285
 20
129.396583
 30
0.0
 11
125.74996
 21
129.396583
 31
0.0
  0
LINE
  8
0
  6
CONTINUOUS
 62
     2
 10
126.9432185
 20
125.0166925
 30
0.0
 11
126.9432185
 21
129.1499225
 31
0.0
  0
LINE
  8
0
  6
CONTINUOUS
 62
     2
 10
128.5431785
 20
128.8832625
 30
0.0
 11
128.5431785
 21
125.2833525
 31
0.0
  0
LINE
  8
0
  6
CONTINUOUS
 62
     2
 10
126.083285
 20
124.730033
 30
0.0
 11
126.083285
 21
129.396583
 31
0.0
  0
CIRCLE
  8
0
  6
CONTINUOUS
 62
     2
 10
166.5
 20
127.0
 30
0.0
 40
0.8
  0
CIRCLE
  8
0
  6
CONTINUOUS
 62
     2
 10
166.5
 20
127.0
 30
0.0
 40
1.0
  0
LINE
  8
0
  6
CONTINUOUS
 62
     2
 10
164.746298557
 20
125.9875
 30
0.0
 11
166.5
 21
124.975
 31
0.0
  0
LINE
  8
0
  6
CONTINUOUS
 62
     2
 10
166.5
 20
124.975
 30
0.0
 11
168.253701443
 21
125.9875
 31
0.0
  0
LINE
  8
0
  6
CONTINUOUS
 62
     2
 10
168.253701443
 20
125.9875
 30
0.0
 11
168.253701443
 21
128.0125
 31
0.0
  0
LINE
  8
0
  6
CONTINUOUS
 62
     2
 10
164.746298557
 20
128.0125
 30
0.0
 11
164.746298557
 21
125.9875
 31
0.0
  0
LINE
  8
0
  6
CONTINUOUS
 62
     2
 10
166.5
 20
129.025
 30
0.0
 11
164.746298557
 21
128.0125
 31
0.0
  0
LINE
  8
0
  6
CONTINUOUS
 62
     2
 10
168.253701443
 20
128.0125
 30
0.0
 11
166.5
 21
129.025
 31
0.0
  0
LINE
  8
0
  6
CONTINUOUS
 62
     2
 10
177.246298557
 20
128.0125
 30
0.0
 11
177.246298557
 21
125.9875
 31
0.0
  0
CIRCLE
  8
0
  6
CONTINUOUS
 62
     2
 10
179.0
 20
127.0
 30
0.0
 40
0.8
  0
CIRCLE
  8
0
  6
CONTINUOUS
 62
     2
 10
179.0
 20
127.0
 30
0.0
 40
1.0
  0
LINE
  8
0
  6
CONTINUOUS
 62
     2
 10
179.0
 20
124.975
 30
0.0
 11
180.753701443
 21
125.9875
 31
0.0
  0
LINE
  8
0
  6
CONTINUOUS
 62
     2
 10
177.246298557
 20
125.9875
 30
0.0
 11
179.0
 21
124.975
 31
0.0
  0
LINE
  8
0
  6
CONTINUOUS
 62
     2
 10
179.0
 20
129.025
 30
0.0
 11
177.246298557
 21
128.0125
 31
0.0
  0
LINE
  8
0
  6
CONTINUOUS
 62
     2
 10
180.753701443
 20
128.0125
 30
0.0
 11
179.0
 21
129.025
 31
0.0
  0
LINE
  8
0
  6
CONTINUOUS
 62
     2
 10
180.753701443
 20
125.9875
 30
0.0
 11
180.753701443
 21
128.0125
 31
0.0
  0
LINE
  8
0
  6
CONTINUOUS
 62
     2
 10
127.75
 20
125.0
 30
0.0
 11
128.048358794
 21
122.517867443
 31
0.0
  0
LINE
  8
0
  6
CONTINUOUS
 62
     2
 10
127.75
 20
125.0
 30
0.0
 11
129.249452574
 21
122.999589547
 31
0.0
  0
LINE
  8
0
  6
CONTINUOUS
 62
     2
 10
127.75
 20
125.0
 30
0.0
 11
136.232620321
 21
103.85
 31
0.0
  0
LINE
  8
0
  6
CONTINUOUS
 62
     2
 10
108.407142857
 20
113.45
 30
0.0
 11
108.825857004
 21
110.985313719
 31
0.0
  0
LINE
  8
0
  6
CONTINUOUS
 62
     2
 10
108.407142857
 20
113.45
 30
0.0
 11
110.002103086
 21
111.524876142
 31
0.0
  0
LINE
  8
0
  6
CONTINUOUS
 62
     2
 10
108.407142857
 20
113.45
 30
0.0
 11
118.407142857
 21
91.65
 31
0.0
  0
TEXT
  8
0
  6
CONTINUOUS
 62
     2
 10
20.177
 20
130.05
 30
0.3
 40
3.0
  1
８０
 50
90.0
 41
0.6
 51
0.0
  7
KANJI1
  0
TEXT
  8
0
  6
CONTINUOUS
 62
     2
 10
52.05
 20
162.663
 30
0.3
 40
3.0
  1
８０
 50
0.0
 41
0.6
 51
0.0
  7
KANJI1
  0
LINE
  8
0
  6
LTYPE1
 62
     2
 10
54.0
 20
161.663
 30
0.0
 11
54.0
 21
91.0
 31
0.0
  0
LINE
  8
0
  6
CONTINUOUS
 62
     2
 10
34.0
 20
161.663
 30
0.0
 11
35.931851653
 21
161.14536191
 31
0.0
  0
LINE
  8
0
  6
CONTINUOUS
 62
     2
 10
34.0
 20
161.663
 30
0.0
 11
35.931851653
 21
162.18063809
 31
0.0
  0
LINE
  8
0
  6
CONTINUOUS
 62
     2
 10
34.0
 20
152.0
 30
0.0
 11
34.0
 21
163.663
 31
0.0
  0
LINE
  8
0
  6
CONTINUOUS
 62
     2
 10
74.0
 20
161.663
 30
0.0
 11
72.068148347
 21
162.18063809
 31
0.0
  0
LINE
  8
0
  6
CONTINUOUS
 62
     2
 10
74.0
 20
161.663
 30
0.0
 11
72.068148347
 21
161.14536191
 31
0.0
  0
LINE
  8
0
  6
CONTINUOUS
 62
     2
 10
74.0
 20
152.0
 30
0.0
 11
74.0
 21
163.663
 31
0.0
  0
LINE
  8
0
  6
CONTINUOUS
 62
     2
 10
34.0
 20
161.663
 30
0.0
 11
74.0
 21
161.663
 31
0.0
  0
LINE
  8
0
  6
CONTINUOUS
 62
     2
 10
21.177
 20
152.0
 30
0.0
 11
20.65936191
 21
150.068148347
 31
0.0
  0
LINE
  8
0
  6
CONTINUOUS
 62
     2
 10
21.177
 20
152.0
 30
0.0
 11
21.69463809
 21
150.068148347
 31
0.0
  0
LINE
  8
0
  6
CONTINUOUS
 62
     2
 10
34.0
 20
152.0
 30
0.0
 11
19.177
 21
152.0
 31
0.0
  0
LINE
  8
0
  6
CONTINUOUS
 62
     2
 10
34.0
 20
112.0
 30
0.0
 11
19.177
 21
112.0
 31
0.0
  0
LINE
  8
0
  6
CONTINUOUS
 62
     2
 10
21.177
 20
112.0
 30
0.0
 11
21.69463809
 21
113.931851653
 31
0.0
  0
LINE
  8
0
  6
CONTINUOUS
 62
     2
 10
21.177
 20
112.0
 30
0.0
 11
20.65936191
 21
113.931851653
 31
0.0
  0
LINE
  8
0
  6
CONTINUOUS
 62
     2
 10
21.177
 20
112.0
 30
0.0
 11
21.177
 21
152.0
 31
0.0
  0
LINE
  8
0
  6
CONTINUOUS
 62
     2
 10
166.502
 20
120.751
 30
0.0
 11
166.728830453
 21
118.763904646
 31
0.0
  0
LINE
  8
0
  6
CONTINUOUS
 62
     2
 10
166.502
 20
120.751
 30
0.0
 11
174.516
 21
100.419
 31
0.0
  0
LINE
  8
0
  6
CONTINUOUS
 62
     2
 10
166.502
 20
120.751
 30
0.0
 11
167.691988612
 21
119.143540171
 31
0.0
  0
LINE
  8
0
  6
CONTINUOUS
 62
     2
 10
136.05
 20
97.65
 30
0.0
 11
140.934
 21
97.65
 31
0.0
  0
LINE
  8
0
  6
CONTINUOUS
 62
     2
 10
63.75
 20
99.4
 30
0.0
 11
87.4
 21
99.4
 31
0.0
  0
LINE
  8
0
  6
CONTINUOUS
 62
     2
 10
174.516
 20
100.419
 30
0.0
 11
211.7
 21
100.419
 31
0.0
  0
TEXT
  8
0
  6
CONTINUOUS
 62
     2
 10
28.95
 20
100.45
 30
3.0
 40
3.0
  1
指針
 50
0.0
 41
0.833333333
 51
0.0
  7
KANJI5
  0
TEXT
  8
0
  6
CONTINUOUS
 62
     2
 10
63.75
 20
100.4
 30
0.3
 40
3.0
  1
機械的零位調整器
 50
0.0
 41
0.833333333
 51
0.0
  7
KANJI6
  0
TEXT
  8
0
  6
CONTINUOUS
 62
     2
 10
174.516
 20
101.419
 30
0.3
 40
3.0
  1
直流計器のみ＋記号を表示
 50
0.0
 41
0.833333333
 51
0.0
  7
KANJI6
  0
TEXT
  8
0
  6
CONTINUOUS
 62
     2
 10
133.95
 20
119.3
 30
0.3
 40
3.0
  1
端子キャップ
 50
0.0
 41
0.833333333
 51
0.0
  7
KANJI6
  0
TEXT
  8
0
  6
CONTINUOUS
 62
     2
 10
137.95
 20
104.85
 30
0.3
 40
3.0
  1
Ｍ４ターミナルネジ
 50
0.0
 41
0.833333333
 51
0.0
  7
KANJI6
  0
TEXT
  8
0
  6
CONTINUOUS
 62
     2
 10
118.55
 20
98.65
 30
0.3
 40
3.0
  1
４－Ｍ４取付ボルト
 50
0.0
 41
0.833333333
 51
0.0
  7
KANJI6
  0
TEXT
  8
0
  6
CONTINUOUS
 62
     2
 10
119.407142857
 20
92.65
 30
0.3
 40
3.0
  1
フランジ付六角ナット
 50
0.0
 41
0.833333333
 51
0.0
  7
KANJI6
  0
CIRCLE
  8
0
  6
CONTINUOUS
 62
     2
 10
172.75
 20
142.0
 30
0.0
 40
1.5
  0
LINE
  8
0
  6
CONTINUOUS
 62
     2
 10
173.885529229
 20
142.98008845
 30
0.0
 11
175.808987676
 21
144.577056704
 31
0.0
  0
LINE
  8
0
  6
CONTINUOUS
 62
     2
 10
173.885529229
 20
142.98008845
 30
0.0
 11
174.75280898
 21
145.32483275
 31
0.0
  0
LINE
  8
0
  6
CONTINUOUS
 62
     2
 10
173.885529229
 20
142.98008845
 30
0.0
 11
181.707529229
 21
154.02808845
 31
0.0
  0
LINE
  8
0
  6
CONTINUOUS
 62
     2
 10
181.707529229
 20
154.02808845
 30
0.0
 11
208.407529229
 21
154.02808845
 31
0.0
  0
TEXT
  8
0
  6
CONTINUOUS
 62
     2
 10
181.707529229
 20
155.02808845
 30
0.3
 40
3.0
  1
※感度調整用抵抗器
 50
0.0
 41
0.9
 51
0.0
  7
KANJI4
  0
TEXT
  8
0
  6
CONTINUOUS
 62
     2
 10
18.098
 20
64.387
 30
0.3
 40
3.0
  1
項
 50
0.0
 41
0.9
 51
0.0
  7
KANJI4
  0
TEXT
  8
0
  6
CONTINUOUS
 62
     2
 10
18.098
 20
59.387
 30
0.3
 40
3.0
  1
１
 50
0.0
 41
0.9
 51
0.0
  7
KANJI4
  0
TEXT
  8
0
  6
CONTINUOUS
 62
     2
 10
18.098
 20
54.387
 30
0.3
 40
3.0
  1
２
 50
0.0
 41
0.9
 51
0.0
  7
KANJI4
  0
TEXT
  8
0
  6
CONTINUOUS
 62
     2
 10
18.098
 20
49.387
 30
0.3
 40
3.0
  1
３
 50
0.0
 41
0.9
 51
0.0
  7
KANJI4
  0
TEXT
  8
0
  6
CONTINUOUS
 62
     2
 10
27.098
 20
64.387
 30
1.0
 40
3.0
  1
計器形名
 50
0.0
 41
0.9
 51
0.0
  7
KANJI7
  0
TEXT
  8
0
  6
CONTINUOUS
 62
     2
 10
27.098
 20
55.887
 30
0.5
 40
3.0
  1
Ｓ
 50
0.0
 41
0.45
 51
0.0
  7
KANJI8
  0
TEXT
  8
0
  6
CONTINUOUS
 62
     2
 10
27.098
 20
53.387
 30
0.5
 40
3.0
  1
Ｃ
 50
0.0
 41
0.45
 51
0.0
  7
KANJI8
  0
LINE
  8
0
  6
CONTINUOUS
 62
     2
 10
26.512213562
 20
58.387
 30
0.0
 11
17.098
 21
58.387
 31
0.0
  0
LINE
  8
0
  6
LTYPE1
 62
     2
 10
156.75
 20
46.0
 30
0.0
 11
156.75
 21
56.0
 31
0.0
  0
LINE
  8
0
  6
CONTINUOUS
 62
     2
 10
155.667468245
 20
50.875
 30
0.0
 11
154.274302501
 21
48.799165419
 31
0.0
  0
LINE
  8
0
  6
CONTINUOUS
 62
     2
 10
155.667468245
 20
50.875
 30
0.0
 11
155.498868609
 21
48.380691646
 31
0.0
  0
LINE
  8
0
  6
CONTINUOUS
 62
     2
 10
155.667468245
 20
50.875
 30
0.0
 11
151.978468245
 21
40.08
 31
0.0
  0
TEXT
  8
0
  6
CONTINUOUS
 62
     2
 10
137.353468245
 20
41.08
 30
0.3
 40
3.0
  1
４－φ５穴
 50
0.0
 41
0.833333333
 51
0.0
  7
KANJI6
  0
LINE
  8
0
  6
CONTINUOUS
 62
     2
 10
151.978468245
 20
40.08
 30
0.0
 11
136.040468245
 21
40.08
 31
0.0
  0
TEXT
  8
0
  6
CONTINUOUS
 62
     2
 10
27.098
 20
59.387
 30
0.5
 40
3.0
  1
ＤＶＦ－８
 50
0.0
 41
0.9
 51
0.0
  7
KANJI9
  0
TEXT
  8
0
  6
CONTINUOUS
 62
     2
 10
30.398
 20
54.387
 30
0.5
 40
3.0
  1
ＶＦ－８
 50
0.0
 41
0.9
 51
0.0
  7
KANJI9
  0
TEXT
  8
0
  6
CONTINUOUS
 62
     2
 10
27.298
 20
49.387
 30
0.5
 40
3.0
  1
ＳｅＶＦ－８
 50
0.0
 41
0.9
 51
0.0
  7
KANJI9
  0
TEXT
  8
0
  6
CONTINUOUS
 62
     2
 10
27.298
 20
40.887
 30
0.5
 40
3.0
  1
Ｓ
 50
0.0
 41
0.45
 51
0.0
  7
KANJI8
  0
TEXT
  8
0
  6
CONTINUOUS
 62
     2
 10
27.298
 20
38.387
 30
0.5
 40
3.0
  1
Ｃ　
 50
0.0
 41
0.45
 51
0.0
  7
KANJI8
  0
LINE
  8
0
  6
CONTINUOUS
 62
     2
 10
17.098
 20
43.387
 30
0.0
 11
26.762213562
 21
43.387
 31
0.0
  0
LINE
  8
0
  6
CONTINUOUS
 62
     2
 10
17.098
 20
38.387
 30
0.0
 11
17.098
 21
68.387
 31
0.0
  0
LINE
  8
0
  6
CONTINUOUS
 62
     2
 10
22.098
 20
38.387
 30
0.0
 11
22.098
 21
68.387
 31
0.0
  0
TEXT
  8
0
  6
CONTINUOUS
 62
     2
 10
18.098
 20
44.387
 30
0.3
 40
3.0
  1
４
 50
0.0
 41
0.9
 51
0.0
  7
KANJI4
  0
TEXT
  8
0
  6
CONTINUOUS
 62
     2
 10
18.098
 20
39.387
 30
0.3
 40
3.0
  1
５
 50
0.0
 41
0.9
 51
0.0
  7
KANJI4
  0
TEXT
  8
0
  6
CONTINUOUS
 62
     2
 10
50.425
 20
64.387
 30
1.0
 40
3.0
  1
動作原理
 50
0.0
 41
0.9
 51
0.0
  7
KANJI7
  0
TEXT
  8
0
  6
CONTINUOUS
 62
     2
 10
50.425
 20
54.387
 30
0.5
 40
3.0
  1
整流形
 50
0.0
 41
0.9
 51
0.0
  7
KANJI9
  0
TEXT
  8
0
  6
CONTINUOUS
 62
     2
 10
50.425
 20
59.387
 30
0.5
 40
3.0
  1
永久磁石可動コイル形
 50
0.0
 41
0.666666667
 51
0.0
  7
KANJI10
  0
TEXT
  8
0
  6
CONTINUOUS
 62
     2
 10
50.425
 20
49.387
 30
0.5
 40
3.0
  1
電子テ゛ハ゛イス形
 50
0.0
 41
0.666666667
 51
0.0
  7
KANJI10
  0
LINE
  8
0
  6
CONTINUOUS
 62
     2
 10
75.425
 20
68.437
 30
0.0
 11
75.425
 21
68.387
 31
0.0
  0
TEXT
  8
0
  6
CONTINUOUS
 62
     2
 10
49.925
 20
39.387
 30
0.5
 40
3.0
  1
整流形
 50
0.0
 41
0.9
 51
0.0
  7
KANJI9
  0
TEXT
  8
0
  6
CONTINUOUS
 62
     2
 10
49.925
 20
44.387
 30
0.5
 40
3.0
  1
永久磁石可動コイル形
 50
0.0
 41
0.9
 51
0.0
  7
KANJI9
  0
TEXT
  8
0
  6
CONTINUOUS
 62
     2
 10
85.219
 20
64.387
 30
1.0
 40
3.0
  1
感度調整用抵抗器
 50
0.0
 41
0.9
 51
0.0
  7
KANJI7
  0
LINE
  8
0
  6
CONTINUOUS
 62
     2
 10
84.219
 20
68.387
 30
0.0
 11
114.219
 21
68.387
 31
0.0
  0
LINE
  8
0
  6
CONTINUOUS
 62
     2
 10
84.219
 20
63.387
 30
0.0
 11
114.219
 21
63.387
 31
0.0
  0
LINE
  8
0
  6
CONTINUOUS
 62
     2
 10
114.219
 20
38.387
 30
0.0
 11
84.219
 21
38.387
 31
0.0
  0
TEXT
  8
0
  6
CONTINUOUS
 62
     2
 10
85.219
 20
44.387
 30
1.0
 40
3.0
  1
上図※印の位置に
 50
0.0
 41
0.9
 51
0.0
  7
KANJI7
  0
TEXT
  8
0
  6
CONTINUOUS
 62
     2
 10
85.219
 20
39.387
 30
1.0
 40
3.0
  1
内蔵しています
 50
0.0
 41
0.9
 51
0.0
  7
KANJI7
  0
LINE
  8
0
  6
CONTINUOUS
 62
     2
 10
114.219
 20
38.387
 30
0.0
 11
84.219
 21
38.387
 31
0.0
  0
LINE
  8
0
  6
CONTINUOUS
 62
     2
 10
84.219
 20
48.387
 30
0.0
 11
114.219
 21
48.387
 31
0.0
  0
LINE
  8
0
  6
CONTINUOUS
 62
     2
 10
114.219
 20
63.387
 30
0.0
 11
84.219
 21
48.387
 31
0.0
  0
LINE
  8
0
  6
CONTINUOUS
 62
     2
 10
114.219
 20
68.387
 30
0.0
 11
114.219
 21
38.387
 31
0.0
  0
LINE
  8
0
  6
CONTINUOUS
 62
     2
 10
17.098
 20
68.387
 30
0.0
 11
84.219
 21
68.387
 31
0.0
  0
LINE
  8
0
  6
CONTINUOUS
 62
     2
 10
17.098
 20
53.387
 30
0.0
 11
84.219
 21
53.387
 31
0.0
  0
LINE
  8
0
  6
CONTINUOUS
 62
     2
 10
84.219
 20
48.387
 30
0.0
 11
17.098
 21
48.387
 31
0.0
  0
LINE
  8
0
  6
CONTINUOUS
 62
     2
 10
84.219
 20
58.387
 30
0.0
 11
28.512213562
 21
58.387
 31
0.0
  0
LINE
  8
0
  6
CONTINUOUS
 62
     2
 10
17.098
 20
63.387
 30
0.0
 11
84.219
 21
63.387
 31
0.0
  0
LINE
  8
0
  6
CONTINUOUS
 62
     2
 10
84.219
 20
38.387
 30
0.0
 11
17.098
 21
38.387
 31
0.0
  0
LINE
  8
0
  6
CONTINUOUS
 62
     2
 10
84.219
 20
48.387
 30
0.0
 11
17.098
 21
48.387
 31
0.0
  0
LINE
  8
0
  6
CONTINUOUS
 62
     2
 10
28.862213562
 20
43.387
 30
0.0
 11
84.219
 21
43.387
 31
0.0
  0
TEXT
  8
0
  6
CONTINUOUS
 62
     2
 10
27.298
 20
44.387
 30
0.5
 40
3.0
  1
ＤＶＦ－８Ｖ
 50
0.0
 41
0.9
 51
0.0
  7
KANJI9
  0
TEXT
  8
0
  6
CONTINUOUS
 62
     2
 10
30.298
 20
39.387
 30
0.5
 40
3.0
  1
ＶＦ－８Ｖ
 50
0.0
 41
0.9
 51
0.0
  7
KANJI9
  0
LINE
  8
0
  6
CONTINUOUS
 62
     2
 10
46.725
 20
68.387
 30
0.0
 11
46.725
 21
38.387
 31
0.0
  0
TEXT
  8
0
  6
CONTINUOUS
 62
     2
 10
18.098
 20
34.387
 30
0.3
 40
3.0
  1
６
 50
0.0
 41
0.9
 51
0.0
  7
KANJI4
  0
LINE
  8
0
  6
CONTINUOUS
 62
     2
 10
114.219
 20
28.387
 30
0.0
 11
17.098
 21
28.387
 31
0.0
  0
LINE
  8
0
  6
CONTINUOUS
 62
     2
 10
17.098
 20
23.387
 30
0.0
 11
114.219
 21
23.387
 31
0.0
  0
TEXT
  8
0
  6
CONTINUOUS
 62
     2
 10
18.098
 20
29.387
 30
0.3
 40
3.0
  1
７
 50
0.0
 41
0.9
 51
0.0
  7
KANJI4
  0
TEXT
  8
0
  6
CONTINUOUS
 62
     2
 10
18.098
 20
24.387
 30
0.3
 40
3.0
  1
８
 50
0.0
 41
0.9
 51
0.0
  7
KANJI4
  0
TEXT
  8
0
  6
CONTINUOUS
 62
     2
 10
50.425
 20
34.387
 30
0.5
 40
3.0
  1
電子テ゛ハ゛イス形
 50
0.0
 41
0.666666667
 51
0.0
  7
KANJI10
  0
TEXT
  8
0
  6
CONTINUOUS
 62
     2
 10
27.298
 20
34.387
 30
0.5
 40
3.0
  1
ＥＶＦ－８
 50
0.0
 41
0.9
 51
0.0
  7
KANJI9
  0
TEXT
  8
0
  6
CONTINUOUS
 62
     2
 10
50.425
 20
29.387
 30
0.5
 40
3.0
  1
電子テ゛ハ゛イス形
 50
0.0
 41
0.666666667
 51
0.0
  7
KANJI10
  0
TEXT
  8
0
  6
CONTINUOUS
 62
     2
 10
27.298
 20
29.387
 30
0.5
 40
3.0
  1
ＲＶＦ－８
 50
0.0
 41
0.9
 51
0.0
  7
KANJI9
  0
LINE
  8
0
  6
CONTINUOUS
 62
     2
 10
114.219
 20
38.387
 30
0.0
 11
84.219
 21
28.387
 31
0.0
  0
LINE
  8
0
  6
CONTINUOUS
 62
     2
 10
17.098
 20
33.387
 30
0.0
 11
84.219
 21
33.387
 31
0.0
  0
LINE
  8
0
  6
CONTINUOUS
 62
     2
 10
17.098
 20
18.387
 30
0.0
 11
114.219
 21
18.387
 31
0.0
  0
LINE
  8
0
  6
CONTINUOUS
 62
     2
 10
17.098
 20
38.387
 30
0.0
 11
17.098
 21
18.387
 31
0.0
  0
LINE
  8
0
  6
CONTINUOUS
 62
     2
 10
22.098
 20
38.387
 30
0.0
 11
22.098
 21
18.387
 31
0.0
  0
LINE
  8
0
  6
CONTINUOUS
 62
     2
 10
46.725
 20
38.387
 30
0.0
 11
46.725
 21
18.387
 31
0.0
  0
LINE
  8
0
  6
CONTINUOUS
 62
     2
 10
84.219
 20
68.387
 30
0.0
 11
84.219
 21
18.187
 31
0.0
  0
LINE
  8
0
  6
CONTINUOUS
 62
     2
 10
114.219
 20
38.387
 30
0.0
 11
114.219
 21
18.387
 31
0.0
  0
TEXT
  8
0
  6
CONTINUOUS
 62
     2
 10
18.098
 20
19.387
 30
0.3
 40
3.0
  1
９
 50
0.0
 41
0.9
 51
0.0
  7
KANJI4
  0
TEXT
  8
0
  6
CONTINUOUS
 62
     2
 10
50.425
 20
24.387
 30
0.5
 40
3.0
  1
電子テ゛ハ゛イス形
 50
0.0
 41
0.666666667
 51
0.0
  7
KANJI10
  0
TEXT
  8
0
  6
CONTINUOUS
 62
     2
 10
50.425
 20
19.387
 30
0.5
 40
3.0
  1
電子テ゛ハ゛イス形
 50
0.0
 41
0.666666667
 51
0.0
  7
KANJI10
  0
TEXT
  8
0
  6
CONTINUOUS
 62
     2
 10
27.298
 20
24.387
 30
0.5
 40
3.0
  1
ＵＶＦ－８
 50
0.0
 41
0.9
 51
0.0
  7
KANJI9
  0
TEXT
  8
0
  6
CONTINUOUS
 62
     2
 10
27.298
 20
19.387
 30
0.5
 40
3.0
  1
ＵｕＶＦ－８
 50
0.0
 41
0.9
 51
0.0
  7
KANJI9
  0
LINE
  8
0
  6
CONTINUOUS
 62
     2
 10
84.219
 20
18.187
 30
0.0
 11
114.219
 21
28.387
 31
0.0
  0
TEXT
  8
0
  6
CONTINUOUS
 62
     6
 10
231.0
 20
99.4
 30
1.0
 40
5.0
  1
□ＶＦ－８（Ｖ）
 50
0.0
 41
0.9
 51
0.0
  7
KANJI11
  0
TEXT
  8
0
  6
CONTINUOUS
 62
     3
 10
225.389
 20
69.897
 30
0.2
 40
5.8
  1
ＭＳ－７１８２Ｂ
 50
0.0
 41
0.827586207
 51
0.0
  7
KANJI12
  0
TEXT
  8
0
  6
CONTINUOUS
 62
     2
 10
132.95
 20
123.5
 30
0.3
 40
3.0
  1
（オプション）
 50
0.0
 41
0.833333333
 51
0.0
  7
KANJI6
  0
LINE
  8
0
  6
CONTINUOUS
 62
     2
 10
118.407142857
 20
91.65
 30
0.0
 11
147.307142857
 21
91.65
 31
0.0
  0
LINE
  8
0
  6
CONTINUOUS
 62
     2
 10
136.232620321
 20
103.85
 30
0.0
 11
165.45
 21
103.85
 31
0.0
  0
LINE
  8
0
  6
LTYPE1
 62
     2
 10
21.177
 20
132.0
 30
0.0
 11
78.45
 21
132.0
 31
0.0
  0
LINE
  8
0
  6
LTYPE1
 62
     2
 10
89.45
 20
132.0
 30
0.0
 11
108.45
 21
132.0
 31
0.0
  0
LINE
  8
0
  6
LTYPE1
 62
     2
 10
149.45
 20
132.0
 30
0.0
 11
199.75
 21
132.0
 31
0.0
  0
LINE
  8
0
  6
LTYPE1
 62
     2
 10
117.45
 20
132.0
 30
0.0
 11
137.45
 21
132.0
 31
0.0
  0
LINE
  8
0
  6
LTYPE1
 62
     2
 10
172.75
 20
131.85
 30
0.0
 11
172.75
 21
41.5
 31
0.0
  0
LINE
  8
0
  6
LTYPE1
 62
     2
 10
172.75
 20
156.5
 30
0.0
 11
172.75
 21
145.85
 31
0.0
  0
TEXT
  8
0
  6
CONTINUOUS
 62
     2
 10
170.8
 20
137.0
 30
0.3
 40
3.0
  1
２５
 50
0.0
 41
0.6
 51
0.0
  7
KANJI1
  0
TEXT
  8
0
  6
CONTINUOUS
 62
     2
 10
179.989748328
 20
69.568477815
 30
0.18
 40
1.8
  1
±１
 50
12.688467247
 41
0.6
 51
0.0
  7
KANJI2
  0
TEXT
  8
0
  6
CONTINUOUS
 62
     2
 10
176.036275673
 20
68.750578776
 30
0.3
 40
3.0
  1
６７
 50
12.688467247
 41
0.6
 51
0.0
  7
KANJI1
  0
ENDSEC
  0
EOF
