  0
SECTION
  2
HEADER
  9
$ACADVER
  1
AC1009
  9
$DWGCODEPAGE
  3
dos932
  9
$EXTMIN
 10
0.0
 20
0.0
 30
0.0
  9
$EXTMAX
 10
297.0
 20
210.0
 30
0.0
  9
$LIMMIN
 10
0.0
 20
0.0
  9
$LIMMAX
 10
297.0
 20
210.0
  9
$LTSCALE
 40
1.0
  9
$PDMODE
 70
     0
  0
ENDSEC
  0
SECTION
  2
TABLES
  0
TABLE
  2
VPORT
 70
     1
  0
VPORT
  2
*ACTIVE
 70
     0
 10
0.0
 20
0.0
 11
1.0
 21
1.0
 12
148.5
 22
105.0
 13
0.0
 23
0.0
 14
10.0
 24
10.0
 15
10.0
 25
10.0
 16
0.0
 26
0.0
 36
1.0
 17
0.0
 27
0.0
 37
0.0
 40
297.0
 41
1.414285714
 42
50.0
 43
0.0
 44
0.0
 50
0.0
 51
0.0
 71
     0
 72
  1000
 73
     1
 74
     3
 75
     0
 76
     0
 77
     0
 78
     0
  0
ENDTAB
  0
TABLE
  2
LTYPE
 70
     5
  0
LTYPE
  2
CONTINUOUS
 70
    64
  3
Solid line
 72
    65
 73
     0
 40
0.0
  0
LTYPE
  2
LTYPE1
 70
    64
  3
CENTER
 72
    65
 73
     4
 40
5.0
 49
3.5
 49
-0.5
 49
0.5
 49
-0.5
  0
LTYPE
  2
LTYPE2
 70
    64
  3
CENTER
 72
    65
 73
     4
 40
8.0
 49
5.6
 49
-0.8
 49
0.8
 49
-0.8
  0
LTYPE
  2
LTYPE3
 70
    64
  3
CENTER
 72
    65
 73
     4
 40
15.0
 49
10.5
 49
-1.5
 49
1.5
 49
-1.5
  0
LTYPE
  2
LTYPE4
 70
    64
  3
HIDDEN
 72
    65
 73
     2
 40
1.5
 49
0.9
 49
-0.6
  0
ENDTAB
  0
TABLE
  2
LAYER
 70
   128
  0
LAYER
  2
0
 70
     0
 62
     7
  6
CONTINUOUS
  0
LAYER
  2
2
 70
     0
 62
     7
  6
CONTINUOUS
  0
LAYER
  2
3
 70
     0
 62
     7
  6
CONTINUOUS
  0
LAYER
  2
4
 70
     0
 62
     7
  6
CONTINUOUS
  0
LAYER
  2
5
 70
     0
 62
     7
  6
CONTINUOUS
  0
LAYER
  2
6
 70
     0
 62
     7
  6
CONTINUOUS
  0
LAYER
  2
7
 70
     0
 62
     7
  6
CONTINUOUS
  0
LAYER
  2
8
 70
     0
 62
     7
  6
CONTINUOUS
  0
LAYER
  2
9
 70
     0
 62
     7
  6
CONTINUOUS
  0
LAYER
  2
10
 70
     0
 62
     7
  6
CONTINUOUS
  0
LAYER
  2
11
 70
     0
 62
     7
  6
CONTINUOUS
  0
LAYER
  2
12
 70
     0
 62
     7
  6
CONTINUOUS
  0
LAYER
  2
13
 70
     0
 62
     7
  6
CONTINUOUS
  0
LAYER
  2
14
 70
     0
 62
     7
  6
CONTINUOUS
  0
LAYER
  2
15
 70
     0
 62
     7
  6
CONTINUOUS
  0
LAYER
  2
16
 70
     0
 62
     7
  6
CONTINUOUS
  0
LAYER
  2
17
 70
     0
 62
     7
  6
CONTINUOUS
  0
LAYER
  2
18
 70
     0
 62
     7
  6
CONTINUOUS
  0
LAYER
  2
19
 70
     0
 62
     7
  6
CONTINUOUS
  0
LAYER
  2
20
 70
     0
 62
     7
  6
CONTINUOUS
  0
LAYER
  2
21
 70
     0
 62
     7
  6
CONTINUOUS
  0
LAYER
  2
22
 70
     0
 62
     7
  6
CONTINUOUS
  0
LAYER
  2
23
 70
     0
 62
     7
  6
CONTINUOUS
  0
LAYER
  2
24
 70
     0
 62
     7
  6
CONTINUOUS
  0
LAYER
  2
25
 70
     0
 62
     7
  6
CONTINUOUS
  0
LAYER
  2
26
 70
     0
 62
     7
  6
CONTINUOUS
  0
LAYER
  2
27
 70
     0
 62
     7
  6
CONTINUOUS
  0
LAYER
  2
28
 70
     0
 62
     7
  6
CONTINUOUS
  0
LAYER
  2
29
 70
     0
 62
     7
  6
CONTINUOUS
  0
LAYER
  2
30
 70
     0
 62
     7
  6
CONTINUOUS
  0
LAYER
  2
31
 70
     0
 62
     7
  6
CONTINUOUS
  0
LAYER
  2
32
 70
     0
 62
     7
  6
CONTINUOUS
  0
LAYER
  2
33
 70
     0
 62
     7
  6
CONTINUOUS
  0
LAYER
  2
34
 70
     0
 62
     7
  6
CONTINUOUS
  0
LAYER
  2
35
 70
     0
 62
     7
  6
CONTINUOUS
  0
LAYER
  2
36
 70
     0
 62
     7
  6
CONTINUOUS
  0
LAYER
  2
37
 70
     0
 62
     7
  6
CONTINUOUS
  0
LAYER
  2
38
 70
     0
 62
     7
  6
CONTINUOUS
  0
LAYER
  2
39
 70
     0
 62
     7
  6
CONTINUOUS
  0
LAYER
  2
40
 70
     0
 62
     7
  6
CONTINUOUS
  0
LAYER
  2
41
 70
     0
 62
     7
  6
CONTINUOUS
  0
LAYER
  2
42
 70
     0
 62
     7
  6
CONTINUOUS
  0
LAYER
  2
43
 70
     0
 62
     7
  6
CONTINUOUS
  0
LAYER
  2
44
 70
     0
 62
     7
  6
CONTINUOUS
  0
LAYER
  2
45
 70
     0
 62
     7
  6
CONTINUOUS
  0
LAYER
  2
46
 70
     0
 62
     7
  6
CONTINUOUS
  0
LAYER
  2
47
 70
     0
 62
     7
  6
CONTINUOUS
  0
LAYER
  2
48
 70
     0
 62
     7
  6
CONTINUOUS
  0
LAYER
  2
49
 70
     0
 62
     7
  6
CONTINUOUS
  0
LAYER
  2
50
 70
     0
 62
     7
  6
CONTINUOUS
  0
LAYER
  2
51
 70
     0
 62
     7
  6
CONTINUOUS
  0
LAYER
  2
52
 70
     0
 62
     7
  6
CONTINUOUS
  0
LAYER
  2
53
 70
     0
 62
     7
  6
CONTINUOUS
  0
LAYER
  2
54
 70
     0
 62
     7
  6
CONTINUOUS
  0
LAYER
  2
55
 70
     0
 62
     7
  6
CONTINUOUS
  0
LAYER
  2
56
 70
     0
 62
     7
  6
CONTINUOUS
  0
LAYER
  2
57
 70
     0
 62
     7
  6
CONTINUOUS
  0
LAYER
  2
58
 70
     0
 62
     7
  6
CONTINUOUS
  0
LAYER
  2
59
 70
     0
 62
     7
  6
CONTINUOUS
  0
LAYER
  2
60
 70
     0
 62
     7
  6
CONTINUOUS
  0
LAYER
  2
61
 70
     0
 62
     7
  6
CONTINUOUS
  0
LAYER
  2
62
 70
     0
 62
     7
  6
CONTINUOUS
  0
LAYER
  2
63
 70
     0
 62
     7
  6
CONTINUOUS
  0
LAYER
  2
64
 70
     0
 62
     7
  6
CONTINUOUS
  0
LAYER
  2
65
 70
     0
 62
     7
  6
CONTINUOUS
  0
LAYER
  2
66
 70
     0
 62
     7
  6
CONTINUOUS
  0
LAYER
  2
67
 70
     0
 62
     7
  6
CONTINUOUS
  0
LAYER
  2
68
 70
     0
 62
     7
  6
CONTINUOUS
  0
LAYER
  2
69
 70
     0
 62
     7
  6
CONTINUOUS
  0
LAYER
  2
70
 70
     0
 62
     7
  6
CONTINUOUS
  0
LAYER
  2
71
 70
     0
 62
     7
  6
CONTINUOUS
  0
LAYER
  2
72
 70
     0
 62
     7
  6
CONTINUOUS
  0
LAYER
  2
73
 70
     0
 62
     7
  6
CONTINUOUS
  0
LAYER
  2
74
 70
     0
 62
     7
  6
CONTINUOUS
  0
LAYER
  2
75
 70
     0
 62
     7
  6
CONTINUOUS
  0
LAYER
  2
76
 70
     0
 62
     7
  6
CONTINUOUS
  0
LAYER
  2
77
 70
     0
 62
     7
  6
CONTINUOUS
  0
LAYER
  2
78
 70
     0
 62
     7
  6
CONTINUOUS
  0
LAYER
  2
79
 70
     0
 62
     7
  6
CONTINUOUS
  0
LAYER
  2
80
 70
     0
 62
     7
  6
CONTINUOUS
  0
LAYER
  2
81
 70
     0
 62
     7
  6
CONTINUOUS
  0
LAYER
  2
82
 70
     0
 62
     7
  6
CONTINUOUS
  0
LAYER
  2
83
 70
     0
 62
     7
  6
CONTINUOUS
  0
LAYER
  2
84
 70
     0
 62
     7
  6
CONTINUOUS
  0
LAYER
  2
85
 70
     0
 62
     7
  6
CONTINUOUS
  0
LAYER
  2
86
 70
     0
 62
     7
  6
CONTINUOUS
  0
LAYER
  2
87
 70
     0
 62
     7
  6
CONTINUOUS
  0
LAYER
  2
88
 70
     0
 62
     7
  6
CONTINUOUS
  0
LAYER
  2
89
 70
     0
 62
     7
  6
CONTINUOUS
  0
LAYER
  2
90
 70
     0
 62
     7
  6
CONTINUOUS
  0
LAYER
  2
91
 70
     0
 62
     7
  6
CONTINUOUS
  0
LAYER
  2
92
 70
     0
 62
     7
  6
CONTINUOUS
  0
LAYER
  2
93
 70
     0
 62
     7
  6
CONTINUOUS
  0
LAYER
  2
94
 70
     0
 62
     7
  6
CONTINUOUS
  0
LAYER
  2
95
 70
     0
 62
     7
  6
CONTINUOUS
  0
LAYER
  2
96
 70
     0
 62
     7
  6
CONTINUOUS
  0
LAYER
  2
97
 70
     0
 62
     7
  6
CONTINUOUS
  0
LAYER
  2
98
 70
     0
 62
     7
  6
CONTINUOUS
  0
LAYER
  2
99
 70
     0
 62
     7
  6
CONTINUOUS
  0
LAYER
  2
100
 70
     0
 62
     7
  6
CONTINUOUS
  0
LAYER
  2
101
 70
     0
 62
     7
  6
CONTINUOUS
  0
LAYER
  2
102
 70
     0
 62
     7
  6
CONTINUOUS
  0
LAYER
  2
103
 70
     0
 62
     7
  6
CONTINUOUS
  0
LAYER
  2
104
 70
     0
 62
     7
  6
CONTINUOUS
  0
LAYER
  2
105
 70
     0
 62
     7
  6
CONTINUOUS
  0
LAYER
  2
106
 70
     0
 62
     7
  6
CONTINUOUS
  0
LAYER
  2
107
 70
     0
 62
     7
  6
CONTINUOUS
  0
LAYER
  2
108
 70
     0
 62
     7
  6
CONTINUOUS
  0
LAYER
  2
109
 70
     0
 62
     7
  6
CONTINUOUS
  0
LAYER
  2
110
 70
     0
 62
     7
  6
CONTINUOUS
  0
LAYER
  2
111
 70
     0
 62
     7
  6
CONTINUOUS
  0
LAYER
  2
112
 70
     0
 62
     7
  6
CONTINUOUS
  0
LAYER
  2
113
 70
     0
 62
     7
  6
CONTINUOUS
  0
LAYER
  2
114
 70
     0
 62
     7
  6
CONTINUOUS
  0
LAYER
  2
115
 70
     0
 62
     7
  6
CONTINUOUS
  0
LAYER
  2
116
 70
     0
 62
     7
  6
CONTINUOUS
  0
LAYER
  2
117
 70
     0
 62
     7
  6
CONTINUOUS
  0
LAYER
  2
118
 70
     0
 62
     7
  6
CONTINUOUS
  0
LAYER
  2
119
 70
     0
 62
     7
  6
CONTINUOUS
  0
LAYER
  2
120
 70
     0
 62
     7
  6
CONTINUOUS
  0
LAYER
  2
121
 70
     0
 62
     7
  6
CONTINUOUS
  0
LAYER
  2
122
 70
     0
 62
     7
  6
CONTINUOUS
  0
LAYER
  2
123
 70
     0
 62
     7
  6
CONTINUOUS
  0
LAYER
  2
124
 70
     0
 62
     7
  6
CONTINUOUS
  0
LAYER
  2
125
 70
     0
 62
     7
  6
CONTINUOUS
  0
LAYER
  2
126
 70
     0
 62
     7
  6
CONTINUOUS
  0
LAYER
  2
127
 70
     0
 62
     7
  6
CONTINUOUS
  0
LAYER
  2
128
 70
     0
 62
     7
  6
CONTINUOUS
  0
ENDTAB
  0
TABLE
  2
STYLE
 70
     7
  0
STYLE
  2
STANDARD
 70
     0
 40
0.0
 41
1.0
 50
0.0
 71
     0
 42
0.2
  3
txt.shx
  4
extfont.shx
  0
STYLE
  2
KANJI0
 70
     0
 40
3.0
 41
0.6
 50
0.0
 71
     0
 42
3.0
  3
txt.shx
  4
extfont.shx
  0
STYLE
  2
KANJI1
 70
     0
 40
1.8
 41
0.6
 50
0.0
 71
     0
 42
1.8
  3
txt.shx
  4
extfont.shx
  0
STYLE
  2
KANJI2
 70
     0
 40
3.0
 41
0.9
 50
0.0
 71
     0
 42
3.0
  3
txt.shx
  4
extfont.shx
  0
STYLE
  2
KANJI3
 70
     0
 40
3.0
 41
0.6
 50
0.0
 71
     0
 42
3.0
  3
txt.shx
  4
extfont.shx
  0
STYLE
  2
KANJI4
 70
     0
 40
4.0
 41
0.9
 50
0.0
 71
     0
 42
4.0
  3
txt.shx
  4
extfont.shx
  0
STYLE
  2
KANJI5
 70
     0
 40
6.0
 41
0.9
 50
0.0
 71
     0
 42
6.0
  3
txt.shx
  4
extfont.shx
  0
ENDTAB
  0
TABLE
  2
VIEW
 70
     0
  0
ENDTAB
  0
ENDSEC
  0
SECTION
  2
BLOCKS
  0
ENDSEC
  0
SECTION
  2
ENTITIES
  0
CIRCLE
  8
0
  6
CONTINUOUS
 62
     1
 10
50.0
 20
130.0
 30
0.0
 40
18.75
  0
LINE
  8
0
  6
CONTINUOUS
 62
     1
 10
37.138342919
 20
123.304645108
 30
0.0
 11
38.03447535
 21
123.207451151
 31
0.0
  0
LINE
  8
0
  6
CONTINUOUS
 62
     1
 10
37.138342919
 20
123.304645108
 30
0.0
 11
37.572726737
 21
124.094461985
 31
0.0
  0
LINE
  8
0
  6
CONTINUOUS
 62
     1
 10
37.572726737
 20
124.094461985
 30
0.0
 11
43.001107291
 21
127.202143526
 31
0.0
  0
LINE
  8
0
  6
CONTINUOUS
 62
     1
 10
43.693730211
 20
125.871627276
 30
0.0
 11
38.03447535
 21
123.207451151
 31
0.0
  0
ARC
  8
0
  6
CONTINUOUS
 62
     1
 10
32.0
 20
148.0
 30
0.0
 40
2.0
 50
90.0
 51
180.0
  0
LINE
  8
0
  6
CONTINUOUS
 62
     1
 10
68.0
 20
150.0
 30
0.0
 11
32.0
 21
150.0
 31
0.0
  0
ARC
  8
0
  6
CONTINUOUS
 62
     1
 10
68.0
 20
148.0
 30
0.0
 40
2.0
 50
0.0
 51
90.0
  0
LINE
  8
0
  6
CONTINUOUS
 62
     1
 10
70.0
 20
112.0
 30
0.0
 11
70.0
 21
148.0
 31
0.0
  0
ARC
  8
0
  6
CONTINUOUS
 62
     1
 10
68.0
 20
112.0
 30
0.0
 40
2.0
 50
270.0
 51
0.0
  0
LINE
  8
0
  6
CONTINUOUS
 62
     1
 10
30.0
 20
148.0
 30
0.0
 11
30.0
 21
112.0
 31
0.0
  0
LINE
  8
0
  6
CONTINUOUS
 62
     1
 10
32.0
 20
110.0
 30
0.0
 11
68.0
 21
110.0
 31
0.0
  0
ARC
  8
0
  6
CONTINUOUS
 62
     1
 10
32.0
 20
112.0
 30
0.0
 40
2.0
 50
180.0
 51
270.0
  0
CIRCLE
  8
0
  6
CONTINUOUS
 62
     1
 10
66.0
 20
114.0
 30
0.0
 40
1.2
  0
LINE
  8
0
  6
CONTINUOUS
 62
     1
 10
65.3
 20
114.16
 30
0.0
 11
65.68
 21
114.16
 31
0.0
  0
ARC
  8
0
  6
CONTINUOUS
 62
     1
 10
65.68
 20
114.32
 30
0.0
 40
0.16
 50
270.0
 51
0.0
  0
LINE
  8
0
  6
CONTINUOUS
 62
     1
 10
65.84
 20
114.32
 30
0.0
 11
65.84
 21
114.7
 31
0.0
  0
LINE
  8
0
  6
CONTINUOUS
 62
     1
 10
65.84
 20
114.7
 30
0.0
 11
66.16
 21
114.7
 31
0.0
  0
LINE
  8
0
  6
CONTINUOUS
 62
     1
 10
66.16
 20
114.7
 30
0.0
 11
66.16
 21
114.32
 31
0.0
  0
ARC
  8
0
  6
CONTINUOUS
 62
     1
 10
66.32
 20
114.32
 30
0.0
 40
0.16
 50
180.0
 51
270.0
  0
LINE
  8
0
  6
CONTINUOUS
 62
     1
 10
66.32
 20
114.16
 30
0.0
 11
66.7
 21
114.16
 31
0.0
  0
LINE
  8
0
  6
CONTINUOUS
 62
     1
 10
66.7
 20
114.16
 30
0.0
 11
66.7
 21
113.84
 31
0.0
  0
LINE
  8
0
  6
CONTINUOUS
 62
     1
 10
66.7
 20
113.84
 30
0.0
 11
66.32
 21
113.84
 31
0.0
  0
ARC
  8
0
  6
CONTINUOUS
 62
     1
 10
66.32
 20
113.68
 30
0.0
 40
0.16
 50
90.0
 51
180.0
  0
LINE
  8
0
  6
CONTINUOUS
 62
     1
 10
66.16
 20
113.68
 30
0.0
 11
66.16
 21
113.3
 31
0.0
  0
LINE
  8
0
  6
CONTINUOUS
 62
     1
 10
66.16
 20
113.3
 30
0.0
 11
65.84
 21
113.3
 31
0.0
  0
LINE
  8
0
  6
CONTINUOUS
 62
     1
 10
65.84
 20
113.3
 30
0.0
 11
65.84
 21
113.68
 31
0.0
  0
ARC
  8
0
  6
CONTINUOUS
 62
     1
 10
65.68
 20
113.68
 30
0.0
 40
0.16
 50
0.0
 51
90.0
  0
LINE
  8
0
  6
CONTINUOUS
 62
     1
 10
65.68
 20
113.84
 30
0.0
 11
65.3
 21
113.84
 31
0.0
  0
LINE
  8
0
  6
CONTINUOUS
 62
     1
 10
65.3
 20
113.84
 30
0.0
 11
65.3
 21
114.16
 31
0.0
  0
CIRCLE
  8
0
  6
CONTINUOUS
 62
     1
 10
66.0
 20
146.0
 30
0.0
 40
1.2
  0
LINE
  8
0
  6
CONTINUOUS
 62
     1
 10
65.3
 20
146.16
 30
0.0
 11
65.68
 21
146.16
 31
0.0
  0
ARC
  8
0
  6
CONTINUOUS
 62
     1
 10
65.68
 20
146.32
 30
0.0
 40
0.16
 50
270.0
 51
0.0
  0
LINE
  8
0
  6
CONTINUOUS
 62
     1
 10
65.84
 20
146.32
 30
0.0
 11
65.84
 21
146.7
 31
0.0
  0
LINE
  8
0
  6
CONTINUOUS
 62
     1
 10
65.84
 20
146.7
 30
0.0
 11
66.16
 21
146.7
 31
0.0
  0
LINE
  8
0
  6
CONTINUOUS
 62
     1
 10
66.16
 20
146.7
 30
0.0
 11
66.16
 21
146.32
 31
0.0
  0
ARC
  8
0
  6
CONTINUOUS
 62
     1
 10
66.32
 20
146.32
 30
0.0
 40
0.16
 50
180.0
 51
270.0
  0
LINE
  8
0
  6
CONTINUOUS
 62
     1
 10
66.32
 20
146.16
 30
0.0
 11
66.7
 21
146.16
 31
0.0
  0
LINE
  8
0
  6
CONTINUOUS
 62
     1
 10
66.7
 20
146.16
 30
0.0
 11
66.7
 21
145.84
 31
0.0
  0
LINE
  8
0
  6
CONTINUOUS
 62
     1
 10
66.7
 20
145.84
 30
0.0
 11
66.32
 21
145.84
 31
0.0
  0
ARC
  8
0
  6
CONTINUOUS
 62
     1
 10
66.32
 20
145.68
 30
0.0
 40
0.16
 50
90.0
 51
180.0
  0
LINE
  8
0
  6
CONTINUOUS
 62
     1
 10
66.16
 20
145.68
 30
0.0
 11
66.16
 21
145.3
 31
0.0
  0
LINE
  8
0
  6
CONTINUOUS
 62
     1
 10
66.16
 20
145.3
 30
0.0
 11
65.84
 21
145.3
 31
0.0
  0
LINE
  8
0
  6
CONTINUOUS
 62
     1
 10
65.84
 20
145.3
 30
0.0
 11
65.84
 21
145.68
 31
0.0
  0
ARC
  8
0
  6
CONTINUOUS
 62
     1
 10
65.68
 20
145.68
 30
0.0
 40
0.16
 50
0.0
 51
90.0
  0
LINE
  8
0
  6
CONTINUOUS
 62
     1
 10
65.68
 20
145.84
 30
0.0
 11
65.3
 21
145.84
 31
0.0
  0
LINE
  8
0
  6
CONTINUOUS
 62
     1
 10
65.3
 20
145.84
 30
0.0
 11
65.3
 21
146.16
 31
0.0
  0
CIRCLE
  8
0
  6
CONTINUOUS
 62
     1
 10
34.0
 20
146.0
 30
0.0
 40
1.2
  0
LINE
  8
0
  6
CONTINUOUS
 62
     1
 10
33.3
 20
146.16
 30
0.0
 11
33.68
 21
146.16
 31
0.0
  0
ARC
  8
0
  6
CONTINUOUS
 62
     1
 10
33.68
 20
146.32
 30
0.0
 40
0.16
 50
270.0
 51
0.0
  0
LINE
  8
0
  6
CONTINUOUS
 62
     1
 10
33.84
 20
146.32
 30
0.0
 11
33.84
 21
146.7
 31
0.0
  0
LINE
  8
0
  6
CONTINUOUS
 62
     1
 10
33.84
 20
146.7
 30
0.0
 11
34.16
 21
146.7
 31
0.0
  0
LINE
  8
0
  6
CONTINUOUS
 62
     1
 10
34.16
 20
146.7
 30
0.0
 11
34.16
 21
146.32
 31
0.0
  0
ARC
  8
0
  6
CONTINUOUS
 62
     1
 10
34.32
 20
146.32
 30
0.0
 40
0.16
 50
180.0
 51
270.0
  0
LINE
  8
0
  6
CONTINUOUS
 62
     1
 10
34.32
 20
146.16
 30
0.0
 11
34.7
 21
146.16
 31
0.0
  0
LINE
  8
0
  6
CONTINUOUS
 62
     1
 10
34.7
 20
146.16
 30
0.0
 11
34.7
 21
145.84
 31
0.0
  0
LINE
  8
0
  6
CONTINUOUS
 62
     1
 10
34.7
 20
145.84
 30
0.0
 11
34.32
 21
145.84
 31
0.0
  0
ARC
  8
0
  6
CONTINUOUS
 62
     1
 10
34.32
 20
145.68
 30
0.0
 40
0.16
 50
90.0
 51
180.0
  0
LINE
  8
0
  6
CONTINUOUS
 62
     1
 10
34.16
 20
145.68
 30
0.0
 11
34.16
 21
145.3
 31
0.0
  0
LINE
  8
0
  6
CONTINUOUS
 62
     1
 10
34.16
 20
145.3
 30
0.0
 11
33.84
 21
145.3
 31
0.0
  0
LINE
  8
0
  6
CONTINUOUS
 62
     1
 10
33.84
 20
145.3
 30
0.0
 11
33.84
 21
145.68
 31
0.0
  0
ARC
  8
0
  6
CONTINUOUS
 62
     1
 10
33.68
 20
145.68
 30
0.0
 40
0.16
 50
0.0
 51
90.0
  0
LINE
  8
0
  6
CONTINUOUS
 62
     1
 10
33.68
 20
145.84
 30
0.0
 11
33.3
 21
145.84
 31
0.0
  0
LINE
  8
0
  6
CONTINUOUS
 62
     1
 10
33.3
 20
145.84
 30
0.0
 11
33.3
 21
146.16
 31
0.0
  0
CIRCLE
  8
0
  6
CONTINUOUS
 62
     1
 10
34.0
 20
114.0
 30
0.0
 40
1.2
  0
LINE
  8
0
  6
CONTINUOUS
 62
     1
 10
33.3
 20
114.16
 30
0.0
 11
33.68
 21
114.16
 31
0.0
  0
ARC
  8
0
  6
CONTINUOUS
 62
     1
 10
33.68
 20
114.32
 30
0.0
 40
0.16
 50
270.0
 51
0.0
  0
LINE
  8
0
  6
CONTINUOUS
 62
     1
 10
33.84
 20
114.32
 30
0.0
 11
33.84
 21
114.7
 31
0.0
  0
LINE
  8
0
  6
CONTINUOUS
 62
     1
 10
33.84
 20
114.7
 30
0.0
 11
34.16
 21
114.7
 31
0.0
  0
LINE
  8
0
  6
CONTINUOUS
 62
     1
 10
34.16
 20
114.7
 30
0.0
 11
34.16
 21
114.32
 31
0.0
  0
ARC
  8
0
  6
CONTINUOUS
 62
     1
 10
34.32
 20
114.32
 30
0.0
 40
0.16
 50
180.0
 51
270.0
  0
LINE
  8
0
  6
CONTINUOUS
 62
     1
 10
34.32
 20
114.16
 30
0.0
 11
34.7
 21
114.16
 31
0.0
  0
LINE
  8
0
  6
CONTINUOUS
 62
     1
 10
34.7
 20
114.16
 30
0.0
 11
34.7
 21
113.84
 31
0.0
  0
LINE
  8
0
  6
CONTINUOUS
 62
     1
 10
34.7
 20
113.84
 30
0.0
 11
34.32
 21
113.84
 31
0.0
  0
ARC
  8
0
  6
CONTINUOUS
 62
     1
 10
34.32
 20
113.68
 30
0.0
 40
0.16
 50
90.0
 51
180.0
  0
LINE
  8
0
  6
CONTINUOUS
 62
     1
 10
34.16
 20
113.68
 30
0.0
 11
34.16
 21
113.3
 31
0.0
  0
LINE
  8
0
  6
CONTINUOUS
 62
     1
 10
34.16
 20
113.3
 30
0.0
 11
33.84
 21
113.3
 31
0.0
  0
LINE
  8
0
  6
CONTINUOUS
 62
     1
 10
33.84
 20
113.3
 30
0.0
 11
33.84
 21
113.68
 31
0.0
  0
ARC
  8
0
  6
CONTINUOUS
 62
     1
 10
33.68
 20
113.68
 30
0.0
 40
0.16
 50
0.0
 51
90.0
  0
LINE
  8
0
  6
CONTINUOUS
 62
     1
 10
33.68
 20
113.84
 30
0.0
 11
33.3
 21
113.84
 31
0.0
  0
LINE
  8
0
  6
CONTINUOUS
 62
     1
 10
33.3
 20
113.84
 30
0.0
 11
33.3
 21
114.16
 31
0.0
  0
CIRCLE
  8
0
  6
CONTINUOUS
 62
     2
 10
50.0
 20
130.0
 30
0.0
 40
7.5
  0
CIRCLE
  8
0
  6
CONTINUOUS
 62
     2
 10
50.0
 20
130.0
 30
0.0
 40
7.0
  0
CIRCLE
  8
0
  6
CONTINUOUS
 62
     2
 10
50.0
 20
130.0
 30
0.0
 40
6.5
  0
CIRCLE
  8
0
  6
CONTINUOUS
 62
     2
 10
50.0
 20
130.0
 30
0.0
 40
6.0
  0
CIRCLE
  8
0
  6
CONTINUOUS
 62
     2
 10
50.0
 20
130.0
 30
0.0
 40
6.0
  0
CIRCLE
  8
0
  6
CONTINUOUS
 62
     2
 10
50.0
 20
130.0
 30
0.0
 40
5.5
  0
CIRCLE
  8
0
  6
CONTINUOUS
 62
     2
 10
50.0
 20
130.0
 30
0.0
 40
5.0
  0
CIRCLE
  8
0
  6
CONTINUOUS
 62
     2
 10
50.0
 20
130.0
 30
0.0
 40
4.5
  0
CIRCLE
  8
0
  6
CONTINUOUS
 62
     2
 10
50.0
 20
130.0
 30
0.0
 40
4.0
  0
CIRCLE
  8
0
  6
CONTINUOUS
 62
     2
 10
50.0
 20
130.0
 30
0.0
 40
3.5
  0
CIRCLE
  8
0
  6
CONTINUOUS
 62
     2
 10
50.0
 20
130.0
 30
0.0
 40
17.5
  0
CIRCLE
  8
0
  6
CONTINUOUS
 62
     2
 10
50.0
 20
130.0
 30
0.0
 40
17.0
  0
CIRCLE
  8
0
  6
CONTINUOUS
 62
     2
 10
50.0
 20
130.0
 30
0.0
 40
14.75
  0
LINE
  8
0
  6
LTYPE1
 62
     2
 10
32.4
 20
114.0
 30
0.0
 11
35.6
 21
114.0
 31
0.0
  0
LINE
  8
0
  6
LTYPE1
 62
     2
 10
34.0
 20
115.6
 30
0.0
 11
34.0
 21
112.4
 31
0.0
  0
LINE
  8
0
  6
LTYPE1
 62
     2
 10
32.4
 20
146.0
 30
0.0
 11
35.6
 21
146.0
 31
0.0
  0
LINE
  8
0
  6
LTYPE1
 62
     2
 10
34.0
 20
147.6
 30
0.0
 11
34.0
 21
144.4
 31
0.0
  0
LINE
  8
0
  6
LTYPE1
 62
     2
 10
64.4
 20
146.0
 30
0.0
 11
67.6
 21
146.0
 31
0.0
  0
LINE
  8
0
  6
LTYPE1
 62
     2
 10
66.0
 20
147.6
 30
0.0
 11
66.0
 21
144.4
 31
0.0
  0
LINE
  8
0
  6
LTYPE1
 62
     2
 10
64.4
 20
114.0
 30
0.0
 11
67.6
 21
114.0
 31
0.0
  0
LINE
  8
0
  6
LTYPE1
 62
     2
 10
66.0
 20
115.6
 30
0.0
 11
66.0
 21
112.4
 31
0.0
  0
CIRCLE
  8
0
  6
CONTINUOUS
 62
     1
 10
185.0
 20
130.0
 30
0.0
 40
16.25
  0
CIRCLE
  8
0
  6
CONTINUOUS
 62
     1
 10
185.0
 20
70.0
 30
0.0
 40
16.75
  0
CIRCLE
  8
0
  6
CONTINUOUS
 62
     1
 10
201.0
 20
86.0
 30
0.0
 40
1.25
  0
CIRCLE
  8
0
  6
CONTINUOUS
 62
     1
 10
169.0
 20
86.0
 30
0.0
 40
1.25
  0
CIRCLE
  8
0
  6
CONTINUOUS
 62
     1
 10
201.0
 20
54.0
 30
0.0
 40
1.25
  0
CIRCLE
  8
0
  6
CONTINUOUS
 62
     1
 10
169.0
 20
54.0
 30
0.0
 40
1.25
  0
LINE
  8
0
  6
LTYPE2
 62
     2
 10
169.0
 20
89.0
 30
0.0
 11
169.0
 21
83.0
 31
0.0
  0
LINE
  8
0
  6
LTYPE2
 62
     2
 10
166.0
 20
86.0
 30
0.0
 11
172.0
 21
86.0
 31
0.0
  0
LINE
  8
0
  6
LTYPE2
 62
     2
 10
198.0
 20
86.0
 30
0.0
 11
204.0
 21
86.0
 31
0.0
  0
LINE
  8
0
  6
LTYPE2
 62
     2
 10
201.0
 20
89.0
 30
0.0
 11
201.0
 21
83.0
 31
0.0
  0
LINE
  8
0
  6
LTYPE2
 62
     2
 10
201.0
 20
57.0
 30
0.0
 11
201.0
 21
51.0
 31
0.0
  0
LINE
  8
0
  6
LTYPE2
 62
     2
 10
198.0
 20
54.0
 30
0.0
 11
204.0
 21
54.0
 31
0.0
  0
LINE
  8
0
  6
LTYPE2
 62
     2
 10
166.0
 20
54.0
 30
0.0
 11
172.0
 21
54.0
 31
0.0
  0
LINE
  8
0
  6
LTYPE2
 62
     2
 10
169.0
 20
57.0
 30
0.0
 11
169.0
 21
51.0
 31
0.0
  0
LINE
  8
0
  6
CONTINUOUS
 62
     2
 10
185.0
 20
43.25
 30
0.0
 11
182.585185434
 21
43.897047613
 31
0.0
  0
LINE
  8
0
  6
CONTINUOUS
 62
     2
 10
185.0
 20
43.25
 30
0.0
 11
182.585185434
 21
42.602952387
 31
0.0
  0
LINE
  8
0
  6
CONTINUOUS
 62
     2
 10
185.0
 20
43.25
 30
0.0
 11
169.0
 21
43.25
 31
0.0
  0
LINE
  8
0
  6
CONTINUOUS
 62
     2
 10
169.0
 20
43.25
 30
0.0
 11
171.414814566
 21
42.602952387
 31
0.0
  0
LINE
  8
0
  6
CONTINUOUS
 62
     2
 10
169.0
 20
43.25
 30
0.0
 11
171.414814566
 21
43.897047613
 31
0.0
  0
LINE
  8
0
  6
CONTINUOUS
 62
     2
 10
169.0
 20
51.0
 30
0.0
 11
169.0
 21
41.25
 31
0.0
  0
TEXT
  8
0
  6
CONTINUOUS
 62
     2
 10
172.62
 20
44.25
 30
0.3
 40
3.0
  1
３２
 50
0.0
 41
0.6
 51
0.0
  7
KANJI0
  0
TEXT
  8
0
  6
CONTINUOUS
 62
     2
 10
176.97
 20
44.25
 30
0.18
 40
1.8
  1
±０．５
 50
0.0
 41
0.6
 51
0.0
  7
KANJI1
  0
LINE
  8
0
  6
CONTINUOUS
 62
     2
 10
185.0
 20
43.25
 30
0.0
 11
187.414814566
 21
42.602952387
 31
0.0
  0
LINE
  8
0
  6
CONTINUOUS
 62
     2
 10
185.0
 20
43.25
 30
0.0
 11
187.414814566
 21
43.897047613
 31
0.0
  0
LINE
  8
0
  6
CONTINUOUS
 62
     2
 10
185.0
 20
43.25
 30
0.0
 11
201.0
 21
43.25
 31
0.0
  0
LINE
  8
0
  6
CONTINUOUS
 62
     2
 10
201.0
 20
43.25
 30
0.0
 11
198.585185434
 21
43.897047613
 31
0.0
  0
LINE
  8
0
  6
CONTINUOUS
 62
     2
 10
201.0
 20
43.25
 30
0.0
 11
198.585185434
 21
42.602952387
 31
0.0
  0
LINE
  8
0
  6
CONTINUOUS
 62
     2
 10
201.0
 20
51.0
 30
0.0
 11
201.0
 21
41.25
 31
0.0
  0
TEXT
  8
0
  6
CONTINUOUS
 62
     2
 10
188.62
 20
44.25
 30
0.3
 40
3.0
  1
３２
 50
0.0
 41
0.6
 51
0.0
  7
KANJI0
  0
TEXT
  8
0
  6
CONTINUOUS
 62
     2
 10
192.97
 20
44.25
 30
0.18
 40
1.8
  1
±０．５
 50
0.0
 41
0.6
 51
0.0
  7
KANJI1
  0
LINE
  8
0
  6
CONTINUOUS
 62
     2
 10
211.75
 20
70.0
 30
0.0
 11
212.397047613
 21
72.414814566
 31
0.0
  0
LINE
  8
0
  6
CONTINUOUS
 62
     2
 10
211.75
 20
70.0
 30
0.0
 11
211.102952387
 21
72.414814566
 31
0.0
  0
LINE
  8
0
  6
CONTINUOUS
 62
     2
 10
211.75
 20
73.75
 30
0.0
 11
211.75
 21
70.0
 31
0.0
  0
LINE
  8
0
  6
CONTINUOUS
 62
     2
 10
211.75
 20
70.0
 30
0.0
 11
211.75
 21
54.0
 31
0.0
  0
LINE
  8
0
  6
CONTINUOUS
 62
     2
 10
211.75
 20
54.0
 30
0.0
 11
211.75
 21
50.25
 31
0.0
  0
LINE
  8
0
  6
CONTINUOUS
 62
     2
 10
211.75
 20
54.0
 30
0.0
 11
211.102952387
 21
51.585185434
 31
0.0
  0
LINE
  8
0
  6
CONTINUOUS
 62
     2
 10
211.75
 20
54.0
 30
0.0
 11
212.397047613
 21
51.585185434
 31
0.0
  0
LINE
  8
0
  6
CONTINUOUS
 62
     2
 10
204.0
 20
54.0
 30
0.0
 11
213.75
 21
54.0
 31
0.0
  0
TEXT
  8
0
  6
CONTINUOUS
 62
     2
 10
210.75
 20
57.62
 30
0.3
 40
3.0
  1
３２
 50
90.0
 41
0.6
 51
0.0
  7
KANJI0
  0
TEXT
  8
0
  6
CONTINUOUS
 62
     2
 10
210.75
 20
61.97
 30
0.18
 40
1.8
  1
±０．５
 50
90.0
 41
0.6
 51
0.0
  7
KANJI1
  0
LINE
  8
0
  6
CONTINUOUS
 62
     2
 10
211.75
 20
70.0
 30
0.0
 11
211.102952387
 21
67.585185434
 31
0.0
  0
LINE
  8
0
  6
CONTINUOUS
 62
     2
 10
211.75
 20
70.0
 30
0.0
 11
212.397047613
 21
67.585185434
 31
0.0
  0
LINE
  8
0
  6
CONTINUOUS
 62
     2
 10
211.75
 20
66.25
 30
0.0
 11
211.75
 21
70.0
 31
0.0
  0
LINE
  8
0
  6
CONTINUOUS
 62
     2
 10
211.75
 20
70.0
 30
0.0
 11
211.75
 21
86.0
 31
0.0
  0
LINE
  8
0
  6
CONTINUOUS
 62
     2
 10
211.75
 20
86.0
 30
0.0
 11
211.75
 21
89.75
 31
0.0
  0
LINE
  8
0
  6
CONTINUOUS
 62
     2
 10
211.75
 20
86.0
 30
0.0
 11
212.397047613
 21
88.414814566
 31
0.0
  0
LINE
  8
0
  6
CONTINUOUS
 62
     2
 10
211.75
 20
86.0
 30
0.0
 11
211.102952387
 21
88.414814566
 31
0.0
  0
LINE
  8
0
  6
CONTINUOUS
 62
     2
 10
204.0
 20
86.0
 30
0.0
 11
213.75
 21
86.0
 31
0.0
  0
TEXT
  8
0
  6
CONTINUOUS
 62
     2
 10
210.75
 20
73.62
 30
0.3
 40
3.0
  1
３２
 50
90.0
 41
0.6
 51
0.0
  7
KANJI0
  0
TEXT
  8
0
  6
CONTINUOUS
 62
     2
 10
210.75
 20
77.97
 30
0.18
 40
1.8
  1
±０．５
 50
90.0
 41
0.6
 51
0.0
  7
KANJI1
  0
LINE
  8
0
  6
CONTINUOUS
 62
     2
 10
196.844038585
 20
81.844038585
 30
0.0
 11
194.678975075
 21
80.594038585
 31
0.0
  0
LINE
  8
0
  6
CONTINUOUS
 62
     2
 10
196.844038585
 20
81.844038585
 30
0.0
 11
195.594038585
 21
79.678975075
 31
0.0
  0
LINE
  8
0
  6
CONTINUOUS
 62
     2
 10
196.844038585
 20
81.844038585
 30
0.0
 11
173.155961415
 21
58.155961415
 31
0.0
  0
LINE
  8
0
  6
CONTINUOUS
 62
     2
 10
173.155961415
 20
58.155961415
 30
0.0
 11
175.321024925
 21
59.405961415
 31
0.0
  0
LINE
  8
0
  6
CONTINUOUS
 62
     2
 10
173.155961415
 20
58.155961415
 30
0.0
 11
174.405961415
 21
60.321024925
 31
0.0
  0
LINE
  8
0
  6
CONTINUOUS
 62
     2
 10
201.625
 20
52.917468245
 30
0.0
 11
202.272047613
 21
50.50265368
 31
0.0
  0
LINE
  8
0
  6
CONTINUOUS
 62
     2
 10
201.625
 20
52.917468245
 30
0.0
 11
203.392766953
 21
51.149701292
 31
0.0
  0
LINE
  8
0
  6
CONTINUOUS
 62
     2
 10
201.625
 20
52.917468245
 30
0.0
 11
206.0
 21
45.339745962
 31
0.0
  0
TEXT
  8
0
  6
CONTINUOUS
 62
     2
 10
206.0
 20
46.339745962
 30
0.3
 40
3.0
  1
４－φ５穴
 50
0.0
 41
0.6
 51
0.0
  7
KANJI0
  0
LINE
  8
0
  6
CONTINUOUS
 62
     2
 10
206.0
 20
45.339745962
 30
0.0
 11
217.0
 21
45.339745962
 31
0.0
  0
LINE
  8
0
  6
CONTINUOUS
 62
     2
 10
185.0
 20
151.0
 30
0.0
 11
185.0
 21
157.0
 31
0.0
  0
LINE
  8
0
  6
CONTINUOUS
 62
     2
 10
185.0
 20
155.0
 30
0.0
 11
182.585185434
 21
155.647047613
 31
0.0
  0
LINE
  8
0
  6
CONTINUOUS
 62
     2
 10
185.0
 20
155.0
 30
0.0
 11
182.585185434
 21
154.352952387
 31
0.0
  0
LINE
  8
0
  6
CONTINUOUS
 62
     2
 10
185.0
 20
155.0
 30
0.0
 11
169.0
 21
155.0
 31
0.0
  0
LINE
  8
0
  6
CONTINUOUS
 62
     2
 10
169.0
 20
155.0
 30
0.0
 11
171.414814566
 21
154.352952387
 31
0.0
  0
LINE
  8
0
  6
CONTINUOUS
 62
     2
 10
169.0
 20
155.0
 30
0.0
 11
171.414814566
 21
155.647047613
 31
0.0
  0
LINE
  8
0
  6
CONTINUOUS
 62
     2
 10
169.0
 20
147.0
 30
0.0
 11
169.0
 21
157.0
 31
0.0
  0
TEXT
  8
0
  6
CONTINUOUS
 62
     2
 10
172.62
 20
156.0
 30
0.3
 40
3.0
  1
３２
 50
0.0
 41
0.6
 51
0.0
  7
KANJI0
  0
TEXT
  8
0
  6
CONTINUOUS
 62
     2
 10
176.97
 20
156.0
 30
0.18
 40
1.8
  1
±０．５
 50
0.0
 41
0.6
 51
0.0
  7
KANJI1
  0
LINE
  8
0
  6
CONTINUOUS
 62
     2
 10
185.0
 20
155.0
 30
0.0
 11
187.414814566
 21
154.352952387
 31
0.0
  0
LINE
  8
0
  6
CONTINUOUS
 62
     2
 10
185.0
 20
155.0
 30
0.0
 11
187.414814566
 21
155.647047613
 31
0.0
  0
LINE
  8
0
  6
CONTINUOUS
 62
     2
 10
185.0
 20
155.0
 30
0.0
 11
201.0
 21
155.0
 31
0.0
  0
LINE
  8
0
  6
CONTINUOUS
 62
     2
 10
201.0
 20
155.0
 30
0.0
 11
198.585185434
 21
155.647047613
 31
0.0
  0
LINE
  8
0
  6
CONTINUOUS
 62
     2
 10
201.0
 20
155.0
 30
0.0
 11
198.585185434
 21
154.352952387
 31
0.0
  0
LINE
  8
0
  6
CONTINUOUS
 62
     2
 10
201.0
 20
147.0
 30
0.0
 11
201.0
 21
157.0
 31
0.0
  0
TEXT
  8
0
  6
CONTINUOUS
 62
     2
 10
188.62
 20
156.0
 30
0.3
 40
3.0
  1
３２
 50
0.0
 41
0.6
 51
0.0
  7
KANJI0
  0
TEXT
  8
0
  6
CONTINUOUS
 62
     2
 10
192.97
 20
156.0
 30
0.18
 40
1.8
  1
±０．５
 50
0.0
 41
0.6
 51
0.0
  7
KANJI1
  0
LINE
  8
0
  6
CONTINUOUS
 62
     2
 10
206.0
 20
130.0
 30
0.0
 11
212.0
 21
130.0
 31
0.0
  0
LINE
  8
0
  6
CONTINUOUS
 62
     2
 10
210.0
 20
130.0
 30
0.0
 11
210.647047613
 21
132.414814566
 31
0.0
  0
LINE
  8
0
  6
CONTINUOUS
 62
     2
 10
210.0
 20
130.0
 30
0.0
 11
209.352952387
 21
132.414814566
 31
0.0
  0
LINE
  8
0
  6
CONTINUOUS
 62
     2
 10
210.0
 20
130.0
 30
0.0
 11
210.0
 21
146.0
 31
0.0
  0
LINE
  8
0
  6
CONTINUOUS
 62
     2
 10
210.0
 20
146.0
 30
0.0
 11
209.352952387
 21
143.585185434
 31
0.0
  0
LINE
  8
0
  6
CONTINUOUS
 62
     2
 10
210.0
 20
146.0
 30
0.0
 11
210.647047613
 21
143.585185434
 31
0.0
  0
LINE
  8
0
  6
CONTINUOUS
 62
     2
 10
202.0
 20
146.0
 30
0.0
 11
212.0
 21
146.0
 31
0.0
  0
TEXT
  8
0
  6
CONTINUOUS
 62
     2
 10
209.0
 20
133.62
 30
0.3
 40
3.0
  1
３２
 50
90.0
 41
0.6
 51
0.0
  7
KANJI0
  0
TEXT
  8
0
  6
CONTINUOUS
 62
     2
 10
209.0
 20
137.97
 30
0.18
 40
1.8
  1
±０．５
 50
90.0
 41
0.6
 51
0.0
  7
KANJI1
  0
LINE
  8
0
  6
CONTINUOUS
 62
     2
 10
210.0
 20
130.0
 30
0.0
 11
209.352952387
 21
127.585185434
 31
0.0
  0
LINE
  8
0
  6
CONTINUOUS
 62
     2
 10
210.0
 20
130.0
 30
0.0
 11
210.647047613
 21
127.585185434
 31
0.0
  0
LINE
  8
0
  6
CONTINUOUS
 62
     2
 10
210.0
 20
130.0
 30
0.0
 11
210.0
 21
114.0
 31
0.0
  0
LINE
  8
0
  6
CONTINUOUS
 62
     2
 10
210.0
 20
114.0
 30
0.0
 11
210.647047613
 21
116.414814566
 31
0.0
  0
LINE
  8
0
  6
CONTINUOUS
 62
     2
 10
210.0
 20
114.0
 30
0.0
 11
209.352952387
 21
116.414814566
 31
0.0
  0
LINE
  8
0
  6
CONTINUOUS
 62
     2
 10
202.0
 20
114.0
 30
0.0
 11
212.0
 21
114.0
 31
0.0
  0
TEXT
  8
0
  6
CONTINUOUS
 62
     2
 10
209.0
 20
117.62
 30
0.3
 40
3.0
  1
３２
 50
90.0
 41
0.6
 51
0.0
  7
KANJI0
  0
TEXT
  8
0
  6
CONTINUOUS
 62
     2
 10
209.0
 20
121.97
 30
0.18
 40
1.8
  1
±０．５
 50
90.0
 41
0.6
 51
0.0
  7
KANJI1
  0
ARC
  8
0
  6
CONTINUOUS
 62
     1
 10
167.0
 20
112.0
 30
0.0
 40
1.0
 50
180.0
 51
270.0
  0
ARC
  8
0
  6
CONTINUOUS
 62
     1
 10
166.0
 20
111.0
 30
0.0
 40
1.0
 50
180.0
 51
270.0
  0
LINE
  8
0
  6
CONTINUOUS
 62
     1
 10
167.0
 20
111.0
 30
0.0
 11
203.0
 21
111.0
 31
0.0
  0
ARC
  8
0
  6
CONTINUOUS
 62
     1
 10
203.0
 20
112.0
 30
0.0
 40
1.0
 50
270.0
 51
0.0
  0
LINE
  8
0
  6
CONTINUOUS
 62
     1
 10
166.0
 20
110.0
 30
0.0
 11
204.0
 21
110.0
 31
0.0
  0
ARC
  8
0
  6
CONTINUOUS
 62
     1
 10
204.0
 20
111.0
 30
0.0
 40
1.0
 50
270.0
 51
0.0
  0
LINE
  8
0
  6
CONTINUOUS
 62
     1
 10
166.0
 20
148.0
 30
0.0
 11
166.0
 21
112.0
 31
0.0
  0
ARC
  8
0
  6
CONTINUOUS
 62
     1
 10
167.0
 20
148.0
 30
0.0
 40
1.0
 50
90.0
 51
180.0
  0
LINE
  8
0
  6
CONTINUOUS
 62
     1
 10
165.0
 20
149.0
 30
0.0
 11
165.0
 21
111.0
 31
0.0
  0
ARC
  8
0
  6
CONTINUOUS
 62
     1
 10
166.0
 20
149.0
 30
0.0
 40
1.0
 50
90.0
 51
180.0
  0
LINE
  8
0
  6
CONTINUOUS
 62
     1
 10
204.0
 20
112.0
 30
0.0
 11
204.0
 21
148.0
 31
0.0
  0
LINE
  8
0
  6
CONTINUOUS
 62
     1
 10
203.0
 20
149.0
 30
0.0
 11
167.0
 21
149.0
 31
0.0
  0
ARC
  8
0
  6
CONTINUOUS
 62
     1
 10
203.0
 20
148.0
 30
0.0
 40
1.0
 50
0.0
 51
90.0
  0
LINE
  8
0
  6
CONTINUOUS
 62
     1
 10
205.0
 20
111.0
 30
0.0
 11
205.0
 21
149.0
 31
0.0
  0
LINE
  8
0
  6
CONTINUOUS
 62
     1
 10
204.0
 20
150.0
 30
0.0
 11
166.0
 21
150.0
 31
0.0
  0
ARC
  8
0
  6
CONTINUOUS
 62
     1
 10
204.0
 20
149.0
 30
0.0
 40
1.0
 50
0.0
 51
90.0
  0
LINE
  8
0
  6
LTYPE1
 62
     2
 10
175.473720558
 20
138.0
 30
0.0
 11
175.473720558
 21
133.0
 31
0.0
  0
CIRCLE
  8
0
  6
CONTINUOUS
 62
     2
 10
175.473720558
 20
135.5
 30
0.0
 40
1.75
  0
LINE
  8
0
  6
CONTINUOUS
 62
     2
 10
175.223720558
 20
137.232050808
 30
0.0
 11
175.223720558
 21
136.0
 31
0.0
  0
ARC
  8
0
  6
CONTINUOUS
 62
     2
 10
174.973720558
 20
136.0
 30
0.0
 40
0.25
 50
270.0
 51
0.0
  0
LINE
  8
0
  6
CONTINUOUS
 62
     2
 10
174.973720558
 20
135.75
 30
0.0
 11
174.448720558
 21
135.75
 31
0.0
  0
LINE
  8
0
  6
CONTINUOUS
 62
     2
 10
174.448720558
 20
135.75
 30
0.0
 11
174.448720558
 21
135.25
 31
0.0
  0
LINE
  8
0
  6
CONTINUOUS
 62
     2
 10
174.448720558
 20
135.25
 30
0.0
 11
174.973720558
 21
135.25
 31
0.0
  0
ARC
  8
0
  6
CONTINUOUS
 62
     2
 10
174.973720558
 20
135.0
 30
0.0
 40
0.25
 50
0.0
 51
90.0
  0
LINE
  8
0
  6
CONTINUOUS
 62
     2
 10
175.223720558
 20
135.0
 30
0.0
 11
175.223720558
 21
133.767949192
 31
0.0
  0
LINE
  8
0
  6
CONTINUOUS
 62
     2
 10
175.723720558
 20
135.0
 30
0.0
 11
175.723720558
 21
133.767949192
 31
0.0
  0
ARC
  8
0
  6
CONTINUOUS
 62
     2
 10
175.973720558
 20
135.0
 30
0.0
 40
0.25
 50
90.0
 51
180.0
  0
LINE
  8
0
  6
CONTINUOUS
 62
     2
 10
176.498720558
 20
135.25
 30
0.0
 11
175.973720558
 21
135.25
 31
0.0
  0
LINE
  8
0
  6
CONTINUOUS
 62
     2
 10
176.498720558
 20
135.75
 30
0.0
 11
176.498720558
 21
135.25
 31
0.0
  0
LINE
  8
0
  6
CONTINUOUS
 62
     2
 10
175.973720558
 20
135.75
 30
0.0
 11
176.498720558
 21
135.75
 31
0.0
  0
ARC
  8
0
  6
CONTINUOUS
 62
     2
 10
175.973720558
 20
136.0
 30
0.0
 40
0.25
 50
180.0
 51
270.0
  0
LINE
  8
0
  6
CONTINUOUS
 62
     2
 10
175.723720558
 20
137.232050808
 30
0.0
 11
175.723720558
 21
136.0
 31
0.0
  0
LINE
  8
0
  6
LTYPE1
 62
     2
 10
194.526279442
 20
138.0
 30
0.0
 11
194.526279442
 21
133.0
 31
0.0
  0
CIRCLE
  8
0
  6
CONTINUOUS
 62
     2
 10
194.526279442
 20
135.5
 30
0.0
 40
1.75
  0
LINE
  8
0
  6
CONTINUOUS
 62
     2
 10
194.276279442
 20
137.232050808
 30
0.0
 11
194.276279442
 21
136.0
 31
0.0
  0
ARC
  8
0
  6
CONTINUOUS
 62
     2
 10
194.026279442
 20
136.0
 30
0.0
 40
0.25
 50
270.0
 51
0.0
  0
LINE
  8
0
  6
CONTINUOUS
 62
     2
 10
194.026279442
 20
135.75
 30
0.0
 11
193.501279442
 21
135.75
 31
0.0
  0
LINE
  8
0
  6
CONTINUOUS
 62
     2
 10
193.501279442
 20
135.75
 30
0.0
 11
193.501279442
 21
135.25
 31
0.0
  0
LINE
  8
0
  6
CONTINUOUS
 62
     2
 10
193.501279442
 20
135.25
 30
0.0
 11
194.026279442
 21
135.25
 31
0.0
  0
ARC
  8
0
  6
CONTINUOUS
 62
     2
 10
194.026279442
 20
135.0
 30
0.0
 40
0.25
 50
0.0
 51
90.0
  0
LINE
  8
0
  6
CONTINUOUS
 62
     2
 10
194.276279442
 20
135.0
 30
0.0
 11
194.276279442
 21
133.767949192
 31
0.0
  0
LINE
  8
0
  6
CONTINUOUS
 62
     2
 10
194.776279442
 20
135.0
 30
0.0
 11
194.776279442
 21
133.767949192
 31
0.0
  0
ARC
  8
0
  6
CONTINUOUS
 62
     2
 10
195.026279442
 20
135.0
 30
0.0
 40
0.25
 50
90.0
 51
180.0
  0
LINE
  8
0
  6
CONTINUOUS
 62
     2
 10
195.551279442
 20
135.25
 30
0.0
 11
195.026279442
 21
135.25
 31
0.0
  0
LINE
  8
0
  6
CONTINUOUS
 62
     2
 10
195.551279442
 20
135.75
 30
0.0
 11
195.551279442
 21
135.25
 31
0.0
  0
LINE
  8
0
  6
CONTINUOUS
 62
     2
 10
195.026279442
 20
135.75
 30
0.0
 11
195.551279442
 21
135.75
 31
0.0
  0
ARC
  8
0
  6
CONTINUOUS
 62
     2
 10
195.026279442
 20
136.0
 30
0.0
 40
0.25
 50
180.0
 51
270.0
  0
LINE
  8
0
  6
CONTINUOUS
 62
     2
 10
194.776279442
 20
137.232050808
 30
0.0
 11
194.776279442
 21
136.0
 31
0.0
  0
LINE
  8
0
  6
LTYPE1
 62
     2
 10
172.5
 20
132.5
 30
0.0
 11
172.5
 21
127.5
 31
0.0
  0
CIRCLE
  8
0
  6
CONTINUOUS
 62
     2
 10
172.5
 20
130.0
 30
0.0
 40
1.75
  0
LINE
  8
0
  6
CONTINUOUS
 62
     2
 10
172.25
 20
131.732050808
 30
0.0
 11
172.25
 21
130.5
 31
0.0
  0
ARC
  8
0
  6
CONTINUOUS
 62
     2
 10
172.0
 20
130.5
 30
0.0
 40
0.25
 50
270.0
 51
0.0
  0
LINE
  8
0
  6
CONTINUOUS
 62
     2
 10
172.0
 20
130.25
 30
0.0
 11
171.475
 21
130.25
 31
0.0
  0
LINE
  8
0
  6
CONTINUOUS
 62
     2
 10
171.475
 20
130.25
 30
0.0
 11
171.475
 21
129.75
 31
0.0
  0
LINE
  8
0
  6
CONTINUOUS
 62
     2
 10
171.475
 20
129.75
 30
0.0
 11
172.0
 21
129.75
 31
0.0
  0
ARC
  8
0
  6
CONTINUOUS
 62
     2
 10
172.0
 20
129.5
 30
0.0
 40
0.25
 50
0.0
 51
90.0
  0
LINE
  8
0
  6
CONTINUOUS
 62
     2
 10
172.25
 20
129.5
 30
0.0
 11
172.25
 21
128.267949192
 31
0.0
  0
LINE
  8
0
  6
CONTINUOUS
 62
     2
 10
172.75
 20
129.5
 30
0.0
 11
172.75
 21
128.267949192
 31
0.0
  0
ARC
  8
0
  6
CONTINUOUS
 62
     2
 10
173.0
 20
129.5
 30
0.0
 40
0.25
 50
90.0
 51
180.0
  0
LINE
  8
0
  6
CONTINUOUS
 62
     2
 10
173.525
 20
129.75
 30
0.0
 11
173.0
 21
129.75
 31
0.0
  0
LINE
  8
0
  6
CONTINUOUS
 62
     2
 10
173.525
 20
130.25
 30
0.0
 11
173.525
 21
129.75
 31
0.0
  0
LINE
  8
0
  6
CONTINUOUS
 62
     2
 10
173.0
 20
130.25
 30
0.0
 11
173.525
 21
130.25
 31
0.0
  0
ARC
  8
0
  6
CONTINUOUS
 62
     2
 10
173.0
 20
130.5
 30
0.0
 40
0.25
 50
180.0
 51
270.0
  0
LINE
  8
0
  6
CONTINUOUS
 62
     2
 10
172.75
 20
131.732050808
 30
0.0
 11
172.75
 21
130.5
 31
0.0
  0
LINE
  8
0
  6
LTYPE1
 62
     2
 10
197.5
 20
132.5
 30
0.0
 11
197.5
 21
127.5
 31
0.0
  0
CIRCLE
  8
0
  6
CONTINUOUS
 62
     2
 10
197.5
 20
130.0
 30
0.0
 40
1.75
  0
LINE
  8
0
  6
CONTINUOUS
 62
     2
 10
197.25
 20
131.732050808
 30
0.0
 11
197.25
 21
130.5
 31
0.0
  0
ARC
  8
0
  6
CONTINUOUS
 62
     2
 10
197.0
 20
130.5
 30
0.0
 40
0.25
 50
270.0
 51
0.0
  0
LINE
  8
0
  6
CONTINUOUS
 62
     2
 10
197.0
 20
130.25
 30
0.0
 11
196.475
 21
130.25
 31
0.0
  0
LINE
  8
0
  6
CONTINUOUS
 62
     2
 10
196.475
 20
130.25
 30
0.0
 11
196.475
 21
129.75
 31
0.0
  0
LINE
  8
0
  6
CONTINUOUS
 62
     2
 10
196.475
 20
129.75
 30
0.0
 11
197.0
 21
129.75
 31
0.0
  0
ARC
  8
0
  6
CONTINUOUS
 62
     2
 10
197.0
 20
129.5
 30
0.0
 40
0.25
 50
0.0
 51
90.0
  0
LINE
  8
0
  6
CONTINUOUS
 62
     2
 10
197.25
 20
129.5
 30
0.0
 11
197.25
 21
128.267949192
 31
0.0
  0
LINE
  8
0
  6
CONTINUOUS
 62
     2
 10
197.75
 20
129.5
 30
0.0
 11
197.75
 21
128.267949192
 31
0.0
  0
ARC
  8
0
  6
CONTINUOUS
 62
     2
 10
198.0
 20
129.5
 30
0.0
 40
0.25
 50
90.0
 51
180.0
  0
LINE
  8
0
  6
CONTINUOUS
 62
     2
 10
198.525
 20
129.75
 30
0.0
 11
198.0
 21
129.75
 31
0.0
  0
LINE
  8
0
  6
CONTINUOUS
 62
     2
 10
198.525
 20
130.25
 30
0.0
 11
198.525
 21
129.75
 31
0.0
  0
LINE
  8
0
  6
CONTINUOUS
 62
     2
 10
198.0
 20
130.25
 30
0.0
 11
198.525
 21
130.25
 31
0.0
  0
ARC
  8
0
  6
CONTINUOUS
 62
     2
 10
198.0
 20
130.5
 30
0.0
 40
0.25
 50
180.0
 51
270.0
  0
LINE
  8
0
  6
CONTINUOUS
 62
     2
 10
197.75
 20
131.732050808
 30
0.0
 11
197.75
 21
130.5
 31
0.0
  0
LINE
  8
0
  6
LTYPE1
 62
     2
 10
185.0
 20
121.5
 30
0.0
 11
185.0
 21
116.5
 31
0.0
  0
CIRCLE
  8
0
  6
CONTINUOUS
 62
     2
 10
185.0
 20
119.0
 30
0.0
 40
1.75
  0
LINE
  8
0
  6
CONTINUOUS
 62
     2
 10
184.75
 20
120.732050808
 30
0.0
 11
184.75
 21
119.5
 31
0.0
  0
ARC
  8
0
  6
CONTINUOUS
 62
     2
 10
184.5
 20
119.5
 30
0.0
 40
0.25
 50
270.0
 51
0.0
  0
LINE
  8
0
  6
CONTINUOUS
 62
     2
 10
184.5
 20
119.25
 30
0.0
 11
183.975
 21
119.25
 31
0.0
  0
LINE
  8
0
  6
CONTINUOUS
 62
     2
 10
183.975
 20
119.25
 30
0.0
 11
183.975
 21
118.75
 31
0.0
  0
LINE
  8
0
  6
CONTINUOUS
 62
     2
 10
183.975
 20
118.75
 30
0.0
 11
184.5
 21
118.75
 31
0.0
  0
ARC
  8
0
  6
CONTINUOUS
 62
     2
 10
184.5
 20
118.5
 30
0.0
 40
0.25
 50
0.0
 51
90.0
  0
LINE
  8
0
  6
CONTINUOUS
 62
     2
 10
184.75
 20
118.5
 30
0.0
 11
184.75
 21
117.267949192
 31
0.0
  0
LINE
  8
0
  6
CONTINUOUS
 62
     2
 10
185.25
 20
118.5
 30
0.0
 11
185.25
 21
117.267949192
 31
0.0
  0
ARC
  8
0
  6
CONTINUOUS
 62
     2
 10
185.5
 20
118.5
 30
0.0
 40
0.25
 50
90.0
 51
180.0
  0
LINE
  8
0
  6
CONTINUOUS
 62
     2
 10
186.025
 20
118.75
 30
0.0
 11
185.5
 21
118.75
 31
0.0
  0
LINE
  8
0
  6
CONTINUOUS
 62
     2
 10
186.025
 20
119.25
 30
0.0
 11
186.025
 21
118.75
 31
0.0
  0
LINE
  8
0
  6
CONTINUOUS
 62
     2
 10
185.5
 20
119.25
 30
0.0
 11
186.025
 21
119.25
 31
0.0
  0
ARC
  8
0
  6
CONTINUOUS
 62
     2
 10
185.5
 20
119.5
 30
0.0
 40
0.25
 50
180.0
 51
270.0
  0
LINE
  8
0
  6
CONTINUOUS
 62
     2
 10
185.25
 20
120.732050808
 30
0.0
 11
185.25
 21
119.5
 31
0.0
  0
LINE
  8
0
  6
LTYPE1
 62
     2
 10
178.75
 20
124.0
 30
0.0
 11
178.75
 21
119.0
 31
0.0
  0
CIRCLE
  8
0
  6
CONTINUOUS
 62
     2
 10
178.75
 20
121.5
 30
0.0
 40
1.75
  0
LINE
  8
0
  6
CONTINUOUS
 62
     2
 10
178.5
 20
123.232050808
 30
0.0
 11
178.5
 21
122.0
 31
0.0
  0
ARC
  8
0
  6
CONTINUOUS
 62
     2
 10
178.25
 20
122.0
 30
0.0
 40
0.25
 50
270.0
 51
0.0
  0
LINE
  8
0
  6
CONTINUOUS
 62
     2
 10
178.25
 20
121.75
 30
0.0
 11
177.725
 21
121.75
 31
0.0
  0
LINE
  8
0
  6
CONTINUOUS
 62
     2
 10
177.725
 20
121.75
 30
0.0
 11
177.725
 21
121.25
 31
0.0
  0
LINE
  8
0
  6
CONTINUOUS
 62
     2
 10
177.725
 20
121.25
 30
0.0
 11
178.25
 21
121.25
 31
0.0
  0
ARC
  8
0
  6
CONTINUOUS
 62
     2
 10
178.25
 20
121.0
 30
0.0
 40
0.25
 50
0.0
 51
90.0
  0
LINE
  8
0
  6
CONTINUOUS
 62
     2
 10
178.5
 20
121.0
 30
0.0
 11
178.5
 21
119.767949192
 31
0.0
  0
LINE
  8
0
  6
CONTINUOUS
 62
     2
 10
179.0
 20
121.0
 30
0.0
 11
179.0
 21
119.767949192
 31
0.0
  0
ARC
  8
0
  6
CONTINUOUS
 62
     2
 10
179.25
 20
121.0
 30
0.0
 40
0.25
 50
90.0
 51
180.0
  0
LINE
  8
0
  6
CONTINUOUS
 62
     2
 10
179.775
 20
121.25
 30
0.0
 11
179.25
 21
121.25
 31
0.0
  0
LINE
  8
0
  6
CONTINUOUS
 62
     2
 10
179.775
 20
121.75
 30
0.0
 11
179.775
 21
121.25
 31
0.0
  0
LINE
  8
0
  6
CONTINUOUS
 62
     2
 10
179.25
 20
121.75
 30
0.0
 11
179.775
 21
121.75
 31
0.0
  0
ARC
  8
0
  6
CONTINUOUS
 62
     2
 10
179.25
 20
122.0
 30
0.0
 40
0.25
 50
180.0
 51
270.0
  0
LINE
  8
0
  6
CONTINUOUS
 62
     2
 10
179.0
 20
123.232050808
 30
0.0
 11
179.0
 21
122.0
 31
0.0
  0
LINE
  8
0
  6
LTYPE1
 62
     2
 10
191.25
 20
124.0
 30
0.0
 11
191.25
 21
119.0
 31
0.0
  0
CIRCLE
  8
0
  6
CONTINUOUS
 62
     2
 10
191.25
 20
121.5
 30
0.0
 40
1.75
  0
LINE
  8
0
  6
CONTINUOUS
 62
     2
 10
191.0
 20
123.232050808
 30
0.0
 11
191.0
 21
122.0
 31
0.0
  0
ARC
  8
0
  6
CONTINUOUS
 62
     2
 10
190.75
 20
122.0
 30
0.0
 40
0.25
 50
270.0
 51
0.0
  0
LINE
  8
0
  6
CONTINUOUS
 62
     2
 10
190.75
 20
121.75
 30
0.0
 11
190.225
 21
121.75
 31
0.0
  0
LINE
  8
0
  6
CONTINUOUS
 62
     2
 10
190.225
 20
121.75
 30
0.0
 11
190.225
 21
121.25
 31
0.0
  0
LINE
  8
0
  6
CONTINUOUS
 62
     2
 10
190.225
 20
121.25
 30
0.0
 11
190.75
 21
121.25
 31
0.0
  0
ARC
  8
0
  6
CONTINUOUS
 62
     2
 10
190.75
 20
121.0
 30
0.0
 40
0.25
 50
0.0
 51
90.0
  0
LINE
  8
0
  6
CONTINUOUS
 62
     2
 10
191.0
 20
121.0
 30
0.0
 11
191.0
 21
119.767949192
 31
0.0
  0
LINE
  8
0
  6
CONTINUOUS
 62
     2
 10
191.5
 20
121.0
 30
0.0
 11
191.5
 21
119.767949192
 31
0.0
  0
ARC
  8
0
  6
CONTINUOUS
 62
     2
 10
191.75
 20
121.0
 30
0.0
 40
0.25
 50
90.0
 51
180.0
  0
LINE
  8
0
  6
CONTINUOUS
 62
     2
 10
192.275
 20
121.25
 30
0.0
 11
191.75
 21
121.25
 31
0.0
  0
LINE
  8
0
  6
CONTINUOUS
 62
     2
 10
192.275
 20
121.75
 30
0.0
 11
192.275
 21
121.25
 31
0.0
  0
LINE
  8
0
  6
CONTINUOUS
 62
     2
 10
191.75
 20
121.75
 30
0.0
 11
192.275
 21
121.75
 31
0.0
  0
ARC
  8
0
  6
CONTINUOUS
 62
     2
 10
191.75
 20
122.0
 30
0.0
 40
0.25
 50
180.0
 51
270.0
  0
LINE
  8
0
  6
CONTINUOUS
 62
     2
 10
191.5
 20
123.232050808
 30
0.0
 11
191.5
 21
122.0
 31
0.0
  0
LINE
  8
0
  6
CONTINUOUS
 62
     2
 10
169.0
 20
147.875
 30
0.0
 11
167.376202368
 21
146.9375
 31
0.0
  0
LINE
  8
0
  6
CONTINUOUS
 62
     2
 10
167.376202368
 20
146.9375
 30
0.0
 11
167.376202368
 21
145.0625
 31
0.0
  0
LINE
  8
0
  6
CONTINUOUS
 62
     2
 10
167.376202368
 20
145.0625
 30
0.0
 11
169.0
 21
144.125
 31
0.0
  0
ARC
  8
0
  6
CONTINUOUS
 62
     2
 10
169.0
 20
146.0
 30
0.0
 40
1.775
 50
96.179548741
 51
144.19072803
  0
ARC
  8
0
  6
CONTINUOUS
 62
     2
 10
169.0
 20
146.0
 30
0.0
 40
1.775
 50
216.179548741
 51
263.820451259
  0
ARC
  8
0
  6
CONTINUOUS
 62
     2
 10
169.0
 20
146.0
 30
0.0
 40
1.775
 50
156.179548741
 51
203.820451259
  0
LINE
  8
0
  6
CONTINUOUS
 62
     2
 10
169.0
 20
144.125
 30
0.0
 11
170.623797632
 21
145.0625
 31
0.0
  0
LINE
  8
0
  6
CONTINUOUS
 62
     2
 10
170.623797632
 20
145.0625
 30
0.0
 11
170.623797632
 21
146.9375
 31
0.0
  0
LINE
  8
0
  6
CONTINUOUS
 62
     2
 10
170.623797632
 20
146.9375
 30
0.0
 11
169.0
 21
147.875
 31
0.0
  0
ARC
  8
0
  6
CONTINUOUS
 62
     2
 10
169.0
 20
146.0
 30
0.0
 40
1.775
 50
36.179548741
 51
83.820451259
  0
ARC
  8
0
  6
CONTINUOUS
 62
     2
 10
169.0
 20
146.0
 30
0.0
 40
1.775
 50
336.179548741
 51
23.820451259
  0
ARC
  8
0
  6
CONTINUOUS
 62
     2
 10
169.0
 20
146.0
 30
0.0
 40
1.775
 50
276.179548741
 51
324.19072803
  0
CIRCLE
  8
0
  6
CONTINUOUS
 62
     2
 10
169.0
 20
146.0
 30
0.0
 40
1.62375
  0
CIRCLE
  8
0
  6
CONTINUOUS
 62
     2
 10
169.0
 20
146.0
 30
0.0
 40
1.0
  0
CIRCLE
  8
0
  6
CONTINUOUS
 62
     2
 10
169.0
 20
146.0
 30
0.0
 40
0.8
  0
CIRCLE
  8
0
  6
CONTINUOUS
 62
     2
 10
169.0
 20
146.0
 30
0.0
 40
2.125
  0
LINE
  8
0
  6
LTYPE1
 62
     2
 10
169.0
 20
143.5
 30
0.0
 11
169.0
 21
148.5
 31
0.0
  0
LINE
  8
0
  6
CONTINUOUS
 62
     2
 10
201.0
 20
147.875
 30
0.0
 11
199.376202368
 21
146.9375
 31
0.0
  0
LINE
  8
0
  6
CONTINUOUS
 62
     2
 10
199.376202368
 20
146.9375
 30
0.0
 11
199.376202368
 21
145.0625
 31
0.0
  0
LINE
  8
0
  6
CONTINUOUS
 62
     2
 10
199.376202368
 20
145.0625
 30
0.0
 11
201.0
 21
144.125
 31
0.0
  0
ARC
  8
0
  6
CONTINUOUS
 62
     2
 10
201.0
 20
146.0
 30
0.0
 40
1.775
 50
96.179548741
 51
144.19072803
  0
ARC
  8
0
  6
CONTINUOUS
 62
     2
 10
201.0
 20
146.0
 30
0.0
 40
1.775
 50
216.179548741
 51
263.820451259
  0
ARC
  8
0
  6
CONTINUOUS
 62
     2
 10
201.0
 20
146.0
 30
0.0
 40
1.775
 50
156.179548741
 51
203.820451259
  0
LINE
  8
0
  6
CONTINUOUS
 62
     2
 10
201.0
 20
144.125
 30
0.0
 11
202.623797632
 21
145.0625
 31
0.0
  0
LINE
  8
0
  6
CONTINUOUS
 62
     2
 10
202.623797632
 20
145.0625
 30
0.0
 11
202.623797632
 21
146.9375
 31
0.0
  0
LINE
  8
0
  6
CONTINUOUS
 62
     2
 10
202.623797632
 20
146.9375
 30
0.0
 11
201.0
 21
147.875
 31
0.0
  0
ARC
  8
0
  6
CONTINUOUS
 62
     2
 10
201.0
 20
146.0
 30
0.0
 40
1.775
 50
36.179548741
 51
83.820451259
  0
ARC
  8
0
  6
CONTINUOUS
 62
     2
 10
201.0
 20
146.0
 30
0.0
 40
1.775
 50
336.179548741
 51
23.820451259
  0
ARC
  8
0
  6
CONTINUOUS
 62
     2
 10
201.0
 20
146.0
 30
0.0
 40
1.775
 50
276.179548741
 51
324.19072803
  0
CIRCLE
  8
0
  6
CONTINUOUS
 62
     2
 10
201.0
 20
146.0
 30
0.0
 40
1.62375
  0
CIRCLE
  8
0
  6
CONTINUOUS
 62
     2
 10
201.0
 20
146.0
 30
0.0
 40
1.0
  0
CIRCLE
  8
0
  6
CONTINUOUS
 62
     2
 10
201.0
 20
146.0
 30
0.0
 40
0.8
  0
CIRCLE
  8
0
  6
CONTINUOUS
 62
     2
 10
201.0
 20
146.0
 30
0.0
 40
2.125
  0
LINE
  8
0
  6
LTYPE1
 62
     2
 10
201.0
 20
143.5
 30
0.0
 11
201.0
 21
148.5
 31
0.0
  0
LINE
  8
0
  6
CONTINUOUS
 62
     2
 10
169.0
 20
112.125
 30
0.0
 11
167.376202368
 21
113.0625
 31
0.0
  0
LINE
  8
0
  6
CONTINUOUS
 62
     2
 10
167.376202368
 20
113.0625
 30
0.0
 11
167.376202368
 21
114.9375
 31
0.0
  0
LINE
  8
0
  6
CONTINUOUS
 62
     2
 10
167.376202368
 20
114.9375
 30
0.0
 11
169.0
 21
115.875
 31
0.0
  0
ARC
  8
0
  6
CONTINUOUS
 62
     2
 10
169.0
 20
114.0
 30
0.0
 40
1.775
 50
215.80927197
 51
263.820451259
  0
ARC
  8
0
  6
CONTINUOUS
 62
     2
 10
169.0
 20
114.0
 30
0.0
 40
1.775
 50
96.179548741
 51
143.820451259
  0
ARC
  8
0
  6
CONTINUOUS
 62
     2
 10
169.0
 20
114.0
 30
0.0
 40
1.775
 50
156.179548741
 51
203.820451259
  0
LINE
  8
0
  6
CONTINUOUS
 62
     2
 10
169.0
 20
115.875
 30
0.0
 11
170.623797632
 21
114.9375
 31
0.0
  0
LINE
  8
0
  6
CONTINUOUS
 62
     2
 10
170.623797632
 20
114.9375
 30
0.0
 11
170.623797632
 21
113.0625
 31
0.0
  0
LINE
  8
0
  6
CONTINUOUS
 62
     2
 10
170.623797632
 20
113.0625
 30
0.0
 11
169.0
 21
112.125
 31
0.0
  0
ARC
  8
0
  6
CONTINUOUS
 62
     2
 10
169.0
 20
114.0
 30
0.0
 40
1.775
 50
276.179548741
 51
323.820451259
  0
ARC
  8
0
  6
CONTINUOUS
 62
     2
 10
169.0
 20
114.0
 30
0.0
 40
1.775
 50
336.179548741
 51
23.820451259
  0
ARC
  8
0
  6
CONTINUOUS
 62
     2
 10
169.0
 20
114.0
 30
0.0
 40
1.775
 50
35.80927197
 51
83.820451259
  0
CIRCLE
  8
0
  6
CONTINUOUS
 62
     2
 10
169.0
 20
114.0
 30
0.0
 40
1.62375
  0
CIRCLE
  8
0
  6
CONTINUOUS
 62
     2
 10
169.0
 20
114.0
 30
0.0
 40
1.0
  0
CIRCLE
  8
0
  6
CONTINUOUS
 62
     2
 10
169.0
 20
114.0
 30
0.0
 40
0.8
  0
CIRCLE
  8
0
  6
CONTINUOUS
 62
     2
 10
169.0
 20
114.0
 30
0.0
 40
2.125
  0
LINE
  8
0
  6
CONTINUOUS
 62
     2
 10
201.0
 20
112.125
 30
0.0
 11
199.376202368
 21
113.0625
 31
0.0
  0
LINE
  8
0
  6
CONTINUOUS
 62
     2
 10
199.376202368
 20
113.0625
 30
0.0
 11
199.376202368
 21
114.9375
 31
0.0
  0
LINE
  8
0
  6
CONTINUOUS
 62
     2
 10
199.376202368
 20
114.9375
 30
0.0
 11
201.0
 21
115.875
 31
0.0
  0
ARC
  8
0
  6
CONTINUOUS
 62
     2
 10
201.0
 20
114.0
 30
0.0
 40
1.775
 50
215.80927197
 51
263.820451259
  0
ARC
  8
0
  6
CONTINUOUS
 62
     2
 10
201.0
 20
114.0
 30
0.0
 40
1.775
 50
96.179548741
 51
143.820451259
  0
ARC
  8
0
  6
CONTINUOUS
 62
     2
 10
201.0
 20
114.0
 30
0.0
 40
1.775
 50
156.179548741
 51
203.820451259
  0
LINE
  8
0
  6
CONTINUOUS
 62
     2
 10
201.0
 20
115.875
 30
0.0
 11
202.623797632
 21
114.9375
 31
0.0
  0
LINE
  8
0
  6
CONTINUOUS
 62
     2
 10
202.623797632
 20
114.9375
 30
0.0
 11
202.623797632
 21
113.0625
 31
0.0
  0
LINE
  8
0
  6
CONTINUOUS
 62
     2
 10
202.623797632
 20
113.0625
 30
0.0
 11
201.0
 21
112.125
 31
0.0
  0
ARC
  8
0
  6
CONTINUOUS
 62
     2
 10
201.0
 20
114.0
 30
0.0
 40
1.775
 50
276.179548741
 51
323.820451259
  0
ARC
  8
0
  6
CONTINUOUS
 62
     2
 10
201.0
 20
114.0
 30
0.0
 40
1.775
 50
336.179548741
 51
23.820451259
  0
ARC
  8
0
  6
CONTINUOUS
 62
     2
 10
201.0
 20
114.0
 30
0.0
 40
1.775
 50
35.80927197
 51
83.820451259
  0
CIRCLE
  8
0
  6
CONTINUOUS
 62
     2
 10
201.0
 20
114.0
 30
0.0
 40
1.62375
  0
CIRCLE
  8
0
  6
CONTINUOUS
 62
     2
 10
201.0
 20
114.0
 30
0.0
 40
1.0
  0
CIRCLE
  8
0
  6
CONTINUOUS
 62
     2
 10
201.0
 20
114.0
 30
0.0
 40
0.8
  0
CIRCLE
  8
0
  6
CONTINUOUS
 62
     2
 10
201.0
 20
114.0
 30
0.0
 40
2.125
  0
TEXT
  8
0
  6
CONTINUOUS
 62
     1
 10
175.0
 20
33.25
 30
0.3
 40
3.0
  1
パネルカット図
 50
0.0
 41
0.9
 51
0.0
  7
KANJI2
  0
LINE
  8
0
  6
CONTINUOUS
 62
     1
 10
174.0
 20
32.25
 30
0.0
 11
197.0
 21
32.25
 31
0.0
  0
LINE
  8
0
  6
CONTINUOUS
 62
     2
 10
178.75
 20
119.75
 30
0.0
 11
176.982233047
 21
117.982233047
 31
0.0
  0
LINE
  8
0
  6
CONTINUOUS
 62
     2
 10
178.75
 20
119.75
 30
0.0
 11
178.102952387
 21
117.335185434
 31
0.0
  0
LINE
  8
0
  6
CONTINUOUS
 62
     2
 10
178.75
 20
119.75
 30
0.0
 11
168.75
 21
102.429491924
 31
0.0
  0
LINE
  8
0
  6
CONTINUOUS
 62
     2
 10
191.25
 20
119.75
 30
0.0
 11
188.941791551
 21
118.789701216
 31
0.0
  0
LINE
  8
0
  6
CONTINUOUS
 62
     2
 10
191.25
 20
119.75
 30
0.0
 11
189.731182238
 21
117.764252633
 31
0.0
  0
LINE
  8
0
  6
CONTINUOUS
 62
     2
 10
191.25
 20
119.75
 30
0.0
 11
168.75
 21
102.429491924
 31
0.0
  0
ARC
  8
0
  6
CONTINUOUS
 62
     1
 10
174.931686296
 20
137.681900335
 30
0.0
 40
0.25
 50
162.263811417
 51
290.403052068
  0
ARC
  8
0
  6
CONTINUOUS
 62
     1
 10
173.313122309
 20
134.878465274
 30
0.0
 40
0.25
 50
9.596947932
 51
137.736188583
  0
ARC
  8
0
  6
CONTINUOUS
 62
     1
 10
175.473720558
 20
135.5
 30
0.0
 40
2.0
 50
196.853635666
 51
103.146364334
  0
ARC
  8
0
  6
CONTINUOUS
 62
     1
 10
185.0
 20
130.0
 30
0.0
 40
12.9
 50
156.970225708
 51
162.917099949
  0
ARC
  8
0
  6
CONTINUOUS
 62
     1
 10
173.273462497
 20
133.703142938
 30
0.0
 40
0.548260903
 50
246.472787829
 51
252.391261117
  0
ARC
  8
0
  6
CONTINUOUS
 62
     1
 10
173.159034772
 20
133.689431509
 30
0.0
 40
0.5
 50
164.29736309
 51
257.944496741
  0
LINE
  8
0
  6
CONTINUOUS
 62
     1
 10
175.022520287
 20
130.75
 30
0.0
 11
175.022520287
 21
129.25
 31
0.0
  0
ARC
  8
0
  6
CONTINUOUS
 62
     1
 10
172.522520287
 20
130.75
 30
0.0
 40
2.5
 50
0.0
 51
76.465314761
  0
ARC
  8
0
  6
CONTINUOUS
 62
     1
 10
195.068313704
 20
137.681900335
 30
0.0
 40
0.25
 50
249.596947932
 51
17.736188583
  0
ARC
  8
0
  6
CONTINUOUS
 62
     1
 10
185.0
 20
130.0
 30
0.0
 40
12.9
 50
37.715433096
 51
143.029774292
  0
ARC
  8
0
  6
CONTINUOUS
 62
     1
 10
194.526279442
 20
135.5
 30
0.0
 40
2.0
 50
76.853635666
 51
343.146364334
  0
ARC
  8
0
  6
CONTINUOUS
 62
     1
 10
196.686877691
 20
134.878465274
 30
0.0
 40
0.25
 50
42.263811417
 51
170.403052068
  0
ARC
  8
0
  6
CONTINUOUS
 62
     1
 10
196.726537503
 20
133.703142938
 30
0.0
 40
0.548260903
 50
287.608738883
 51
293.527212171
  0
ARC
  8
0
  6
CONTINUOUS
 62
     1
 10
196.840965228
 20
133.689431509
 30
0.0
 40
0.5
 50
282.055503259
 51
15.70263691
  0
ARC
  8
0
  6
CONTINUOUS
 62
     1
 10
185.0
 20
130.0
 30
0.0
 40
12.9
 50
17.529287079
 51
23.029774292
  0
ARC
  8
0
  6
CONTINUOUS
 62
     1
 10
197.477479713
 20
130.75
 30
0.0
 40
2.5
 50
103.534685239
 51
180.0
  0
ARC
  8
0
  6
CONTINUOUS
 62
     1
 10
173.273462497
 20
126.296857062
 30
0.0
 40
0.548260903
 50
107.608738883
 51
113.527212171
  0
ARC
  8
0
  6
CONTINUOUS
 62
     1
 10
173.159034772
 20
126.310568491
 30
0.0
 40
0.5
 50
102.055503259
 51
195.70263691
  0
ARC
  8
0
  6
CONTINUOUS
 62
     1
 10
185.0
 20
130.0
 30
0.0
 40
12.9
 50
197.082900051
 51
263.029774292
  0
ARC
  8
0
  6
CONTINUOUS
 62
     1
 10
172.522520287
 20
129.25
 30
0.0
 40
2.5
 50
283.534685238
 51
0.0
  0
LINE
  8
0
  6
CONTINUOUS
 62
     1
 10
194.977479713
 20
130.75
 30
0.0
 11
194.977479713
 21
129.25
 31
0.0
  0
ARC
  8
0
  6
CONTINUOUS
 62
     1
 10
196.726537503
 20
126.296857062
 30
0.0
 40
0.548260903
 50
66.472787829
 51
72.391261117
  0
ARC
  8
0
  6
CONTINUOUS
 62
     1
 10
196.840965228
 20
126.310568491
 30
0.0
 40
0.5
 50
344.29736309
 51
77.944496741
  0
ARC
  8
0
  6
CONTINUOUS
 62
     1
 10
197.477479713
 20
129.25
 30
0.0
 40
2.5
 50
180.0
 51
256.465314762
  0
ARC
  8
0
  6
CONTINUOUS
 62
     1
 10
185.0
 20
119.0
 30
0.0
 40
2.0
 50
316.853635666
 51
223.146364334
  0
ARC
  8
0
  6
CONTINUOUS
 62
     1
 10
183.381436013
 20
117.439634391
 30
0.0
 40
0.25
 50
282.263811417
 51
50.403052068
  0
ARC
  8
0
  6
CONTINUOUS
 62
     1
 10
185.0
 20
130.0
 30
0.0
 40
12.9
 50
276.970225708
 51
342.917099949
  0
ARC
  8
0
  6
CONTINUOUS
 62
     1
 10
186.618563987
 20
117.439634391
 30
0.0
 40
0.25
 50
129.596947932
 51
257.736188583
  0
LINE
  8
0
  6
LTYPE2
 62
     2
 10
172.473720558
 20
135.5
 30
0.0
 11
178.473720558
 21
135.5
 31
0.0
  0
LINE
  8
0
  6
LTYPE2
 62
     2
 10
191.526279442
 20
135.5
 30
0.0
 11
197.526279442
 21
135.5
 31
0.0
  0
LINE
  8
0
  6
LTYPE2
 62
     2
 10
175.75
 20
121.5
 30
0.0
 11
181.75
 21
121.5
 31
0.0
  0
LINE
  8
0
  6
LTYPE2
 62
     2
 10
188.25
 20
121.5
 30
0.0
 11
194.25
 21
121.5
 31
0.0
  0
LINE
  8
0
  6
LTYPE2
 62
     2
 10
182.0
 20
119.0
 30
0.0
 11
188.0
 21
119.0
 31
0.0
  0
LINE
  8
0
  6
LTYPE2
 62
     2
 10
166.0
 20
146.0
 30
0.0
 11
172.0
 21
146.0
 31
0.0
  0
LINE
  8
0
  6
LTYPE2
 62
     2
 10
198.0
 20
146.0
 30
0.0
 11
204.0
 21
146.0
 31
0.0
  0
LINE
  8
0
  6
LTYPE2
 62
     2
 10
169.0
 20
117.0
 30
0.0
 11
169.0
 21
111.0
 31
0.0
  0
LINE
  8
0
  6
LTYPE2
 62
     2
 10
166.0
 20
114.0
 30
0.0
 11
172.0
 21
114.0
 31
0.0
  0
LINE
  8
0
  6
LTYPE2
 62
     2
 10
201.0
 20
111.0
 30
0.0
 11
201.0
 21
117.0
 31
0.0
  0
LINE
  8
0
  6
LTYPE2
 62
     2
 10
198.0
 20
114.0
 30
0.0
 11
204.0
 21
114.0
 31
0.0
  0
LINE
  8
0
  6
LTYPE2
 62
     2
 10
185.0
 20
153.8
 30
0.0
 11
185.0
 21
107.529491924
 31
0.0
  0
LINE
  8
0
  6
CONTINUOUS
 62
     2
 10
30.0
 20
150.0
 30
0.0
 11
30.0
 21
162.0
 31
0.0
  0
LINE
  8
0
  6
CONTINUOUS
 62
     2
 10
30.0
 20
160.0
 30
0.0
 11
32.414814566
 21
159.352952387
 31
0.0
  0
LINE
  8
0
  6
CONTINUOUS
 62
     2
 10
30.0
 20
160.0
 30
0.0
 11
32.414814566
 21
160.647047613
 31
0.0
  0
LINE
  8
0
  6
CONTINUOUS
 62
     2
 10
30.0
 20
160.0
 30
0.0
 11
70.0
 21
160.0
 31
0.0
  0
LINE
  8
0
  6
CONTINUOUS
 62
     2
 10
70.0
 20
160.0
 30
0.0
 11
67.585185434
 21
160.647047613
 31
0.0
  0
LINE
  8
0
  6
CONTINUOUS
 62
     2
 10
70.0
 20
160.0
 30
0.0
 11
67.585185434
 21
159.352952387
 31
0.0
  0
LINE
  8
0
  6
CONTINUOUS
 62
     2
 10
70.0
 20
150.0
 30
0.0
 11
70.0
 21
162.0
 31
0.0
  0
TEXT
  8
0
  6
CONTINUOUS
 62
     2
 10
48.05
 20
161.0
 30
0.3
 40
3.0
  1
８０
 50
0.0
 41
0.6
 51
0.0
  7
KANJI0
  0
LINE
  8
0
  6
CONTINUOUS
 62
     2
 10
70.0
 20
150.0
 30
0.0
 11
82.0
 21
150.0
 31
0.0
  0
LINE
  8
0
  6
CONTINUOUS
 62
     2
 10
80.0
 20
150.0
 30
0.0
 11
79.352952387
 21
147.585185434
 31
0.0
  0
LINE
  8
0
  6
CONTINUOUS
 62
     2
 10
80.0
 20
150.0
 30
0.0
 11
80.647047613
 21
147.585185434
 31
0.0
  0
LINE
  8
0
  6
CONTINUOUS
 62
     2
 10
80.0
 20
150.0
 30
0.0
 11
80.0
 21
110.0
 31
0.0
  0
LINE
  8
0
  6
CONTINUOUS
 62
     2
 10
80.0
 20
110.0
 30
0.0
 11
80.647047613
 21
112.414814566
 31
0.0
  0
LINE
  8
0
  6
CONTINUOUS
 62
     2
 10
80.0
 20
110.0
 30
0.0
 11
79.352952387
 21
112.414814566
 31
0.0
  0
LINE
  8
0
  6
CONTINUOUS
 62
     2
 10
70.0
 20
110.0
 30
0.0
 11
82.0
 21
110.0
 31
0.0
  0
TEXT
  8
0
  6
CONTINUOUS
 62
     2
 10
79.0
 20
128.05
 30
0.3
 40
3.0
  1
８０
 50
90.0
 41
0.6
 51
0.0
  7
KANJI0
  0
TEXT
  8
0
  6
CONTINUOUS
 62
     2
 10
175.75
 20
103.429491924
 30
0.3
 40
3.0
  1
２－Ｍ４　ターミナルネジ
 50
0.0
 41
0.6
 51
0.0
  7
KANJI0
  0
LINE
  8
0
  6
CONTINUOUS
 62
     2
 10
168.75
 20
102.429491924
 30
0.0
 11
202.0
 21
102.429491924
 31
0.0
  0
LINE
  8
0
  6
LTYPE1
 62
     2
 10
150.5
 20
130.0
 30
0.0
 11
146.5
 21
130.0
 31
0.0
  0
LINE
  8
0
  6
LTYPE3
 62
     2
 10
98.56
 20
113.75
 30
0.0
 11
113.049955
 21
113.75
 31
0.0
  0
LINE
  8
0
  6
CONTINUOUS
 62
     2
 10
103.8
 20
114.75664
 30
0.0
 11
107.35
 21
114.75664
 31
0.0
  0
LINE
  8
0
  6
CONTINUOUS
 62
     2
 10
107.35
 20
114.556645
 30
0.0
 11
103.8
 21
114.556645
 31
0.0
  0
LINE
  8
0
  6
CONTINUOUS
 62
     2
 10
103.75
 20
112.956685
 30
0.0
 11
107.35
 21
112.956685
 31
0.0
  0
LINE
  8
0
  6
CONTINUOUS
 62
     2
 10
107.35
 20
112.75669
 30
0.0
 11
103.8
 21
112.75669
 31
0.0
  0
LINE
  8
0
  6
CONTINUOUS
 62
     2
 10
111.25
 20
114.75664
 30
0.0
 11
109.25
 21
114.75664
 31
0.0
  0
LINE
  8
0
  6
CONTINUOUS
 62
     2
 10
109.25
 20
112.75669
 30
0.0
 11
111.246735
 21
112.75669
 31
0.0
  0
LINE
  8
0
  6
CONTINUOUS
 62
     2
 10
111.25
 20
114.556645
 30
0.0
 11
109.25
 21
114.556645
 31
0.0
  0
LINE
  8
0
  6
CONTINUOUS
 62
     2
 10
109.25
 20
112.956685
 30
0.0
 11
111.25
 21
112.956685
 31
0.0
  0
LINE
  8
0
  6
CONTINUOUS
 62
     2
 10
111.25
 20
114.75664
 30
0.0
 11
111.25
 21
112.75669
 31
0.0
  0
LINE
  8
0
  6
CONTINUOUS
 62
     2
 10
109.0
 20
115.85
 30
0.0
 11
107.75
 21
115.85
 31
0.0
  0
LINE
  8
0
  6
CONTINUOUS
 62
     2
 10
109.0
 20
115.85
 30
0.0
 11
109.25
 21
115.6
 31
0.0
  0
LINE
  8
0
  6
CONTINUOUS
 62
     2
 10
108.99
 20
114.785
 30
0.0
 11
109.25
 21
115.085
 31
0.0
  0
LINE
  8
0
  6
CONTINUOUS
 62
     2
 10
109.25
 20
112.5
 30
0.0
 11
108.95
 21
112.77
 31
0.0
  0
LINE
  8
0
  6
CONTINUOUS
 62
     2
 10
109.25
 20
113.075
 30
0.0
 11
108.95
 21
112.805
 31
0.0
  0
LINE
  8
0
  6
CONTINUOUS
 62
     2
 10
108.95
 20
111.775
 30
0.0
 11
109.25
 21
112.075
 31
0.0
  0
LINE
  8
0
  6
CONTINUOUS
 62
     2
 10
107.75
 20
111.8
 30
0.0
 11
109.0
 21
111.8
 31
0.0
  0
LINE
  8
0
  6
CONTINUOUS
 62
     2
 10
107.75
 20
115.85
 30
0.0
 11
107.75
 21
111.8
 31
0.0
  0
LINE
  8
0
  6
CONTINUOUS
 62
     2
 10
109.25
 20
112.055
 30
0.0
 11
109.25
 21
115.6
 31
0.0
  0
LINE
  8
0
  6
CONTINUOUS
 62
     2
 10
109.003
 20
114.8
 30
0.0
 11
109.253
 21
114.6
 31
0.0
  0
LINE
  8
0
  6
CONTINUOUS
 62
     2
 10
109.003
 20
114.8
 30
0.0
 11
107.75
 21
114.8
 31
0.0
  0
LINE
  8
0
  6
CONTINUOUS
 62
     2
 10
107.75
 20
112.8
 30
0.0
 11
108.966666667
 21
112.8
 31
0.0
  0
LINE
  8
0
  6
CONTINUOUS
 62
     2
 10
107.75
 20
115.85
 30
0.0
 11
107.35
 21
116.25
 31
0.0
  0
LINE
  8
0
  6
CONTINUOUS
 62
     2
 10
107.35
 20
116.25
 30
0.0
 11
107.35
 21
111.4
 31
0.0
  0
LINE
  8
0
  6
CONTINUOUS
 62
     2
 10
107.75
 20
111.8
 30
0.0
 11
107.35
 21
111.4
 31
0.0
  0
LINE
  8
0
  6
CONTINUOUS
 62
     2
 10
103.5
 20
116.25
 30
0.0
 11
103.75
 21
116.25
 31
0.0
  0
LINE
  8
0
  6
CONTINUOUS
 62
     2
 10
103.75
 20
116.25
 30
0.0
 11
103.75
 21
111.25
 31
0.0
  0
LINE
  8
0
  6
CONTINUOUS
 62
     2
 10
103.75
 20
111.25
 30
0.0
 11
103.5
 21
111.25
 31
0.0
  0
LINE
  8
0
  6
LTYPE3
 62
     2
 10
98.56
 20
146.25
 30
0.0
 11
113.049955
 21
146.25
 31
0.0
  0
LINE
  8
0
  6
CONTINUOUS
 62
     2
 10
103.8
 20
145.24336
 30
0.0
 11
107.35
 21
145.24336
 31
0.0
  0
LINE
  8
0
  6
CONTINUOUS
 62
     2
 10
107.35
 20
145.443355
 30
0.0
 11
103.8
 21
145.443355
 31
0.0
  0
LINE
  8
0
  6
CONTINUOUS
 62
     2
 10
103.75
 20
147.043315
 30
0.0
 11
107.35
 21
147.043315
 31
0.0
  0
LINE
  8
0
  6
CONTINUOUS
 62
     2
 10
107.35
 20
147.24331
 30
0.0
 11
103.8
 21
147.24331
 31
0.0
  0
LINE
  8
0
  6
CONTINUOUS
 62
     2
 10
111.25
 20
145.24336
 30
0.0
 11
109.25
 21
145.24336
 31
0.0
  0
LINE
  8
0
  6
CONTINUOUS
 62
     2
 10
109.25
 20
147.24331
 30
0.0
 11
111.246735
 21
147.24331
 31
0.0
  0
LINE
  8
0
  6
CONTINUOUS
 62
     2
 10
111.25
 20
145.443355
 30
0.0
 11
109.25
 21
145.443355
 31
0.0
  0
LINE
  8
0
  6
CONTINUOUS
 62
     2
 10
109.25
 20
147.043315
 30
0.0
 11
111.25
 21
147.043315
 31
0.0
  0
LINE
  8
0
  6
CONTINUOUS
 62
     2
 10
111.25
 20
145.24336
 30
0.0
 11
111.25
 21
147.24331
 31
0.0
  0
LINE
  8
0
  6
CONTINUOUS
 62
     2
 10
109.0
 20
144.15
 30
0.0
 11
107.75
 21
144.15
 31
0.0
  0
LINE
  8
0
  6
CONTINUOUS
 62
     2
 10
109.0
 20
144.15
 30
0.0
 11
109.25
 21
144.4
 31
0.0
  0
LINE
  8
0
  6
CONTINUOUS
 62
     2
 10
108.99
 20
145.215
 30
0.0
 11
109.25
 21
144.915
 31
0.0
  0
LINE
  8
0
  6
CONTINUOUS
 62
     2
 10
109.25
 20
147.5
 30
0.0
 11
108.95
 21
147.23
 31
0.0
  0
LINE
  8
0
  6
CONTINUOUS
 62
     2
 10
109.25
 20
146.925
 30
0.0
 11
108.95
 21
147.195
 31
0.0
  0
LINE
  8
0
  6
CONTINUOUS
 62
     2
 10
108.95
 20
148.225
 30
0.0
 11
109.25
 21
147.925
 31
0.0
  0
LINE
  8
0
  6
CONTINUOUS
 62
     2
 10
107.75
 20
148.2
 30
0.0
 11
109.0
 21
148.2
 31
0.0
  0
LINE
  8
0
  6
CONTINUOUS
 62
     2
 10
107.75
 20
144.15
 30
0.0
 11
107.75
 21
148.2
 31
0.0
  0
LINE
  8
0
  6
CONTINUOUS
 62
     2
 10
109.25
 20
147.945
 30
0.0
 11
109.25
 21
144.4
 31
0.0
  0
LINE
  8
0
  6
CONTINUOUS
 62
     2
 10
109.003
 20
145.2
 30
0.0
 11
109.253
 21
145.4
 31
0.0
  0
LINE
  8
0
  6
CONTINUOUS
 62
     2
 10
109.003
 20
145.2
 30
0.0
 11
107.75
 21
145.2
 31
0.0
  0
LINE
  8
0
  6
CONTINUOUS
 62
     2
 10
107.75
 20
147.2
 30
0.0
 11
108.966666667
 21
147.2
 31
0.0
  0
LINE
  8
0
  6
CONTINUOUS
 62
     2
 10
107.75
 20
144.15
 30
0.0
 11
107.35
 21
143.75
 31
0.0
  0
LINE
  8
0
  6
CONTINUOUS
 62
     2
 10
107.35
 20
143.75
 30
0.0
 11
107.35
 21
148.6
 31
0.0
  0
LINE
  8
0
  6
CONTINUOUS
 62
     2
 10
107.75
 20
148.2
 30
0.0
 11
107.35
 21
148.6
 31
0.0
  0
LINE
  8
0
  6
CONTINUOUS
 62
     2
 10
103.5
 20
143.75
 30
0.0
 11
103.75
 21
143.75
 31
0.0
  0
LINE
  8
0
  6
CONTINUOUS
 62
     2
 10
103.75
 20
143.75
 30
0.0
 11
103.75
 21
148.75
 31
0.0
  0
LINE
  8
0
  6
CONTINUOUS
 62
     2
 10
103.75
 20
148.75
 30
0.0
 11
103.5
 21
148.75
 31
0.0
  0
LINE
  8
0
  6
CONTINUOUS
 62
     2
 10
148.706949811
 20
123.0
 30
0.0
 11
148.706949811
 21
120.0
 31
0.0
  0
LINE
  8
0
  6
CONTINUOUS
 62
     2
 10
148.706949811
 20
123.0
 30
0.0
 11
148.706949811
 21
123.25
 31
0.0
  0
LINE
  8
0
  6
CONTINUOUS
 62
     2
 10
148.706949811
 20
123.25
 30
0.0
 11
149.206949811
 21
123.25
 31
0.0
  0
LINE
  8
0
  6
CONTINUOUS
 62
     2
 10
149.206949811
 20
123.25
 30
0.0
 11
149.206949811
 21
119.75
 31
0.0
  0
LINE
  8
0
  6
CONTINUOUS
 62
     2
 10
149.206949811
 20
119.75
 30
0.0
 11
148.706949811
 21
119.75
 31
0.0
  0
LINE
  8
0
  6
CONTINUOUS
 62
     2
 10
148.706949811
 20
119.75
 30
0.0
 11
148.706949811
 21
120.0
 31
0.0
  0
LINE
  8
0
  6
CONTINUOUS
 62
     2
 10
148.706949811
 20
121.5
 30
0.0
 11
149.206949811
 21
121.788675135
 31
0.0
  0
LINE
  8
0
  6
CONTINUOUS
 62
     2
 10
148.706949811
 20
121.211324865
 30
0.0
 11
149.206949811
 21
121.5
 31
0.0
  0
ARC
  8
0
  6
CONTINUOUS
 62
     2
 10
149.696461974
 20
120.4
 30
0.0
 40
0.65
 50
270.0
 51
343.398450401
  0
ARC
  8
0
  6
CONTINUOUS
 62
     2
 10
149.696461974
 20
122.6
 30
0.0
 40
0.65
 50
16.601549599
 51
90.0
  0
LINE
  8
0
  6
CONTINUOUS
 62
     2
 10
149.206949811
 20
123.25
 30
0.0
 11
149.696461974
 21
123.25
 31
0.0
  0
LINE
  8
0
  6
CONTINUOUS
 62
     2
 10
149.206949811
 20
119.75
 30
0.0
 11
149.696461974
 21
119.75
 31
0.0
  0
LINE
  8
0
  6
CONTINUOUS
 62
     2
 10
150.506949811
 20
121.75
 30
0.0
 11
149.806949811
 21
121.75
 31
0.0
  0
LINE
  8
0
  6
CONTINUOUS
 62
     2
 10
149.806949811
 20
121.75
 30
0.0
 11
149.806949811
 21
121.25
 31
0.0
  0
LINE
  8
0
  6
CONTINUOUS
 62
     2
 10
149.806949811
 20
121.25
 30
0.0
 11
150.506949811
 21
121.25
 31
0.0
  0
ARC
  8
0
  6
CONTINUOUS
 62
     2
 10
146.006949811
 20
121.5
 30
0.0
 40
4.5
 50
3.17983012
 51
16.601549599
  0
ARC
  8
0
  6
CONTINUOUS
 62
     2
 10
146.006949811
 20
121.5
 30
0.0
 40
4.5
 50
343.398450401
 51
356.82016988
  0
LINE
  8
0
  6
CONTINUOUS
 62
     2
 10
146.5
 20
123.0
 30
0.0
 11
148.706949811
 21
123.0
 31
0.0
  0
LINE
  8
0
  6
CONTINUOUS
 62
     2
 10
148.706949811
 20
120.0
 30
0.0
 11
146.5
 21
120.0
 31
0.0
  0
LINE
  8
0
  6
CONTINUOUS
 62
     2
 10
146.5
 20
131.5
 30
0.0
 11
146.5
 21
128.5
 31
0.0
  0
LINE
  8
0
  6
CONTINUOUS
 62
     2
 10
146.5
 20
131.5
 30
0.0
 11
146.5
 21
131.75
 31
0.0
  0
LINE
  8
0
  6
CONTINUOUS
 62
     2
 10
146.5
 20
131.75
 30
0.0
 11
147.0
 21
131.75
 31
0.0
  0
LINE
  8
0
  6
CONTINUOUS
 62
     2
 10
147.0
 20
131.75
 30
0.0
 11
147.0
 21
128.25
 31
0.0
  0
LINE
  8
0
  6
CONTINUOUS
 62
     2
 10
147.0
 20
128.25
 30
0.0
 11
146.5
 21
128.25
 31
0.0
  0
LINE
  8
0
  6
CONTINUOUS
 62
     2
 10
146.5
 20
128.25
 30
0.0
 11
146.5
 21
128.5
 31
0.0
  0
LINE
  8
0
  6
CONTINUOUS
 62
     2
 10
146.5
 20
130.0
 30
0.0
 11
147.0
 21
130.288675135
 31
0.0
  0
LINE
  8
0
  6
CONTINUOUS
 62
     2
 10
146.5
 20
129.711324865
 30
0.0
 11
147.0
 21
130.0
 31
0.0
  0
ARC
  8
0
  6
CONTINUOUS
 62
     2
 10
147.489512163
 20
128.9
 30
0.0
 40
0.65
 50
270.0
 51
343.398450401
  0
ARC
  8
0
  6
CONTINUOUS
 62
     2
 10
147.489512163
 20
131.1
 30
0.0
 40
0.65
 50
16.601549599
 51
90.0
  0
LINE
  8
0
  6
CONTINUOUS
 62
     2
 10
147.0
 20
131.75
 30
0.0
 11
147.489512163
 21
131.75
 31
0.0
  0
LINE
  8
0
  6
CONTINUOUS
 62
     2
 10
147.0
 20
128.25
 30
0.0
 11
147.489512163
 21
128.25
 31
0.0
  0
LINE
  8
0
  6
CONTINUOUS
 62
     2
 10
148.3
 20
130.25
 30
0.0
 11
147.6
 21
130.25
 31
0.0
  0
LINE
  8
0
  6
CONTINUOUS
 62
     2
 10
147.6
 20
130.25
 30
0.0
 11
147.6
 21
129.75
 31
0.0
  0
LINE
  8
0
  6
CONTINUOUS
 62
     2
 10
147.6
 20
129.75
 30
0.0
 11
148.3
 21
129.75
 31
0.0
  0
ARC
  8
0
  6
CONTINUOUS
 62
     2
 10
143.8
 20
130.0
 30
0.0
 40
4.5
 50
3.17983012
 51
16.601549599
  0
ARC
  8
0
  6
CONTINUOUS
 62
     2
 10
143.8
 20
130.0
 30
0.0
 40
4.5
 50
343.398450401
 51
356.82016988
  0
LINE
  8
0
  6
CONTINUOUS
 62
     2
 10
103.75
 20
149.75
 30
0.0
 11
103.75
 21
157.0
 31
0.0
  0
LINE
  8
0
  6
CONTINUOUS
 62
     2
 10
103.75
 20
155.0
 30
0.0
 11
106.164814566
 21
154.352952387
 31
0.0
  0
LINE
  8
0
  6
CONTINUOUS
 62
     2
 10
103.75
 20
155.0
 30
0.0
 11
106.164814566
 21
155.647047613
 31
0.0
  0
LINE
  8
0
  6
CONTINUOUS
 62
     2
 10
103.75
 20
155.0
 30
0.0
 11
111.25
 21
155.0
 31
0.0
  0
LINE
  8
0
  6
CONTINUOUS
 62
     2
 10
111.25
 20
155.0
 30
0.0
 11
108.835185434
 21
155.647047613
 31
0.0
  0
LINE
  8
0
  6
CONTINUOUS
 62
     2
 10
111.25
 20
155.0
 30
0.0
 11
108.835185434
 21
154.352952387
 31
0.0
  0
LINE
  8
0
  6
CONTINUOUS
 62
     2
 10
111.25
 20
148.24331
 30
0.0
 11
111.25
 21
157.0
 31
0.0
  0
TEXT
  8
0
  6
CONTINUOUS
 62
     2
 10
105.55
 20
156.0
 30
0.3
 40
3.0
  1
１５
 50
0.0
 41
0.6
 51
0.0
  7
KANJI0
  0
LINE
  8
0
  6
CONTINUOUS
 62
     2
 10
103.5
 20
155.0
 30
0.0
 11
101.085185434
 21
155.647047613
 31
0.0
  0
LINE
  8
0
  6
CONTINUOUS
 62
     2
 10
103.5
 20
155.0
 30
0.0
 11
101.085185434
 21
154.352952387
 31
0.0
  0
LINE
  8
0
  6
CONTINUOUS
 62
     2
 10
103.5
 20
151.0
 30
0.0
 11
103.5
 21
157.0
 31
0.0
  0
LINE
  8
0
  6
CONTINUOUS
 62
     1
 10
146.002906928
 20
146.002890076
 30
0.0
 11
111.25
 21
146.20494186
 31
0.0
  0
ARC
  8
0
  6
CONTINUOUS
 62
     1
 10
146.0
 20
145.502898526
 30
0.0
 40
0.5
 50
0.0
 51
89.666888756
  0
LINE
  8
0
  6
CONTINUOUS
 62
     1
 10
146.002906928
 20
113.997109924
 30
0.0
 11
111.25
 21
113.79505814
 31
0.0
  0
LINE
  8
0
  6
CONTINUOUS
 62
     1
 10
146.5
 20
114.497101474
 30
0.0
 11
146.5
 21
145.502898526
 31
0.0
  0
ARC
  8
0
  6
CONTINUOUS
 62
     1
 10
146.0
 20
114.497101474
 30
0.0
 40
0.5
 50
270.333111244
 51
0.0
  0
LINE
  8
0
  6
CONTINUOUS
 62
     2
 10
103.5
 20
157.0
 30
0.0
 11
103.5
 21
162.0
 31
0.0
  0
LINE
  8
0
  6
CONTINUOUS
 62
     2
 10
103.5
 20
160.0
 30
0.0
 11
105.914814566
 21
159.352952387
 31
0.0
  0
LINE
  8
0
  6
CONTINUOUS
 62
     2
 10
103.5
 20
160.0
 30
0.0
 11
105.914814566
 21
160.647047613
 31
0.0
  0
LINE
  8
0
  6
CONTINUOUS
 62
     2
 10
103.5
 20
160.0
 30
0.0
 11
146.5
 21
160.0
 31
0.0
  0
LINE
  8
0
  6
CONTINUOUS
 62
     2
 10
146.5
 20
160.0
 30
0.0
 11
144.085185434
 21
160.647047613
 31
0.0
  0
LINE
  8
0
  6
CONTINUOUS
 62
     2
 10
146.5
 20
160.0
 30
0.0
 11
144.085185434
 21
159.352952387
 31
0.0
  0
LINE
  8
0
  6
CONTINUOUS
 62
     2
 10
146.5
 20
146.502898526
 30
0.0
 11
146.5
 21
162.0
 31
0.0
  0
TEXT
  8
0
  6
CONTINUOUS
 62
     2
 10
123.05
 20
161.0
 30
0.3
 40
3.0
  1
８６
 50
0.0
 41
0.6
 51
0.0
  7
KANJI0
  0
LINE
  8
0
  6
CONTINUOUS
 62
     1
 10
103.5
 20
110.0
 30
0.0
 11
103.5
 21
150.0
 31
0.0
  0
LINE
  8
0
  6
CONTINUOUS
 62
     1
 10
100.25
 20
149.0
 30
0.0
 11
98.474030411
 21
149.0
 31
0.0
  0
LINE
  8
0
  6
CONTINUOUS
 62
     1
 10
97.474376492
 20
148.026306682
 30
0.0
 11
97.0
 21
130.0
 31
0.0
  0
ARC
  8
0
  6
CONTINUOUS
 62
     1
 10
98.474030411
 20
148.0
 30
0.0
 40
1.0
 50
90.0
 51
178.492564241
  0
LINE
  8
0
  6
CONTINUOUS
 62
     1
 10
98.474030411
 20
111.0
 30
0.0
 11
100.25
 21
111.0
 31
0.0
  0
LINE
  8
0
  6
CONTINUOUS
 62
     1
 10
97.0
 20
130.0
 30
0.0
 11
97.474376492
 21
111.973693318
 31
0.0
  0
ARC
  8
0
  6
CONTINUOUS
 62
     1
 10
98.474030411
 20
112.0
 30
0.0
 40
1.0
 50
181.507435759
 51
270.0
  0
LINE
  8
0
  6
CONTINUOUS
 62
     1
 10
101.25
 20
110.0
 30
0.0
 11
103.5
 21
110.0
 31
0.0
  0
ARC
  8
0
  6
CONTINUOUS
 62
     1
 10
101.25
 20
111.0
 30
0.0
 40
1.0
 50
180.0
 51
270.0
  0
LINE
  8
0
  6
CONTINUOUS
 62
     1
 10
103.5
 20
150.0
 30
0.0
 11
101.25
 21
150.0
 31
0.0
  0
LINE
  8
0
  6
CONTINUOUS
 62
     1
 10
100.25
 20
149.0
 30
0.0
 11
100.25
 21
111.0
 31
0.0
  0
ARC
  8
0
  6
CONTINUOUS
 62
     1
 10
101.25
 20
149.0
 30
0.0
 40
1.0
 50
90.0
 51
180.0
  0
ARC
  8
0
  6
CONTINUOUS
 62
     2
 10
100.20834
 20
145.04186
 30
0.0
 40
0.04166
 50
270.0
 51
0.0
  0
LINE
  8
0
  6
CONTINUOUS
 62
     2
 10
100.25
 20
147.45814
 30
0.0
 11
100.25
 21
145.04186
 31
0.0
  0
ARC
  8
0
  6
CONTINUOUS
 62
     2
 10
100.20834
 20
147.45814
 30
0.0
 40
0.04166
 50
0.0
 51
90.0
  0
LINE
  8
0
  6
CONTINUOUS
 62
     2
 10
99.8334
 20
147.4998
 30
0.0
 11
100.20834
 21
147.4998
 31
0.0
  0
ARC
  8
0
  6
CONTINUOUS
 62
     2
 10
99.8334
 20
147.41648
 30
0.0
 40
0.08332
 50
90.0
 51
180.0
  0
LINE
  8
0
  6
CONTINUOUS
 62
     2
 10
100.20834
 20
145.0002
 30
0.0
 11
99.8334
 21
145.0002
 31
0.0
  0
ARC
  8
0
  6
CONTINUOUS
 62
     2
 10
99.8334
 20
145.08352
 30
0.0
 40
0.08332
 50
180.0
 51
270.0
  0
LINE
  8
0
  6
CONTINUOUS
 62
     2
 10
99.79174
 20
147.479663755
 30
0.0
 11
99.79174
 21
145.032138755
 31
0.0
  0
LINE
  8
0
  6
CONTINUOUS
 62
     2
 10
99.45846
 20
146.35415
 30
0.0
 11
99.54178
 21
146.35415
 31
0.0
  0
LINE
  8
0
  6
CONTINUOUS
 62
     2
 10
99.54178
 20
146.35415
 30
0.0
 11
99.54178
 21
146.14585
 31
0.0
  0
LINE
  8
0
  6
CONTINUOUS
 62
     2
 10
99.54178
 20
146.14585
 30
0.0
 11
99.45846
 21
146.14585
 31
0.0
  0
ARC
  8
0
  6
CONTINUOUS
 62
     2
 10
101.95806
 20
146.25
 30
0.0
 40
2.4996
 50
182.388015463
 51
208.705241991
  0
ARC
  8
0
  6
CONTINUOUS
 62
     2
 10
101.95806
 20
146.25
 30
0.0
 40
2.4996
 50
151.057310003
 51
177.611984537
  0
ARC
  8
0
  6
CONTINUOUS
 62
     2
 10
100.20834
 20
114.95814
 30
0.0
 40
0.04166
 50
0.0
 51
90.0
  0
LINE
  8
0
  6
CONTINUOUS
 62
     2
 10
100.25
 20
112.54186
 30
0.0
 11
100.25
 21
114.95814
 31
0.0
  0
ARC
  8
0
  6
CONTINUOUS
 62
     2
 10
100.20834
 20
112.54186
 30
0.0
 40
0.04166
 50
270.0
 51
0.0
  0
LINE
  8
0
  6
CONTINUOUS
 62
     2
 10
99.8334
 20
112.5002
 30
0.0
 11
100.20834
 21
112.5002
 31
0.0
  0
ARC
  8
0
  6
CONTINUOUS
 62
     2
 10
99.8334
 20
112.58352
 30
0.0
 40
0.08332
 50
180.0
 51
270.0
  0
LINE
  8
0
  6
CONTINUOUS
 62
     2
 10
100.20834
 20
114.9998
 30
0.0
 11
99.8334
 21
114.9998
 31
0.0
  0
ARC
  8
0
  6
CONTINUOUS
 62
     2
 10
99.8334
 20
114.91648
 30
0.0
 40
0.08332
 50
90.0
 51
180.0
  0
LINE
  8
0
  6
CONTINUOUS
 62
     2
 10
99.79174
 20
112.520336245
 30
0.0
 11
99.79174
 21
114.967861245
 31
0.0
  0
LINE
  8
0
  6
CONTINUOUS
 62
     2
 10
99.45846
 20
113.64585
 30
0.0
 11
99.54178
 21
113.64585
 31
0.0
  0
LINE
  8
0
  6
CONTINUOUS
 62
     2
 10
99.54178
 20
113.64585
 30
0.0
 11
99.54178
 21
113.85415
 31
0.0
  0
LINE
  8
0
  6
CONTINUOUS
 62
     2
 10
99.54178
 20
113.85415
 30
0.0
 11
99.45846
 21
113.85415
 31
0.0
  0
ARC
  8
0
  6
CONTINUOUS
 62
     2
 10
101.95806
 20
113.75
 30
0.0
 40
2.4996
 50
151.294758009
 51
177.611984537
  0
ARC
  8
0
  6
CONTINUOUS
 62
     2
 10
101.95806
 20
113.75
 30
0.0
 40
2.4996
 50
182.388015463
 51
208.942689997
  0
TEXT
  8
0
  6
CONTINUOUS
 62
     2
 10
96.075
 20
156.0
 30
0.3
 40
3.0
  1
０．５
 50
0.0
 41
0.6
 51
0.0
  7
KANJI0
  0
LINE
  8
0
  6
CONTINUOUS
 62
     2
 10
103.75
 20
155.0
 30
0.0
 11
96.0
 21
155.0
 31
0.0
  0
LINE
  8
0
  6
CONTINUOUS
 62
     2
 10
146.5
 20
160.0
 30
0.0
 11
144.085185434
 21
160.647047613
 31
0.0
  0
LINE
  8
0
  6
CONTINUOUS
 62
     2
 10
146.5
 20
160.0
 30
0.0
 11
144.085185434
 21
159.352952387
 31
0.0
  0
LINE
  8
0
  6
CONTINUOUS
 62
     2
 10
142.75
 20
160.0
 30
0.0
 11
146.5
 21
160.0
 31
0.0
  0
LINE
  8
0
  6
CONTINUOUS
 62
     2
 10
146.5
 20
160.0
 30
0.0
 11
150.5
 21
160.0
 31
0.0
  0
LINE
  8
0
  6
CONTINUOUS
 62
     2
 10
150.5
 20
160.0
 30
0.0
 11
154.25
 21
160.0
 31
0.0
  0
LINE
  8
0
  6
CONTINUOUS
 62
     2
 10
150.5
 20
160.0
 30
0.0
 11
152.914814566
 21
159.352952387
 31
0.0
  0
LINE
  8
0
  6
CONTINUOUS
 62
     2
 10
150.5
 20
160.0
 30
0.0
 11
152.914814566
 21
160.647047613
 31
0.0
  0
LINE
  8
0
  6
CONTINUOUS
 62
     2
 10
150.5
 20
122.5
 30
0.0
 11
150.5
 21
162.0
 31
0.0
  0
TEXT
  8
0
  6
CONTINUOUS
 62
     2
 10
147.6
 20
161.0
 30
0.3
 40
3.0
  1
８
 50
0.0
 41
0.6
 51
0.0
  7
KANJI0
  0
LINE
  8
0
  6
CONTINUOUS
 62
     2
 10
135.0
 20
146.066860465
 30
0.0
 11
134.352952387
 21
143.652045899
 31
0.0
  0
LINE
  8
0
  6
CONTINUOUS
 62
     2
 10
135.0
 20
146.066860465
 30
0.0
 11
135.647047613
 21
143.652045899
 31
0.0
  0
LINE
  8
0
  6
CONTINUOUS
 62
     2
 10
135.0
 20
146.066860465
 30
0.0
 11
135.0
 21
113.933139535
 31
0.0
  0
LINE
  8
0
  6
CONTINUOUS
 62
     2
 10
135.0
 20
113.933139535
 30
0.0
 11
135.647047613
 21
116.347954101
 31
0.0
  0
LINE
  8
0
  6
CONTINUOUS
 62
     2
 10
135.0
 20
113.933139535
 30
0.0
 11
134.352952387
 21
116.347954101
 31
0.0
  0
TEXT
  8
0
  6
CONTINUOUS
 62
     2
 10
134.0
 20
125.83
 30
0.3
 40
3.0
  1
φ６５
 50
90.0
 41
0.6
 51
0.0
  7
KANJI0
  0
TEXT
  8
0
  6
CONTINUOUS
 62
     2
 10
134.0
 20
132.28
 30
0.18
 40
1.8
  1
±１
 50
90.0
 41
0.6
 51
0.0
  7
KANJI1
  0
LINE
  8
0
  6
CONTINUOUS
 62
     2
 10
110.25
 20
112.75669
 30
0.0
 11
112.017766953
 21
110.988923047
 31
0.0
  0
LINE
  8
0
  6
CONTINUOUS
 62
     2
 10
110.25
 20
112.75669
 30
0.0
 11
110.897047613
 21
110.341875434
 31
0.0
  0
LINE
  8
0
  6
CONTINUOUS
 62
     2
 10
110.25
 20
112.75669
 30
0.0
 11
115.25
 21
104.096435962
 31
0.0
  0
LINE
  8
0
  6
LTYPE2
 62
     2
 10
145.706949811
 20
121.5
 30
0.0
 11
150.706949811
 21
121.5
 31
0.0
  0
TEXT
  8
0
  6
CONTINUOUS
 62
     2
 10
116.25
 20
105.096435962
 30
0.3
 40
3.0
  1
４－Ｍ４　取付ボルト
 50
0.0
 41
0.6
 51
0.0
  7
KANJI0
  0
LINE
  8
0
  6
CONTINUOUS
 62
     2
 10
115.25
 20
104.096435962
 30
0.0
 11
137.4
 21
104.096435962
 31
0.0
  0
LINE
  8
0
  6
CONTINUOUS
 62
     2
 10
97.474030411
 20
149.0
 30
0.0
 11
88.4
 21
149.0
 31
0.0
  0
LINE
  8
0
  6
CONTINUOUS
 62
     2
 10
90.4
 20
149.0
 30
0.0
 11
89.752952387
 21
146.585185434
 31
0.0
  0
LINE
  8
0
  6
CONTINUOUS
 62
     2
 10
90.4
 20
149.0
 30
0.0
 11
91.047047613
 21
146.585185434
 31
0.0
  0
LINE
  8
0
  6
CONTINUOUS
 62
     2
 10
90.4
 20
149.0
 30
0.0
 11
90.4
 21
111.0
 31
0.0
  0
LINE
  8
0
  6
CONTINUOUS
 62
     2
 10
90.4
 20
111.0
 30
0.0
 11
91.047047613
 21
113.414814566
 31
0.0
  0
LINE
  8
0
  6
CONTINUOUS
 62
     2
 10
90.4
 20
111.0
 30
0.0
 11
89.752952387
 21
113.414814566
 31
0.0
  0
LINE
  8
0
  6
CONTINUOUS
 62
     2
 10
97.474030411
 20
111.0
 30
0.0
 11
88.4
 21
111.0
 31
0.0
  0
TEXT
  8
0
  6
CONTINUOUS
 62
     2
 10
89.4
 20
127.0
 30
0.3
 40
3.0
  1
φ７５
 50
90.0
 41
0.6
 51
0.0
  7
KANJI0
  0
LINE
  8
0
  6
LTYPE4
 62
     2
 10
146.5
 20
109.65
 30
0.0
 11
146.5
 21
124.65
 31
0.0
  0
ARC
  8
0
  6
LTYPE4
 62
     2
 10
152.75
 20
122.4
 30
0.0
 40
2.25
 50
0.0
 51
90.0
  0
LINE
  8
0
  6
LTYPE4
 62
     2
 10
155.0
 20
122.4
 30
0.0
 11
155.0
 21
120.0
 31
0.0
  0
LINE
  8
0
  6
LTYPE4
 62
     2
 10
154.0
 20
118.129171307
 30
0.0
 11
154.0
 21
109.65
 31
0.0
  0
ARC
  8
0
  6
LTYPE4
 62
     2
 10
152.75
 20
120.0
 30
0.0
 40
2.25
 50
303.748988596
 51
0.0
  0
ARC
  8
0
  6
LTYPE4
 62
     2
 10
151.793240868
 20
118.568163486
 30
0.0
 40
2.25
 50
348.748988596
 51
45.0
  0
LINE
  8
0
  6
LTYPE4
 62
     2
 10
154.0
 20
109.65
 30
0.0
 11
146.5
 21
109.65
 31
0.0
  0
LINE
  8
0
  6
LTYPE4
 62
     2
 10
146.5
 20
124.65
 30
0.0
 11
152.75
 21
124.65
 31
0.0
  0
ARC
  8
0
  6
LTYPE4
 62
     2
 10
178.75
 20
121.7
 30
0.0
 40
2.95
 50
0.0
 51
180.0
  0
LINE
  8
0
  6
LTYPE4
 62
     2
 10
175.8
 20
121.700000026
 30
0.0
 11
175.8
 21
109.65
 31
0.0
  0
LINE
  8
0
  6
LTYPE4
 62
     2
 10
181.7
 20
109.65
 30
0.0
 11
181.7
 21
121.700000026
 31
0.0
  0
ARC
  8
0
  6
LTYPE4
 62
     2
 10
178.75
 20
120.7
 30
0.0
 40
2.95
 50
180.0
 51
0.0
  0
LINE
  8
0
  6
LTYPE4
 62
     2
 10
175.8
 20
109.65
 30
0.0
 11
181.7
 21
109.65
 31
0.0
  0
ARC
  8
0
  6
LTYPE4
 62
     2
 10
191.25
 20
121.7
 30
0.0
 40
2.95
 50
0.0
 51
180.0
  0
LINE
  8
0
  6
LTYPE4
 62
     2
 10
188.3
 20
121.700000026
 30
0.0
 11
188.3
 21
109.65
 31
0.0
  0
ARC
  8
0
  6
LTYPE4
 62
     2
 10
191.25
 20
120.7
 30
0.0
 40
2.95
 50
180.0
 51
0.0
  0
LINE
  8
0
  6
LTYPE4
 62
     2
 10
194.2
 20
109.65
 30
0.0
 11
194.2
 21
121.700000026
 31
0.0
  0
LINE
  8
0
  6
LTYPE4
 62
     2
 10
188.3
 20
109.65
 30
0.0
 11
194.2
 21
109.65
 31
0.0
  0
LINE
  8
0
  6
CONTINUOUS
 62
     2
 10
148.25
 20
109.65
 30
0.0
 11
150.017766953
 21
107.882233047
 31
0.0
  0
LINE
  8
0
  6
CONTINUOUS
 62
     2
 10
148.25
 20
109.65
 30
0.0
 11
148.897047613
 21
107.235185434
 31
0.0
  0
TEXT
  8
0
  6
CONTINUOUS
 62
     2
 10
153.25
 20
102.989745962
 30
0.3
 40
3.0
  1
端子キャップ
 50
0.0
 41
0.6
 51
0.0
  7
KANJI0
  0
TEXT
  8
0
  6
CONTINUOUS
 62
     2
 10
152.75
 20
97.989745962
 30
0.3
 40
3.0
  1
（オプション）
 50
0.0
 41
0.6
 51
0.0
  7
KANJI0
  0
LINE
  8
0
  6
CONTINUOUS
 62
     2
 10
148.25
 20
109.65
 30
0.0
 11
152.672649731
 21
101.989745962
 31
0.0
  0
LINE
  8
0
  6
CONTINUOUS
 62
     2
 10
152.672649731
 20
101.989745962
 30
0.0
 11
166.55
 21
101.989745962
 31
0.0
  0
LINE
  8
0
  6
CONTINUOUS
 62
     2
 10
51.2
 20
127.7
 30
0.0
 11
51.701200926
 21
125.250755702
 31
0.0
  0
LINE
  8
0
  6
CONTINUOUS
 62
     2
 10
51.2
 20
127.7
 30
0.0
 11
52.858674883
 21
125.829492681
 31
0.0
  0
LINE
  8
0
  6
CONTINUOUS
 62
     2
 10
51.2
 20
127.7
 30
0.0
 11
62.55
 21
105.0
 31
0.0
  0
LINE
  8
0
  6
CONTINUOUS
 62
     2
 10
39.4
 20
123.8
 30
0.0
 11
38.898799074
 21
121.350755702
 31
0.0
  0
LINE
  8
0
  6
CONTINUOUS
 62
     2
 10
39.4
 20
123.8
 30
0.0
 11
37.741325117
 21
121.929492681
 31
0.0
  0
LINE
  8
0
  6
CONTINUOUS
 62
     2
 10
39.4
 20
123.8
 30
0.0
 11
30.0
 21
105.0
 31
0.0
  0
LINE
  8
0
  6
CONTINUOUS
 62
     2
 10
30.0
 20
105.0
 30
0.0
 11
24.0
 21
105.0
 31
0.0
  0
TEXT
  8
0
  6
CONTINUOUS
 62
     2
 10
25.0
 20
106.0
 30
0.3
 40
3.0
  1
指針
 50
0.0
 41
0.6
 51
0.0
  7
KANJI0
  0
TEXT
  8
0
  6
CONTINUOUS
 62
     2
 10
116.25
 20
99.096435962
 30
0.1
 40
3.0
  1
フランジ付六角ナット
 50
0.0
 41
0.6
 51
0.0
  7
KANJI3
  0
LINE
  8
0
  6
CONTINUOUS
 62
     2
 10
115.25
 20
98.096435962
 30
0.0
 11
135.15
 21
98.096435962
 31
0.0
  0
LINE
  8
0
  6
CONTINUOUS
 62
     2
 10
107.45
 20
111.696435962
 30
0.0
 11
108.090113511
 21
109.279774072
 31
0.0
  0
LINE
  8
0
  6
CONTINUOUS
 62
     2
 10
107.45
 20
111.696435962
 30
0.0
 11
109.212685507
 21
109.923602128
 31
0.0
  0
LINE
  8
0
  6
CONTINUOUS
 62
     2
 10
107.45
 20
111.696435962
 30
0.0
 11
115.25
 21
98.096435962
 31
0.0
  0
LINE
  8
0
  6
CONTINUOUS
 62
     1
 10
59.816276762
 20
140.617798724
 30
0.0
 11
59.722276762
 21
140.701798724
 31
0.0
  0
LINE
  8
0
  6
CONTINUOUS
 62
     1
 10
55.438276762
 20
135.164798724
 30
0.0
 11
59.816276762
 21
140.617798724
 31
0.0
  0
LINE
  8
0
  6
CONTINUOUS
 62
     1
 10
54.98196985
 20
135.606244413
 30
0.0
 11
59.721177442
 21
140.700023154
 31
0.0
  0
LINE
  8
0
  6
CONTINUOUS
 62
     2
 10
94.8
 20
133.25
 30
0.0
 11
94.8
 21
162.0
 31
0.0
  0
TEXT
  8
0
  6
CONTINUOUS
 62
     2
 10
97.5
 20
161.0
 30
0.3
 40
3.0
  1
１８
 50
0.0
 41
0.6
 51
0.0
  7
KANJI0
  0
LINE
  8
0
  6
CONTINUOUS
 62
     2
 10
94.8
 20
160.0
 30
0.0
 11
97.214814566
 21
159.352952387
 31
0.0
  0
LINE
  8
0
  6
CONTINUOUS
 62
     2
 10
94.8
 20
160.0
 30
0.0
 11
97.214814566
 21
160.647047613
 31
0.0
  0
LINE
  8
0
  6
CONTINUOUS
 62
     2
 10
103.5
 20
160.0
 30
0.0
 11
101.085185434
 21
160.647047613
 31
0.0
  0
LINE
  8
0
  6
CONTINUOUS
 62
     2
 10
103.5
 20
160.0
 30
0.0
 11
101.085185434
 21
159.352952387
 31
0.0
  0
LINE
  8
0
  6
CONTINUOUS
 62
     2
 10
102.9
 20
160.0
 30
0.0
 11
94.8
 21
160.0
 31
0.0
  0
LINE
  8
0
  6
CONTINUOUS
 62
     2
 10
102.9
 20
160.0
 30
0.0
 11
103.5
 21
160.0
 31
0.0
  0
LINE
  8
0
  6
CONTINUOUS
 62
     2
 10
95.417813034
 20
127.0
 30
0.0
 11
94.450770828
 21
124.160135677
 31
0.0
  0
LINE
  8
0
  6
CONTINUOUS
 62
     2
 10
95.417813034
 20
127.0
 30
0.0
 11
96.000262079
 21
124.05708425
 31
0.0
  0
LINE
  8
0
  6
CONTINUOUS
 62
     2
 10
95.417813034
 20
127.0
 30
0.0
 11
93.644813034
 21
100.341
 31
0.0
  0
LINE
  8
0
  6
CONTINUOUS
 62
     2
 10
93.644813034
 20
100.341
 30
0.0
 11
79.244813034
 21
100.341
 31
0.0
  0
TEXT
  8
0
  6
CONTINUOUS
 62
     2
 10
79.244813034
 20
101.341
 30
0.3
 40
3.0
  1
予定指針ツマミ
 50
0.0
 41
0.6
 51
0.0
  7
KANJI0
  0
LINE
  8
0
  6
CONTINUOUS
 62
     2
 10
58.383842684
 20
139.262633626
 30
0.0
 11
59.806262157
 21
141.903982305
 31
0.0
  0
LINE
  8
0
  6
CONTINUOUS
 62
     2
 10
58.383842684
 20
139.262633626
 30
0.0
 11
58.295019744
 21
142.261318419
 31
0.0
  0
LINE
  8
0
  6
CONTINUOUS
 62
     2
 10
58.383842684
 20
139.262633626
 30
0.0
 11
65.447842684
 21
169.137633626
 31
0.0
  0
LINE
  8
0
  6
CONTINUOUS
 62
     2
 10
65.447842684
 20
169.137633626
 30
0.0
 11
81.947842684
 21
169.137633626
 31
0.0
  0
TEXT
  8
0
  6
CONTINUOUS
 62
     2
 10
65.447842684
 20
170.137633626
 30
0.3
 40
3.0
  1
予定指針（赤色）
 50
0.0
 41
0.6
 51
0.0
  7
KANJI0
  0
TEXT
  8
0
  6
CONTINUOUS
 62
     2
 10
63.55
 20
106.0
 30
0.3
 40
3.0
  1
機械的零位調整器
 50
0.0
 41
0.6
 51
0.0
  7
KANJI0
  0
LINE
  8
0
  6
CONTINUOUS
 62
     2
 10
62.55
 20
105.0
 30
0.0
 11
80.0
 21
105.0
 31
0.0
  0
LINE
  8
0
  6
CONTINUOUS
 62
     1
 10
96.8
 20
128.225
 30
0.0
 11
97.0
 21
128.225
 31
0.0
  0
LINE
  8
0
  6
CONTINUOUS
 62
     1
 10
96.8
 20
128.225
 30
0.0
 11
97.0
 21
128.225
 31
0.0
  0
LINE
  8
0
  6
CONTINUOUS
 62
     1
 10
94.8
 20
127.5
 30
0.0
 11
96.55
 21
127.5
 31
0.0
  0
LINE
  8
0
  6
CONTINUOUS
 62
     1
 10
96.55
 20
127.5
 30
0.0
 11
96.8
 21
128.225
 31
0.0
  0
LINE
  8
0
  6
CONTINUOUS
 62
     2
 10
94.8
 20
128.0
 30
0.0
 11
96.5
 21
128.0
 31
0.0
  0
LINE
  8
0
  6
CONTINUOUS
 62
     2
 10
94.8
 20
128.5
 30
0.0
 11
96.5
 21
128.5
 31
0.0
  0
LINE
  8
0
  6
CONTINUOUS
 62
     2
 10
94.8
 20
129.0
 30
0.0
 11
96.5
 21
129.0
 31
0.0
  0
LINE
  8
0
  6
CONTINUOUS
 62
     2
 10
94.8
 20
129.5
 30
0.0
 11
96.5
 21
129.5
 31
0.0
  0
LINE
  8
0
  6
CONTINUOUS
 62
     2
 10
94.8
 20
130.0
 30
0.0
 11
96.5
 21
130.0
 31
0.0
  0
LINE
  8
0
  6
CONTINUOUS
 62
     1
 10
97.0
 20
128.225
 30
0.0
 11
97.060007612
 21
128.225
 31
0.0
  0
LINE
  8
0
  6
CONTINUOUS
 62
     1
 10
96.8
 20
130.5
 30
0.0
 11
96.8
 21
128.225
 31
0.0
  0
LINE
  8
0
  6
CONTINUOUS
 62
     1
 10
96.55
 20
127.5
 30
0.0
 11
96.55
 21
130.5
 31
0.0
  0
LINE
  8
0
  6
CONTINUOUS
 62
     1
 10
94.8
 20
130.5
 30
0.0
 11
94.8
 21
127.5
 31
0.0
  0
LINE
  8
0
  6
CONTINUOUS
 62
     2
 10
96.85
 20
130.5
 30
0.0
 11
96.85
 21
128.225
 31
0.0
  0
LINE
  8
0
  6
CONTINUOUS
 62
     1
 10
96.8
 20
130.5
 30
0.0
 11
96.8
 21
128.225
 31
0.0
  0
LINE
  8
0
  6
CONTINUOUS
 62
     1
 10
96.55
 20
132.5
 30
0.0
 11
94.8
 21
132.5
 31
0.0
  0
LINE
  8
0
  6
CONTINUOUS
 62
     2
 10
96.8
 20
132.65
 30
0.0
 11
96.8
 21
132.65
 31
0.0
  0
LINE
  8
0
  6
CONTINUOUS
 62
     2
 10
94.8
 20
131.0
 30
0.0
 11
96.5
 21
131.0
 31
0.0
  0
LINE
  8
0
  6
CONTINUOUS
 62
     2
 10
94.8
 20
131.5
 30
0.0
 11
96.5
 21
131.5
 31
0.0
  0
LINE
  8
0
  6
CONTINUOUS
 62
     2
 10
94.8
 20
132.0
 30
0.0
 11
96.5
 21
132.0
 31
0.0
  0
LINE
  8
0
  6
CONTINUOUS
 62
     1
 10
96.55
 20
132.5
 30
0.0
 11
96.8
 21
131.775
 31
0.0
  0
LINE
  8
0
  6
CONTINUOUS
 62
     1
 10
96.8
 20
131.775
 30
0.0
 11
97.0
 21
131.775
 31
0.0
  0
LINE
  8
0
  6
CONTINUOUS
 62
     1
 10
96.8
 20
131.775
 30
0.0
 11
97.0
 21
131.775
 31
0.0
  0
LINE
  8
0
  6
CONTINUOUS
 62
     1
 10
97.0
 20
131.775
 30
0.0
 11
97.059975779
 21
131.775
 31
0.0
  0
LINE
  8
0
  6
CONTINUOUS
 62
     2
 10
94.8
 20
132.5
 30
0.0
 11
94.8
 21
132.5
 31
0.0
  0
LINE
  8
0
  6
CONTINUOUS
 62
     1
 10
96.8
 20
131.065990258
 30
0.0
 11
96.8
 21
130.5
 31
0.0
  0
LINE
  8
0
  6
CONTINUOUS
 62
     1
 10
96.55
 20
130.5
 30
0.0
 11
96.55
 21
132.5
 31
0.0
  0
LINE
  8
0
  6
CONTINUOUS
 62
     1
 10
94.8
 20
132.5
 30
0.0
 11
94.8
 21
130.5
 31
0.0
  0
LINE
  8
0
  6
CONTINUOUS
 62
     2
 10
96.85
 20
131.8
 30
0.0
 11
96.85
 21
130.5
 31
0.0
  0
LINE
  8
0
  6
CONTINUOUS
 62
     1
 10
96.8
 20
131.775
 30
0.0
 11
96.8
 21
130.5
 31
0.0
  0
LINE
  8
0
  6
CONTINUOUS
 62
     2
 10
94.8
 20
130.5
 30
0.0
 11
96.5
 21
130.5
 31
0.0
  0
CIRCLE
  8
0
  6
CONTINUOUS
 62
     1
 10
50.0
 20
130.0
 30
0.0
 40
1.35
  0
LINE
  8
0
  6
CONTINUOUS
 62
     1
 10
48.727207794
 20
130.45
 30
0.0
 11
51.272792206
 21
130.45
 31
0.0
  0
LINE
  8
0
  6
CONTINUOUS
 62
     1
 10
51.289379696
 20
129.6
 30
0.0
 11
48.710620304
 21
129.6
 31
0.0
  0
CIRCLE
  8
0
  6
CONTINUOUS
 62
     1
 10
50.0
 20
130.0
 30
0.0
 40
2.5
  0
TEXT
  8
0
  6
CONTINUOUS
 62
     1
 10
233.0
 20
43.0
 30
0.4
 40
4.0
  1
ＡＶＦ－８
 50
0.0
 41
0.9
 51
0.0
  7
KANJI4
  0
TEXT
  8
0
  6
CONTINUOUS
 62
     1
 10
233.095
 20
32.14
 30
0.4
 40
4.0
  1
広角度形交流計器　外形図
 50
0.0
 41
0.9
 51
0.0
  7
KANJI4
  0
TEXT
  8
0
  6
CONTINUOUS
 62
     1
 10
232.044
 20
37.298
 30
0.3
 40
3.0
  1
予定指針付
 50
0.0
 41
0.9
 51
0.0
  7
KANJI2
  0
TEXT
  8
0
  6
CONTINUOUS
 62
     3
 10
233.0
 20
15.0
 30
0.6
 40
6.0
  1
ＭＳ－８９８８Ａ
 50
0.0
 41
0.9
 51
0.0
  7
KANJI5
  0
LINE
  8
0
  6
LTYPE2
 62
     2
 10
25.0
 20
130.0
 30
0.0
 11
73.0
 21
130.0
 31
0.0
  0
LINE
  8
0
  6
LTYPE2
 62
     2
 10
50.0
 20
153.0
 30
0.0
 11
50.0
 21
106.0
 31
0.0
  0
LINE
  8
0
  6
LTYPE2
 62
     2
 10
162.0
 20
130.0
 30
0.0
 11
211.3
 21
130.0
 31
0.0
  0
LINE
  8
0
  6
LTYPE2
 62
     2
 10
92.0
 20
130.0
 30
0.0
 11
153.0
 21
130.0
 31
0.0
  0
LINE
  8
0
  6
LTYPE2
 62
     2
 10
165.0
 20
70.0
 30
0.0
 11
213.75
 21
70.0
 31
0.0
  0
LINE
  8
0
  6
LTYPE2
 62
     2
 10
185.0
 20
90.0
 30
0.0
 11
185.0
 21
41.25
 31
0.0
  0
TEXT
  8
0
  6
CONTINUOUS
 62
     2
 10
187.292893219
 20
73.707106781
 30
0.3
 40
3.0
  1
φ６７
 50
45.0
 41
0.6
 51
0.0
  7
KANJI0
  0
TEXT
  8
0
  6
CONTINUOUS
 62
     2
 10
191.853731957
 20
78.26794552
 30
0.18
 40
1.8
  1
±１
 50
45.0
 41
0.6
 51
0.0
  7
KANJI1
  0
ENDSEC
  0
EOF
