  0
SECTION
  2
HEADER
  9
$ACADVER
  1
AC1009
  9
$INSBASE
 10
0
 20
0
 30
0
  9
$EXTMIN
 10
0
 20
0
  9
$EXTMAX
 10
420
 20
297
  9
$LIMMIN
 10
0
 20
0
  9
$LIMMAX
 10
420
 20
297
  9
$LTSCALE
 40
1
  0
ENDSEC
  0
SECTION
  2
TABLES
  0
TABLE
  2
LTYPE
 70
     9
  0
LTYPE
  2
CONTINUOUS
 70
    64
  3
実線
 72
    65
 73
     0
 40
0.0
  0
LTYPE
  2
DASHED1
 70
    64
  3
--  --  --  --  --  --  --  --  
 72
    65
 73
     2
 40
2.5
 49
1.25
 49
-1.25
  0
LTYPE
  2
DASHED2
 70
    64
  3
----    ----    ----    ----    
 72
    65
 73
     2
 40
5.0
 49
2.5
 49
-2.5
  0
LTYPE
  2
DASHED3
 70
    64
  3
------  ------  ------  ------  
 72
    65
 73
     2
 40
5.0
 49
3.75
 49
-1.25
  0
LTYPE
  2
CENTER1
 70
    64
  3
----- - ----- - ----- - ----- - 
 72
    65
 73
     4
 40
10.0
 49
6.25
 49
-1.25
 49
1.25
 49
-1.25
  0
LTYPE
  2
CENTER2
 70
    64
  3
----------  --  ----------  --  
 72
    65
 73
     4
 40
20.0
 49
12.5
 49
-2.5
 49
2.5
 49
-2.5
  0
LTYPE
  2
PHANTOM1
 70
    64
  3
--- - - --- - - --- - - --- - - 
 72
    65
 73
     6
 40
10.0
 49
3.25
 49
-1.25
 49
1.25
 49
-1.25
 49
1.25
 49
-1.25
  0
LTYPE
  2
PHANTOM2
 70
    64
  3
--------  -  -  --------  -  -  
 72
    65
 73
     6
 40
20.0
 49
10.0
 49
-2.5
 49
1.25
 49
-2.5
 49
1.25
 49
-2.5
  0
LTYPE
  2
DOT
 70
    64
  3
-   -   -   -   -   -   -   -   
 72
    65
 73
     2
 40
2.5
 49
0.625
 49
-1.875
  0
LTYPE
  2
DUMMY
 70
    64
  3
ダミー
 72
    65
 73
     0
 40
0.0
  0
LTYPE
  2
RAND1
 70
    64
  3
ランダム線1
 72
    65
 73
     4
 40
10.0
 49
1.0
 49
-2.0
 49
3.0
 49
-4.0
  0
LTYPE
  2
RAND2
 70
    64
  3
ランダム線2
 72
    65
 73
     4
 40
14.0
 49
2.0
 49
-3.0
 49
4.0
 49
-5.0
  0
LTYPE
  2
RAND3
 70
    64
  3
ランダム線3
 72
    65
 73
     4
 40
18.0
 49
3.0
 49
-4.0
 49
5.0
 49
-6.0
  0
LTYPE
  2
RAND4
 70
    64
  3
ランダム線4
 72
    65
 73
     4
 40
22.0
 49
4.0
 49
-5.0
 49
6.0
 49
-7.0
  0
LTYPE
  2
RAND5
 70
    64
  3
ランダム線5
 72
    65
 73
     4
 40
26.0
 49
5.0
 49
-6.0
 49
7.0
 49
-8.0
  0
LTYPE
  2
LONG1
 70
    64
  3
----------  --  ----------  --  
 72
    65
 73
     4
 40
40.0
 49
32.5
 49
-2.5
 49
2.5
 49
-2.5
  0
LTYPE
  2
LONG2
 70
    64
  3
--------  -  -  --------  -  -  
 72
    65
 73
     6
 40
40.0
 49
30.0
 49
-2.5
 49
1.25
 49
-2.5
 49
1.25
 49
-2.5
  0
LTYPE
  2
LONG3
 70
    64
  3
+++++++++++++++..+++++++++++++++
 72
    65
 73
     2
 40
40.0
 49
37.5
 49
-2.5
  0
LTYPE
  2
LONG4
 70
    64
  3
+++++++++++++++..+++++++++++++++
 72
    65
 73
     2
 40
80.0
 49
75.0
 49
-5.0
  0
LTYPE
  2
LONG5
 70
    64
  3
----------  --  ----------  --  
 72
    65
 73
     4
 40
60.0
 49
37.5
 49
-7.5
 49
7.5
 49
-7.5
  0
LTYPE
  2
dashed
 70
   64
  3
-------   -------------   ------
 72
   65
 73
    2
 40
7.5
 49
6
 49
-1.5
  0
LTYPE
  2
dashed_spaced
 70
   64
  3
----        --------        ----
 72
   65
 73
    2
 40
12
 49
6
 49
-6
  0
LTYPE
  2
long_dashed_dotted
 70
   64
  3
------------- --- --------------
 72
   65
 73
    4
 40
15.25
 49
12
 49
-1.5
 49
0.25
 49
-1.5
  0
LTYPE
  2
long_dashed_double-dotted
 70
   64
  3
----------- --- --- ------------
 72
   65
 73
    6
 40
17
 49
12
 49
-1.5
 49
0.25
 49
-1.5
 49
0.25
 49
-1.5
  0
LTYPE
  2
long_dashed_triplicate-dotted
 70
   64
  3
--------- --- --- --- ----------
 72
   65
 73
    8
 40
18.75
 49
12
 49
-1.5
 49
0.25
 49
-1.5
 49
0.25
 49
-1.5
 49
0.25
 49
-1.5
  0
LTYPE
  2
dotted
 70
   64
  3
   -       -       -       -    
 72
   65
 73
    2
 40
1.75
 49
0.25
 49
-1.5
  0
LTYPE
  2
chain
 70
   64
  3
-------------- -- --------------
 72
   65
 73
    4
 40
18.5
 49
12
 49
-1.5
 49
3.5
 49
-1.5
  0
LTYPE
  2
chain_double_dash
 70
   64
  3
------------ -- -- -------------
 72
   65
 73
    6
 40
23.5
 49
12
 49
-1.5
 49
3.5
 49
-1.5
 49
3.5
 49
-1.5
  0
LTYPE
  2
dashed_dotted
 70
   64
  3
-----------     -     ----------
 72
   65
 73
    4
 40
9.25
 49
6
 49
-1.5
 49
0.25
 49
-1.5
  0
LTYPE
  2
double-dashed_dotted
 70
   64
  3
------   -----------   -   -----
 72
   65
 73
    6
 40
16.75
 49
6
 49
-1.5
 49
6
 49
-1.5
 49
0.25
 49
-1.5
  0
LTYPE
  2
dashed_double-dotted
 70
   64
  3
---------    -    -    ---------
 72
   65
 73
    6
 40
11
 49
6
 49
-1.5
 49
0.25
 49
-1.5
 49
0.25
 49
-1.5
  0
LTYPE
  2
double-dashed_double-dotted
 70
   64
  3
-----   ---------   -   -   ----
 72
   65
 73
    8
 40
18.5
 49
6
 49
-1.5
 49
6
 49
-1.5
 49
0.25
 49
-1.5
 49
0.25
 49
-1.5
  0
LTYPE
  2
dashed_triplicate-dotted
 70
   64
  3
-------    -    -    -    ------
 72
   65
 73
    8
 40
12.75
 49
6
 49
-1.5
 49
0.25
 49
-1.5
 49
0.25
 49
-1.5
 49
0.25
 49
-1.5
  0
LTYPE
  2
double-dashed_triplicate-dotted
 70
   64
  3
-----  ---------  -  -  -  -----
 72
   65
 73
   10
 40
20.25
 49
6
 49
-1.5
 49
6
 49
-1.5
 49
0.25
 49
-1.5
 49
0.25
 49
-1.5
 49
0.25
 49
-1.5
  0
LTYPE
  2
undefined
 70
   64
  3
--------------------------------
 72
   65
 73
    0
 40
0
  0
LTYPE
  2
LTYPE1
 70
   64
  3
------------   ---   -----------
 72
   65
 73
    4
 40
5
 49
3.5
 49
-0.5
 49
0.5
 49
-0.5
  0
LTYPE
  2
LTYPE2
 70
   64
  3
------------   ---   -----------
 72
   65
 73
    4
 40
15
 49
10.5
 49
-1.5
 49
1.5
 49
-1.5
  0
LTYPE
  2
LTYPE3
 70
   64
  3
-----      ----------      -----
 72
   65
 73
    2
 40
1
 49
0.5999999999999999
 49
-0.4
  0
LTYPE
  2
LTYPE4
 70
   64
  3
------------   ---   -----------
 72
   65
 73
    4
 40
7.9999999999999991
 49
5.5999999999999996
 49
-0.8
 49
0.8
 49
-0.8
  0
LTYPE
  2
LTYPE5
 70
   64
  3
-----      ----------      -----
 72
   65
 73
    2
 40
2
 49
1.2
 49
-0.8
  0
ENDTAB
  0
TABLE
  2
STYLE
  5
3
100
AcDbSymbolTable
 70
     1
  0
STYLE
  5
10
100
AcDbSymbolTableRecord
100
AcDbTextStyleTableRecord
  2
STANDARD
 70
     0
 40
0.0
 41
1.0
 50
0.0
 71
     0
 42
0.2
  3
txt
  4
bigfont.shx
  0
STYLE
  5
26
100
AcDbSymbolTableRecord
100
AcDbTextStyleTableRecord
  2
TATEGAKI
 70
    68
 40
0.0
 41
1.0
 50
0.0
 71
     0
 42
1.0
  3
txt
  4
bigfont.shx
  0
ENDTAB
  0
TABLE
  2
LAYER
 70
    2
  0
LAYER
  2
_0-0_0
 70
   64
 62
    7
  6
CONTINUOUS
  0
LAYER
  2
ADD_LINE
 70
   64
 62
    7
  6
CONTINUOUS
  0
ENDTAB
  0
ENDSEC
  0
SECTION
  2
BLOCKS
  0
ENDSEC
  0
SECTION
  2
ENTITIES
  0
LINE
  8
_0-0_0
  6
CONTINUOUS
 62
    1
 10
164.59999999999999
 20
201.375
 11
159.34999999999999
 21
201.375
  0
ARC
  8
_0-0_0
  6
CONTINUOUS
 62
    1
 10
159.34999999999999
 20
200.875
 40
0.5
 50
90
 51
180
  0
LINE
  8
_0-0_0
  6
CONTINUOUS
 62
    1
 10
164.59999999999999
 20
146.375
 11
159.34999999999999
 21
146.375
  0
ARC
  8
_0-0_0
  6
CONTINUOUS
 62
    1
 10
159.34999999999999
 20
146.875
 40
0.5
 50
180
 51
270
  0
LINE
  8
_0-0_0
  6
CONTINUOUS
 62
    1
 10
158.84999999999999
 20
146.875
 11
158.84999999999999
 21
173.875
  0
LINE
  8
_0-0_0
  6
CONTINUOUS
 62
    1
 10
158.84999999999999
 20
200.875
 11
158.84999999999999
 21
199.52500000000001
  0
LINE
  8
_0-0_0
  6
CONTINUOUS
 62
    1
 10
164.59999999999999
 20
201.375
 11
164.59999999999999
 21
200.72499999999999
  0
LINE
  8
_0-0_0
  6
CONTINUOUS
 62
    1
 10
164.59999999999999
 20
200.72499999999999
 11
164.59999999999999
 21
174.125
  0
LINE
  8
_0-0_0
  6
CONTINUOUS
 62
    1
 10
164.59999999999999
 20
174.125
 11
164.59999999999999
 21
146.375
  0
LINE
  8
_0-0_0
  6
CONTINUOUS
 62
    1
 10
204.59999999999999
 20
198.65000000000001
 11
204.59999999999999
 21
149.15000000000001
  0
LINE
  8
_0-0_0
  6
CONTINUOUS
 62
    1
 10
206.59999999999999
 20
149.15000000000001
 11
170.40000000000001
 21
149.15000000000001
  0
ARC
  8
_0-0_0
  6
CONTINUOUS
 62
    1
 10
206.59999999999999
 20
149.65000000000001
 40
0.5
 50
270
 51
0
  0
LINE
  8
_0-0_0
  6
CONTINUOUS
 62
    1
 10
170.34999999999999
 20
198.65000000000001
 11
206.59999999999999
 21
198.65000000000001
  0
LINE
  8
_0-0_0
  6
CONTINUOUS
 62
    1
 10
207.09999999999999
 20
198.15000000000001
 11
207.09999999999999
 21
149.65000000000001
  0
LINE
  8
_0-0_0
  6
CONTINUOUS
 62
    1
 10
158.84999999999999
 20
191.875
 11
158.84999999999999
 21
200.87500190700001
  0
ARC
  8
_0-0_0
  6
CONTINUOUS
 62
    1
 10
272.89999999999998
 20
149.40000000000001
 40
3
 50
270
 51
0
  0
LINE
  8
_0-0_0
  6
CONTINUOUS
 62
    1
 10
223.90000000000001
 20
146.40000000000001
 11
272.89999999999998
 21
146.40000000000001
  0
ARC
  8
_0-0_0
  6
CONTINUOUS
 62
    1
 10
223.90000000000001
 20
149.40000000000001
 40
3
 50
180
 51
270
  0
LINE
  8
_0-0_0
  6
CONTINUOUS
 62
    1
 10
220.90000000000001
 20
198.40000000000001
 11
220.90000000000001
 21
149.40000000000001
  0
ARC
  8
_0-0_0
  6
CONTINUOUS
 62
    1
 10
223.90000000000001
 20
198.40000000000001
 40
3
 50
90
 51
180
  0
LINE
  8
_0-0_0
  6
CONTINUOUS
 62
    1
 10
275.89999999999998
 20
149.40000000000001
 11
275.89999999999998
 21
198.40000000000001
  0
LINE
  8
_0-0_0
  6
CONTINUOUS
 62
    1
 10
272.89999999999998
 20
201.40000000000001
 11
223.90000000000001
 21
201.40000000000001
  0
ARC
  8
_0-0_0
  6
CONTINUOUS
 62
    1
 10
272.89999999999998
 20
198.40000000000001
 40
3
 50
0
 51
90
  0
CIRCLE
  8
_0-0_0
  6
CONTINUOUS
 62
    1
 10
248.40000000000001
 20
173.90000000000001
 40
24.75
  0
TEXT
  8
_0-0_0
 62
    7
 10
232.19999999999999
 20
172.90000000000001
 40
3
 41
0.9
 50
0
  1
Ｌ
  0
TEXT
  8
_0-0_0
 62
    7
 10
261.80000000000001
 20
173.19999999999999
 40
3
 41
0.9
 50
0
  1
Ｌ
  0
LINE
  8
_0-0_0
  6
CONTINUOUS
 62
    2
 10
87.513820797999998
 20
199.46824541500001
 11
87.513820797999998
 21
221.11824541499999
  0
LINE
  8
_0-0_0
  6
CONTINUOUS
 62
    2
 10
87.513820797999998
 20
219.11824541499999
 11
89.928635364000002
 21
218.47119780200001
  0
LINE
  8
_0-0_0
  6
CONTINUOUS
 62
    2
 10
87.513820797999998
 20
219.11824541499999
 11
89.928635364000002
 21
219.76529302700001
  0
LINE
  8
_0-0_0
  6
CONTINUOUS
 62
    2
 10
87.513820797999998
 20
219.11824541499999
 11
142.51382079799998
 21
219.11824541499999
  0
LINE
  8
_0-0_0
  6
CONTINUOUS
 62
    2
 10
142.51382079799998
 20
219.11824541499999
 11
140.09900623300001
 21
219.76529302700001
  0
LINE
  8
_0-0_0
  6
CONTINUOUS
 62
    2
 10
142.51382079799998
 20
219.11824541499999
 11
140.09900623300001
 21
218.47119780200001
  0
LINE
  8
_0-0_0
  6
CONTINUOUS
 62
    2
 10
142.51382079799998
 20
199.86824541499999
 11
142.51382079799998
 21
221.11824541499999
  0
TEXT
  8
_0-0_0
 62
    7
 10
115.583820798
 20
220.11824541499999
 40
1.8
 41
0.5999999999999999
 50
0
  1
±１．５
  0
LINE
  8
_0-0_0
  6
CONTINUOUS
 62
    2
 10
89.863820798000006
 20
201.418245415
 11
74.963820798
 21
201.418245415
  0
LINE
  8
_0-0_0
  6
CONTINUOUS
 62
    2
 10
76.963820798
 20
201.418245415
 11
76.316773186000006
 21
199.00343084900001
  0
LINE
  8
_0-0_0
  6
CONTINUOUS
 62
    2
 10
76.963820798
 20
201.418245415
 11
77.610868411000013
 21
199.00343084900001
  0
LINE
  8
_0-0_0
  6
CONTINUOUS
 62
    2
 10
76.963820798
 20
201.418245415
 11
76.963820798
 21
146.418245415
  0
LINE
  8
_0-0_0
  6
CONTINUOUS
 62
    2
 10
76.963820798
 20
146.418245415
 11
77.610868411000013
 21
148.83305998
  0
LINE
  8
_0-0_0
  6
CONTINUOUS
 62
    2
 10
76.963820798
 20
146.418245415
 11
76.316773186000006
 21
148.83305998
  0
LINE
  8
_0-0_0
  6
CONTINUOUS
 62
    2
 10
89.863820798000006
 20
146.418245415
 11
74.963820798
 21
146.418245415
  0
TEXT
  8
_0-0_0
 62
    7
 10
75.963820798
 20
174.48824541499999
 40
1.8
 41
0.5999999999999999
 50
90
  1
±１．５
  0
LINE
  8
_0-0_0
  6
LTYPE1
 62
    2
 10
164.84999999999999
 20
173.875
 11
167.09999999999999
 21
173.875
  0
LINE
  8
_0-0_0
  6
CONTINUOUS
 62
    2
 10
155.15000000000001
 20
148.375
 11
147.72499999999999
 21
148.375
  0
LINE
  8
_0-0_0
  6
CONTINUOUS
 62
    2
 10
149.72499999999999
 20
148.375
 11
150.37204761300001
 21
150.78981456600002
  0
LINE
  8
_0-0_0
  6
CONTINUOUS
 62
    2
 10
149.72499999999999
 20
148.375
 11
149.07795238699998
 21
150.78981456600002
  0
LINE
  8
_0-0_0
  6
CONTINUOUS
 62
    2
 10
149.72499999999999
 20
148.375
 11
149.72499999999999
 21
199.375
  0
LINE
  8
_0-0_0
  6
CONTINUOUS
 62
    2
 10
149.72499999999999
 20
199.375
 11
149.07795238699998
 21
196.96018543400001
  0
LINE
  8
_0-0_0
  6
CONTINUOUS
 62
    2
 10
149.72499999999999
 20
199.375
 11
150.37204761300001
 21
196.96018543400001
  0
LINE
  8
_0-0_0
  6
CONTINUOUS
 62
    2
 10
155.15000000000001
 20
199.375
 11
147.72499999999999
 21
199.375
  0
LINE
  8
_0-0_0
  6
CONTINUOUS
 62
    2
 10
164.59999999999999
 20
219.325001907
 11
162.185185434
 21
219.97204952000001
  0
LINE
  8
_0-0_0
  6
CONTINUOUS
 62
    2
 10
164.59999999999999
 20
219.325001907
 11
162.185185434
 21
218.67795429500001
  0
LINE
  8
_0-0_0
  6
CONTINUOUS
 62
    2
 10
164.59999999999999
 20
201.59999999999999
 11
164.59999999999999
 21
221.325001907
  0
LINE
  8
_0-0_0
  6
CONTINUOUS
 62
    2
 10
164.59999999999999
 20
219.325001907
 11
167.01481456599998
 21
218.67795429500001
  0
LINE
  8
_0-0_0
  6
CONTINUOUS
 62
    2
 10
164.59999999999999
 20
219.325001907
 11
167.01481456599998
 21
219.97204952000001
  0
LINE
  8
_0-0_0
  6
CONTINUOUS
 62
    2
 10
164.59999999999999
 20
219.325001907
 11
214.75
 21
219.325001907
  0
LINE
  8
_0-0_0
  6
CONTINUOUS
 62
    2
 10
214.75
 20
219.325001907
 11
212.33518543400001
 21
219.97204952000001
  0
LINE
  8
_0-0_0
  6
CONTINUOUS
 62
    2
 10
214.75
 20
219.325001907
 11
212.33518543400001
 21
218.67795429500001
  0
LINE
  8
_0-0_0
  6
CONTINUOUS
 62
    2
 10
214.75
 20
180.80000000000001
 11
214.75
 21
221.325001907
  0
LINE
  8
_0-0_0
  6
CONTINUOUS
 62
    2
 10
214.75
 20
210.050001907
 11
214.75
 21
207.77500190699999
  0
POINT
  8
_0-0_0
 62
    2
 10
248.40000000000001
 20
204.90000000000001
  0
ARC
  8
_0-0_0
  6
CONTINUOUS
 62
    2
 10
223.65000000000001
 20
149.15000000000001
 40
1.5
 50
180
 51
270
  0
LINE
  8
_0-0_0
  6
CONTINUOUS
 62
    2
 10
222.15000000000001
 20
198.65000000000001
 11
222.15000000000001
 21
149.15000000000001
  0
ARC
  8
_0-0_0
  6
CONTINUOUS
 62
    2
 10
223.65000000000001
 20
198.65000000000001
 40
1.5
 50
90
 51
180
  0
LINE
  8
_0-0_0
  6
CONTINUOUS
 62
    2
 10
273.14999999999998
 20
200.15000000000001
 11
223.65000000000001
 21
200.15000000000001
  0
ARC
  8
_0-0_0
  6
CONTINUOUS
 62
    2
 10
273.14999999999998
 20
198.65000000000001
 40
1.5
 50
0
 51
90
  0
LINE
  8
_0-0_0
  6
CONTINUOUS
 62
    2
 10
223.65000000000001
 20
147.65000000000001
 11
273.14999999999998
 21
147.65000000000001
  0
LINE
  8
_0-0_0
  6
CONTINUOUS
 62
    2
 10
274.64999999999998
 20
149.15000000000001
 11
274.64999999999998
 21
198.65000000000001
  0
ARC
  8
_0-0_0
  6
CONTINUOUS
 62
    2
 10
273.14999999999998
 20
149.15000000000001
 40
1.5
 50
270
 51
0
  0
LINE
  8
_0-0_0
  6
CONTINUOUS
 62
    2
 10
273.32487113100001
 20
197.80000000000001
 11
270.89999999999998
 21
199.19999999999999
  0
LINE
  8
_0-0_0
  6
CONTINUOUS
 62
    2
 10
270.89999999999998
 20
199.19999999999999
 11
268.475128869
 21
197.80000000000001
  0
LINE
  8
_0-0_0
  6
CONTINUOUS
 62
    2
 10
268.475128869
 20
197.80000000000001
 11
268.475128869
 21
195
  0
LINE
  8
_0-0_0
  6
CONTINUOUS
 62
    2
 10
268.475128869
 20
195
 11
270.89999999999998
 21
193.59999999999999
  0
LINE
  8
_0-0_0
  6
CONTINUOUS
 62
    2
 10
270.89999999999998
 20
193.59999999999999
 11
273.32487113100001
 21
195
  0
LINE
  8
_0-0_0
  6
CONTINUOUS
 62
    2
 10
273.32487113100001
 20
195
 11
273.32487113100001
 21
197.80000000000001
  0
CIRCLE
  8
_0-0_0
  6
CONTINUOUS
 62
    2
 10
270.89999999999998
 20
196.40000000000001
 40
1.5
  0
CIRCLE
  8
_0-0_0
  6
CONTINUOUS
 62
    2
 10
270.89999999999998
 20
196.40000000000001
 40
1.3999999999999999
  0
CIRCLE
  8
_0-0_0
  6
CONTINUOUS
 62
    2
 10
270.89999999999998
 20
196.40000000000001
 40
3
  0
CIRCLE
  8
_0-0_0
  6
CONTINUOUS
 62
    2
 10
270.89999999999998
 20
196.40000000000001
 40
2.5
  0
LINE
  8
_0-0_0
  6
LTYPE2
 62
    2
 10
267.02499999999998
 20
196.40000000000001
 11
275
 21
196.40000000000001
  0
LINE
  8
_0-0_0
  6
LTYPE2
 62
    2
 10
270.89999999999998
 20
200.30000000000001
 11
270.89999999999998
 21
192.57499999999999
  0
LINE
  8
_0-0_0
  6
CONTINUOUS
 62
    2
 10
228.32487113100001
 20
197.80000000000001
 11
225.90000000000001
 21
199.19999999999999
  0
LINE
  8
_0-0_0
  6
CONTINUOUS
 62
    2
 10
225.90000000000001
 20
199.19999999999999
 11
223.475128869
 21
197.80000000000001
  0
LINE
  8
_0-0_0
  6
CONTINUOUS
 62
    2
 10
223.475128869
 20
197.80000000000001
 11
223.475128869
 21
195
  0
LINE
  8
_0-0_0
  6
CONTINUOUS
 62
    2
 10
223.475128869
 20
195
 11
225.90000000000001
 21
193.59999999999999
  0
LINE
  8
_0-0_0
  6
CONTINUOUS
 62
    2
 10
225.90000000000001
 20
193.59999999999999
 11
228.32487113100001
 21
195
  0
LINE
  8
_0-0_0
  6
CONTINUOUS
 62
    2
 10
228.32487113100001
 20
195
 11
228.32487113100001
 21
197.80000000000001
  0
CIRCLE
  8
_0-0_0
  6
CONTINUOUS
 62
    2
 10
225.90000000000001
 20
196.40000000000001
 40
1.5
  0
CIRCLE
  8
_0-0_0
  6
CONTINUOUS
 62
    2
 10
225.90000000000001
 20
196.40000000000001
 40
1.3999999999999999
  0
CIRCLE
  8
_0-0_0
  6
CONTINUOUS
 62
    2
 10
225.90000000000001
 20
196.40000000000001
 40
3
  0
CIRCLE
  8
_0-0_0
  6
CONTINUOUS
 62
    2
 10
225.90000000000001
 20
196.40000000000001
 40
2.5
  0
LINE
  8
_0-0_0
  6
LTYPE2
 62
    2
 10
222.02500000000001
 20
196.40000000000001
 11
230
 21
196.40000000000001
  0
LINE
  8
_0-0_0
  6
LTYPE2
 62
    2
 10
225.90000000000001
 20
200.30000000000001
 11
225.90000000000001
 21
192.57499999999999
  0
LINE
  8
_0-0_0
  6
CONTINUOUS
 62
    2
 10
228.32487113100001
 20
152.80000000000001
 11
225.90000000000001
 21
154.19999999999999
  0
LINE
  8
_0-0_0
  6
CONTINUOUS
 62
    2
 10
225.90000000000001
 20
154.19999999999999
 11
223.475128869
 21
152.80000000000001
  0
LINE
  8
_0-0_0
  6
CONTINUOUS
 62
    2
 10
223.475128869
 20
152.80000000000001
 11
223.475128869
 21
150
  0
LINE
  8
_0-0_0
  6
CONTINUOUS
 62
    2
 10
223.475128869
 20
150
 11
225.90000000000001
 21
148.59999999999999
  0
LINE
  8
_0-0_0
  6
CONTINUOUS
 62
    2
 10
225.90000000000001
 20
148.59999999999999
 11
228.32487113100001
 21
150
  0
LINE
  8
_0-0_0
  6
CONTINUOUS
 62
    2
 10
228.32487113100001
 20
150
 11
228.32487113100001
 21
152.80000000000001
  0
CIRCLE
  8
_0-0_0
  6
CONTINUOUS
 62
    2
 10
225.90000000000001
 20
151.40000000000001
 40
1.5
  0
CIRCLE
  8
_0-0_0
  6
CONTINUOUS
 62
    2
 10
225.90000000000001
 20
151.40000000000001
 40
1.3999999999999999
  0
CIRCLE
  8
_0-0_0
  6
CONTINUOUS
 62
    2
 10
225.90000000000001
 20
151.40000000000001
 40
3
  0
CIRCLE
  8
_0-0_0
  6
CONTINUOUS
 62
    2
 10
225.90000000000001
 20
151.40000000000001
 40
2.5
  0
LINE
  8
_0-0_0
  6
LTYPE2
 62
    2
 10
222.02500000000001
 20
151.40000000000001
 11
230
 21
151.40000000000001
  0
LINE
  8
_0-0_0
  6
LTYPE2
 62
    2
 10
225.90000000000001
 20
155.30000000000001
 11
225.90000000000001
 21
147.57499999999999
  0
LINE
  8
_0-0_0
  6
CONTINUOUS
 62
    2
 10
273.32487113100001
 20
152.80000000000001
 11
270.89999999999998
 21
154.19999999999999
  0
LINE
  8
_0-0_0
  6
CONTINUOUS
 62
    2
 10
270.89999999999998
 20
154.19999999999999
 11
268.475128869
 21
152.80000000000001
  0
LINE
  8
_0-0_0
  6
CONTINUOUS
 62
    2
 10
268.475128869
 20
152.80000000000001
 11
268.475128869
 21
150
  0
LINE
  8
_0-0_0
  6
CONTINUOUS
 62
    2
 10
268.475128869
 20
150
 11
270.89999999999998
 21
148.59999999999999
  0
LINE
  8
_0-0_0
  6
CONTINUOUS
 62
    2
 10
270.89999999999998
 20
148.59999999999999
 11
273.32487113100001
 21
150
  0
LINE
  8
_0-0_0
  6
CONTINUOUS
 62
    2
 10
273.32487113100001
 20
150
 11
273.32487113100001
 21
152.80000000000001
  0
CIRCLE
  8
_0-0_0
  6
CONTINUOUS
 62
    2
 10
270.89999999999998
 20
151.40000000000001
 40
1.5
  0
CIRCLE
  8
_0-0_0
  6
CONTINUOUS
 62
    2
 10
270.89999999999998
 20
151.40000000000001
 40
1.3999999999999999
  0
CIRCLE
  8
_0-0_0
  6
CONTINUOUS
 62
    2
 10
270.89999999999998
 20
151.40000000000001
 40
3
  0
CIRCLE
  8
_0-0_0
  6
CONTINUOUS
 62
    2
 10
270.89999999999998
 20
151.40000000000001
 40
2.5
  0
LINE
  8
_0-0_0
  6
LTYPE2
 62
    2
 10
267.02499999999998
 20
151.40000000000001
 11
275
 21
151.40000000000001
  0
LINE
  8
_0-0_0
  6
LTYPE2
 62
    2
 10
270.89999999999998
 20
155.30000000000001
 11
270.89999999999998
 21
147.57499999999999
  0
CIRCLE
  8
_0-0_0
  6
CONTINUOUS
 62
    2
 10
267.45255888299999
 20
162.90000000000001
 40
1.75
  0
CIRCLE
  8
_0-0_0
  6
CONTINUOUS
 62
    2
 10
248.40000000000001
 20
195.90000000000001
 40
1.75
  0
CIRCLE
  8
_0-0_0
  6
CONTINUOUS
 62
    2
 10
229.34744111699999
 20
162.90000000000001
 40
1.75
  0
CIRCLE
  8
_0-0_0
  6
CONTINUOUS
 62
    2
 10
229.34744111699999
 20
162.90000000000001
 40
1.5
  0
LINE
  8
_0-0_0
  6
CONTINUOUS
 62
    2
 10
228.47244111699999
 20
163.09999999999999
 11
228.94744111700001
 21
163.09999999999999
  0
ARC
  8
_0-0_0
  6
CONTINUOUS
 62
    2
 10
228.94744111700001
 20
163.30000000000001
 40
0.2
 50
270
 51
0
  0
LINE
  8
_0-0_0
  6
CONTINUOUS
 62
    2
 10
229.147441117
 20
163.30000000000001
 11
229.147441117
 21
163.77500000000001
  0
LINE
  8
_0-0_0
  6
CONTINUOUS
 62
    2
 10
229.147441117
 20
163.77500000000001
 11
229.54744111700001
 21
163.77500000000001
  0
LINE
  8
_0-0_0
  6
CONTINUOUS
 62
    2
 10
229.54744111700001
 20
163.77500000000001
 11
229.54744111700001
 21
163.30000000000001
  0
ARC
  8
_0-0_0
  6
CONTINUOUS
 62
    2
 10
229.74744111699999
 20
163.30000000000001
 40
0.2
 50
180
 51
270
  0
LINE
  8
_0-0_0
  6
CONTINUOUS
 62
    2
 10
229.74744111699999
 20
163.09999999999999
 11
230.22244111699999
 21
163.09999999999999
  0
LINE
  8
_0-0_0
  6
CONTINUOUS
 62
    2
 10
230.22244111699999
 20
163.09999999999999
 11
230.22244111699999
 21
162.69999999999999
  0
LINE
  8
_0-0_0
  6
CONTINUOUS
 62
    2
 10
230.22244111699999
 20
162.69999999999999
 11
229.74744111699999
 21
162.69999999999999
  0
ARC
  8
_0-0_0
  6
CONTINUOUS
 62
    2
 10
229.74744111699999
 20
162.5
 40
0.2
 50
90
 51
180
  0
LINE
  8
_0-0_0
  6
CONTINUOUS
 62
    2
 10
229.54744111700001
 20
162.5
 11
229.54744111700001
 21
162.02500000000001
  0
LINE
  8
_0-0_0
  6
CONTINUOUS
 62
    2
 10
229.54744111700001
 20
162.02500000000001
 11
229.147441117
 21
162.02500000000001
  0
LINE
  8
_0-0_0
  6
CONTINUOUS
 62
    2
 10
229.147441117
 20
162.02500000000001
 11
229.147441117
 21
162.5
  0
ARC
  8
_0-0_0
  6
CONTINUOUS
 62
    2
 10
228.94744111700001
 20
162.5
 40
0.2
 50
0
 51
90
  0
LINE
  8
_0-0_0
  6
CONTINUOUS
 62
    2
 10
228.94744111700001
 20
162.69999999999999
 11
228.47244111699999
 21
162.69999999999999
  0
LINE
  8
_0-0_0
  6
CONTINUOUS
 62
    2
 10
228.47244111699999
 20
162.69999999999999
 11
228.47244111699999
 21
163.09999999999999
  0
LINE
  8
_0-0_0
  6
LTYPE1
 62
    2
 10
227.34744111699999
 20
162.90000000000001
 11
231.34744111699999
 21
162.90000000000001
  0
LINE
  8
_0-0_0
  6
LTYPE1
 62
    2
 10
229.34744111699999
 20
164.90000000000001
 11
229.34744111699999
 21
160.90000000000001
  0
CIRCLE
  8
_0-0_0
  6
CONTINUOUS
 62
    2
 10
248.40000000000001
 20
195.90000000000001
 40
1.5
  0
LINE
  8
_0-0_0
  6
CONTINUOUS
 62
    2
 10
247.52500000000001
 20
196.09999999999999
 11
248
 21
196.09999999999999
  0
ARC
  8
_0-0_0
  6
CONTINUOUS
 62
    2
 10
248
 20
196.30000000000001
 40
0.2
 50
270
 51
0
  0
LINE
  8
_0-0_0
  6
CONTINUOUS
 62
    2
 10
248.19999999999999
 20
196.30000000000001
 11
248.19999999999999
 21
196.77500000000001
  0
LINE
  8
_0-0_0
  6
CONTINUOUS
 62
    2
 10
248.19999999999999
 20
196.77500000000001
 11
248.59999999999999
 21
196.77500000000001
  0
LINE
  8
_0-0_0
  6
CONTINUOUS
 62
    2
 10
248.59999999999999
 20
196.77500000000001
 11
248.59999999999999
 21
196.30000000000001
  0
ARC
  8
_0-0_0
  6
CONTINUOUS
 62
    2
 10
248.80000000000001
 20
196.30000000000001
 40
0.2
 50
180
 51
270
  0
LINE
  8
_0-0_0
  6
CONTINUOUS
 62
    2
 10
248.80000000000001
 20
196.09999999999999
 11
249.27500000000001
 21
196.09999999999999
  0
LINE
  8
_0-0_0
  6
CONTINUOUS
 62
    2
 10
249.27500000000001
 20
196.09999999999999
 11
249.27500000000001
 21
195.69999999999999
  0
LINE
  8
_0-0_0
  6
CONTINUOUS
 62
    2
 10
249.27500000000001
 20
195.69999999999999
 11
248.80000000000001
 21
195.69999999999999
  0
ARC
  8
_0-0_0
  6
CONTINUOUS
 62
    2
 10
248.80000000000001
 20
195.5
 40
0.2
 50
90
 51
180
  0
LINE
  8
_0-0_0
  6
CONTINUOUS
 62
    2
 10
248.59999999999999
 20
195.5
 11
248.59999999999999
 21
195.02500000000001
  0
LINE
  8
_0-0_0
  6
CONTINUOUS
 62
    2
 10
248.59999999999999
 20
195.02500000000001
 11
248.19999999999999
 21
195.02500000000001
  0
LINE
  8
_0-0_0
  6
CONTINUOUS
 62
    2
 10
248.19999999999999
 20
195.02500000000001
 11
248.19999999999999
 21
195.5
  0
ARC
  8
_0-0_0
  6
CONTINUOUS
 62
    2
 10
248
 20
195.5
 40
0.2
 50
0
 51
90
  0
LINE
  8
_0-0_0
  6
CONTINUOUS
 62
    2
 10
248
 20
195.69999999999999
 11
247.52500000000001
 21
195.69999999999999
  0
LINE
  8
_0-0_0
  6
CONTINUOUS
 62
    2
 10
247.52500000000001
 20
195.69999999999999
 11
247.52500000000001
 21
196.09999999999999
  0
LINE
  8
_0-0_0
  6
LTYPE1
 62
    2
 10
246.40000000000001
 20
195.90000000000001
 11
250.40000000000001
 21
195.90000000000001
  0
LINE
  8
_0-0_0
  6
LTYPE1
 62
    2
 10
248.40000000000001
 20
197.90000000000001
 11
248.40000000000001
 21
193.90000000000001
  0
CIRCLE
  8
_0-0_0
  6
CONTINUOUS
 62
    2
 10
267.45255888299999
 20
162.90000000000001
 40
1.5
  0
LINE
  8
_0-0_0
  6
CONTINUOUS
 62
    2
 10
266.57755888299999
 20
163.09999999999999
 11
267.05255888299996
 21
163.09999999999999
  0
ARC
  8
_0-0_0
  6
CONTINUOUS
 62
    2
 10
267.05255888299996
 20
163.30000000000001
 40
0.2
 50
270
 51
0
  0
LINE
  8
_0-0_0
  6
CONTINUOUS
 62
    2
 10
267.25255888300001
 20
163.30000000000001
 11
267.25255888300001
 21
163.77500000000001
  0
LINE
  8
_0-0_0
  6
CONTINUOUS
 62
    2
 10
267.25255888300001
 20
163.77500000000001
 11
267.65255888299998
 21
163.77500000000001
  0
LINE
  8
_0-0_0
  6
CONTINUOUS
 62
    2
 10
267.65255888299998
 20
163.77500000000001
 11
267.65255888299998
 21
163.30000000000001
  0
ARC
  8
_0-0_0
  6
CONTINUOUS
 62
    2
 10
267.85255888300003
 20
163.30000000000001
 40
0.2
 50
180
 51
270
  0
LINE
  8
_0-0_0
  6
CONTINUOUS
 62
    2
 10
267.85255888300003
 20
163.09999999999999
 11
268.32755888299999
 21
163.09999999999999
  0
LINE
  8
_0-0_0
  6
CONTINUOUS
 62
    2
 10
268.32755888299999
 20
163.09999999999999
 11
268.32755888299999
 21
162.69999999999999
  0
LINE
  8
_0-0_0
  6
CONTINUOUS
 62
    2
 10
268.32755888299999
 20
162.69999999999999
 11
267.85255888300003
 21
162.69999999999999
  0
ARC
  8
_0-0_0
  6
CONTINUOUS
 62
    2
 10
267.85255888300003
 20
162.5
 40
0.2
 50
90
 51
180
  0
LINE
  8
_0-0_0
  6
CONTINUOUS
 62
    2
 10
267.65255888299998
 20
162.5
 11
267.65255888299998
 21
162.02500000000001
  0
LINE
  8
_0-0_0
  6
CONTINUOUS
 62
    2
 10
267.65255888299998
 20
162.02500000000001
 11
267.25255888300001
 21
162.02500000000001
  0
LINE
  8
_0-0_0
  6
CONTINUOUS
 62
    2
 10
267.25255888300001
 20
162.02500000000001
 11
267.25255888300001
 21
162.5
  0
ARC
  8
_0-0_0
  6
CONTINUOUS
 62
    2
 10
267.05255888299996
 20
162.5
 40
0.2
 50
0
 51
90
  0
LINE
  8
_0-0_0
  6
CONTINUOUS
 62
    2
 10
267.05255888299996
 20
162.69999999999999
 11
266.57755888299999
 21
162.69999999999999
  0
LINE
  8
_0-0_0
  6
CONTINUOUS
 62
    2
 10
266.57755888299999
 20
162.69999999999999
 11
266.57755888299999
 21
163.09999999999999
  0
LINE
  8
_0-0_0
  6
LTYPE1
 62
    2
 10
265.45255888299999
 20
162.90000000000001
 11
269.45255888299999
 21
162.90000000000001
  0
LINE
  8
_0-0_0
  6
LTYPE1
 62
    2
 10
267.45255888299999
 20
164.90000000000001
 11
267.45255888299999
 21
160.90000000000001
  0
LINE
  8
_0-0_0
  6
CONTINUOUS
 62
    2
 10
225.90000000000001
 20
200.5
 11
225.90000000000001
 21
221.25
  0
LINE
  8
_0-0_0
  6
CONTINUOUS
 62
    2
 10
225.90000000000001
 20
219.25
 11
228.314814566
 21
218.60295238699999
  0
LINE
  8
_0-0_0
  6
CONTINUOUS
 62
    2
 10
225.90000000000001
 20
219.25
 11
228.314814566
 21
219.89704761300001
  0
LINE
  8
_0-0_0
  6
CONTINUOUS
 62
    2
 10
225.90000000000001
 20
219.25
 11
248.40000000000001
 21
219.25
  0
LINE
  8
_0-0_0
  6
CONTINUOUS
 62
    2
 10
248.40000000000001
 20
219.25
 11
245.98518543399999
 21
219.89704761300001
  0
LINE
  8
_0-0_0
  6
CONTINUOUS
 62
    2
 10
248.40000000000001
 20
219.25
 11
245.98518543399999
 21
218.60295238699999
  0
LINE
  8
_0-0_0
  6
CONTINUOUS
 62
    2
 10
248.40000000000001
 20
205.09999999999999
 11
248.40000000000001
 21
221.25
  0
TEXT
  8
_0-0_0
 62
    7
 10
236.66999999999999
 20
220.25
 40
1.8
 41
0.5999999999999999
 50
0
  1
±０．５
  0
LINE
  8
_0-0_0
  6
CONTINUOUS
 62
    2
 10
248.40000000000001
 20
219.25
 11
250.814814566
 21
218.60295238699999
  0
LINE
  8
_0-0_0
  6
CONTINUOUS
 62
    2
 10
248.40000000000001
 20
219.25
 11
250.814814566
 21
219.89704761300001
  0
LINE
  8
_0-0_0
  6
CONTINUOUS
 62
    2
 10
248.40000000000001
 20
219.25
 11
270.89999999999998
 21
219.25
  0
LINE
  8
_0-0_0
  6
CONTINUOUS
 62
    2
 10
270.89999999999998
 20
219.25
 11
268.48518543399996
 21
219.89704761300001
  0
LINE
  8
_0-0_0
  6
CONTINUOUS
 62
    2
 10
270.89999999999998
 20
219.25
 11
268.48518543399996
 21
218.60295238699999
  0
LINE
  8
_0-0_0
  6
CONTINUOUS
 62
    2
 10
275.14999999999998
 20
151.40000000000001
 11
285
 21
151.40000000000001
  0
LINE
  8
_0-0_0
  6
CONTINUOUS
 62
    2
 10
283
 20
151.40000000000001
 11
283.64704761300004
 21
153.814814566
  0
LINE
  8
_0-0_0
  6
CONTINUOUS
 62
    2
 10
283
 20
151.40000000000001
 11
282.35295238699996
 21
153.814814566
  0
LINE
  8
_0-0_0
  6
CONTINUOUS
 62
    2
 10
283
 20
151.40000000000001
 11
283
 21
173.90000000000001
  0
LINE
  8
_0-0_0
  6
CONTINUOUS
 62
    2
 10
283
 20
173.90000000000001
 11
282.35295238699996
 21
171.48518543400002
  0
LINE
  8
_0-0_0
  6
CONTINUOUS
 62
    2
 10
283
 20
173.90000000000001
 11
283.64704761300004
 21
171.48518543400002
  0
TEXT
  8
_0-0_0
 62
    7
 10
282
 20
162.17000000000002
 40
1.8
 41
0.5999999999999999
 50
90
  1
±０．５
  0
LINE
  8
_0-0_0
  6
CONTINUOUS
 62
    2
 10
283
 20
173.90000000000001
 11
283.64704761300004
 21
176.314814566
  0
LINE
  8
_0-0_0
  6
CONTINUOUS
 62
    2
 10
283
 20
173.90000000000001
 11
282.35295238699996
 21
176.314814566
  0
LINE
  8
_0-0_0
  6
CONTINUOUS
 62
    2
 10
283
 20
173.90000000000001
 11
283
 21
196.40000000000001
  0
LINE
  8
_0-0_0
  6
CONTINUOUS
 62
    2
 10
283
 20
196.40000000000001
 11
282.35295238699996
 21
193.98518543399999
  0
LINE
  8
_0-0_0
  6
CONTINUOUS
 62
    2
 10
283
 20
196.40000000000001
 11
283.64704761300004
 21
193.98518543399999
  0
LINE
  8
_0-0_0
  6
CONTINUOUS
 62
    2
 10
275.10000000000002
 20
196.40000000000001
 11
285
 21
196.40000000000001
  0
TEXT
  8
_0-0_0
 62
    7
 10
282
 20
184.66999999999999
 40
1.8
 41
0.5999999999999999
 50
90
  1
±０．５
  0
LINE
  8
_0-0_0
  6
CONTINUOUS
 62
    2
 10
170.75
 20
150.05000000000001
 11
171.39678609200001
 21
147.635115375
  0
LINE
  8
_0-0_0
  6
CONTINUOUS
 62
    2
 10
170.75
 20
150.05000000000001
 11
172.517575499
 21
148.28204161399998
  0
ARC
  8
_0-0_0
  6
LTYPE3
 62
    2
 10
190.59999999999999
 20
153.75
 40
1
 50
0
 51
180
  0
ARC
  8
_0-0_0
  6
LTYPE3
 62
    2
 10
194.09999999999999
 20
153.75
 40
1
 50
0
 51
180
  0
ARC
  8
_0-0_0
  6
LTYPE3
 62
    2
 10
197.59999999999999
 20
153.75
 40
1
 50
0
 51
180
  0
ARC
  8
_0-0_0
  6
LTYPE3
 62
    2
 10
201.09999999999999
 20
153.75
 40
1
 50
0
 51
180
  0
ARC
  8
_0-0_0
  6
LTYPE3
 62
    2
 10
201.09999999999999
 20
151.15000000000001
 40
1
 50
180
 51
0
  0
ARC
  8
_0-0_0
  6
LTYPE3
 62
    2
 10
197.59999999999999
 20
151.15000000000001
 40
1
 50
180
 51
0
  0
ARC
  8
_0-0_0
  6
LTYPE3
 62
    2
 10
194.09999999999999
 20
151.15000000000001
 40
1
 50
180
 51
0
  0
ARC
  8
_0-0_0
  6
LTYPE3
 62
    2
 10
190.59999999999999
 20
151.15000000000001
 40
1
 50
180
 51
0
  0
ARC
  8
_0-0_0
  6
LTYPE3
 62
    2
 10
190.59999999999999
 20
196.65000000000001
 40
1
 50
0
 51
180
  0
ARC
  8
_0-0_0
  6
LTYPE3
 62
    2
 10
194.09999999999999
 20
196.65000000000001
 40
1
 50
0
 51
180
  0
ARC
  8
_0-0_0
  6
LTYPE3
 62
    2
 10
197.59999999999999
 20
196.65000000000001
 40
1
 50
0
 51
180
  0
ARC
  8
_0-0_0
  6
LTYPE3
 62
    2
 10
201.09999999999999
 20
196.65000000000001
 40
1
 50
0
 51
180
  0
ARC
  8
_0-0_0
  6
LTYPE3
 62
    2
 10
201.09999999999999
 20
194.15000000000001
 40
1
 50
180
 51
0
  0
ARC
  8
_0-0_0
  6
LTYPE3
 62
    2
 10
197.59999999999999
 20
194.15000000000001
 40
1
 50
180
 51
0
  0
ARC
  8
_0-0_0
  6
LTYPE3
 62
    2
 10
194.09999999999999
 20
194.15000000000001
 40
1
 50
180
 51
0
  0
ARC
  8
_0-0_0
  6
LTYPE3
 62
    2
 10
190.59999999999999
 20
194.15000000000001
 40
1
 50
180
 51
0
  0
LINE
  8
_0-0_0
  6
LTYPE3
 62
    2
 10
189.59999999999999
 20
196.65000000000001
 11
189.59999999999999
 21
194.15000000000001
  0
LINE
  8
_0-0_0
  6
LTYPE3
 62
    2
 10
191.59999999999999
 20
194.15000000000001
 11
191.59999999999999
 21
196.65000000000001
  0
LINE
  8
_0-0_0
  6
LTYPE3
 62
    2
 10
193.09999999999999
 20
196.65000000000001
 11
193.09999999999999
 21
194.15000000000001
  0
POINT
  8
_0-0_0
 62
    2
 10
195.09999999999999
 20
194.15000000000001
  0
POINT
  8
_0-0_0
 62
    2
 10
195.09999999999999
 20
194.15000000000001
  0
POINT
  8
_0-0_0
 62
    2
 10
195.09999999999999
 20
194.15000000000001
  0
POINT
  8
_0-0_0
 62
    2
 10
195.09999999999999
 20
194.15000000000001
  0
POINT
  8
_0-0_0
 62
    2
 10
195.09999999999999
 20
194.15000000000001
  0
LINE
  8
_0-0_0
  6
LTYPE3
 62
    2
 10
195.09999999999999
 20
194.15000000000001
 11
195.09999999999999
 21
196.65000000000001
  0
LINE
  8
_0-0_0
  6
LTYPE3
 62
    2
 10
196.59999999999999
 20
196.65000000000001
 11
196.59999999999999
 21
194.15000000000001
  0
LINE
  8
_0-0_0
  6
LTYPE3
 62
    2
 10
198.59999999999999
 20
194.15000000000001
 11
198.59999999999999
 21
196.65000000000001
  0
LINE
  8
_0-0_0
  6
LTYPE3
 62
    2
 10
200.09999999999999
 20
196.65000000000001
 11
200.09999999999999
 21
194.15000000000001
  0
LINE
  8
_0-0_0
  6
LTYPE3
 62
    2
 10
202.09999999999999
 20
194.15000000000001
 11
202.09999999999999
 21
196.65000000000001
  0
LINE
  8
_0-0_0
  6
LTYPE3
 62
    2
 10
202.09999999999999
 20
151.15000000000001
 11
202.09999999999999
 21
153.75
  0
LINE
  8
_0-0_0
  6
LTYPE3
 62
    2
 10
200.09999999999999
 20
153.75
 11
200.09999999999999
 21
151.15000000000001
  0
POINT
  8
_0-0_0
 62
    2
 10
198.59999999999999
 20
151.15000000000001
  0
POINT
  8
_0-0_0
 62
    2
 10
198.59999999999999
 20
151.15000000000001
  0
POINT
  8
_0-0_0
 62
    2
 10
198.59999999999999
 20
151.15000000000001
  0
POINT
  8
_0-0_0
 62
    2
 10
198.59999999999999
 20
151.15000000000001
  0
POINT
  8
_0-0_0
 62
    2
 10
198.59999999999999
 20
151.15000000000001
  0
LINE
  8
_0-0_0
  6
LTYPE3
 62
    2
 10
198.59999999999999
 20
151.15000000000001
 11
198.59999999999999
 21
153.75
  0
LINE
  8
_0-0_0
  6
LTYPE3
 62
    2
 10
196.59999999999999
 20
153.75
 11
196.59999999999999
 21
151.15000000000001
  0
POINT
  8
_0-0_0
 62
    2
 10
195.09999999999999
 20
151.15000000000001
  0
POINT
  8
_0-0_0
 62
    2
 10
195.09999999999999
 20
151.15000000000001
  0
LINE
  8
_0-0_0
  6
LTYPE3
 62
    2
 10
195.09999999999999
 20
151.15000000000001
 11
195.09999999999999
 21
153.75
  0
LINE
  8
_0-0_0
  6
LTYPE3
 62
    2
 10
193.09999999999999
 20
153.75
 11
193.09999999999999
 21
151.15000000000001
  0
LINE
  8
_0-0_0
  6
LTYPE3
 62
    2
 10
191.59999999999999
 20
151.15000000000001
 11
191.59999999999999
 21
153.75
  0
LINE
  8
_0-0_0
  6
LTYPE3
 62
    2
 10
189.59999999999999
 20
153.75
 11
189.59999999999999
 21
151.15000000000001
  0
LINE
  8
_0-0_0
  6
CONTINUOUS
 62
    2
 10
201.19999999999999
 20
197.65000000000001
 11
201.586107626
 21
200.120004231
  0
LINE
  8
_0-0_0
  6
CONTINUOUS
 62
    2
 10
201.19999999999999
 20
197.65000000000001
 11
200.299376897
 21
199.98214022400001
  0
CIRCLE
  8
_0-0_0
  6
CONTINUOUS
 62
    2
 10
233.40000000000001
 20
168.84999999999999
 40
3.1749999999999998
  0
CIRCLE
  8
_0-0_0
  6
CONTINUOUS
 62
    2
 10
233.40000000000001
 20
168.84999999999999
 40
2.5
  0
LINE
  8
_0-0_0
  6
CONTINUOUS
 62
    2
 10
234.77500000000001
 20
168.5
 11
234.77500000000001
 21
169.19999999999999
  0
LINE
  8
_0-0_0
  6
CONTINUOUS
 62
    2
 10
232.02500000000001
 20
169.19999999999999
 11
232.02500000000001
 21
168.5
  0
LINE
  8
_0-0_0
  6
CONTINUOUS
 62
    2
 10
234.77500000000001
 20
169.19999999999999
 11
234.5
 21
169.19999999999999
  0
LINE
  8
_0-0_0
  6
CONTINUOUS
 62
    2
 10
233.75
 20
169.94999999999999
 11
233.75
 21
171.32537875899999
  0
ARC
  8
_0-0_0
  6
CONTINUOUS
 62
    2
 10
234.5
 20
169.94999999999999
 40
0.75
 50
180
 51
270
  0
LINE
  8
_0-0_0
  6
CONTINUOUS
 62
    2
 10
234.5
 20
168.5
 11
234.77500000000001
 21
168.5
  0
LINE
  8
_0-0_0
  6
CONTINUOUS
 62
    2
 10
233.75
 20
166.40000000000001
 11
233.75
 21
167.75
  0
ARC
  8
_0-0_0
  6
CONTINUOUS
 62
    2
 10
234.5
 20
167.75
 40
0.75
 50
90
 51
180
  0
LINE
  8
_0-0_0
  6
CONTINUOUS
 62
    2
 10
232.02500000000001
 20
168.5
 11
232.30000000000001
 21
168.5
  0
LINE
  8
_0-0_0
  6
CONTINUOUS
 62
    2
 10
233.05000000000001
 20
167.75
 11
233.05000000000001
 21
166.374621241
  0
ARC
  8
_0-0_0
  6
CONTINUOUS
 62
    2
 10
232.30000000000001
 20
167.75
 40
0.75
 50
0
 51
90
  0
LINE
  8
_0-0_0
  6
CONTINUOUS
 62
    2
 10
232.30000000000001
 20
169.19999999999999
 11
232.02500000000001
 21
169.19999999999999
  0
LINE
  8
_0-0_0
  6
CONTINUOUS
 62
    2
 10
233.05000000000001
 20
171.32537875899999
 11
233.05000000000001
 21
169.94999999999999
  0
ARC
  8
_0-0_0
  6
CONTINUOUS
 62
    2
 10
232.30000000000001
 20
169.94999999999999
 40
0.75
 50
270
 51
0
  0
LINE
  8
_0-0_0
  6
LTYPE1
 62
    2
 10
228.90000000000001
 20
168.90000000000001
 11
237.90000000000001
 21
168.90000000000001
  0
LINE
  8
_0-0_0
  6
LTYPE1
 62
    2
 10
233.40000000000001
 20
173.84999999999999
 11
233.40000000000001
 21
164.84999999999999
  0
CIRCLE
  8
_0-0_0
  6
CONTINUOUS
 62
    2
 10
263.39999999999998
 20
168.84999999999999
 40
3.1749999999999998
  0
CIRCLE
  8
_0-0_0
  6
CONTINUOUS
 62
    2
 10
263.39999999999998
 20
168.84999999999999
 40
2.5
  0
LINE
  8
_0-0_0
  6
CONTINUOUS
 62
    2
 10
264.77499999999998
 20
168.5
 11
264.77499999999998
 21
169.19999999999999
  0
LINE
  8
_0-0_0
  6
CONTINUOUS
 62
    2
 10
262.02499999999998
 20
169.19999999999999
 11
262.02499999999998
 21
168.5
  0
LINE
  8
_0-0_0
  6
CONTINUOUS
 62
    2
 10
264.77499999999998
 20
169.19999999999999
 11
264.5
 21
169.19999999999999
  0
LINE
  8
_0-0_0
  6
CONTINUOUS
 62
    2
 10
263.75
 20
169.94999999999999
 11
263.75
 21
171.32537875899999
  0
ARC
  8
_0-0_0
  6
CONTINUOUS
 62
    2
 10
264.5
 20
169.94999999999999
 40
0.75
 50
180
 51
270
  0
LINE
  8
_0-0_0
  6
CONTINUOUS
 62
    2
 10
264.5
 20
168.5
 11
264.77499999999998
 21
168.5
  0
LINE
  8
_0-0_0
  6
CONTINUOUS
 62
    2
 10
263.75
 20
166.40000000000001
 11
263.75
 21
167.75
  0
ARC
  8
_0-0_0
  6
CONTINUOUS
 62
    2
 10
264.5
 20
167.75
 40
0.75
 50
90
 51
180
  0
LINE
  8
_0-0_0
  6
CONTINUOUS
 62
    2
 10
262.02499999999998
 20
168.5
 11
262.30000000000001
 21
168.5
  0
LINE
  8
_0-0_0
  6
CONTINUOUS
 62
    2
 10
263.05000000000001
 20
167.75
 11
263.05000000000001
 21
166.374621241
  0
ARC
  8
_0-0_0
  6
CONTINUOUS
 62
    2
 10
262.30000000000001
 20
167.75
 40
0.75
 50
0
 51
90
  0
LINE
  8
_0-0_0
  6
CONTINUOUS
 62
    2
 10
262.30000000000001
 20
169.19999999999999
 11
262.02499999999998
 21
169.19999999999999
  0
LINE
  8
_0-0_0
  6
CONTINUOUS
 62
    2
 10
263.05000000000001
 20
171.32537875899999
 11
263.05000000000001
 21
169.94999999999999
  0
ARC
  8
_0-0_0
  6
CONTINUOUS
 62
    2
 10
262.30000000000001
 20
169.94999999999999
 40
0.75
 50
270
 51
0
  0
LINE
  8
_0-0_0
  6
LTYPE1
 62
    2
 10
258.89999999999998
 20
168.90000000000001
 11
268.60000000000002
 21
168.90000000000001
  0
LINE
  8
_0-0_0
  6
LTYPE1
 62
    2
 10
263.39999999999998
 20
173.84999999999999
 11
263.39999999999998
 21
164.84999999999999
  0
TEXT
  8
_0-0_0
 62
    7
 10
232.77000000000001
 20
220.25
 40
3
 41
0.5999999999999999
 50
0
  1
Ｂ
  0
TEXT
  8
_0-0_0
 62
    7
 10
282
 20
180.77000000000001
 40
3
 41
0.5999999999999999
 50
90
  1
Ｂ
  0
TEXT
  8
_0-0_0
 62
    7
 10
282
 20
158.26999999999998
 40
3
 41
0.5999999999999999
 50
90
  1
Ｂ
  0
LINE
  8
_0-0_0
  6
CONTINUOUS
 62
    2
 10
180.09999999999999
 20
198.59999999999999
 11
179.45295238699998
 21
196.185185434
  0
LINE
  8
_0-0_0
  6
CONTINUOUS
 62
    2
 10
180.09999999999999
 20
198.59999999999999
 11
180.74704761300001
 21
196.185185434
  0
LINE
  8
_0-0_0
  6
CONTINUOUS
 62
    2
 10
180.09999999999999
 20
198.59999999999999
 11
180.09999999999999
 21
149.19999999999999
  0
LINE
  8
_0-0_0
  6
CONTINUOUS
 62
    2
 10
180.09999999999999
 20
149.19999999999999
 11
180.74704761300001
 21
151.61481456600001
  0
LINE
  8
_0-0_0
  6
CONTINUOUS
 62
    2
 10
180.09999999999999
 20
149.19999999999999
 11
179.45295238699998
 21
151.61481456600001
  0
TEXT
  8
_0-0_0
 62
    7
 10
179.09999999999999
 20
170.78
 40
3
 41
0.5999999999999999
 50
90
  1
φＤ
  0
TEXT
  8
_0-0_0
 62
    7
 10
179.09999999999999
 20
174.68000000000001
 40
1.8
 41
0.5999999999999999
 50
90
  1
±１
  0
TEXT
  8
_0-0_0
 62
    7
 10
148.72499999999999
 20
169.82499999999999
 40
3
 41
0.5999999999999999
 50
90
  1
φ　Ｃ
  0
TEXT
  8
_0-0_0
 62
    7
 10
109.583820798
 20
220.11824541499999
 40
3
 41
0.5999999999999999
 50
0
  1
　Ａ
  0
TEXT
  8
_0-0_0
 62
    7
 10
75.963820798
 20
168.48824541499999
 40
3
 41
0.5999999999999999
 50
90
  1
　Ａ
  0
ARC
  8
_0-0_0
  6
CONTINUOUS
 62
    1
 10
139.5
 20
149.40000000000001
 40
3
 50
270
 51
0
  0
LINE
  8
_0-0_0
  6
CONTINUOUS
 62
    1
 10
142.5
 20
149.40000000000001
 11
142.5
 21
198.40000000000001
  0
ARC
  8
_0-0_0
  6
CONTINUOUS
 62
    1
 10
139.5
 20
198.40000000000001
 40
3
 50
0
 51
90
  0
LINE
  8
_0-0_0
  6
CONTINUOUS
 62
    1
 10
139.5
 20
201.40000000000001
 11
90.5
 21
201.40000000000001
  0
ARC
  8
_0-0_0
  6
CONTINUOUS
 62
    1
 10
90.5
 20
198.40000000000001
 40
3
 50
90
 51
180
  0
LINE
  8
_0-0_0
  6
CONTINUOUS
 62
    1
 10
90.5
 20
146.40000000000001
 11
139.5
 21
146.40000000000001
  0
LINE
  8
_0-0_0
  6
CONTINUOUS
 62
    1
 10
87.5
 20
198.40000000000001
 11
87.5
 21
149.40000000000001
  0
ARC
  8
_0-0_0
  6
CONTINUOUS
 62
    1
 10
90.5
 20
149.40000000000001
 40
3
 50
180
 51
270
  0
CIRCLE
  8
_0-0_0
  6
CONTINUOUS
 62
    1
 10
115
 20
173.90000000000001
 40
25.5
  0
CIRCLE
  8
_0-0_0
  6
CONTINUOUS
 62
    2
 10
137.5
 20
196.40000000000001
 40
1.5
  0
LINE
  8
_0-0_0
  6
CONTINUOUS
 62
    2
 10
136.625
 20
196.59999999999999
 11
137.09999999999999
 21
196.59999999999999
  0
ARC
  8
_0-0_0
  6
CONTINUOUS
 62
    2
 10
137.09999999999999
 20
196.80000000000001
 40
0.2
 50
270
 51
0
  0
LINE
  8
_0-0_0
  6
CONTINUOUS
 62
    2
 10
137.30000000000001
 20
196.80000000000001
 11
137.30000000000001
 21
197.27500000000001
  0
LINE
  8
_0-0_0
  6
CONTINUOUS
 62
    2
 10
137.30000000000001
 20
197.27500000000001
 11
137.69999999999999
 21
197.27500000000001
  0
LINE
  8
_0-0_0
  6
CONTINUOUS
 62
    2
 10
137.69999999999999
 20
197.27500000000001
 11
137.69999999999999
 21
196.80000000000001
  0
ARC
  8
_0-0_0
  6
CONTINUOUS
 62
    2
 10
137.90000000000001
 20
196.80000000000001
 40
0.2
 50
180
 51
270
  0
LINE
  8
_0-0_0
  6
CONTINUOUS
 62
    2
 10
137.90000000000001
 20
196.59999999999999
 11
138.375
 21
196.59999999999999
  0
LINE
  8
_0-0_0
  6
CONTINUOUS
 62
    2
 10
138.375
 20
196.59999999999999
 11
138.375
 21
196.19999999999999
  0
LINE
  8
_0-0_0
  6
CONTINUOUS
 62
    2
 10
138.375
 20
196.19999999999999
 11
137.90000000000001
 21
196.19999999999999
  0
ARC
  8
_0-0_0
  6
CONTINUOUS
 62
    2
 10
137.90000000000001
 20
196
 40
0.2
 50
90
 51
180
  0
LINE
  8
_0-0_0
  6
CONTINUOUS
 62
    2
 10
137.69999999999999
 20
196
 11
137.69999999999999
 21
195.52500000000001
  0
LINE
  8
_0-0_0
  6
CONTINUOUS
 62
    2
 10
137.69999999999999
 20
195.52500000000001
 11
137.30000000000001
 21
195.52500000000001
  0
LINE
  8
_0-0_0
  6
CONTINUOUS
 62
    2
 10
137.30000000000001
 20
195.52500000000001
 11
137.30000000000001
 21
196
  0
ARC
  8
_0-0_0
  6
CONTINUOUS
 62
    2
 10
137.09999999999999
 20
196
 40
0.2
 50
0
 51
90
  0
LINE
  8
_0-0_0
  6
CONTINUOUS
 62
    2
 10
137.09999999999999
 20
196.19999999999999
 11
136.625
 21
196.19999999999999
  0
LINE
  8
_0-0_0
  6
CONTINUOUS
 62
    2
 10
136.625
 20
196.19999999999999
 11
136.625
 21
196.59999999999999
  0
LINE
  8
_0-0_0
  6
LTYPE1
 62
    2
 10
135.5
 20
196.40000000000001
 11
139.5
 21
196.40000000000001
  0
LINE
  8
_0-0_0
  6
LTYPE1
 62
    2
 10
137.5
 20
198.40000000000001
 11
137.5
 21
194.40000000000001
  0
CIRCLE
  8
_0-0_0
  6
CONTINUOUS
 62
    2
 10
92.5
 20
196.40000000000001
 40
1.5
  0
LINE
  8
_0-0_0
  6
CONTINUOUS
 62
    2
 10
91.625
 20
196.59999999999999
 11
92.099999999999994
 21
196.59999999999999
  0
ARC
  8
_0-0_0
  6
CONTINUOUS
 62
    2
 10
92.099999999999994
 20
196.80000000000001
 40
0.2
 50
270
 51
0
  0
LINE
  8
_0-0_0
  6
CONTINUOUS
 62
    2
 10
92.299999999999997
 20
196.80000000000001
 11
92.299999999999997
 21
197.27500000000001
  0
LINE
  8
_0-0_0
  6
CONTINUOUS
 62
    2
 10
92.299999999999997
 20
197.27500000000001
 11
92.700000000000003
 21
197.27500000000001
  0
LINE
  8
_0-0_0
  6
CONTINUOUS
 62
    2
 10
92.700000000000003
 20
197.27500000000001
 11
92.700000000000003
 21
196.80000000000001
  0
ARC
  8
_0-0_0
  6
CONTINUOUS
 62
    2
 10
92.900000000000006
 20
196.80000000000001
 40
0.2
 50
180
 51
270
  0
LINE
  8
_0-0_0
  6
CONTINUOUS
 62
    2
 10
92.900000000000006
 20
196.59999999999999
 11
93.375
 21
196.59999999999999
  0
LINE
  8
_0-0_0
  6
CONTINUOUS
 62
    2
 10
93.375
 20
196.59999999999999
 11
93.375
 21
196.19999999999999
  0
LINE
  8
_0-0_0
  6
CONTINUOUS
 62
    2
 10
93.375
 20
196.19999999999999
 11
92.900000000000006
 21
196.19999999999999
  0
ARC
  8
_0-0_0
  6
CONTINUOUS
 62
    2
 10
92.900000000000006
 20
196
 40
0.2
 50
90
 51
180
  0
LINE
  8
_0-0_0
  6
CONTINUOUS
 62
    2
 10
92.700000000000003
 20
196
 11
92.700000000000003
 21
195.52500000000001
  0
LINE
  8
_0-0_0
  6
CONTINUOUS
 62
    2
 10
92.700000000000003
 20
195.52500000000001
 11
92.299999999999997
 21
195.52500000000001
  0
LINE
  8
_0-0_0
  6
CONTINUOUS
 62
    2
 10
92.299999999999997
 20
195.52500000000001
 11
92.299999999999997
 21
196
  0
ARC
  8
_0-0_0
  6
CONTINUOUS
 62
    2
 10
92.099999999999994
 20
196
 40
0.2
 50
0
 51
90
  0
LINE
  8
_0-0_0
  6
CONTINUOUS
 62
    2
 10
92.099999999999994
 20
196.19999999999999
 11
91.625
 21
196.19999999999999
  0
LINE
  8
_0-0_0
  6
CONTINUOUS
 62
    2
 10
91.625
 20
196.19999999999999
 11
91.625
 21
196.59999999999999
  0
LINE
  8
_0-0_0
  6
LTYPE1
 62
    2
 10
90.5
 20
196.40000000000001
 11
94.5
 21
196.40000000000001
  0
LINE
  8
_0-0_0
  6
LTYPE1
 62
    2
 10
92.5
 20
198.40000000000001
 11
92.5
 21
194.40000000000001
  0
CIRCLE
  8
_0-0_0
  6
CONTINUOUS
 62
    2
 10
92.5
 20
151.40000000000001
 40
1.5
  0
LINE
  8
_0-0_0
  6
CONTINUOUS
 62
    2
 10
91.625
 20
151.59999999999999
 11
92.099999999999994
 21
151.59999999999999
  0
ARC
  8
_0-0_0
  6
CONTINUOUS
 62
    2
 10
92.099999999999994
 20
151.80000000000001
 40
0.2
 50
270
 51
0
  0
LINE
  8
_0-0_0
  6
CONTINUOUS
 62
    2
 10
92.299999999999997
 20
151.80000000000001
 11
92.299999999999997
 21
152.27500000000001
  0
LINE
  8
_0-0_0
  6
CONTINUOUS
 62
    2
 10
92.299999999999997
 20
152.27500000000001
 11
92.700000000000003
 21
152.27500000000001
  0
LINE
  8
_0-0_0
  6
CONTINUOUS
 62
    2
 10
92.700000000000003
 20
152.27500000000001
 11
92.700000000000003
 21
151.80000000000001
  0
ARC
  8
_0-0_0
  6
CONTINUOUS
 62
    2
 10
92.900000000000006
 20
151.80000000000001
 40
0.2
 50
180
 51
270
  0
LINE
  8
_0-0_0
  6
CONTINUOUS
 62
    2
 10
92.900000000000006
 20
151.59999999999999
 11
93.375
 21
151.59999999999999
  0
LINE
  8
_0-0_0
  6
CONTINUOUS
 62
    2
 10
93.375
 20
151.59999999999999
 11
93.375
 21
151.19999999999999
  0
LINE
  8
_0-0_0
  6
CONTINUOUS
 62
    2
 10
93.375
 20
151.19999999999999
 11
92.900000000000006
 21
151.19999999999999
  0
ARC
  8
_0-0_0
  6
CONTINUOUS
 62
    2
 10
92.900000000000006
 20
151
 40
0.2
 50
90
 51
180
  0
LINE
  8
_0-0_0
  6
CONTINUOUS
 62
    2
 10
92.700000000000003
 20
151
 11
92.700000000000003
 21
150.52500000000001
  0
LINE
  8
_0-0_0
  6
CONTINUOUS
 62
    2
 10
92.700000000000003
 20
150.52500000000001
 11
92.299999999999997
 21
150.52500000000001
  0
LINE
  8
_0-0_0
  6
CONTINUOUS
 62
    2
 10
92.299999999999997
 20
150.52500000000001
 11
92.299999999999997
 21
151
  0
ARC
  8
_0-0_0
  6
CONTINUOUS
 62
    2
 10
92.099999999999994
 20
151
 40
0.2
 50
0
 51
90
  0
LINE
  8
_0-0_0
  6
CONTINUOUS
 62
    2
 10
92.099999999999994
 20
151.19999999999999
 11
91.625
 21
151.19999999999999
  0
LINE
  8
_0-0_0
  6
CONTINUOUS
 62
    2
 10
91.625
 20
151.19999999999999
 11
91.625
 21
151.59999999999999
  0
LINE
  8
_0-0_0
  6
LTYPE1
 62
    2
 10
90.5
 20
151.40000000000001
 11
94.5
 21
151.40000000000001
  0
LINE
  8
_0-0_0
  6
LTYPE1
 62
    2
 10
92.5
 20
153.40000000000001
 11
92.5
 21
149.40000000000001
  0
CIRCLE
  8
_0-0_0
  6
CONTINUOUS
 62
    2
 10
137.5
 20
151.40000000000001
 40
1.5
  0
LINE
  8
_0-0_0
  6
CONTINUOUS
 62
    2
 10
136.625
 20
151.59999999999999
 11
137.09999999999999
 21
151.59999999999999
  0
ARC
  8
_0-0_0
  6
CONTINUOUS
 62
    2
 10
137.09999999999999
 20
151.80000000000001
 40
0.2
 50
270
 51
0
  0
LINE
  8
_0-0_0
  6
CONTINUOUS
 62
    2
 10
137.30000000000001
 20
151.80000000000001
 11
137.30000000000001
 21
152.27500000000001
  0
LINE
  8
_0-0_0
  6
CONTINUOUS
 62
    2
 10
137.30000000000001
 20
152.27500000000001
 11
137.69999999999999
 21
152.27500000000001
  0
LINE
  8
_0-0_0
  6
CONTINUOUS
 62
    2
 10
137.69999999999999
 20
152.27500000000001
 11
137.69999999999999
 21
151.80000000000001
  0
ARC
  8
_0-0_0
  6
CONTINUOUS
 62
    2
 10
137.90000000000001
 20
151.80000000000001
 40
0.2
 50
180
 51
270
  0
LINE
  8
_0-0_0
  6
CONTINUOUS
 62
    2
 10
137.90000000000001
 20
151.59999999999999
 11
138.375
 21
151.59999999999999
  0
LINE
  8
_0-0_0
  6
CONTINUOUS
 62
    2
 10
138.375
 20
151.59999999999999
 11
138.375
 21
151.19999999999999
  0
LINE
  8
_0-0_0
  6
CONTINUOUS
 62
    2
 10
138.375
 20
151.19999999999999
 11
137.90000000000001
 21
151.19999999999999
  0
ARC
  8
_0-0_0
  6
CONTINUOUS
 62
    2
 10
137.90000000000001
 20
151
 40
0.2
 50
90
 51
180
  0
LINE
  8
_0-0_0
  6
CONTINUOUS
 62
    2
 10
137.69999999999999
 20
151
 11
137.69999999999999
 21
150.52500000000001
  0
LINE
  8
_0-0_0
  6
CONTINUOUS
 62
    2
 10
137.69999999999999
 20
150.52500000000001
 11
137.30000000000001
 21
150.52500000000001
  0
LINE
  8
_0-0_0
  6
CONTINUOUS
 62
    2
 10
137.30000000000001
 20
150.52500000000001
 11
137.30000000000001
 21
151
  0
ARC
  8
_0-0_0
  6
CONTINUOUS
 62
    2
 10
137.09999999999999
 20
151
 40
0.2
 50
0
 51
90
  0
LINE
  8
_0-0_0
  6
CONTINUOUS
 62
    2
 10
137.09999999999999
 20
151.19999999999999
 11
136.625
 21
151.19999999999999
  0
LINE
  8
_0-0_0
  6
CONTINUOUS
 62
    2
 10
136.625
 20
151.19999999999999
 11
136.625
 21
151.59999999999999
  0
LINE
  8
_0-0_0
  6
LTYPE1
 62
    2
 10
135.5
 20
151.40000000000001
 11
139.5
 21
151.40000000000001
  0
LINE
  8
_0-0_0
  6
LTYPE1
 62
    2
 10
137.5
 20
153.40000000000001
 11
137.5
 21
149.40000000000001
  0
CIRCLE
  8
_0-0_0
  6
CONTINUOUS
 62
    2
 10
115
 20
173.90000000000001
 40
8.5
  0
CIRCLE
  8
_0-0_0
  6
CONTINUOUS
 62
    2
 10
115
 20
173.90000000000001
 40
7.7999999999999998
  0
CIRCLE
  8
_0-0_0
  6
CONTINUOUS
 62
    2
 10
115
 20
173.90000000000001
 40
7.0999999999999996
  0
CIRCLE
  8
_0-0_0
  6
CONTINUOUS
 62
    2
 10
115
 20
173.90000000000001
 40
6.4000000000000004
  0
CIRCLE
  8
_0-0_0
  6
CONTINUOUS
 62
    2
 10
115
 20
173.90000000000001
 40
5.7000000000000002
  0
CIRCLE
  8
_0-0_0
  6
CONTINUOUS
 62
    2
 10
115
 20
173.90000000000001
 40
5
  0
CIRCLE
  8
_0-0_0
  6
CONTINUOUS
 62
    2
 10
115
 20
173.90000000000001
 40
4.2999999999999998
  0
CIRCLE
  8
_0-0_0
  6
CONTINUOUS
 62
    2
 10
115
 20
173.90000000000001
 40
3.6000000000000001
  0
CIRCLE
  8
_0-0_0
  6
CONTINUOUS
 62
    2
 10
115
 20
173.90000000000001
 40
24.25
  0
LINE
  8
_0-0_0
  6
CONTINUOUS
 62
    2
 10
99.702240015000001
 20
166.44741390999999
 11
96.98424919
 21
164.11824541499999
  0
LINE
  8
_0-0_0
  6
CONTINUOUS
 62
    2
 10
96.98424919
 20
164.11824541499999
 11
100.417978155
 21
165.12918824100001
  0
LINE
  8
_0-0_0
  6
CONTINUOUS
 62
    2
 10
100.417978155
 20
165.12918824100001
 11
107.917058939
 21
169.20085689500002
  0
LINE
  8
_0-0_0
  6
CONTINUOUS
 62
    2
 10
99.181291971999997
 20
165.31114231499998
 11
107.701656687
 21
169.54291555200001
  0
LINE
  8
_0-0_0
  6
CONTINUOUS
 62
    2
 10
107.370878852
 20
170.15213253799999
 11
99.181291971999997
 21
165.31114231499998
  0
LINE
  8
_0-0_0
  6
CONTINUOUS
 62
    2
 10
107.201320798
 20
170.519082564
 11
99.702240015000001
 21
166.44741390999999
  0
LINE
  8
_0-0_0
  6
CONTINUOUS
 62
    2
 10
101
 20
165.5
 11
99.967309139999998
 21
163.223258999
  0
LINE
  8
_0-0_0
  6
CONTINUOUS
 62
    2
 10
101
 20
165.5
 11
101.244033981
 21
163.011939025
  0
LINE
  8
_0-0_0
  6
CONTINUOUS
 62
    1
 10
158.84999999999999
 20
199.34999999999999
 11
155.34999999999999
 21
199.34999999999999
  0
ARC
  8
_0-0_0
  6
CONTINUOUS
 62
    1
 10
155.34999999999999
 20
199.09999999999999
 40
0.25
 50
90
 51
180
  0
LINE
  8
_0-0_0
  6
CONTINUOUS
 62
    1
 10
158.84999999999999
 20
148.34999999999999
 11
155.34999999999999
 21
148.34999999999999
  0
ARC
  8
_0-0_0
  6
CONTINUOUS
 62
    1
 10
155.34999999999999
 20
148.59999999999999
 40
0.25
 50
180
 51
270
  0
LINE
  8
_0-0_0
  6
CONTINUOUS
 62
    1
 10
158.84999999999999
 20
199.5
 11
158.84999999999999
 21
199.34999999999999
  0
LINE
  8
_0-0_0
  6
CONTINUOUS
 62
    1
 10
158.84999999999999
 20
173.875
 11
158.84999999999999
 21
199.34999999999999
  0
LINE
  8
_0-0_0
  6
CONTINUOUS
 62
    2
 10
158.84999999999999
 20
152.59999999999999
 11
158.75
 21
152.59999999999999
  0
LINE
  8
_0-0_0
  6
CONTINUOUS
 62
    2
 10
158.75
 20
152.59999999999999
 11
158.75
 21
150.09999999999999
  0
LINE
  8
_0-0_0
  6
CONTINUOUS
 62
    2
 10
158.75
 20
150.09999999999999
 11
158.84999999999999
 21
150.09999999999999
  0
LINE
  8
_0-0_0
  6
CONTINUOUS
 62
    2
 10
158.75
 20
152.875
 11
158.75
 21
149.875
  0
LINE
  8
_0-0_0
  6
CONTINUOUS
 62
    2
 10
158.40000000000001
 20
149.875
 11
158.75
 21
149.875
  0
ARC
  8
_0-0_0
  6
CONTINUOUS
 62
    2
 10
158.40000000000001
 20
150.27500000000001
 40
0.4
 50
180
 51
270
  0
LINE
  8
_0-0_0
  6
CONTINUOUS
 62
    2
 10
158.40000000000001
 20
152.875
 11
158.84999999999999
 21
152.875
  0
LINE
  8
_0-0_0
  6
CONTINUOUS
 62
    2
 10
158
 20
150.27500000000001
 11
158
 21
152.47499999999999
  0
ARC
  8
_0-0_0
  6
CONTINUOUS
 62
    2
 10
158.40000000000001
 20
152.47499999999999
 40
0.4
 50
90
 51
180
  0
LINE
  8
_0-0_0
  6
CONTINUOUS
 62
    2
 10
158
 20
151.47499999999999
 11
158.09999999999999
 21
151.47499999999999
  0
LINE
  8
_0-0_0
  6
CONTINUOUS
 62
    2
 10
158.09999999999999
 20
151.47499999999999
 11
158.09999999999999
 21
151.27500000000001
  0
LINE
  8
_0-0_0
  6
CONTINUOUS
 62
    2
 10
158.09999999999999
 20
151.27500000000001
 11
158
 21
151.27500000000001
  0
LINE
  8
_0-0_0
  6
CONTINUOUS
 62
    2
 10
158.84999999999999
 20
197.59999999999999
 11
158.75
 21
197.59999999999999
  0
LINE
  8
_0-0_0
  6
CONTINUOUS
 62
    2
 10
158.75
 20
197.59999999999999
 11
158.75
 21
195.09999999999999
  0
LINE
  8
_0-0_0
  6
CONTINUOUS
 62
    2
 10
158.75
 20
195.09999999999999
 11
158.84999999999999
 21
195.09999999999999
  0
LINE
  8
_0-0_0
  6
CONTINUOUS
 62
    2
 10
158.75
 20
197.875
 11
158.75
 21
194.875
  0
LINE
  8
_0-0_0
  6
CONTINUOUS
 62
    2
 10
158.40000000000001
 20
194.875
 11
158.75
 21
194.875
  0
ARC
  8
_0-0_0
  6
CONTINUOUS
 62
    2
 10
158.40000000000001
 20
195.27500000000001
 40
0.4
 50
180
 51
270
  0
LINE
  8
_0-0_0
  6
CONTINUOUS
 62
    2
 10
158.40000000000001
 20
197.875
 11
158.84999999999999
 21
197.875
  0
LINE
  8
_0-0_0
  6
CONTINUOUS
 62
    2
 10
158
 20
195.27500000000001
 11
158
 21
197.47499999999999
  0
ARC
  8
_0-0_0
  6
CONTINUOUS
 62
    2
 10
158.40000000000001
 20
197.47499999999999
 40
0.4
 50
90
 51
180
  0
LINE
  8
_0-0_0
  6
CONTINUOUS
 62
    2
 10
158
 20
196.47499999999999
 11
158.09999999999999
 21
196.47499999999999
  0
LINE
  8
_0-0_0
  6
CONTINUOUS
 62
    2
 10
158.09999999999999
 20
196.47499999999999
 11
158.09999999999999
 21
196.27500000000001
  0
LINE
  8
_0-0_0
  6
CONTINUOUS
 62
    2
 10
158.09999999999999
 20
196.27500000000001
 11
158
 21
196.27500000000001
  0
LINE
  8
_0-0_0
  6
CONTINUOUS
 62
    2
 10
164.59999999999999
 20
193.40000000000001
 11
164.84999999999999
 21
193.40000000000001
  0
LINE
  8
_0-0_0
  6
CONTINUOUS
 62
    2
 10
164.84999999999999
 20
193.40000000000001
 11
164.84999999999999
 21
199.40000000000001
  0
LINE
  8
_0-0_0
  6
CONTINUOUS
 62
    2
 10
164.84999999999999
 20
199.40000000000001
 11
164.59999999999999
 21
199.40000000000001
  0
LINE
  8
_0-0_0
  6
CONTINUOUS
 62
    2
 10
170.34999999999999
 20
197.90000000000001
 11
172.34999999999999
 21
197.90000000000001
  0
LINE
  8
_0-0_0
  6
CONTINUOUS
 62
    2
 10
172.34999999999999
 20
197.90000000000001
 11
172.34999999999999
 21
194.90000000000001
  0
LINE
  8
_0-0_0
  6
CONTINUOUS
 62
    2
 10
172.34999999999999
 20
194.90000000000001
 11
170.34999999999999
 21
194.90000000000001
  0
LINE
  8
_0-0_0
  6
LTYPE2
 62
    2
 10
162.80000000000001
 20
196.40000000000001
 11
174.65000000000001
 21
196.40000000000001
  0
ARC
  8
_0-0_0
  6
CONTINUOUS
 62
    2
 10
165.34999999999999
 20
196.40000000000001
 40
5
 50
343.5
 51
16.500000000000004
  0
ARC
  8
_0-0_0
  6
CONTINUOUS
 62
    2
 10
172.84999999999999
 20
196.40000000000001
 40
5
 50
163.5
 51
196.30000000000001
  0
ARC
  8
_0-0_0
  6
CONTINUOUS
 62
    2
 10
169.09999999999999
 20
198.52500000000001
 40
1.25
 50
325
 51
34.999999999999986
  0
ARC
  8
_0-0_0
  6
CONTINUOUS
 62
    2
 10
169.09999999999999
 20
198.52500000000001
 40
1.25
 50
145
 51
215
  0
ARC
  8
_0-0_0
  6
CONTINUOUS
 62
    2
 10
169.09999999999999
 20
194.27500000000001
 40
1.25
 50
145
 51
215
  0
ARC
  8
_0-0_0
  6
CONTINUOUS
 62
    2
 10
169.09999999999999
 20
194.27500000000001
 40
1.25
 50
325
 51
34.999999999999986
  0
LINE
  8
_0-0_0
  6
CONTINUOUS
 62
    2
 10
168.05097354
 20
194.996666455
 11
170.12597354000002
 21
194.996666455
  0
LINE
  8
_0-0_0
  6
CONTINUOUS
 62
    2
 10
170.14409867400002
 20
197.82007672399999
 11
168.055901326
 21
197.82007672399999
  0
LINE
  8
_0-0_0
  6
CONTINUOUS
 62
    2
 10
170.34999999999999
 20
194.27500000000001
 11
170.34999999999999
 21
198.52500000000001
  0
LINE
  8
_0-0_0
  6
CONTINUOUS
 62
    2
 10
170.35500000000002
 20
195.02500000000001
 11
172.32999999999998
 21
195.02500000000001
  0
LINE
  8
_0-0_0
  6
CONTINUOUS
 62
    2
 10
172.34999999999999
 20
197.785
 11
170.36000000000001
 21
197.785
  0
LINE
  8
_0-0_0
  6
CONTINUOUS
 62
    2
 10
170.13090132600001
 20
199.25
 11
167.84999999999999
 21
199.25
  0
LINE
  8
_0-0_0
  6
CONTINUOUS
 62
    2
 10
167.84999999999999
 20
193.55000000000001
 11
170.125
 21
193.55000000000001
  0
LINE
  8
_0-0_0
  6
CONTINUOUS
 62
    2
 10
167.84999999999999
 20
199.25
 11
167.84999999999999
 21
193.55000000000001
  0
LINE
  8
_0-0_0
  6
CONTINUOUS
 62
    2
 10
166.84999999999999
 20
199.75
 11
167.84999999999999
 21
199.25
  0
LINE
  8
_0-0_0
  6
CONTINUOUS
 62
    2
 10
166.84999999999999
 20
193.05000000000001
 11
167.84999999999999
 21
193.55000000000001
  0
LINE
  8
_0-0_0
  6
CONTINUOUS
 62
    2
 10
166.84999999999999
 20
199.75
 11
166.84999999999999
 21
193.05000000000001
  0
LINE
  8
_0-0_0
  6
CONTINUOUS
 62
    2
 10
166.84999999999999
 20
197.90000000000001
 11
164.84999999999999
 21
197.90000000000001
  0
LINE
  8
_0-0_0
  6
CONTINUOUS
 62
    2
 10
166.84999999999999
 20
197.785
 11
164.84999999999999
 21
197.785
  0
LINE
  8
_0-0_0
  6
CONTINUOUS
 62
    1
 10
166.84999999999999
 20
198.65000000000001
 11
164.84999999999999
 21
198.65000000000001
  0
LINE
  8
_0-0_0
  6
CONTINUOUS
 62
    2
 10
164.84999999999999
 20
194.905
 11
166.84999999999999
 21
194.905
  0
LINE
  8
_0-0_0
  6
CONTINUOUS
 62
    2
 10
166.84999999999999
 20
195.02500000000001
 11
164.84999999999999
 21
195.02500000000001
  0
LINE
  8
_0-0_0
  6
CONTINUOUS
 62
    2
 10
164.59999999999999
 20
154.34999999999999
 11
164.84999999999999
 21
154.34999999999999
  0
LINE
  8
_0-0_0
  6
CONTINUOUS
 62
    2
 10
164.84999999999999
 20
154.34999999999999
 11
164.84999999999999
 21
148.34999999999999
  0
LINE
  8
_0-0_0
  6
CONTINUOUS
 62
    2
 10
164.84999999999999
 20
148.34999999999999
 11
164.59999999999999
 21
148.34999999999999
  0
LINE
  8
_0-0_0
  6
CONTINUOUS
 62
    2
 10
170.34999999999999
 20
149.84999999999999
 11
172.34999999999999
 21
149.84999999999999
  0
LINE
  8
_0-0_0
  6
CONTINUOUS
 62
    2
 10
172.34999999999999
 20
149.84999999999999
 11
172.34999999999999
 21
152.84999999999999
  0
LINE
  8
_0-0_0
  6
CONTINUOUS
 62
    2
 10
172.34999999999999
 20
152.84999999999999
 11
170.34999999999999
 21
152.84999999999999
  0
LINE
  8
_0-0_0
  6
LTYPE2
 62
    2
 10
162.80000000000001
 20
151.34999999999999
 11
174.65000000000001
 21
151.34999999999999
  0
ARC
  8
_0-0_0
  6
CONTINUOUS
 62
    2
 10
165.34999999999999
 20
151.34999999999999
 40
5
 50
343.5
 51
16.500000000000004
  0
ARC
  8
_0-0_0
  6
CONTINUOUS
 62
    2
 10
172.84999999999999
 20
151.34999999999999
 40
5
 50
163.69999999999999
 51
196.5
  0
ARC
  8
_0-0_0
  6
CONTINUOUS
 62
    2
 10
169.09999999999999
 20
149.22499999999999
 40
1.25
 50
325
 51
34.999999999999986
  0
ARC
  8
_0-0_0
  6
CONTINUOUS
 62
    2
 10
169.09999999999999
 20
149.22499999999999
 40
1.25
 50
145
 51
215
  0
ARC
  8
_0-0_0
  6
CONTINUOUS
 62
    2
 10
169.09999999999999
 20
153.47499999999999
 40
1.25
 50
145
 51
215
  0
ARC
  8
_0-0_0
  6
CONTINUOUS
 62
    2
 10
169.09999999999999
 20
153.47499999999999
 40
1.25
 50
325
 51
34.999999999999986
  0
LINE
  8
_0-0_0
  6
CONTINUOUS
 62
    2
 10
168.05097354
 20
152.753333545
 11
170.12597354000002
 21
152.753333545
  0
LINE
  8
_0-0_0
  6
CONTINUOUS
 62
    2
 10
170.14409867400002
 20
149.92992327600001
 11
168.055901326
 21
149.92992327600001
  0
LINE
  8
_0-0_0
  6
CONTINUOUS
 62
    2
 10
170.34999999999999
 20
153.47499999999999
 11
170.34999999999999
 21
149.22499999999999
  0
LINE
  8
_0-0_0
  6
CONTINUOUS
 62
    2
 10
170.35500000000002
 20
152.72499999999999
 11
172.32999999999998
 21
152.72499999999999
  0
LINE
  8
_0-0_0
  6
CONTINUOUS
 62
    2
 10
172.34999999999999
 20
149.965
 11
170.36000000000001
 21
149.965
  0
LINE
  8
_0-0_0
  6
CONTINUOUS
 62
    2
 10
170.13090132600001
 20
148.5
 11
167.84999999999999
 21
148.5
  0
LINE
  8
_0-0_0
  6
CONTINUOUS
 62
    2
 10
167.84999999999999
 20
154.19999999999999
 11
170.125
 21
154.19999999999999
  0
LINE
  8
_0-0_0
  6
CONTINUOUS
 62
    2
 10
167.84999999999999
 20
148.5
 11
167.84999999999999
 21
154.19999999999999
  0
LINE
  8
_0-0_0
  6
CONTINUOUS
 62
    2
 10
166.84999999999999
 20
154.69999999999999
 11
167.84999999999999
 21
154.19999999999999
  0
LINE
  8
_0-0_0
  6
CONTINUOUS
 62
    2
 10
166.84999999999999
 20
148
 11
166.84999999999999
 21
154.69999999999999
  0
LINE
  8
_0-0_0
  6
CONTINUOUS
 62
    2
 10
166.84999999999999
 20
149.84999999999999
 11
164.84999999999999
 21
149.84999999999999
  0
LINE
  8
_0-0_0
  6
CONTINUOUS
 62
    2
 10
166.84999999999999
 20
149.965
 11
164.84999999999999
 21
149.965
  0
LINE
  8
_0-0_0
  6
CONTINUOUS
 62
    1
 10
166.84999999999999
 20
149.09999999999999
 11
164.84999999999999
 21
149.09999999999999
  0
LINE
  8
_0-0_0
  6
CONTINUOUS
 62
    2
 10
164.84999999999999
 20
152.845
 11
166.84999999999999
 21
152.845
  0
LINE
  8
_0-0_0
  6
CONTINUOUS
 62
    2
 10
166.84999999999999
 20
152.72499999999999
 11
164.84999999999999
 21
152.72499999999999
  0
LINE
  8
_0-0_0
  6
LTYPE4
 62
    2
 10
115
 20
204.33199999999999
 11
115
 21
142.59999999999999
  0
LINE
  8
_0-0_0
  6
LTYPE4
 62
    2
 10
80.050000000000011
 20
173.90000000000001
 11
144.15000000000001
 21
173.90000000000001
  0
LINE
  8
_0-0_0
  6
LTYPE4
 62
    2
 10
167.09999999999999
 20
173.875
 11
175.09999999999999
 21
173.875
  0
LINE
  8
_0-0_0
  6
LTYPE4
 62
    2
 10
235.869080919
 20
173.90000000000001
 11
260.869080919
 21
173.90000000000001
  0
LINE
  8
_0-0_0
  6
LTYPE4
 62
    2
 10
248.40000000000001
 20
204.90000000000001
 11
248.40000000000001
 21
142.47499999999999
  0
LINE
  8
_0-0_0
  6
LTYPE4
 62
    2
 10
151.30000000000001
 20
173.875
 11
164.84999999999999
 21
173.875
  0
LINE
  8
_0-0_0
  6
LTYPE4
 62
    2
 10
218
 20
173.90000000000001
 11
231.66908091900001
 21
173.90000000000001
  0
LINE
  8
_0-0_0
  6
LTYPE4
 62
    2
 10
181.80000000000001
 20
173.90000000000001
 11
209.69999999999999
 21
173.90000000000001
  0
LINE
  8
_0-0_0
  6
CONTINUOUS
 62
    2
 10
279.60000000000002
 20
173.90000000000001
 11
285
 21
173.90000000000001
  0
LINE
  8
_0-0_0
  6
LTYPE2
 62
    2
 10
265.869080919
 20
173.90000000000001
 11
279
 21
173.90000000000001
  0
TEXT
  8
_0-0_0
 62
    7
 10
187.01249999999999
 20
219.40000190699999
 40
4
 41
0.9
 50
0
  1
ι
  0
CIRCLE
  8
_0-0_0
  6
CONTINUOUS
 62
    2
 10
188.5
 20
222.59999999999999
 40
0.2
  0
TEXT
  8
_0-0_0
 62
    7
 10
76.400000000000006
 20
119.3
 40
3
 41
0.9
 50
0
  1
１
  0
TEXT
  8
_0-0_0
 62
    7
 10
76.400000000000006
 20
114.3
 40
3
 41
0.9
 50
0
  1
２
  0
LINE
  8
_0-0_0
  6
CONTINUOUS
 62
    2
 10
75.400000000000006
 20
113.3
 11
75.400000000000006
 21
128.30000000000001
  0
LINE
  8
_0-0_0
  6
CONTINUOUS
 62
    2
 10
80.400000000000006
 20
113.3
 11
80.400000000000006
 21
128.30000000000001
  0
LINE
  8
_0-0_0
  6
CONTINUOUS
 62
    2
 10
110.40000000000001
 20
128.30000000000001
 11
110.40000000000001
 21
113.3
  0
LINE
  8
_0-0_0
  6
CONTINUOUS
 62
    2
 10
140.40000000000001
 20
113.3
 11
140.40000000000001
 21
128.30000000000001
  0
LINE
  8
_0-0_0
  6
CONTINUOUS
 62
    2
 10
170.40000000000001
 20
128.34999999999999
 11
170.40000000000001
 21
113.3
  0
LINE
  8
_0-0_0
  6
CONTINUOUS
 62
    2
 10
125.40000000000001
 20
128.30000000000001
 11
125.40000000000001
 21
113.3
  0
LINE
  8
_0-0_0
  6
CONTINUOUS
 62
    2
 10
155.40000000000001
 20
113.3
 11
155.40000000000001
 21
128.30000000000001
  0
LINE
  8
_0-0_0
  6
CONTINUOUS
 62
    2
 10
185.40000000000001
 20
128.30000000000001
 11
185.40000000000001
 21
113.3
  0
LINE
  8
_0-0_0
  6
CONTINUOUS
 62
    2
 10
80.400000000000006
 20
128.30000000000001
 11
110.40000000000001
 21
123.3
  0
TEXT
  8
_0-0_0
 62
    7
 10
116.72499999999999
 20
124
 40
3
 41
0.9
 50
0
  1
Ａ
  0
TEXT
  8
_0-0_0
 62
    7
 10
147.02500000000001
 20
123.90000000000001
 40
3
 41
0.9
 50
0
  1
Ｃ
  0
TEXT
  8
_0-0_0
 62
    7
 10
176.72499999999999
 20
123.90000000000001
 40
3
 41
0.9
 50
0
  1
Ｅ
  0
TEXT
  8
_0-0_0
 62
    7
 10
192.22499999999999
 20
123.90000000000001
 40
3
 41
0.9
 50
0
  1
Ｆ
  0
TEXT
  8
_0-0_0
 62
    7
 10
161.72499999999999
 20
123.8
 40
3
 41
0.9
 50
0
  1
Ｄ
  0
TEXT
  8
_0-0_0
 62
    7
 10
131.42500000000001
 20
123.90000000000001
 40
3
 41
0.9
 50
0
  1
Ｂ
  0
TEXT
  8
_0-0_0
 62
    7
 10
113.52500000000001
 20
119
 40
3
 41
0.9
 50
0
  1
１１０
  0
TEXT
  8
_0-0_0
 62
    7
 10
113.52500000000001
 20
114
 40
3
 41
0.9
 50
0
  1
１２０
  0
TEXT
  8
_0-0_0
 62
    7
 10
129.82499999999999
 20
119
 40
3
 41
0.9
 50
0
  1
４５
  0
TEXT
  8
_0-0_0
 62
    7
 10
129.82499999999999
 20
114
 40
3
 41
0.9
 50
0
  1
５０
  0
TEXT
  8
_0-0_0
 62
    7
 10
144.125
 20
113.90000000000001
 40
3
 41
0.9
 50
0
  1
１１０
  0
TEXT
  8
_0-0_0
 62
    7
 10
144.125
 20
118.90000000000001
 40
3
 41
0.9
 50
0
  1
１０２
  0
TEXT
  8
_0-0_0
 62
    7
 10
160.72499999999999
 20
119
 40
3
 41
0.9
 50
0
  1
９９
  0
TEXT
  8
_0-0_0
 62
    7
 10
158.52500000000001
 20
113.90000000000001
 40
3
 41
0.9
 50
0
  1
１０９
  0
TEXT
  8
_0-0_0
 62
    7
 10
175.42500000000001
 20
118.90000000000001
 40
3
 41
0.9
 50
0
  1
４５
  0
TEXT
  8
_0-0_0
 62
    7
 10
175.32499999999999
 20
114
 40
3
 41
0.9
 50
0
  1
５０
  0
TEXT
  8
_0-0_0
 62
    7
 10
188.92500000000001
 20
114
 40
3
 41
0.9
 50
0
  1
１１２
  0
TEXT
  8
_0-0_0
 62
    7
 10
188.92500000000001
 20
119.2
 40
3
 41
0.9
 50
0
  1
１０２
  0
LINE
  8
_0-0_0
  6
CONTINUOUS
 62
    2
 10
86.814213561999992
 20
118.3
 11
75.400000000000006
 21
118.3
  0
LINE
  8
_0-0_0
  6
CONTINUOUS
 62
    2
 10
101
 20
165.5
 11
96.200000000000003
 21
136.5
  0
LINE
  8
_0-0_0
  6
CONTINUOUS
 62
    2
 10
170.75
 20
150.05000000000001
 11
175.829411765
 21
141.25
  0
LINE
  8
_0-0_0
  6
CONTINUOUS
 62
    2
 10
175.829411765
 20
141.25
 11
198.30000000000001
 21
141.25
  0
TEXT
  8
_0-0_0
 62
    7
 10
154.271320344
 20
92.378679656000003
 40
6
 41
0.9
 50
0
  1
ι
  0
CIRCLE
  8
_0-0_0
  6
CONTINUOUS
 62
    2
 10
156.5
 20
97.200000000000003
 40
0.2999999999999999
  0
CIRCLE
  8
_0-0_0
  6
CONTINUOUS
 62
    2
 10
156.5
 20
97.200000000000003
 40
0.1
  0
LINE
  8
_0-0_0
  6
CONTINUOUS
 62
    2
 10
164.84999999999999
 20
205.77500190699999
 11
167.26481456599998
 21
205.12795429499999
  0
LINE
  8
_0-0_0
  6
CONTINUOUS
 62
    2
 10
164.84999999999999
 20
205.77500190699999
 11
167.26481456599998
 21
206.42204952
  0
LINE
  8
_0-0_0
  6
CONTINUOUS
 62
    2
 10
164.84999999999999
 20
205.77500190699999
 11
172.34999999999999
 21
205.77500190699999
  0
LINE
  8
_0-0_0
  6
CONTINUOUS
 62
    2
 10
172.34999999999999
 20
205.77500190699999
 11
169.935185434
 21
206.42204952
  0
LINE
  8
_0-0_0
  6
CONTINUOUS
 62
    2
 10
172.34999999999999
 20
205.77500190699999
 11
169.935185434
 21
205.12795429499999
  0
TEXT
  8
_0-0_0
 62
    7
 10
166.65000000000001
 20
206.77500190699999
 40
3
 41
0.5999999999999999
 50
0
  1
１５
  0
LINE
  8
_0-0_0
  6
CONTINUOUS
 62
    2
 10
164.59999999999999
 20
205.77500190699999
 11
162.185185434
 21
206.42204952
  0
LINE
  8
_0-0_0
  6
CONTINUOUS
 62
    2
 10
164.59999999999999
 20
205.77500190699999
 11
162.185185434
 21
205.12795429499999
  0
LINE
  8
_0-0_0
  6
CONTINUOUS
 62
    2
 10
153.59999999999999
 20
205.77500190699999
 11
169.84999999999999
 21
205.77500190699999
  0
LINE
  8
_0-0_0
  6
CONTINUOUS
 62
    2
 10
164.84999999999999
 20
205.77500190699999
 11
167.26481456599998
 21
205.12795429499999
  0
LINE
  8
_0-0_0
  6
CONTINUOUS
 62
    2
 10
164.84999999999999
 20
205.77500190699999
 11
167.26481456599998
 21
206.42204952
  0
TEXT
  8
_0-0_0
 62
    7
 10
154.75
 20
206.77500190699999
 40
3
 41
0.5999999999999999
 50
0
  1
０．５
  0
LINE
  8
_0-0_0
  6
CONTINUOUS
 62
    2
 10
172.34999999999999
 20
198.15000000000001
 11
172.34999999999999
 21
207.77500190699999
  0
LINE
  8
_0-0_0
  6
CONTINUOUS
 62
    2
 10
164.84999999999999
 20
199.65000000000001
 11
164.84999999999999
 21
207.841989205
  0
LINE
  8
_0-0_0
  6
CONTINUOUS
 62
    2
 10
257.77499999999998
 20
182.09759526400001
 11
259.54276695300001
 21
183.86536221700001
  0
LINE
  8
_0-0_0
  6
CONTINUOUS
 62
    2
 10
257.77499999999998
 20
182.09759526400001
 11
258.42204761300002
 21
184.51240983
  0
LINE
  8
_0-0_0
  6
CONTINUOUS
 62
    2
 10
265.27499999999998
 20
172.09759526400001
 11
267.04276695300001
 21
173.86536221700001
  0
LINE
  8
_0-0_0
  6
CONTINUOUS
 62
    2
 10
265.27499999999998
 20
172.09759526400001
 11
265.92204761300002
 21
174.51240983
  0
CIRCLE
  8
_0-0_0
  6
CONTINUOUS
 62
    1
 10
248.40000000000001
 20
96.049999999999997
 40
25.5
  0
CIRCLE
  8
_0-0_0
  6
CONTINUOUS
 62
    1
 10
225.90000000000001
 20
118.55
 40
1.75
  0
CIRCLE
  8
_0-0_0
  6
CONTINUOUS
 62
    1
 10
225.90000000000001
 20
73.549999999999997
 40
1.75
  0
CIRCLE
  8
_0-0_0
  6
CONTINUOUS
 62
    1
 10
270.89999999999998
 20
73.549999999999997
 40
1.75
  0
CIRCLE
  8
_0-0_0
  6
CONTINUOUS
 62
    1
 10
270.89999999999998
 20
118.55
 40
1.75
  0
POINT
  8
_0-0_0
 62
    2
 10
248.40000000000001
 20
66.400000000000006
  0
LINE
  8
_0-0_0
  6
LTYPE2
 62
    2
 10
221.80000000000001
 20
73.549999999999997
 11
228.94999999999999
 21
73.549999999999997
  0
LINE
  8
_0-0_0
  6
LTYPE2
 62
    2
 10
266.5
 20
73.549999999999997
 11
275.80000000000001
 21
73.549999999999997
  0
LINE
  8
_0-0_0
  6
LTYPE2
 62
    2
 10
270.89999999999998
 20
69.200000000000003
 11
270.89999999999998
 21
78.549999999999997
  0
LINE
  8
_0-0_0
  6
LTYPE2
 62
    2
 10
270.89999999999998
 20
113.15000000000001
 11
270.89999999999998
 21
124.90000000000001
  0
LINE
  8
_0-0_0
  6
LTYPE2
 62
    2
 10
225.90000000000001
 20
124.90000000000001
 11
225.90000000000001
 21
114.15000000000001
  0
LINE
  8
_0-0_0
  6
LTYPE2
 62
    2
 10
225.90000000000001
 20
78.75
 11
225.90000000000001
 21
68.450000000000003
  0
LINE
  8
_0-0_0
  6
LTYPE2
 62
    2
 10
221.84999999999999
 20
118.55
 11
232.5
 21
118.55
  0
LINE
  8
_0-0_0
  6
LTYPE2
 62
    2
 10
265.10000000000002
 20
118.55
 11
278.14999999999998
 21
118.55
  0
LINE
  8
_0-0_0
  6
CONTINUOUS
 62
    2
 10
275.94999999999999
 20
73.549999999999997
 11
284.39999999999998
 21
73.549999999999997
  0
LINE
  8
_0-0_0
  6
CONTINUOUS
 62
    2
 10
282.39999999999998
 20
73.549999999999997
 11
283.04704761300002
 21
75.964814566000001
  0
LINE
  8
_0-0_0
  6
CONTINUOUS
 62
    2
 10
282.39999999999998
 20
73.549999999999997
 11
281.75295238699999
 21
75.964814566000001
  0
LINE
  8
_0-0_0
  6
CONTINUOUS
 62
    2
 10
282.39999999999998
 20
96.049999999999997
 11
281.75295238699999
 21
93.635185433999993
  0
LINE
  8
_0-0_0
  6
CONTINUOUS
 62
    2
 10
282.39999999999998
 20
96.049999999999997
 11
283.04704761300002
 21
93.635185433999993
  0
LINE
  8
_0-0_0
  6
CONTINUOUS
 62
    2
 10
277.80000000000001
 20
96.049999999999997
 11
284.39999999999998
 21
96.049999999999997
  0
LINE
  8
_0-0_0
  6
CONTINUOUS
 62
    2
 10
282.39999999999998
 20
96.049999999999997
 11
283.04704761300002
 21
98.464814566000001
  0
LINE
  8
_0-0_0
  6
CONTINUOUS
 62
    2
 10
282.39999999999998
 20
96.049999999999997
 11
281.75295238699999
 21
98.464814566000001
  0
LINE
  8
_0-0_0
  6
CONTINUOUS
 62
    2
 10
282.39999999999998
 20
96.049999999999997
 11
282.39999999999998
 21
118.55
  0
LINE
  8
_0-0_0
  6
CONTINUOUS
 62
    2
 10
282.39999999999998
 20
118.55
 11
281.75295238699999
 21
116.13518543399999
  0
LINE
  8
_0-0_0
  6
CONTINUOUS
 62
    2
 10
282.39999999999998
 20
118.55
 11
283.04704761300002
 21
116.13518543399999
  0
LINE
  8
_0-0_0
  6
CONTINUOUS
 62
    2
 10
278.14999999999998
 20
118.55
 11
284.39999999999998
 21
118.55
  0
TEXT
  8
_0-0_0
 62
    7
 10
281.39999999999998
 20
106.81999999999999
 40
1.8
 41
0.5999999999999999
 50
90
  1
±０．５
  0
LINE
  8
_0-0_0
  6
CONTINUOUS
 62
    2
 10
282.39999999999998
 20
73.549999999999997
 11
282.39999999999998
 21
96.049999999999997
  0
TEXT
  8
_0-0_0
 62
    7
 10
281.39999999999998
 20
84.319999999999993
 40
1.8
 41
0.5999999999999999
 50
90
  1
±０．５
  0
LINE
  8
_0-0_0
  6
CONTINUOUS
 62
    2
 10
225.90000000000001
 20
125.55
 11
228.314814566
 21
124.902952387
  0
LINE
  8
_0-0_0
  6
CONTINUOUS
 62
    2
 10
225.90000000000001
 20
125.55
 11
228.314814566
 21
126.197047613
  0
LINE
  8
_0-0_0
  6
CONTINUOUS
 62
    2
 10
225.90000000000001
 20
125.55
 11
248.40000000000001
 21
125.55
  0
LINE
  8
_0-0_0
  6
CONTINUOUS
 62
    2
 10
248.40000000000001
 20
125.55
 11
245.98518543399999
 21
126.197047613
  0
LINE
  8
_0-0_0
  6
CONTINUOUS
 62
    2
 10
248.40000000000001
 20
125.55
 11
245.98518543399999
 21
124.902952387
  0
LINE
  8
_0-0_0
  6
CONTINUOUS
 62
    2
 10
248.40000000000001
 20
124.90000000000001
 11
248.40000000000001
 21
127.55
  0
TEXT
  8
_0-0_0
 62
    7
 10
236.66999999999999
 20
126.55
 40
1.8
 41
0.5999999999999999
 50
0
  1
±０．５
  0
LINE
  8
_0-0_0
  6
CONTINUOUS
 62
    2
 10
248.40000000000001
 20
125.55
 11
250.814814566
 21
124.902952387
  0
LINE
  8
_0-0_0
  6
CONTINUOUS
 62
    2
 10
248.40000000000001
 20
125.55
 11
250.814814566
 21
126.197047613
  0
LINE
  8
_0-0_0
  6
CONTINUOUS
 62
    2
 10
248.40000000000001
 20
125.55
 11
270.89999999999998
 21
125.55
  0
LINE
  8
_0-0_0
  6
CONTINUOUS
 62
    2
 10
270.89999999999998
 20
125.55
 11
268.48518543399996
 21
126.197047613
  0
LINE
  8
_0-0_0
  6
CONTINUOUS
 62
    2
 10
270.89999999999998
 20
125.55
 11
268.48518543399996
 21
124.902952387
  0
TEXT
  8
_0-0_0
 62
    7
 10
259.16999999999996
 20
126.55
 40
1.8
 41
0.5999999999999999
 50
0
  1
±０．５
  0
LINE
  8
_0-0_0
  6
CONTINUOUS
 62
    2
 10
230.79752072599999
 20
77.599993945999998
 11
232.93260918499999
 21
78.900531246
  0
LINE
  8
_0-0_0
  6
CONTINUOUS
 62
    2
 10
230.79752072599999
 20
77.599993945999998
 11
231.99629292099999
 21
79.793836515999999
  0
LINE
  8
_0-0_0
  6
CONTINUOUS
 62
    2
 10
230.79752072599999
 20
77.599993945999998
 11
266.002479274
 21
114.500006054
  0
LINE
  8
_0-0_0
  6
CONTINUOUS
 62
    2
 10
266.002479274
 20
114.500006054
 11
263.86739081500002
 21
113.19946875399999
  0
LINE
  8
_0-0_0
  6
CONTINUOUS
 62
    2
 10
266.002479274
 20
114.500006054
 11
264.80370707899999
 21
112.306163484
  0
LINE
  8
_0-0_0
  6
CONTINUOUS
 62
    2
 10
225
 20
72
 11
223.55263531200001
 21
69.961585061999997
  0
LINE
  8
_0-0_0
  6
CONTINUOUS
 62
    2
 10
225
 20
72
 11
224.765752881
 21
69.510998536000002
  0
LINE
  8
_0-0_0
  6
CONTINUOUS
 62
    2
 10
225
 20
72
 11
221.75
 21
63.25
  0
TEXT
  8
_0-0_0
 62
    7
 10
232.77000000000001
 20
126.55
 40
3
 41
0.5999999999999999
 50
0
  1
Ｅ
  0
TEXT
  8
_0-0_0
 62
    7
 10
255.27000000000001
 20
126.55
 40
3
 41
0.5999999999999999
 50
0
  1
Ｅ
  0
TEXT
  8
_0-0_0
 62
    7
 10
281.39999999999998
 20
102.92
 40
3
 41
0.5999999999999999
 50
90
  1
Ｅ
  0
TEXT
  8
_0-0_0
 62
    7
 10
281.39999999999998
 20
80.420000000000002
 40
3
 41
0.5999999999999999
 50
90
  1
Ｅ
  0
LINE
  8
_0-0_0
  6
LTYPE4
 62
    2
 10
219.09999999999999
 20
96.049999999999997
 11
277.80000000000001
 21
96.049999999999997
  0
LINE
  8
_0-0_0
  6
CONTINUOUS
 62
    2
 10
221.75
 20
63.25
 11
213.05000000000001
 21
63.25
  0
TEXT
  8
_0-0_0
 62
    7
 10
213.05000000000001
 20
64.25
 40
3
 41
0.5999999999999999
 50
0
  1
４－φ７
  0
LINE
  8
_0-0_0
  6
CONTINUOUS
 62
    2
 10
270.89999999999998
 20
127.55
 11
270.89999999999998
 21
123.55
  0
LINE
  8
_0-0_0
  6
LTYPE4
 62
    2
 10
248.40000000000001
 20
125.45
 11
248.40000000000001
 21
66.400000000000006
  0
LINE
  8
_0-0_0
  6
CONTINUOUS
 62
    2
 10
225.90000000000001
 20
127.55
 11
225.90000000000001
 21
123.55
  0
LINE
  8
_0-0_0
  6
CONTINUOUS
 62
    1
 10
154.09999999999999
 20
175.46599025800001
 11
154.09999999999999
 21
171.625
  0
LINE
  8
_0-0_0
  6
CONTINUOUS
 62
    2
 10
154.09999999999999
 20
177.05000000000001
 11
154.09999999999999
 21
171.15000000000001
  0
ARC
  8
_0-0_0
  6
CONTINUOUS
 62
    2
 10
154.09999999999999
 20
175.55000000000001
 40
1.5
 50
90
 51
180
  0
LINE
  8
_0-0_0
  6
CONTINUOUS
 62
    2
 10
154.09999999999999
 20
171.15000000000001
 11
154
 21
171.15000000000001
  0
LINE
  8
_0-0_0
  6
CONTINUOUS
 62
    2
 10
152.59999999999999
 20
172.55000000000001
 11
152.59999999999999
 21
175.55000000000001
  0
ARC
  8
_0-0_0
  6
CONTINUOUS
 62
    2
 10
154
 20
172.55000000000001
 40
1.3999999999999999
 50
180
 51
270
  0
LINE
  8
_0-0_0
  6
CONTINUOUS
 62
    1
 10
154.299130435
 20
171.625
 11
155.09999999999999
 21
148.59999999999999
  0
LINE
  8
_0-0_0
  6
CONTINUOUS
 62
    1
 10
154.09999999999999
 20
171.625
 11
154.299130435
 21
171.625
  0
LINE
  8
_0-0_0
  6
CONTINUOUS
 62
    1
 10
154.300869565
 20
176.125
 11
155.09999999999999
 21
199.09999999999999
  0
LINE
  8
_0-0_0
  6
CONTINUOUS
 62
    1
 10
154.09999999999999
 20
176.125
 11
154.300869565
 21
176.125
  0
LINE
  8
_0-0_0
  6
CONTINUOUS
 62
    2
 10
152.59999999999999
 20
176
 11
152.59999999999999
 21
221.325001907
  0
LINE
  8
_0-0_0
  6
CONTINUOUS
 62
    2
 10
152.59999999999999
 20
219.325001907
 11
155.01481456599998
 21
218.67795429500001
  0
LINE
  8
_0-0_0
  6
CONTINUOUS
 62
    2
 10
152.59999999999999
 20
219.325001907
 11
155.01481456599998
 21
219.97204952000001
  0
LINE
  8
_0-0_0
  6
CONTINUOUS
 62
    2
 10
152.59999999999999
 20
219.325001907
 11
164.59999999999999
 21
219.325001907
  0
TEXT
  8
_0-0_0
 62
    7
 10
156.65000000000001
 20
220.325001907
 40
3
 41
0.5999999999999999
 50
0
  1
２４
  0
CIRCLE
  8
_0-0_0
  6
CONTINUOUS
 62
    1
 10
115
 20
173.90000000000001
 40
3.0499999999999998
  0
LINE
  8
_0-0_0
  6
CONTINUOUS
 62
    2
 10
118.01662062599999
 20
174.34999999999999
 11
111.98337937400001
 21
174.34999999999999
  0
LINE
  8
_0-0_0
  6
CONTINUOUS
 62
    2
 10
111.98337937400001
 20
173.44999999999999
 11
118.01662062599999
 21
173.44999999999999
  0
LINE
  8
_0-0_0
  6
CONTINUOUS
 62
    2
 10
116.92449298299999
 20
171.533815992
 11
117.487132102
 21
169.09795121299999
  0
LINE
  8
_0-0_0
  6
CONTINUOUS
 62
    2
 10
116.92449298299999
 20
171.533815992
 11
118.629685143
 21
169.70561477299998
  0
LINE
  8
_0-0_0
  6
CONTINUOUS
 62
    2
 10
116.92449298299999
 20
171.533815992
 11
135.557127603
 21
136.5
  0
LINE
  8
_0-0_0
  6
CONTINUOUS
 62
    2
 10
75.400000000000006
 20
113.3
 11
200.40000000000001
 21
113.3
  0
LINE
  8
_0-0_0
  6
CONTINUOUS
 62
    2
 10
200.40000000000001
 20
118.3
 11
86.814213561999992
 21
118.3
  0
LINE
  8
_0-0_0
  6
CONTINUOUS
 62
    2
 10
75.400000000000006
 20
123.3
 11
200.40000000000001
 21
123.3
  0
LINE
  8
_0-0_0
  6
CONTINUOUS
 62
    2
 10
200.40000000000001
 20
128.30000000000001
 11
200.40000000000001
 21
113.3
  0
LINE
  8
_0-0_0
  6
CONTINUOUS
 62
    2
 10
75.400000000000006
 20
128.30000000000001
 11
200.40000000000001
 21
128.30000000000001
  0
LINE
  8
_0-0_0
  6
CONTINUOUS
 62
    2
 10
76.5
 20
100.5
 11
171.5
 21
100.5
  0
TEXT
  8
_0-0_0
 62
    7
 10
85.400000000000006
 20
119.3
 40
3
 41
0.9
 50
0
  1
□ＶＦ－１１Ｌ
  0
TEXT
  8
_0-0_0
 62
    7
 10
85.400000000000006
 20
114.3
 40
3
 41
0.9
 50
0
  1
□ＶＦ－１２Ｌ
  0
LINE
  8
_0-0_0
  6
LTYPE5
 62
    2
 10
236.15000000000001
 20
155.09999999999999
 11
230.65000000000001
 21
155.09999999999999
  0
LINE
  8
_0-0_0
  6
CONTINUOUS
 62
    2
 10
257.77499999999998
 20
182.09759526400001
 11
277.92591276999997
 21
217
  0
LINE
  8
_0-0_0
  6
CONTINUOUS
 62
    2
 10
265.27499999999998
 20
172.09759526400001
 11
288.31266411600001
 21
212
  0
TEXT
  8
_0-0_0
 62
    7
 10
178.09999999999999
 20
142.25
 40
3
 41
0.5999999999999999
 50
0
  1
４－Ｍ６　取付ボルト
  0
TEXT
  8
_0-0_0
 62
    7
 10
89.099999999999994
 20
137.5
 40
3
 41
0.9
 50
0
  1
指針
  0
LINE
  8
_0-0_0
  6
CONTINUOUS
 62
    2
 10
96.200000000000003
 20
136.5
 11
88.099999999999994
 21
136.5
  0
TEXT
  8
_0-0_0
 62
    7
 10
241.15000000000001
 20
61.700000000000003
 40
4
 41
0.75
 50
0
  1
パネルカット
  0
LINE
  8
_0-0_0
  6
CONTINUOUS
 62
    1
 10
240.09999999999999
 20
60.849999999999994
 11
260.30000000000001
 21
60.849999999999994
  0
TEXT
  8
_0-0_0
 62
    7
 10
81.430000000000007
 20
124.425
 40
1.95
 41
0.8999999999999999
 50
0
  1
計器形名
  0
TEXT
  8
_0-0_0
 62
    7
 10
101.22499999999999
 20
125.7
 40
2
 41
0.9
 50
0
  1
寸法
  0
TEXT
  8
_0-0_0
 62
    7
 10
76.400000000000006
 20
124.3
 40
3
 41
0.9
 50
0
  1
項
  0
TEXT
  8
_0-0_0
 62
    7
 10
77.5
 20
94.5
 40
3
 41
0.9
 50
0
  1
項
  0
TEXT
  8
_0-0_0
 62
    7
 10
89.5
 20
94.5
 40
3
 41
0.9
 50
0
  1
計器形名
  0
TEXT
  8
_0-0_0
 62
    7
 10
119.5
 20
94.5
 40
3
 41
0.9
 50
0
  1
動作原理
  0
CIRCLE
  8
_0-0_0
  6
CONTINUOUS
 62
    1
 10
115
 20
152.40000000000001
 40
0.875
  0
ARC
  8
_0-0_0
  6
CONTINUOUS
 62
    1
 10
109.217134423
 20
154.40000000000001
 40
3
 50
90
 51
155
  0
LINE
  8
_0-0_0
  6
CONTINUOUS
 62
    1
 10
109.217134972
 20
157.40000000000001
 11
120.7828669
 21
157.40000000000001
  0
ARC
  8
_0-0_0
  6
CONTINUOUS
 62
    1
 10
120.782865577
 20
154.40000000000001
 40
3
 50
25
 51
90
  0
LINE
  8
_0-0_0
  6
CONTINUOUS
 62
    1
 10
123.501788413
 20
155.66785591199999
 11
124.593643441
 21
153.32636524700001
  0
ARC
  8
_0-0_0
  6
CONTINUOUS
 62
    1
 10
123.23418230600001
 20
152.69243668500002
 40
1.5
 50
291.21951376200002
 51
25.000000000000011
  0
ARC
  8
_0-0_0
  6
CONTINUOUS
 62
    1
 10
115
 20
173.90000000000001
 40
24.25
 50
248.78049123100004
 51
291.21951868300005
  0
LINE
  8
_0-0_0
  6
CONTINUOUS
 62
    1
 10
106.49821151899999
 20
155.66785576699999
 11
105.40635660699999
 21
153.32636535
  0
ARC
  8
_0-0_0
  6
CONTINUOUS
 62
    1
 10
106.76581769399999
 20
152.69243668500002
 40
1.5
 50
155
 51
248.78048623800004
  0
ARC
  8
_0-0_0
  6
CONTINUOUS
 62
    2
 10
115
 20
173.90000000000001
 40
21
 50
295
 51
244.99999999999997
  0
TEXT
  8
_0-0_0
 62
    7
 10
176.829411765
 20
136.25
 40
3
 41
0.5999999999999999
 50
0
  1
フランジ付六角ナット
  0
TEXT
  8
_0-0_0
 62
    7
 10
77.5
 20
77.5
 40
3
 41
0.9
 50
0
  1
２
  0
TEXT
  8
_0-0_0
 62
    7
 10
77.5
 20
72.5
 40
3
 41
0.9
 50
0
  1
３
  0
TEXT
  8
_0-0_0
 62
    7
 10
150.5
 20
77.5
 40
3
 41
0.9
 50
0
  1
１０２
  0
TEXT
  8
_0-0_0
 62
    7
 10
83.5
 20
79
 40
3
 41
0.45
 50
0
  1
Ｓ
  0
TEXT
  8
_0-0_0
 62
    7
 10
83.5
 20
76.5
 40
3
 41
0.45
 50
0
  1
Ｃ
  0
LINE
  8
_0-0_0
  6
CONTINUOUS
 62
    2
 10
83
 20
81.5
 11
76.5
 21
81.5
  0
LINE
  8
_0-0_0
  6
CONTINUOUS
 62
    2
 10
76.5
 20
91.5
 11
171.5
 21
91.5
  0
LINE
  8
_0-0_0
  6
CONTINUOUS
 62
    2
 10
171.5
 20
71.5
 11
76.5
 21
71.5
  0
LINE
  8
_0-0_0
  6
CONTINUOUS
 62
    2
 10
171.5
 20
81.5
 11
85.299999999999997
 21
81.5
  0
TEXT
  8
_0-0_0
 62
    7
 10
86.799999999999997
 20
77.5
 40
3
 41
0.6666666669999999
 50
0
  1
ＶＦ－１１Ｌ，１２Ｌ
  0
TEXT
  8
_0-0_0
 62
    7
 10
150.5
 20
72.5
 40
3
 41
0.9
 50
0
  1
１２９
  0
TEXT
  8
_0-0_0
 62
    7
 10
83.700000000000003
 20
72.5
 40
3
 41
0.6666666669999999
 50
0
  1
ＡＶＦ－１１Ｌ，１２Ｌ　
  0
LINE
  8
_0-0_0
  6
CONTINUOUS
 62
    2
 10
171.5
 20
100.5
 11
171.5
 21
91.5
  0
LINE
  8
_0-0_0
  6
CONTINUOUS
 62
    2
 10
76.5
 20
91.5
 11
76.5
 21
100.5
  0
LINE
  8
_0-0_0
  6
CONTINUOUS
 62
    2
 10
81.5
 20
91.5
 11
81.5
 21
100.5
  0
LINE
  8
_0-0_0
  6
CONTINUOUS
 62
    2
 10
141.5
 20
91.5
 11
141.5
 21
100.5
  0
LINE
  8
_0-0_0
  6
CONTINUOUS
 62
    2
 10
111.5
 20
100.5
 11
111.5
 21
91.5
  0
TEXT
  8
_0-0_0
 62
    7
 10
114.5
 20
82.5
 40
3
 41
0.9
 50
0
  1
可動コイル形
  0
TEXT
  8
_0-0_0
 62
    7
 10
114.5
 20
77.5
 40
3
 41
0.9
 50
0
  1
整流形
  0
TEXT
  8
_0-0_0
 62
    7
 10
114.5
 20
72.5
 40
3
 41
0.9
 50
0
  1
可動鉄片形
  0
LINE
  8
_0-0_0
  6
CONTINUOUS
 62
    2
 10
171.5
 20
91.5
 11
171.5
 21
71.5
  0
LINE
  8
_0-0_0
  6
CONTINUOUS
 62
    2
 10
141.5
 20
71.5
 11
141.5
 21
91.5
  0
LINE
  8
_0-0_0
  6
CONTINUOUS
 62
    2
 10
111.5
 20
91.5
 11
111.5
 21
71.5
  0
LINE
  8
_0-0_0
  6
CONTINUOUS
 62
    2
 10
81.5
 20
71.5
 11
81.5
 21
91.5
  0
TEXT
  8
_0-0_0
 62
    7
 10
77.5
 20
87.5
 40
3
 41
0.9
 50
0
  1
１
  0
TEXT
  8
_0-0_0
 62
    7
 10
83.5
 20
87.5
 40
3
 41
0.6666666669999999
 50
0
  1
ＤＶＦ－１１Ｌ，１２Ｌ
  0
TEXT
  8
_0-0_0
 62
    7
 10
150.5
 20
87.5
 40
3
 41
0.9
 50
0
  1
１０２
  0
TEXT
  8
_0-0_0
 62
    7
 10
114.5
 20
87.5
 40
3
 41
0.9
 50
0
  1
永久磁石
  0
LINE
  8
_0-0_0
  6
CONTINUOUS
 62
    2
 10
175.829411765
 20
135.25
 11
195.72941176500001
 21
135.25
  0
LINE
  8
_0-0_0
  6
CONTINUOUS
 62
    2
 10
166.84999999999999
 20
148
 11
167.84999999999999
 21
148.5
  0
LINE
  8
_0-0_0
  6
CONTINUOUS
 62
    2
 10
168.02941176500002
 20
148.75
 11
168.67723346600002
 21
146.33539298400001
  0
LINE
  8
_0-0_0
  6
CONTINUOUS
 62
    2
 10
168.02941176500002
 20
148.75
 11
169.797745324
 21
146.98279983499998
  0
LINE
  8
_0-0_0
  6
CONTINUOUS
 62
    2
 10
168.02941176500002
 20
148.75
 11
175.829411765
 21
135.25
  0
CIRCLE
  8
_0-0_0
  6
CONTINUOUS
 62
    2
 10
240.86094182799999
 20
178.75
 40
3.1749999999999998
  0
CIRCLE
  8
_0-0_0
  6
CONTINUOUS
 62
    2
 10
240.86094182799999
 20
178.75
 40
2.5
  0
LINE
  8
_0-0_0
  6
CONTINUOUS
 62
    2
 10
242.23594182799999
 20
178.40000000000001
 11
242.23594182799999
 21
179.09999999999999
  0
LINE
  8
_0-0_0
  6
CONTINUOUS
 62
    2
 10
239.48594182799999
 20
179.09999999999999
 11
239.48594182799999
 21
178.40000000000001
  0
LINE
  8
_0-0_0
  6
CONTINUOUS
 62
    2
 10
242.23594182799999
 20
179.09999999999999
 11
241.96094182799999
 21
179.09999999999999
  0
LINE
  8
_0-0_0
  6
CONTINUOUS
 62
    2
 10
241.21094182799999
 20
179.84999999999999
 11
241.21094182799999
 21
181.22537875899999
  0
ARC
  8
_0-0_0
  6
CONTINUOUS
 62
    2
 10
241.96094182799999
 20
179.84999999999999
 40
0.75
 50
180
 51
270
  0
LINE
  8
_0-0_0
  6
CONTINUOUS
 62
    2
 10
241.96094182799999
 20
178.40000000000001
 11
242.23594182799999
 21
178.40000000000001
  0
LINE
  8
_0-0_0
  6
CONTINUOUS
 62
    2
 10
241.21094182799999
 20
176.30000000000001
 11
241.21094182799999
 21
177.65000000000001
  0
ARC
  8
_0-0_0
  6
CONTINUOUS
 62
    2
 10
241.96094182799999
 20
177.65000000000001
 40
0.75
 50
90
 51
180
  0
LINE
  8
_0-0_0
  6
CONTINUOUS
 62
    2
 10
239.48594182799999
 20
178.40000000000001
 11
239.760941828
 21
178.40000000000001
  0
LINE
  8
_0-0_0
  6
CONTINUOUS
 62
    2
 10
240.510941828
 20
177.65000000000001
 11
240.510941828
 21
176.27462124100001
  0
ARC
  8
_0-0_0
  6
CONTINUOUS
 62
    2
 10
239.760941828
 20
177.65000000000001
 40
0.75
 50
0
 51
90
  0
LINE
  8
_0-0_0
  6
CONTINUOUS
 62
    2
 10
239.760941828
 20
179.09999999999999
 11
239.48594182799999
 21
179.09999999999999
  0
LINE
  8
_0-0_0
  6
CONTINUOUS
 62
    2
 10
240.510941828
 20
181.22537875899999
 11
240.510941828
 21
179.84999999999999
  0
ARC
  8
_0-0_0
  6
CONTINUOUS
 62
    2
 10
239.760941828
 20
179.84999999999999
 40
0.75
 50
270
 51
0
  0
CIRCLE
  8
_0-0_0
  6
CONTINUOUS
 62
    2
 10
255.86094182799999
 20
178.75
 40
3.1749999999999998
  0
CIRCLE
  8
_0-0_0
  6
CONTINUOUS
 62
    2
 10
255.86094182799999
 20
178.75
 40
2.5
  0
LINE
  8
_0-0_0
  6
CONTINUOUS
 62
    2
 10
257.23594182800002
 20
178.40000000000001
 11
257.23594182800002
 21
179.09999999999999
  0
LINE
  8
_0-0_0
  6
CONTINUOUS
 62
    2
 10
254.48594182799999
 20
179.09999999999999
 11
254.48594182799999
 21
178.40000000000001
  0
LINE
  8
_0-0_0
  6
CONTINUOUS
 62
    2
 10
257.23594182800002
 20
179.09999999999999
 11
256.96094182799999
 21
179.09999999999999
  0
LINE
  8
_0-0_0
  6
CONTINUOUS
 62
    2
 10
256.21094182799999
 20
179.84999999999999
 11
256.21094182799999
 21
181.22537875899999
  0
ARC
  8
_0-0_0
  6
CONTINUOUS
 62
    2
 10
256.96094182799999
 20
179.84999999999999
 40
0.75
 50
180
 51
270
  0
LINE
  8
_0-0_0
  6
CONTINUOUS
 62
    2
 10
256.96094182799999
 20
178.40000000000001
 11
257.23594182800002
 21
178.40000000000001
  0
LINE
  8
_0-0_0
  6
CONTINUOUS
 62
    2
 10
256.21094182799999
 20
176.30000000000001
 11
256.21094182799999
 21
177.65000000000001
  0
ARC
  8
_0-0_0
  6
CONTINUOUS
 62
    2
 10
256.96094182799999
 20
177.65000000000001
 40
0.75
 50
90
 51
180
  0
LINE
  8
_0-0_0
  6
CONTINUOUS
 62
    2
 10
254.48594182799999
 20
178.40000000000001
 11
254.760941828
 21
178.40000000000001
  0
LINE
  8
_0-0_0
  6
CONTINUOUS
 62
    2
 10
255.510941828
 20
177.65000000000001
 11
255.510941828
 21
176.27462124100001
  0
ARC
  8
_0-0_0
  6
CONTINUOUS
 62
    2
 10
254.760941828
 20
177.65000000000001
 40
0.75
 50
0
 51
90
  0
LINE
  8
_0-0_0
  6
CONTINUOUS
 62
    2
 10
254.760941828
 20
179.09999999999999
 11
254.48594182799999
 21
179.09999999999999
  0
LINE
  8
_0-0_0
  6
CONTINUOUS
 62
    2
 10
255.510941828
 20
181.22537875899999
 11
255.510941828
 21
179.84999999999999
  0
ARC
  8
_0-0_0
  6
CONTINUOUS
 62
    2
 10
254.760941828
 20
179.84999999999999
 40
0.75
 50
270
 51
0
  0
LINE
  8
_0-0_0
  6
CONTINUOUS
 62
    1
 10
240.86094182799999
 20
185.75
 11
255.86094182799999
 21
185.75
  0
ARC
  8
_0-0_0
  6
CONTINUOUS
 62
    1
 10
255.86094182799999
 20
178.75
 40
7
 50
24.160871774
 51
90
  0
LINE
  8
_0-0_0
  6
CONTINUOUS
 62
    1
 10
262.24774111099998
 20
181.61509946199999
 11
267.23864139299997
 21
170.48952467300001
  0
ARC
  8
_0-0_0
  6
CONTINUOUS
 62
    1
 10
263.36094182800002
 20
168.75
 40
4.25
 50
0
 51
24.160864651000001
  0
LINE
  8
_0-0_0
  6
CONTINUOUS
 62
    1
 10
267.61094182800002
 20
161.74999839999998
 11
267.61094182800002
 21
168.75
  0
LINE
  8
_0-0_0
  6
CONTINUOUS
 62
    1
 10
229.11094182799999
 20
161.74999839999998
 11
229.11094182799999
 21
168.75
  0
ARC
  8
_0-0_0
  6
CONTINUOUS
 62
    1
 10
233.36094182799999
 20
168.75
 40
4.25
 50
155.839135349
 51
180
  0
LINE
  8
_0-0_0
  6
CONTINUOUS
 62
    1
 10
234.474142546
 20
181.61509946199999
 11
229.48324226400001
 21
170.48952467300001
  0
ARC
  8
_0-0_0
  6
CONTINUOUS
 62
    1
 10
240.86094182799999
 20
178.75
 40
7
 50
90
 51
155.83912822600001
  0
LINE
  8
_0-0_0
  6
CONTINUOUS
 62
    1
 10
229.11094182799999
 20
161.75
 11
267.61094182800002
 21
161.75
  0
LINE
  8
_0-0_0
  6
LTYPE2
 62
    5
 10
236.86094182799999
 20
178.75
 11
244.86094182799999
 21
178.75
  0
LINE
  8
_0-0_0
  6
LTYPE2
 62
    5
 10
251.86094182799999
 20
178.75
 11
259.86094182800002
 21
178.75
  0
LINE
  8
_0-0_0
  6
LTYPE2
 62
    5
 10
255.86094182799999
 20
174.75
 11
255.86094182799999
 21
186.75
  0
LINE
  8
_0-0_0
  6
LTYPE2
 62
    5
 10
240.86094182799999
 20
174.75
 11
240.86094182799999
 21
186.75
  0
LINE
  8
_0-0_0
  6
LTYPE5
 62
    2
 10
253.66094182800001
 20
176.75
 11
253.16094182800001
 21
176.75
  0
ARC
  8
_0-0_0
  6
LTYPE5
 62
    2
 10
252.41094182800001
 20
184.25
 40
0.75
 50
0
 51
90
  0
LINE
  8
_0-0_0
  6
LTYPE5
 62
    2
 10
253.16094182800001
 20
176.75
 11
253.16094182800001
 21
184.25
  0
LINE
  8
_0-0_0
  6
LTYPE5
 62
    2
 10
240.83594182799999
 20
185
 11
255.86094182799999
 21
185
  0
ARC
  8
_0-0_0
  6
LTYPE5
 62
    2
 10
255.86094182799999
 20
178.75
 40
6.25
 50
24.160864651000001
 51
90.000006667999983
  0
ARC
  8
_0-0_0
  6
LTYPE5
 62
    2
 10
244.31094182800001
 20
184.25
 40
0.75
 50
90
 51
180
  0
LINE
  8
_0-0_0
  6
LTYPE5
 62
    2
 10
243.56094182800001
 20
176.75
 11
243.56094182800001
 21
184.25
  0
ARC
  8
_0-0_0
  6
LTYPE5
 62
    2
 10
240.86094182799999
 20
178.75
 40
6.25
 50
89.999993332000003
 51
155.839135349
  0
ARC
  8
_0-0_0
  6
LTYPE5
 62
    2
 10
259.06094182800001
 20
183.52729002699999
 40
0.5
 50
56.184407518
 51
180.00000000000003
  0
LINE
  8
_0-0_0
  6
LTYPE5
 62
    2
 10
258.56094182800001
 20
176.75
 11
258.56094182800001
 21
183.52729002699999
  0
LINE
  8
_0-0_0
  6
LTYPE5
 62
    2
 10
238.16094182800001
 20
176.75
 11
238.16094182800001
 21
183.52729002699999
  0
ARC
  8
_0-0_0
  6
LTYPE5
 62
    2
 10
237.66094182800001
 20
183.52729002699999
 40
0.5
 50
0
 51
123.81559248200001
  0
ARC
  8
_0-0_0
  6
LTYPE5
 62
    2
 10
256.610942782
 20
184.75
 40
0.25
 50
90
 51
180
  0
ARC
  8
_0-0_0
  6
LTYPE5
 62
    2
 10
255.11094087500001
 20
184.75
 40
0.25
 50
0
 51
90
  0
LINE
  8
_0-0_0
  6
LTYPE5
 62
    2
 10
241.360942782
 20
184.75
 11
241.360942782
 21
182.75
  0
LINE
  8
_0-0_0
  6
LTYPE5
 62
    2
 10
241.360942782
 20
182.75
 11
240.360942782
 21
182.75
  0
LINE
  8
_0-0_0
  6
LTYPE5
 62
    2
 10
240.360942782
 20
184.75
 11
240.360942782
 21
182.75
  0
LINE
  8
_0-0_0
  6
LTYPE5
 62
    2
 10
239.61094182799999
 20
181.44999999999999
 11
239.61094182799999
 21
180.37480768099999
  0
LINE
  8
_0-0_0
  6
LTYPE5
 62
    2
 10
239.21094182799999
 20
181.44999999999999
 11
239.21094182799999
 21
185.552756794
  0
LINE
  8
_0-0_0
  6
LTYPE5
 62
    2
 10
239.010941828
 20
176.75
 11
238.16094182800001
 21
176.75
  0
ARC
  8
_0-0_0
  6
LTYPE5
 62
    2
 10
240.86094182799999
 20
178.75
 40
2.0499999999999998
 50
127.57186932
 51
228.74835941499998
  0
ARC
  8
_0-0_0
  6
LTYPE5
 62
    2
 10
239.010941828
 20
177.25
 40
0.5
 50
270
 51
355.26968562799999
  0
LINE
  8
_0-0_0
  6
LTYPE5
 62
    2
 10
242.11094182799999
 20
181.44999999999999
 11
242.11094182799999
 21
180.37480768099999
  0
LINE
  8
_0-0_0
  6
LTYPE5
 62
    2
 10
242.510941828
 20
181.44999999999999
 11
242.510941828
 21
185.552756794
  0
ARC
  8
_0-0_0
  6
LTYPE5
 62
    2
 10
240.86094182799999
 20
178.75
 40
2.0499999999999998
 50
311.25164058500002
 51
52.428130679999988
  0
LINE
  8
_0-0_0
  6
LTYPE5
 62
    2
 10
242.71094182799999
 20
176.75
 11
243.56094182800001
 21
176.75
  0
ARC
  8
_0-0_0
  6
LTYPE5
 62
    2
 10
242.71094182799999
 20
177.25
 40
0.5
 50
184.73031437200001
 51
270
  0
LINE
  8
_0-0_0
  6
LTYPE5
 62
    2
 10
256.36094087499998
 20
184.75
 11
256.36094087499998
 21
182.75
  0
LINE
  8
_0-0_0
  6
LTYPE5
 62
    2
 10
255.36094087500001
 20
182.75
 11
256.36094087499998
 21
182.75
  0
LINE
  8
_0-0_0
  6
LTYPE5
 62
    2
 10
255.36094087500001
 20
184.75
 11
255.36094087500001
 21
182.75
  0
LINE
  8
_0-0_0
  6
LTYPE5
 62
    2
 10
254.61094182799999
 20
181.44999999999999
 11
254.61094182799999
 21
180.37480768099999
  0
LINE
  8
_0-0_0
  6
LTYPE5
 62
    2
 10
254.21094182799999
 20
181.44999999999999
 11
254.21094182799999
 21
185.552756794
  0
ARC
  8
_0-0_0
  6
LTYPE5
 62
    2
 10
255.86094182799999
 20
178.75
 40
2.0499999999999998
 50
127.57186932
 51
228.74835941499998
  0
LINE
  8
_0-0_0
  6
LTYPE5
 62
    2
 10
254.010941828
 20
176.75
 11
253.16094182800001
 21
176.75
  0
ARC
  8
_0-0_0
  6
LTYPE5
 62
    2
 10
254.010941828
 20
177.25
 40
0.5
 50
270
 51
355.26968562799999
  0
LINE
  8
_0-0_0
  6
LTYPE5
 62
    2
 10
257.11094182800002
 20
181.44999999999999
 11
257.11094182800002
 21
180.37480768099999
  0
LINE
  8
_0-0_0
  6
LTYPE5
 62
    2
 10
257.510941828
 20
181.44999999999999
 11
257.510941828
 21
185.552756794
  0
ARC
  8
_0-0_0
  6
LTYPE5
 62
    2
 10
255.86094182799999
 20
178.75
 40
2.0499999999999998
 50
311.25164058500002
 51
52.428130679999988
  0
LINE
  8
_0-0_0
  6
LTYPE5
 62
    2
 10
258.06094182800001
 20
176.75
 11
258.56094182800001
 21
176.75
  0
LINE
  8
_0-0_0
  6
LTYPE5
 62
    2
 10
257.71094182799999
 20
176.75
 11
258.56094182800001
 21
176.75
  0
ARC
  8
_0-0_0
  6
LTYPE5
 62
    2
 10
257.71094182799999
 20
177.25
 40
0.5
 50
184.73031437200001
 51
270
  0
ARC
  8
_0-0_0
  6
LTYPE5
 62
    2
 10
233.36094182799999
 20
168.75
 40
3.5
 50
154.66706423799999
 51
180
  0
ARC
  8
_0-0_0
  6
LTYPE5
 62
    2
 10
233.36094182799999
 20
168.75
 40
3.5
 50
155.83910685999999
 51
180
  0
LINE
  8
_0-0_0
  6
LTYPE5
 62
    2
 10
230.16754218700001
 20
170.18254973099999
 11
235.15844246899999
 21
181.30812451899999
  0
LINE
  8
_0-0_0
  6
LTYPE5
 62
    2
 10
229.86094182799999
 20
168.75
 11
229.86094182799999
 21
161.75
  0
LINE
  8
_0-0_0
  6
LTYPE5
 62
    2
 10
266.86094182800002
 20
168.75
 11
266.86094182800002
 21
161.75
  0
ARC
  8
_0-0_0
  6
LTYPE5
 62
    2
 10
263.36094182800002
 20
168.75
 40
3.5
 50
0
 51
24.160893139999999
  0
LINE
  8
_0-0_0
  6
LTYPE5
 62
    2
 10
266.55434146900001
 20
170.18254973099999
 11
261.56344118800001
 21
181.30812451899999
  0
LINE
  8
_0-0_0
  6
CONTINUOUS
 62
    5
 10
229.13894182799999
 20
168.75
 11
229.11094182799999
 21
168.75
  0
LINE
  8
_0-0_0
  6
CONTINUOUS
 62
    2
 10
242.510941828
 20
181.44999999999999
 11
242.11094182799999
 21
181.44999999999999
  0
LINE
  8
_0-0_0
  6
CONTINUOUS
 62
    2
 10
254.21094182799999
 20
181.44999999999999
 11
254.61094182799999
 21
181.44999999999999
  0
LINE
  8
_0-0_0
  6
CONTINUOUS
 62
    2
 10
257.510941828
 20
181.44999999999999
 11
257.11094182800002
 21
181.44999999999999
  0
LINE
  8
_0-0_0
  6
CONTINUOUS
 62
    2
 10
239.21094182799999
 20
181.44999999999999
 11
239.61094182799999
 21
181.44999999999999
  0
LINE
  8
_0-0_0
  6
CONTINUOUS
 62
    2
 10
272.70938540899999
 20
185.75
 11
272.06233779600001
 21
183.33518543400001
  0
LINE
  8
_0-0_0
  6
CONTINUOUS
 62
    2
 10
272.70938540899999
 20
185.75
 11
273.35643302200003
 21
183.33518543400001
  0
LINE
  8
_0-0_0
  6
CONTINUOUS
 62
    2
 10
272.70938540899999
 20
185.75
 11
272.70938540899999
 21
173.90000000000001
  0
LINE
  8
_0-0_0
  6
CONTINUOUS
 62
    2
 10
272.70938540899999
 20
173.90000000000001
 11
273.35643302200003
 21
176.314814566
  0
LINE
  8
_0-0_0
  6
CONTINUOUS
 62
    2
 10
272.70938540899999
 20
173.90000000000001
 11
272.06233779600001
 21
176.314814566
  0
TEXT
  8
_0-0_0
 62
    7
 10
271.70938540899999
 20
177.875
 40
3
 41
0.5999999999999999
 50
90
  1
２４
  0
LINE
  8
_0-0_0
  6
CONTINUOUS
 62
    2
 10
272.70900744900001
 20
161.84999999999999
 11
272.70900744900001
 21
173.69999999999999
  0
LINE
  8
_0-0_0
  6
CONTINUOUS
 62
    2
 10
272.70900744900001
 20
173.69999999999999
 11
273.356055062
 21
171.285185434
  0
LINE
  8
_0-0_0
  6
CONTINUOUS
 62
    2
 10
272.70900744900001
 20
173.69999999999999
 11
272.06195983600003
 21
171.285185434
  0
TEXT
  8
_0-0_0
 62
    7
 10
271.70900744900001
 20
165.82499999999999
 40
3
 41
0.5999999999999999
 50
90
  1
２４
  0
LINE
  8
_0-0_0
  6
CONTINUOUS
 62
    2
 10
272.70900744900001
 20
161.84999999999999
 11
272.06195983600003
 21
164.26481456599998
  0
LINE
  8
_0-0_0
  6
CONTINUOUS
 62
    2
 10
272.70900744900001
 20
161.84999999999999
 11
273.356055062
 21
164.26481456599998
  0
LINE
  8
_0-0_0
  6
CONTINUOUS
 62
    2
 10
256.58878116300002
 20
161.84999999999999
 11
274.09100744900002
 21
161.84999999999999
  0
LINE
  8
_0-0_0
  6
CONTINUOUS
 62
    2
 10
266.70871214499999
 20
173.90000000000001
 11
274.09100744900002
 21
173.90000000000001
  0
LINE
  8
_0-0_0
  6
CONTINUOUS
 62
    2
 10
256.58878116300002
 20
185.75
 11
274.09100744900002
 21
185.75
  0
LINE
  8
_0-0_0
  6
CONTINUOUS
 62
    2
 10
229.11094182799999
 20
160.75
 11
229.11094182799999
 21
152.32599999999999
  0
LINE
  8
_0-0_0
  6
CONTINUOUS
 62
    2
 10
229.11094182799999
 20
154.32599999999999
 11
231.52575639400001
 21
153.67895238699998
  0
LINE
  8
_0-0_0
  6
CONTINUOUS
 62
    2
 10
229.11094182799999
 20
154.32599999999999
 11
231.52575639400001
 21
154.97304761300001
  0
LINE
  8
_0-0_0
  6
CONTINUOUS
 62
    2
 10
229.11094182799999
 20
154.32599999999999
 11
267.61094182800002
 21
154.32599999999999
  0
LINE
  8
_0-0_0
  6
CONTINUOUS
 62
    2
 10
267.61094182800002
 20
154.32599999999999
 11
265.19612726299999
 21
154.97304761300001
  0
LINE
  8
_0-0_0
  6
CONTINUOUS
 62
    2
 10
267.61094182800002
 20
154.32599999999999
 11
265.19612726299999
 21
153.67895238699998
  0
LINE
  8
_0-0_0
  6
CONTINUOUS
 62
    2
 10
267.61094182800002
 20
160.75
 11
267.61094182800002
 21
152.32599999999999
  0
TEXT
  8
_0-0_0
 62
    7
 10
246.41094182800001
 20
155.32599999999999
 40
3
 41
0.5999999999999999
 50
0
  1
７７
  0
ARC
  8
_0-0_0
  6
CONTINUOUS
 62
    2
 10
213.27500000000001
 20
177.84999999999999
 40
1.4750000000000001
 50
270
 51
0
  0
ARC
  8
_0-0_0
  6
CONTINUOUS
 62
    2
 10
213.27500000000001
 20
180
 40
1.4750000000000001
 50
0
 51
90
  0
LINE
  8
_0-0_0
  6
CONTINUOUS
 62
    2
 10
214.75
 20
180
 11
214.75
 21
177.84999999999999
  0
LINE
  8
_0-0_0
  6
CONTINUOUS
 62
    2
 10
213.27500000000001
 20
176.375
 11
212.77500000000001
 21
176.375
  0
LINE
  8
_0-0_0
  6
CONTINUOUS
 62
    2
 10
212.77500000000001
 20
176.375
 11
212.77500000000001
 21
181.47499999999999
  0
LINE
  8
_0-0_0
  6
CONTINUOUS
 62
    2
 10
212.77500000000001
 20
181.47499999999999
 11
213.275000132
 21
181.47499999999999
  0
LINE
  8
_0-0_0
  6
CONTINUOUS
 62
    2
 10
212.07499999999999
 20
181.67500000000001
 11
212.75
 21
181.67500000000001
  0
LINE
  8
_0-0_0
  6
CONTINUOUS
 62
    2
 10
212.75
 20
181.67500000000001
 11
212.75
 21
176.17250000000001
  0
LINE
  8
_0-0_0
  6
CONTINUOUS
 62
    2
 10
212.75
 20
176.17250000000001
 11
212.07499999999999
 21
176.17250000000001
  0
LINE
  8
_0-0_0
  6
CONTINUOUS
 62
    2
 10
212.07499999999999
 20
176.17250000000001
 11
212.07499999999999
 21
181.67500000000001
  0
LINE
  8
_0-0_0
  6
CONTINUOUS
 62
    2
 10
212.07499999999999
 20
178.98500000000001
 11
212.75
 21
178.98500000000001
  0
LINE
  8
_0-0_0
  6
CONTINUOUS
 62
    2
 10
212.75
 20
178.88499999999999
 11
212.07499999999999
 21
178.88499999999999
  0
LINE
  8
_0-0_0
  6
CONTINUOUS
 62
    2
 10
211.59999999999999
 20
175.75
 11
212.07499999999999
 21
175.75
  0
LINE
  8
_0-0_0
  6
CONTINUOUS
 62
    2
 10
212.07499999999999
 20
175.75
 11
212.07499999999999
 21
182.09999999999999
  0
LINE
  8
_0-0_0
  6
CONTINUOUS
 62
    2
 10
212.07499999999999
 20
182.09999999999999
 11
211.59999999999999
 21
182.09999999999999
  0
LINE
  8
_0-0_0
  6
CONTINUOUS
 62
    2
 10
211.59999999999999
 20
182.09999999999999
 11
211.59999999999999
 21
175.75
  0
LINE
  8
_0-0_0
  6
CONTINUOUS
 62
    2
 10
211.59999999999999
 20
176.92500000000001
 11
207.09999999999999
 21
176.92500000000001
  0
LINE
  8
_0-0_0
  6
CONTINUOUS
 62
    2
 10
207.09999999999999
 20
180.92500000000001
 11
211.59999999999999
 21
180.92500000000001
  0
LINE
  8
_0-0_0
  6
CONTINUOUS
 62
    2
 10
207.09999999999999
 20
180.92500000000001
 11
207.09999999999999
 21
176.92500000000001
  0
LINE
  8
_0-0_0
  6
LTYPE2
 62
    2
 10
204.32499999999999
 20
178.92500000000001
 11
217.05000000000001
 21
178.92500000000001
  0
LINE
  8
_0-0_0
  6
LTYPE5
 62
    2
 10
207.09999999999999
 20
175.67500000000001
 11
207.09999999999999
 21
183.17500000000001
  0
LINE
  8
_0-0_0
  6
CONTINUOUS
 62
    1
 10
207.09999999999999
 20
161.92500000000001
 11
207.09999999999999
 21
185.92500000000001
  0
LINE
  8
_0-0_0
  6
CONTINUOUS
 62
    1
 10
216.59999999999999
 20
182.92500000000001
 11
216.59999999999999
 21
161.92500000000001
  0
LINE
  8
_0-0_0
  6
CONTINUOUS
 62
    1
 10
216.59999999999999
 20
161.92500000000001
 11
207.09999999999999
 21
161.92500000000001
  0
ARC
  8
_0-0_0
  6
CONTINUOUS
 62
    1
 10
213.59999999999999
 20
182.92500000000001
 40
3
 50
0
 51
90
  0
LINE
  8
_0-0_0
  6
CONTINUOUS
 62
    1
 10
207.09999999999999
 20
185.92500000000001
 11
213.59999999999999
 21
185.92500000000001
  0
LINE
  8
_0-0_0
  6
LTYPE5
 62
    2
 10
207.09999999999999
 20
185.17500000000001
 11
213.59999999999999
 21
185.17500000000001
  0
LINE
  8
_0-0_0
  6
LTYPE5
 62
    2
 10
215.84999999999999
 20
182.92500000000001
 11
215.84999999999999
 21
161.92500000000001
  0
ARC
  8
_0-0_0
  6
LTYPE5
 62
    2
 10
213.59999999999999
 20
182.92500000000001
 40
2.25
 50
0
 51
90
  0
LINE
  8
_0-0_0
  6
LTYPE5
 62
    2
 10
207.09999999999999
 20
180.549807681
 11
211.5
 21
180.549807681
  0
LINE
  8
_0-0_0
  6
LTYPE5
 62
    2
 10
211.5
 20
176.92500000000001
 11
207.09999999999999
 21
176.92500000000001
  0
LINE
  8
_0-0_0
  6
LTYPE5
 62
    2
 10
211.5
 20
177.38376709799999
 11
207.09999999999999
 21
177.38376709799999
  0
LINE
  8
_0-0_0
  6
LTYPE2
 62
    5
 10
217.8115
 20
178.92500000000001
 11
206.13050000000001
 21
178.92500000000001
  0
LINE
  8
_0-0_0
  6
CONTINUOUS
 62
    2
 10
207.09999999999999
 20
193.50000190700001
 11
207.09999999999999
 21
206.77500190699999
  0
TEXT
  8
_0-0_0
 62
    7
 10
108.56999999999999
 20
137.59999999999999
 40
3
 41
0.9
 50
0
  1
機械的零位調整器
  0
LINE
  8
_0-0_0
  6
CONTINUOUS
 62
    2
 10
108.47
 20
136.5
 11
135.557127603
 21
136.5
  0
TEXT
  8
_0-0_0
 62
    7
 10
277.92591276999997
 20
218
 40
3
 41
0.5999999999999999
 50
0
  1
２－Ｍ６　ターミナルネジ（計器入力用）
  0
LINE
  8
_0-0_0
  6
CONTINUOUS
 62
    2
 10
277.92591276999997
 20
217
 11
312.60000000000002
 21
217
  0
ARC
  8
_0-0_0
  6
CONTINUOUS
 62
    2
 10
213.27500000000001
 20
167.82499999999999
 40
1.4750000000000001
 50
270
 51
0
  0
ARC
  8
_0-0_0
  6
CONTINUOUS
 62
    2
 10
213.27500000000001
 20
169.97499999999999
 40
1.4750000000000001
 50
0
 51
90
  0
LINE
  8
_0-0_0
  6
CONTINUOUS
 62
    2
 10
214.75
 20
169.97499999999999
 11
214.75
 21
167.82499999999999
  0
LINE
  8
_0-0_0
  6
CONTINUOUS
 62
    2
 10
213.27500000000001
 20
166.34999999999999
 11
212.77500000000001
 21
166.34999999999999
  0
LINE
  8
_0-0_0
  6
CONTINUOUS
 62
    2
 10
212.77500000000001
 20
166.34999999999999
 11
212.77500000000001
 21
171.44999999999999
  0
LINE
  8
_0-0_0
  6
CONTINUOUS
 62
    2
 10
212.77500000000001
 20
171.44999999999999
 11
213.275000132
 21
171.44999999999999
  0
LINE
  8
_0-0_0
  6
CONTINUOUS
 62
    2
 10
212.07499999999999
 20
171.65000000000001
 11
212.75
 21
171.65000000000001
  0
LINE
  8
_0-0_0
  6
CONTINUOUS
 62
    2
 10
212.75
 20
171.65000000000001
 11
212.75
 21
166.14749999999998
  0
LINE
  8
_0-0_0
  6
CONTINUOUS
 62
    2
 10
212.75
 20
166.14749999999998
 11
212.07499999999999
 21
166.14749999999998
  0
LINE
  8
_0-0_0
  6
CONTINUOUS
 62
    2
 10
212.07499999999999
 20
166.14749999999998
 11
212.07499999999999
 21
171.65000000000001
  0
LINE
  8
_0-0_0
  6
CONTINUOUS
 62
    2
 10
212.07499999999999
 20
168.95999999999998
 11
212.75
 21
168.95999999999998
  0
LINE
  8
_0-0_0
  6
CONTINUOUS
 62
    2
 10
212.75
 20
168.86000000000001
 11
212.07499999999999
 21
168.86000000000001
  0
LINE
  8
_0-0_0
  6
CONTINUOUS
 62
    2
 10
211.59999999999999
 20
165.72499999999999
 11
212.07499999999999
 21
165.72499999999999
  0
LINE
  8
_0-0_0
  6
CONTINUOUS
 62
    2
 10
212.07499999999999
 20
165.72499999999999
 11
212.07499999999999
 21
172.07499999999999
  0
LINE
  8
_0-0_0
  6
CONTINUOUS
 62
    2
 10
212.07499999999999
 20
172.07499999999999
 11
211.59999999999999
 21
172.07499999999999
  0
LINE
  8
_0-0_0
  6
CONTINUOUS
 62
    2
 10
211.59999999999999
 20
172.07499999999999
 11
211.59999999999999
 21
165.72499999999999
  0
LINE
  8
_0-0_0
  6
CONTINUOUS
 62
    2
 10
211.59999999999999
 20
166.90000000000001
 11
207.09999999999999
 21
166.90000000000001
  0
LINE
  8
_0-0_0
  6
CONTINUOUS
 62
    2
 10
207.09999999999999
 20
170.90000000000001
 11
211.59999999999999
 21
170.90000000000001
  0
LINE
  8
_0-0_0
  6
CONTINUOUS
 62
    2
 10
207.09999999999999
 20
170.90000000000001
 11
207.09999999999999
 21
166.90000000000001
  0
LINE
  8
_0-0_0
  6
LTYPE2
 62
    2
 10
204.32499999999999
 20
168.90000000000001
 11
217.05000000000001
 21
168.90000000000001
  0
LINE
  8
_0-0_0
  6
LTYPE5
 62
    2
 10
207.09999999999999
 20
170.524807681
 11
211.5
 21
170.524807681
  0
LINE
  8
_0-0_0
  6
LTYPE5
 62
    2
 10
211.5
 20
166.90000000000001
 11
207.09999999999999
 21
166.90000000000001
  0
LINE
  8
_0-0_0
  6
LTYPE5
 62
    2
 10
211.5
 20
167.35876709799999
 11
207.09999999999999
 21
167.35876709799999
  0
LINE
  8
_0-0_0
  6
LTYPE2
 62
    5
 10
217.8115
 20
168.90000000000001
 11
206.13050000000001
 21
168.90000000000001
  0
LINE
  8
_0-0_0
  6
CONTINUOUS
 62
    2
 10
216.59999999999999
 20
214.59999999999999
 11
216.59999999999999
 21
179.837001907
  0
LINE
  8
_0-0_0
  6
CONTINUOUS
 62
    2
 10
207.09999999999999
 20
198.50000190700001
 11
207.09999999999999
 21
214.65000000000001
  0
LINE
  8
_0-0_0
  6
CONTINUOUS
 62
    2
 10
207.09999999999999
 20
209.235001907
 11
209.51481456600001
 21
208.587954295
  0
LINE
  8
_0-0_0
  6
CONTINUOUS
 62
    2
 10
207.09999999999999
 20
209.235001907
 11
209.51481456600001
 21
209.88204952000001
  0
LINE
  8
_0-0_0
  6
CONTINUOUS
 62
    2
 10
216.59999999999999
 20
209.235001907
 11
214.185185434
 21
209.88204952000001
  0
LINE
  8
_0-0_0
  6
CONTINUOUS
 62
    2
 10
216.59999999999999
 20
209.235001907
 11
214.185185434
 21
208.587954295
  0
LINE
  8
_0-0_0
  6
CONTINUOUS
 62
    2
 10
207.09999999999999
 20
209.235001907
 11
216.59999999999999
 21
209.235001907
  0
TEXT
  8
_0-0_0
 62
    7
 10
209.97499999999999
 20
210.235001907
 40
3
 41
0.5999999999999999
 50
0
  1
１９
  0
LINE
  8
_0-0_0
  6
CONTINUOUS
 62
    2
 10
207.09999999999999
 20
201.69500190700001
 11
209.51481456600001
 21
201.04795429500001
  0
LINE
  8
_0-0_0
  6
CONTINUOUS
 62
    2
 10
207.09999999999999
 20
201.69500190700001
 11
209.51481456600001
 21
202.34204951999999
  0
LINE
  8
_0-0_0
  6
CONTINUOUS
 62
    2
 10
207.09999999999999
 20
201.69500190700001
 11
214.75
 21
201.69500190700001
  0
LINE
  8
_0-0_0
  6
CONTINUOUS
 62
    2
 10
214.75
 20
201.69500190700001
 11
212.33518543400001
 21
202.34204951999999
  0
LINE
  8
_0-0_0
  6
CONTINUOUS
 62
    2
 10
214.75
 20
201.69500190700001
 11
212.33518543400001
 21
201.04795429500001
  0
TEXT
  8
_0-0_0
 62
    7
 10
208.97499999999999
 20
202.69500190700001
 40
3
 41
0.5999999999999999
 50
0
  1
１７
  0
ARC
  8
_0-0_0
  6
CONTINUOUS
 62
    1
 10
206.59999999999999
 20
198.15000000000001
 40
0.5
 50
0
 51
90
  0
TEXT
  8
_0-0_0
 62
    7
 10
239.5
 20
187.59999999999999
 40
3
 41
0.9
 50
0
  1
＋
  0
ARC
  8
_0-0_0
  6
LTYPE5
 62
    2
 10
241.610942782
 20
184.75
 40
0.25
 50
90
 51
180
  0
ARC
  8
_0-0_0
  6
LTYPE5
 62
    2
 10
240.11094087500001
 20
184.75
 40
0.25
 50
0
 51
90
  0
LINE
  8
_0-0_0
  6
CONTINUOUS
 62
    2
 10
240.86000000000001
 20
191.28
 11
242.58416045800001
 21
193.09032337299999
  0
LINE
  8
_0-0_0
  6
CONTINUOUS
 62
    2
 10
240.86000000000001
 20
191.28
 11
241.44800506999999
 21
193.70986625899999
  0
LINE
  8
_0-0_0
  6
CONTINUOUS
 62
    2
 10
270.89999999999998
 20
200.40000000000001
 11
270.89999999999998
 21
209.66999999999999
  0
TEXT
  8
_0-0_0
 62
    7
 10
288.31266411600001
 20
213
 40
3
 41
0.5999999999999999
 50
0
  1
２－Ｍ６　ターミナルネジ（ランプ照明用）
  0
LINE
  8
_0-0_0
  6
CONTINUOUS
 62
    2
 10
288.31266411600001
 20
212
 11
325.00999999999999
 21
212
  0
TEXT
  8
_0-0_0
 62
    7
 10
249.056470351
 20
98.090293305000003
 40
3
 41
0.5999999999999999
 50
46.346669024999962
  1
Ｆ
  0
LINE
  8
_0-0_0
  6
CONTINUOUS
 62
    2
 10
76.5
 20
76.5
 11
171.5
 21
76.5
  0
LINE
  8
_0-0_0
  6
CONTINUOUS
 62
    2
 10
76.5
 20
71.5
 11
76.5
 21
91.5
  0
TEXT
  8
_0-0_0
 62
    7
 10
293.30000000000001
 20
55.5
 40
6
 41
0.9
 50
0
  1
ＭＳ－９３４０Ｂ
  0
TEXT
  8
_0-0_0
 62
    7
 10
296.5
 20
82.5
 40
3
 41
0.9
 50
0
  1
□ＶＦ－１１Ｌ
  0
TEXT
  8
_0-0_0
 62
    7
 10
296.5
 20
78.5
 40
3
 41
0.9
 50
0
  1
□ＶＦ－１２Ｌ
  0
TEXT
  8
_0-0_0
 62
    7
 10
296.5
 20
68.5
 40
4
 41
0.9
 50
0
  1
広角度計器　外形図
  0
TEXT
  8
_0-0_0
 62
    7
 10
296.5
 20
73.5
 40
3
 41
0.9
 50
0
  1
ランプ付
  0
TEXT
  8
_0-0_0
 62
    7
 10
258.53358067299996
 20
225.02000000000001
 40
3
 41
0.9
 50
0
  1
直流計器のみ＋記号を表示
  0
LINE
  8
_0-0_0
  6
CONTINUOUS
 62
    2
 10
240.86000000000001
 20
191.28
 11
258.71304572899999
 21
224.02000000000001
  0
LINE
  8
_0-0_0
  6
CONTINUOUS
 62
    2
 10
258.71304572899999
 20
224.02000000000001
 11
293.673580673
 21
224.02000000000001
  0
LINE
  8
_0-0_0
  6
CONTINUOUS
 62
    2
 10
270.89999999999998
 20
209.66999999999999
 11
270.89999999999998
 21
221.25
  0
TEXT
  8
_0-0_0
 62
    7
 10
262.66999999999996
 20
220.25
 40
1.8
 41
0.5999999999999999
 50
0
  1
±０．５
  0
TEXT
  8
_0-0_0
 62
    7
 10
260.26999999999998
 20
220.25
 40
3
 41
0.5999999999999999
 50
0
  1
Ｂ
  0
TEXT
  8
_0-0_0
 62
    7
 10
167.59999999999999
 20
212.75
 40
3
 41
0.7666666669999999
 50
0
  1
ＡＶＦ－１１Ｌ形電圧計放熱穴
  0
LINE
  8
_0-0_0
  6
CONTINUOUS
 62
    2
 10
199.68928571399999
 20
211.75
 11
167.59999999999999
 21
211.75
  0
LINE
  8
_0-0_0
  6
CONTINUOUS
 62
    2
 10
201.19999999999999
 20
197.65000000000001
 11
199.68928571399999
 21
211.75
  0
LINE
  8
_0-0_0
  6
CONTINUOUS
 62
    2
 10
212.79736750500001
 20
161.89342790800001
 11
212.47570285500001
 21
159.41420789900002
  0
LINE
  8
_0-0_0
  6
CONTINUOUS
 62
    2
 10
212.79736750500001
 20
161.89342790800001
 11
213.75840775099999
 21
159.585528074
  0
TEXT
  8
_0-0_0
 62
    7
 10
218.40000000000001
 20
140.42500000000001
 40
3
 41
0.9
 50
0
  1
端子キャッフ゜
  0
LINE
  8
_0-0_0
  6
CONTINUOUS
 62
    2
 10
212.79736750500001
 20
161.89342790800001
 11
215.798287671
 21
139.42500000000001
  0
LINE
  8
_0-0_0
  6
CONTINUOUS
 62
    2
 10
215.798287671
 20
139.42500000000001
 11
230.13999999999999
 21
139.42500000000001
  0
ENDSEC
  0
EOF
