  0
SECTION
  2
HEADER
  9
$ACADVER
  1
AC1009
  9
$DWGCODEPAGE
  3
dos932
  9
$EXTMIN
 10
0.0
 20
0.0
 30
0.0
  9
$EXTMAX
 10
297.0
 20
210.0
 30
0.0
  9
$LIMMIN
 10
0.0
 20
0.0
  9
$LIMMAX
 10
297.0
 20
210.0
  9
$LTSCALE
 40
1.0
  9
$PDMODE
 70
     0
  0
ENDSEC
  0
SECTION
  2
TABLES
  0
TABLE
  2
VPORT
 70
     1
  0
VPORT
  2
*ACTIVE
 70
     0
 10
0.0
 20
0.0
 11
1.0
 21
1.0
 12
148.5
 22
105.0
 13
0.0
 23
0.0
 14
10.0
 24
10.0
 15
10.0
 25
10.0
 16
0.0
 26
0.0
 36
1.0
 17
0.0
 27
0.0
 37
0.0
 40
297.0
 41
1.414285714
 42
50.0
 43
0.0
 44
0.0
 50
0.0
 51
0.0
 71
     0
 72
  1000
 73
     1
 74
     3
 75
     0
 76
     0
 77
     0
 78
     0
  0
ENDTAB
  0
TABLE
  2
LTYPE
 70
     4
  0
LTYPE
  2
CONTINUOUS
 70
    64
  3
Solid line
 72
    65
 73
     0
 40
0.0
  0
LTYPE
  2
LTYPE1
 70
    64
  3
CENTER
 72
    65
 73
     4
 40
10.0
 49
7.0
 49
-1.0
 49
1.0
 49
-1.0
  0
LTYPE
  2
LTYPE2
 70
    64
  3
CENTER
 72
    65
 73
     4
 40
5.0
 49
3.5
 49
-0.5
 49
0.5
 49
-0.5
  0
LTYPE
  2
LTYPE3
 70
    64
  3
CENTER
 72
    65
 73
     4
 40
15.0
 49
10.5
 49
-1.5
 49
1.5
 49
-1.5
  0
ENDTAB
  0
TABLE
  2
LAYER
 70
   128
  0
LAYER
  2
0
 70
     0
 62
     7
  6
CONTINUOUS
  0
LAYER
  2
2
 70
     0
 62
     7
  6
CONTINUOUS
  0
LAYER
  2
3
 70
     0
 62
     7
  6
CONTINUOUS
  0
LAYER
  2
4
 70
     0
 62
     7
  6
CONTINUOUS
  0
LAYER
  2
5
 70
     0
 62
     7
  6
CONTINUOUS
  0
LAYER
  2
6
 70
     0
 62
     7
  6
CONTINUOUS
  0
LAYER
  2
7
 70
     0
 62
     7
  6
CONTINUOUS
  0
LAYER
  2
8
 70
     0
 62
     7
  6
CONTINUOUS
  0
LAYER
  2
9
 70
     0
 62
     7
  6
CONTINUOUS
  0
LAYER
  2
10
 70
     0
 62
     7
  6
CONTINUOUS
  0
LAYER
  2
11
 70
     0
 62
     7
  6
CONTINUOUS
  0
LAYER
  2
12
 70
     0
 62
     7
  6
CONTINUOUS
  0
LAYER
  2
13
 70
     0
 62
     7
  6
CONTINUOUS
  0
LAYER
  2
14
 70
     0
 62
     7
  6
CONTINUOUS
  0
LAYER
  2
15
 70
     0
 62
     7
  6
CONTINUOUS
  0
LAYER
  2
16
 70
     0
 62
     7
  6
CONTINUOUS
  0
LAYER
  2
17
 70
     0
 62
     7
  6
CONTINUOUS
  0
LAYER
  2
18
 70
     0
 62
     7
  6
CONTINUOUS
  0
LAYER
  2
19
 70
     0
 62
     7
  6
CONTINUOUS
  0
LAYER
  2
20
 70
     0
 62
     7
  6
CONTINUOUS
  0
LAYER
  2
21
 70
     0
 62
     7
  6
CONTINUOUS
  0
LAYER
  2
22
 70
     0
 62
     7
  6
CONTINUOUS
  0
LAYER
  2
23
 70
     0
 62
     7
  6
CONTINUOUS
  0
LAYER
  2
24
 70
     0
 62
     7
  6
CONTINUOUS
  0
LAYER
  2
25
 70
     0
 62
     7
  6
CONTINUOUS
  0
LAYER
  2
26
 70
     0
 62
     7
  6
CONTINUOUS
  0
LAYER
  2
27
 70
     0
 62
     7
  6
CONTINUOUS
  0
LAYER
  2
28
 70
     0
 62
     7
  6
CONTINUOUS
  0
LAYER
  2
29
 70
     0
 62
     7
  6
CONTINUOUS
  0
LAYER
  2
30
 70
     0
 62
     7
  6
CONTINUOUS
  0
LAYER
  2
31
 70
     0
 62
     7
  6
CONTINUOUS
  0
LAYER
  2
32
 70
     0
 62
     7
  6
CONTINUOUS
  0
LAYER
  2
33
 70
     0
 62
     7
  6
CONTINUOUS
  0
LAYER
  2
34
 70
     0
 62
     7
  6
CONTINUOUS
  0
LAYER
  2
35
 70
     0
 62
     7
  6
CONTINUOUS
  0
LAYER
  2
36
 70
     0
 62
     7
  6
CONTINUOUS
  0
LAYER
  2
37
 70
     0
 62
     7
  6
CONTINUOUS
  0
LAYER
  2
38
 70
     0
 62
     7
  6
CONTINUOUS
  0
LAYER
  2
39
 70
     0
 62
     7
  6
CONTINUOUS
  0
LAYER
  2
40
 70
     0
 62
     7
  6
CONTINUOUS
  0
LAYER
  2
41
 70
     0
 62
     7
  6
CONTINUOUS
  0
LAYER
  2
42
 70
     0
 62
     7
  6
CONTINUOUS
  0
LAYER
  2
43
 70
     0
 62
     7
  6
CONTINUOUS
  0
LAYER
  2
44
 70
     0
 62
     7
  6
CONTINUOUS
  0
LAYER
  2
45
 70
     0
 62
     7
  6
CONTINUOUS
  0
LAYER
  2
46
 70
     0
 62
     7
  6
CONTINUOUS
  0
LAYER
  2
47
 70
     0
 62
     7
  6
CONTINUOUS
  0
LAYER
  2
48
 70
     0
 62
     7
  6
CONTINUOUS
  0
LAYER
  2
49
 70
     0
 62
     7
  6
CONTINUOUS
  0
LAYER
  2
50
 70
     0
 62
     7
  6
CONTINUOUS
  0
LAYER
  2
51
 70
     0
 62
     7
  6
CONTINUOUS
  0
LAYER
  2
52
 70
     0
 62
     7
  6
CONTINUOUS
  0
LAYER
  2
53
 70
     0
 62
     7
  6
CONTINUOUS
  0
LAYER
  2
54
 70
     0
 62
     7
  6
CONTINUOUS
  0
LAYER
  2
55
 70
     0
 62
     7
  6
CONTINUOUS
  0
LAYER
  2
56
 70
     0
 62
     7
  6
CONTINUOUS
  0
LAYER
  2
57
 70
     0
 62
     7
  6
CONTINUOUS
  0
LAYER
  2
58
 70
     0
 62
     7
  6
CONTINUOUS
  0
LAYER
  2
59
 70
     0
 62
     7
  6
CONTINUOUS
  0
LAYER
  2
60
 70
     0
 62
     7
  6
CONTINUOUS
  0
LAYER
  2
61
 70
     0
 62
     7
  6
CONTINUOUS
  0
LAYER
  2
62
 70
     0
 62
     7
  6
CONTINUOUS
  0
LAYER
  2
63
 70
     0
 62
     7
  6
CONTINUOUS
  0
LAYER
  2
64
 70
     0
 62
     7
  6
CONTINUOUS
  0
LAYER
  2
65
 70
     0
 62
     7
  6
CONTINUOUS
  0
LAYER
  2
66
 70
     0
 62
     7
  6
CONTINUOUS
  0
LAYER
  2
67
 70
     0
 62
     7
  6
CONTINUOUS
  0
LAYER
  2
68
 70
     0
 62
     7
  6
CONTINUOUS
  0
LAYER
  2
69
 70
     0
 62
     7
  6
CONTINUOUS
  0
LAYER
  2
70
 70
     0
 62
     7
  6
CONTINUOUS
  0
LAYER
  2
71
 70
     0
 62
     7
  6
CONTINUOUS
  0
LAYER
  2
72
 70
     0
 62
     7
  6
CONTINUOUS
  0
LAYER
  2
73
 70
     0
 62
     7
  6
CONTINUOUS
  0
LAYER
  2
74
 70
     0
 62
     7
  6
CONTINUOUS
  0
LAYER
  2
75
 70
     0
 62
     7
  6
CONTINUOUS
  0
LAYER
  2
76
 70
     0
 62
     7
  6
CONTINUOUS
  0
LAYER
  2
77
 70
     0
 62
     7
  6
CONTINUOUS
  0
LAYER
  2
78
 70
     0
 62
     7
  6
CONTINUOUS
  0
LAYER
  2
79
 70
     0
 62
     7
  6
CONTINUOUS
  0
LAYER
  2
80
 70
     0
 62
     7
  6
CONTINUOUS
  0
LAYER
  2
81
 70
     0
 62
     7
  6
CONTINUOUS
  0
LAYER
  2
82
 70
     0
 62
     7
  6
CONTINUOUS
  0
LAYER
  2
83
 70
     0
 62
     7
  6
CONTINUOUS
  0
LAYER
  2
84
 70
     0
 62
     7
  6
CONTINUOUS
  0
LAYER
  2
85
 70
     0
 62
     7
  6
CONTINUOUS
  0
LAYER
  2
86
 70
     0
 62
     7
  6
CONTINUOUS
  0
LAYER
  2
87
 70
     0
 62
     7
  6
CONTINUOUS
  0
LAYER
  2
88
 70
     0
 62
     7
  6
CONTINUOUS
  0
LAYER
  2
89
 70
     0
 62
     7
  6
CONTINUOUS
  0
LAYER
  2
90
 70
     0
 62
     7
  6
CONTINUOUS
  0
LAYER
  2
91
 70
     0
 62
     7
  6
CONTINUOUS
  0
LAYER
  2
92
 70
     0
 62
     7
  6
CONTINUOUS
  0
LAYER
  2
93
 70
     0
 62
     7
  6
CONTINUOUS
  0
LAYER
  2
94
 70
     0
 62
     7
  6
CONTINUOUS
  0
LAYER
  2
95
 70
     0
 62
     7
  6
CONTINUOUS
  0
LAYER
  2
96
 70
     0
 62
     7
  6
CONTINUOUS
  0
LAYER
  2
97
 70
     0
 62
     7
  6
CONTINUOUS
  0
LAYER
  2
98
 70
     0
 62
     7
  6
CONTINUOUS
  0
LAYER
  2
99
 70
     0
 62
     7
  6
CONTINUOUS
  0
LAYER
  2
100
 70
     0
 62
     7
  6
CONTINUOUS
  0
LAYER
  2
101
 70
     0
 62
     7
  6
CONTINUOUS
  0
LAYER
  2
102
 70
     0
 62
     7
  6
CONTINUOUS
  0
LAYER
  2
103
 70
     0
 62
     7
  6
CONTINUOUS
  0
LAYER
  2
104
 70
     0
 62
     7
  6
CONTINUOUS
  0
LAYER
  2
105
 70
     0
 62
     7
  6
CONTINUOUS
  0
LAYER
  2
106
 70
     0
 62
     7
  6
CONTINUOUS
  0
LAYER
  2
107
 70
     0
 62
     7
  6
CONTINUOUS
  0
LAYER
  2
108
 70
     0
 62
     7
  6
CONTINUOUS
  0
LAYER
  2
109
 70
     0
 62
     7
  6
CONTINUOUS
  0
LAYER
  2
110
 70
     0
 62
     7
  6
CONTINUOUS
  0
LAYER
  2
111
 70
     0
 62
     7
  6
CONTINUOUS
  0
LAYER
  2
112
 70
     0
 62
     7
  6
CONTINUOUS
  0
LAYER
  2
113
 70
     0
 62
     7
  6
CONTINUOUS
  0
LAYER
  2
114
 70
     0
 62
     7
  6
CONTINUOUS
  0
LAYER
  2
115
 70
     0
 62
     7
  6
CONTINUOUS
  0
LAYER
  2
116
 70
     0
 62
     7
  6
CONTINUOUS
  0
LAYER
  2
117
 70
     0
 62
     7
  6
CONTINUOUS
  0
LAYER
  2
118
 70
     0
 62
     7
  6
CONTINUOUS
  0
LAYER
  2
119
 70
     0
 62
     7
  6
CONTINUOUS
  0
LAYER
  2
120
 70
     0
 62
     7
  6
CONTINUOUS
  0
LAYER
  2
121
 70
     0
 62
     7
  6
CONTINUOUS
  0
LAYER
  2
122
 70
     0
 62
     7
  6
CONTINUOUS
  0
LAYER
  2
123
 70
     0
 62
     7
  6
CONTINUOUS
  0
LAYER
  2
124
 70
     0
 62
     7
  6
CONTINUOUS
  0
LAYER
  2
125
 70
     0
 62
     7
  6
CONTINUOUS
  0
LAYER
  2
126
 70
     0
 62
     7
  6
CONTINUOUS
  0
LAYER
  2
127
 70
     0
 62
     7
  6
CONTINUOUS
  0
LAYER
  2
128
 70
     0
 62
     7
  6
CONTINUOUS
  0
ENDTAB
  0
TABLE
  2
STYLE
 70
     7
  0
STYLE
  2
STANDARD
 70
     0
 40
0.0
 41
1.0
 50
0.0
 71
     0
 42
0.2
  3
txt.shx
  4
extfont.shx
  0
STYLE
  2
KANJI0
 70
     0
 40
3.0
 41
0.6
 50
0.0
 71
     0
 42
3.0
  3
txt.shx
  4
extfont.shx
  0
STYLE
  2
KANJI1
 70
     0
 40
4.0
 41
0.9
 50
0.0
 71
     0
 42
4.0
  3
txt.shx
  4
extfont.shx
  0
STYLE
  2
KANJI2
 70
     0
 40
5.8
 41
0.827586207
 50
0.0
 71
     0
 42
5.8
  3
txt.shx
  4
extfont.shx
  0
STYLE
  2
KANJI3
 70
     0
 40
3.0
 41
0.9
 50
0.0
 71
     0
 42
3.0
  3
txt.shx
  4
extfont.shx
  0
STYLE
  2
KANJI4
 70
     0
 40
1.8
 41
0.6
 50
0.0
 71
     0
 42
1.8
  3
txt.shx
  4
extfont.shx
  0
STYLE
  2
KANJI5
 70
     0
 40
3.0
 41
0.866666667
 50
0.0
 71
     0
 42
3.0
  3
txt.shx
  4
extfont.shx
  0
ENDTAB
  0
TABLE
  2
VIEW
 70
     0
  0
ENDTAB
  0
ENDSEC
  0
SECTION
  2
BLOCKS
  0
ENDSEC
  0
SECTION
  2
ENTITIES
  0
LINE
  8
0
  6
CONTINUOUS
 62
     2
 10
-11.865334795
 20
-5.0
 30
0.0
 11
-11.218287182
 21
-7.414814566
 31
0.0
  0
LINE
  8
0
  6
CONTINUOUS
 62
     2
 10
-11.865334795
 20
-5.0
 30
0.0
 11
-10.097567842
 21
-6.767766953
 31
0.0
  0
LINE
  8
0
  6
CONTINUOUS
 62
     2
 10
-11.865334795
 20
-5.0
 30
0.0
 11
-12.512382407
 21
-2.585185434
 31
0.0
  0
LINE
  8
0
  6
CONTINUOUS
 62
     2
 10
-11.865334795
 20
-5.0
 30
0.0
 11
-13.633101748
 21
-3.232233047
 31
0.0
  0
LINE
  8
0
  6
CONTINUOUS
 62
     2
 10
-7.535207776
 20
-2.5
 30
0.0
 11
-13.597385602
 21
-6.0
 31
0.0
  0
LINE
  8
0
  6
CONTINUOUS
 62
     2
 10
-7.535207776
 20
-2.5
 30
0.0
 11
-13.597385602
 21
-6.0
 31
0.0
  0
TEXT
  8
0
  6
CONTINUOUS
 62
     2
 10
-11.756360199
 20
-7.188749537
 30
0.3
 40
3.0
  1
０゜
 50
120.0
 41
0.6
 51
0.0
  7
KANJI0
  0
TEXT
  8
0
  6
CONTINUOUS
 62
     2
 10
15.65
 20
19.25
 30
0.4
 40
4.0
  1
パネルカット図
 50
0.0
 41
0.9
 51
0.0
  7
KANJI1
  0
LINE
  8
0
  6
CONTINUOUS
 62
     2
 10
14.65
 20
18.25
 30
0.0
 11
43.65
 21
18.25
 31
0.0
  0
TEXT
  8
0
  6
CONTINUOUS
 62
     3
 10
235.0
 20
12.0
 30
0.2
 40
5.8
  1
ＭＳ－１０８５６　Ａ
 50
0.0
 41
0.827586207
 51
0.0
  7
KANJI2
  0
POLYLINE
  8
0
  6
CONTINUOUS
 62
     1
 66
     1
  0
VERTEX
  8
0
  6
CONTINUOUS
 62
     1
 10
201.5
 20
102.499731052
 30
0.0
  0
VERTEX
  8
0
  6
CONTINUOUS
 62
     1
 10
213.5
 20
102.499731052
 30
0.0
  0
VERTEX
  8
0
  6
CONTINUOUS
 62
     1
 10
213.5
 20
153.499731052
 30
0.0
  0
VERTEX
  8
0
  6
CONTINUOUS
 62
     1
 10
201.5
 20
153.499731052
 30
0.0
  0
VERTEX
  8
0
  6
CONTINUOUS
 62
     1
 10
201.5
 20
102.499731052
 30
0.0
  0
SEQEND
  0
LINE
  8
0
  6
CONTINUOUS
 62
     1
 10
204.0
 20
153.499731052
 30
0.0
 11
204.0
 21
102.499731052
 31
0.0
  0
LINE
  8
0
  6
CONTINUOUS
 62
     1
 10
200.0
 20
154.999731052
 30
0.0
 11
215.0
 21
154.999731052
 31
0.0
  0
LINE
  8
0
  6
CONTINUOUS
 62
     1
 10
215.0
 20
100.999731052
 30
0.0
 11
200.0
 21
100.999731052
 31
0.0
  0
LINE
  8
0
  6
CONTINUOUS
 62
     2
 10
204.0
 20
102.999731052
 30
0.0
 11
204.0
 21
152.999731052
 31
0.0
  0
LINE
  8
0
  6
CONTINUOUS
 62
     2
 10
213.5
 20
102.999731052
 30
0.0
 11
204.0
 21
102.999731052
 31
0.0
  0
LINE
  8
0
  6
CONTINUOUS
 62
     2
 10
204.0
 20
152.999731052
 30
0.0
 11
213.5
 21
152.999731052
 31
0.0
  0
LINE
  8
0
  6
CONTINUOUS
 62
     2
 10
213.5
 20
152.999731052
 30
0.0
 11
213.5
 21
102.999731052
 31
0.0
  0
LINE
  8
0
  6
CONTINUOUS
 62
     2
 10
210.0
 20
107.999731052
 30
0.0
 11
208.0
 21
107.999731052
 31
0.0
  0
LINE
  8
0
  6
CONTINUOUS
 62
     2
 10
210.0
 20
107.999731052
 30
0.0
 11
207.0
 21
107.999731052
 31
0.0
  0
LINE
  8
0
  6
CONTINUOUS
 62
     2
 10
210.0
 20
107.889731052
 30
0.0
 11
207.0
 21
107.889731052
 31
0.0
  0
LINE
  8
0
  6
CONTINUOUS
 62
     2
 10
210.0
 20
108.109731052
 30
0.0
 11
207.0
 21
108.109731052
 31
0.0
  0
LINE
  8
0
  6
CONTINUOUS
 62
     2
 10
210.0
 20
109.999731052
 30
0.0
 11
208.0
 21
109.999731052
 31
0.0
  0
LINE
  8
0
  6
CONTINUOUS
 62
     2
 10
210.0
 20
111.999731052
 30
0.0
 11
207.0
 21
111.999731052
 31
0.0
  0
LINE
  8
0
  6
CONTINUOUS
 62
     2
 10
210.0
 20
111.889731052
 30
0.0
 11
207.0
 21
111.889731052
 31
0.0
  0
LINE
  8
0
  6
CONTINUOUS
 62
     2
 10
210.0
 20
112.109731052
 30
0.0
 11
207.0
 21
112.109731052
 31
0.0
  0
LINE
  8
0
  6
CONTINUOUS
 62
     2
 10
210.0
 20
113.999731052
 30
0.0
 11
208.0
 21
113.999731052
 31
0.0
  0
LINE
  8
0
  6
CONTINUOUS
 62
     2
 10
210.0
 20
115.999731052
 30
0.0
 11
207.0
 21
115.999731052
 31
0.0
  0
LINE
  8
0
  6
CONTINUOUS
 62
     2
 10
210.0
 20
115.889731052
 30
0.0
 11
207.0
 21
115.889731052
 31
0.0
  0
LINE
  8
0
  6
CONTINUOUS
 62
     2
 10
210.0
 20
116.109731052
 30
0.0
 11
207.0
 21
116.109731052
 31
0.0
  0
LINE
  8
0
  6
CONTINUOUS
 62
     2
 10
210.0
 20
117.999731052
 30
0.0
 11
208.0
 21
117.999731052
 31
0.0
  0
LINE
  8
0
  6
CONTINUOUS
 62
     2
 10
210.0
 20
119.999731052
 30
0.0
 11
207.0
 21
119.999731052
 31
0.0
  0
LINE
  8
0
  6
CONTINUOUS
 62
     2
 10
210.0
 20
119.889731052
 30
0.0
 11
207.0
 21
119.889731052
 31
0.0
  0
LINE
  8
0
  6
CONTINUOUS
 62
     2
 10
210.0
 20
120.109731052
 30
0.0
 11
207.0
 21
120.109731052
 31
0.0
  0
LINE
  8
0
  6
CONTINUOUS
 62
     2
 10
210.0
 20
121.999731052
 30
0.0
 11
208.0
 21
121.999731052
 31
0.0
  0
LINE
  8
0
  6
CONTINUOUS
 62
     2
 10
210.0
 20
123.999731052
 30
0.0
 11
207.0
 21
123.999731052
 31
0.0
  0
LINE
  8
0
  6
CONTINUOUS
 62
     2
 10
210.0
 20
123.889731052
 30
0.0
 11
207.0
 21
123.889731052
 31
0.0
  0
LINE
  8
0
  6
CONTINUOUS
 62
     2
 10
210.0
 20
124.109731052
 30
0.0
 11
207.0
 21
124.109731052
 31
0.0
  0
LINE
  8
0
  6
CONTINUOUS
 62
     2
 10
210.0
 20
125.999731052
 30
0.0
 11
208.0
 21
125.999731052
 31
0.0
  0
LINE
  8
0
  6
CONTINUOUS
 62
     2
 10
210.0
 20
127.999731052
 30
0.0
 11
207.0
 21
127.999731052
 31
0.0
  0
LINE
  8
0
  6
CONTINUOUS
 62
     2
 10
210.0
 20
127.889731052
 30
0.0
 11
207.0
 21
127.889731052
 31
0.0
  0
LINE
  8
0
  6
CONTINUOUS
 62
     2
 10
210.0
 20
128.109731052
 30
0.0
 11
207.0
 21
128.109731052
 31
0.0
  0
LINE
  8
0
  6
CONTINUOUS
 62
     2
 10
210.0
 20
129.999731052
 30
0.0
 11
208.0
 21
129.999731052
 31
0.0
  0
LINE
  8
0
  6
CONTINUOUS
 62
     2
 10
210.0
 20
131.999731052
 30
0.0
 11
207.0
 21
131.999731052
 31
0.0
  0
LINE
  8
0
  6
CONTINUOUS
 62
     2
 10
210.0
 20
131.889731052
 30
0.0
 11
207.0
 21
131.889731052
 31
0.0
  0
LINE
  8
0
  6
CONTINUOUS
 62
     2
 10
210.0
 20
132.109731052
 30
0.0
 11
207.0
 21
132.109731052
 31
0.0
  0
LINE
  8
0
  6
CONTINUOUS
 62
     2
 10
210.0
 20
133.999731052
 30
0.0
 11
208.0
 21
133.999731052
 31
0.0
  0
LINE
  8
0
  6
CONTINUOUS
 62
     2
 10
210.0
 20
135.999731052
 30
0.0
 11
207.0
 21
135.999731052
 31
0.0
  0
LINE
  8
0
  6
CONTINUOUS
 62
     2
 10
210.0
 20
135.889731052
 30
0.0
 11
207.0
 21
135.889731052
 31
0.0
  0
LINE
  8
0
  6
CONTINUOUS
 62
     2
 10
210.0
 20
136.109731052
 30
0.0
 11
207.0
 21
136.109731052
 31
0.0
  0
LINE
  8
0
  6
CONTINUOUS
 62
     2
 10
210.0
 20
137.999731052
 30
0.0
 11
208.0
 21
137.999731052
 31
0.0
  0
LINE
  8
0
  6
CONTINUOUS
 62
     2
 10
210.0
 20
139.999731052
 30
0.0
 11
207.0
 21
139.999731052
 31
0.0
  0
LINE
  8
0
  6
CONTINUOUS
 62
     2
 10
210.0
 20
139.889731052
 30
0.0
 11
207.0
 21
139.889731052
 31
0.0
  0
LINE
  8
0
  6
CONTINUOUS
 62
     2
 10
210.0
 20
140.109731052
 30
0.0
 11
207.0
 21
140.109731052
 31
0.0
  0
LINE
  8
0
  6
CONTINUOUS
 62
     2
 10
210.0
 20
141.999731052
 30
0.0
 11
208.0
 21
141.999731052
 31
0.0
  0
LINE
  8
0
  6
CONTINUOUS
 62
     2
 10
210.0
 20
143.999731052
 30
0.0
 11
207.0
 21
143.999731052
 31
0.0
  0
LINE
  8
0
  6
CONTINUOUS
 62
     2
 10
210.0
 20
143.889731052
 30
0.0
 11
207.0
 21
143.889731052
 31
0.0
  0
LINE
  8
0
  6
CONTINUOUS
 62
     2
 10
210.0
 20
144.109731052
 30
0.0
 11
207.0
 21
144.109731052
 31
0.0
  0
LINE
  8
0
  6
CONTINUOUS
 62
     2
 10
210.0
 20
145.999731052
 30
0.0
 11
208.0
 21
145.999731052
 31
0.0
  0
LINE
  8
0
  6
CONTINUOUS
 62
     2
 10
210.0
 20
147.999731052
 30
0.0
 11
207.0
 21
147.999731052
 31
0.0
  0
LINE
  8
0
  6
CONTINUOUS
 62
     2
 10
210.0
 20
147.889731052
 30
0.0
 11
207.0
 21
147.889731052
 31
0.0
  0
LINE
  8
0
  6
CONTINUOUS
 62
     2
 10
210.0
 20
148.109731052
 30
0.0
 11
207.0
 21
148.109731052
 31
0.0
  0
LINE
  8
0
  6
CONTINUOUS
 62
     1
 10
204.863761836
 20
107.73445521
 30
0.0
 11
205.006439615
 21
107.700076873
 31
0.0
  0
LINE
  8
0
  6
CONTINUOUS
 62
     1
 10
205.006439615
 20
107.700076873
 30
0.0
 11
205.152193251
 21
107.673102564
 31
0.0
  0
LINE
  8
0
  6
CONTINUOUS
 62
     1
 10
205.152193251
 20
107.673102564
 30
0.0
 11
205.300225314
 21
107.653885436
 31
0.0
  0
LINE
  8
0
  6
CONTINUOUS
 62
     1
 10
205.300225314
 20
107.653885436
 30
0.0
 11
205.449689543
 21
107.642670584
 31
0.0
  0
LINE
  8
0
  6
CONTINUOUS
 62
     1
 10
205.449689543
 20
107.642670584
 30
0.0
 11
205.599710006
 21
107.63958718
 31
0.0
  0
LINE
  8
0
  6
CONTINUOUS
 62
     1
 10
205.599710006
 20
107.63958718
 30
0.0
 11
205.749401572
 21
107.64464467
 31
0.0
  0
LINE
  8
0
  6
CONTINUOUS
 62
     1
 10
205.749401572
 20
107.64464467
 30
0.0
 11
205.897890701
 21
107.657733255
 31
0.0
  0
LINE
  8
0
  6
CONTINUOUS
 62
     1
 10
205.897890701
 20
107.657733255
 30
0.0
 11
206.044335505
 21
107.678628589
 31
0.0
  0
LINE
  8
0
  6
CONTINUOUS
 62
     1
 10
206.044335505
 20
107.678628589
 30
0.0
 11
206.187944147
 21
107.707000342
 31
0.0
  0
LINE
  8
0
  6
CONTINUOUS
 62
     1
 10
206.187944147
 20
107.707000342
 30
0.0
 11
206.327990735
 21
107.74242405
 31
0.0
  0
LINE
  8
0
  6
CONTINUOUS
 62
     1
 10
206.327990735
 20
107.74242405
 30
0.0
 11
206.393266896
 21
107.801511854
 31
0.0
  0
LINE
  8
0
  6
CONTINUOUS
 62
     1
 10
206.393266896
 20
107.801511854
 30
0.0
 11
206.443876003
 21
107.876225727
 31
0.0
  0
LINE
  8
0
  6
CONTINUOUS
 62
     1
 10
206.443876003
 20
107.876225727
 30
0.0
 11
206.471388664
 21
108.001240579
 31
0.0
  0
LINE
  8
0
  6
CONTINUOUS
 62
     1
 10
206.471388664
 20
108.001240579
 30
0.0
 11
206.452134737
 21
108.10344612
 31
0.0
  0
LINE
  8
0
  6
CONTINUOUS
 62
     1
 10
206.452134737
 20
108.10344612
 30
0.0
 11
206.394410342
 21
108.196310353
 31
0.0
  0
LINE
  8
0
  6
CONTINUOUS
 62
     1
 10
206.394410342
 20
108.196310353
 30
0.0
 11
206.334213855
 21
108.245993459
 31
0.0
  0
LINE
  8
0
  6
CONTINUOUS
 62
     1
 10
206.334213855
 20
108.245993459
 30
0.0
 11
206.188307067
 21
108.291970683
 31
0.0
  0
LINE
  8
0
  6
CONTINUOUS
 62
     1
 10
206.188307067
 20
108.291970683
 30
0.0
 11
206.048770173
 21
108.31966597
 31
0.0
  0
LINE
  8
0
  6
CONTINUOUS
 62
     1
 10
206.048770173
 20
108.31966597
 30
0.0
 11
205.898376788
 21
108.341263397
 31
0.0
  0
LINE
  8
0
  6
CONTINUOUS
 62
     1
 10
205.898376788
 20
108.341263397
 30
0.0
 11
205.749178186
 21
108.354421751
 31
0.0
  0
LINE
  8
0
  6
CONTINUOUS
 62
     1
 10
205.749178186
 20
108.354421751
 30
0.0
 11
205.599178491
 21
108.359469102
 31
0.0
  0
LINE
  8
0
  6
CONTINUOUS
 62
     1
 10
205.599178491
 20
108.359469102
 30
0.0
 11
205.444344913
 21
108.356121698
 31
0.0
  0
LINE
  8
0
  6
CONTINUOUS
 62
     1
 10
205.444344913
 20
108.356121698
 30
0.0
 11
205.300463244
 21
108.345191725
 31
0.0
  0
LINE
  8
0
  6
CONTINUOUS
 62
     1
 10
205.300463244
 20
108.345191725
 30
0.0
 11
205.151158341
 21
108.325787122
 31
0.0
  0
LINE
  8
0
  6
CONTINUOUS
 62
     1
 10
205.151158341
 20
108.325787122
 30
0.0
 11
205.007555635
 21
108.299213392
 31
0.0
  0
LINE
  8
0
  6
CONTINUOUS
 62
     1
 10
205.007555635
 20
108.299213392
 30
0.0
 11
204.860719222
 21
108.263226352
 31
0.0
  0
LINE
  8
0
  6
CONTINUOUS
 62
     1
 10
204.860719222
 20
108.263226352
 30
0.0
 11
204.783040927
 21
108.211082933
 31
0.0
  0
LINE
  8
0
  6
CONTINUOUS
 62
     1
 10
204.783040927
 20
108.211082933
 30
0.0
 11
204.719930784
 21
108.124974111
 31
0.0
  0
LINE
  8
0
  6
CONTINUOUS
 62
     1
 10
204.719930784
 20
108.124974111
 30
0.0
 11
204.691586412
 21
108.010096085
 31
0.0
  0
LINE
  8
0
  6
CONTINUOUS
 62
     1
 10
204.691586412
 20
108.010096085
 30
0.0
 11
204.718925746
 21
107.876195315
 31
0.0
  0
LINE
  8
0
  6
CONTINUOUS
 62
     1
 10
204.718925746
 20
107.876195315
 30
0.0
 11
204.784398061
 21
107.786705572
 31
0.0
  0
LINE
  8
0
  6
CONTINUOUS
 62
     1
 10
204.784398061
 20
107.786705572
 30
0.0
 11
204.863761836
 21
107.73445521
 31
0.0
  0
LINE
  8
0
  6
CONTINUOUS
 62
     1
 10
205.08
 20
115.636155962
 30
0.0
 11
204.999992015
 21
115.645159206
 31
0.0
  0
LINE
  8
0
  6
CONTINUOUS
 62
     1
 10
204.999992015
 20
115.645159206
 30
0.0
 11
204.925409751
 21
115.671037745
 31
0.0
  0
LINE
  8
0
  6
CONTINUOUS
 62
     1
 10
204.925409751
 20
115.671037745
 30
0.0
 11
204.865176751
 21
115.707277143
 31
0.0
  0
LINE
  8
0
  6
CONTINUOUS
 62
     1
 10
204.865176751
 20
115.707277143
 30
0.0
 11
204.812684254
 21
115.755028834
 31
0.0
  0
LINE
  8
0
  6
CONTINUOUS
 62
     1
 10
204.812684254
 20
115.755028834
 30
0.0
 11
204.77161928
 21
115.810410621
 31
0.0
  0
LINE
  8
0
  6
CONTINUOUS
 62
     1
 10
204.77161928
 20
115.810410621
 30
0.0
 11
204.738356887
 21
115.882665947
 31
0.0
  0
LINE
  8
0
  6
CONTINUOUS
 62
     1
 10
204.738356887
 20
115.882665947
 30
0.0
 11
204.720243427
 21
115.982919325
 31
0.0
  0
LINE
  8
0
  6
CONTINUOUS
 62
     1
 10
204.720243427
 20
115.982919325
 30
0.0
 11
204.7315147
 21
116.086477584
 31
0.0
  0
LINE
  8
0
  6
CONTINUOUS
 62
     1
 10
204.7315147
 20
116.086477584
 30
0.0
 11
204.759437367
 21
116.159983915
 31
0.0
  0
LINE
  8
0
  6
CONTINUOUS
 62
     1
 10
204.759437367
 20
116.159983915
 30
0.0
 11
204.797556919
 21
116.219373134
 31
0.0
  0
LINE
  8
0
  6
CONTINUOUS
 62
     1
 10
204.797556919
 20
116.219373134
 30
0.0
 11
204.846725123
 21
116.27035084
 31
0.0
  0
LINE
  8
0
  6
CONTINUOUS
 62
     1
 10
204.846725123
 20
116.27035084
 30
0.0
 11
204.902834264
 21
116.309544382
 31
0.0
  0
LINE
  8
0
  6
CONTINUOUS
 62
     1
 10
204.902834264
 20
116.309544382
 30
0.0
 11
204.975948321
 21
116.340790911
 31
0.0
  0
LINE
  8
0
  6
CONTINUOUS
 62
     1
 10
204.975948321
 20
116.340790911
 30
0.0
 11
205.051792574
 21
116.355049178
 31
0.0
  0
LINE
  8
0
  6
CONTINUOUS
 62
     1
 10
205.051792574
 20
116.355049178
 30
0.0
 11
205.126542952
 21
116.353134607
 31
0.0
  0
LINE
  8
0
  6
CONTINUOUS
 62
     1
 10
205.126542952
 20
116.353134607
 30
0.0
 11
205.203767796
 21
116.334211479
 31
0.0
  0
LINE
  8
0
  6
CONTINUOUS
 62
     1
 10
205.203767796
 20
116.334211479
 30
0.0
 11
205.273465756
 21
116.300094234
 31
0.0
  0
LINE
  8
0
  6
CONTINUOUS
 62
     1
 10
205.273465756
 20
116.300094234
 30
0.0
 11
205.34790025
 21
116.256807614
 31
0.0
  0
LINE
  8
0
  6
CONTINUOUS
 62
     1
 10
205.34790025
 20
116.256807614
 30
0.0
 11
205.45999208
 21
116.191621755
 31
0.0
  0
LINE
  8
0
  6
CONTINUOUS
 62
     1
 10
205.45999208
 20
116.191621755
 30
0.0
 11
205.572083909
 21
116.126435896
 31
0.0
  0
LINE
  8
0
  6
CONTINUOUS
 62
     1
 10
205.572083909
 20
116.126435896
 30
0.0
 11
205.684175738
 21
116.061250037
 31
0.0
  0
LINE
  8
0
  6
CONTINUOUS
 62
     1
 10
205.684175738
 20
116.061250037
 30
0.0
 11
205.796267567
 21
115.996064178
 31
0.0
  0
LINE
  8
0
  6
CONTINUOUS
 62
     1
 10
205.796267567
 20
115.996064178
 30
0.0
 11
205.908359397
 21
115.930878319
 31
0.0
  0
LINE
  8
0
  6
CONTINUOUS
 62
     1
 10
205.908359397
 20
115.930878319
 30
0.0
 11
206.020451226
 21
115.86569246
 31
0.0
  0
LINE
  8
0
  6
CONTINUOUS
 62
     1
 10
206.020451226
 20
115.86569246
 30
0.0
 11
206.132543055
 21
115.800506601
 31
0.0
  0
LINE
  8
0
  6
CONTINUOUS
 62
     1
 10
206.132543055
 20
115.800506601
 30
0.0
 11
206.244634884
 21
115.735320742
 31
0.0
  0
LINE
  8
0
  6
CONTINUOUS
 62
     1
 10
206.244634884
 20
115.735320742
 30
0.0
 11
206.356726714
 21
115.670134883
 31
0.0
  0
LINE
  8
0
  6
CONTINUOUS
 62
     1
 10
206.356726714
 20
115.670134883
 30
0.0
 11
206.48
 21
115.598446562
 31
0.0
  0
LINE
  8
0
  6
CONTINUOUS
 62
     1
 10
206.48
 20
115.598446562
 30
0.0
 11
206.48
 21
115.748446562
 31
0.0
  0
LINE
  8
0
  6
CONTINUOUS
 62
     1
 10
206.48
 20
115.748446562
 30
0.0
 11
206.48
 21
115.898446562
 31
0.0
  0
LINE
  8
0
  6
CONTINUOUS
 62
     1
 10
206.48
 20
115.898446562
 30
0.0
 11
206.48
 21
116.048446562
 31
0.0
  0
LINE
  8
0
  6
CONTINUOUS
 62
     1
 10
206.48
 20
116.048446562
 30
0.0
 11
206.48
 21
116.198446562
 31
0.0
  0
LINE
  8
0
  6
CONTINUOUS
 62
     1
 10
206.48
 20
116.198446562
 30
0.0
 11
206.48
 21
116.356155971
 31
0.0
  0
LINE
  8
0
  6
CONTINUOUS
 62
     1
 10
206.48
 20
124.156155962
 30
0.0
 11
206.33
 21
124.156155962
 31
0.0
  0
LINE
  8
0
  6
CONTINUOUS
 62
     1
 10
206.33
 20
124.156155962
 30
0.0
 11
206.18
 21
124.156155962
 31
0.0
  0
LINE
  8
0
  6
CONTINUOUS
 62
     1
 10
206.18
 20
124.156155962
 30
0.0
 11
206.03
 21
124.156155962
 31
0.0
  0
LINE
  8
0
  6
CONTINUOUS
 62
     1
 10
206.03
 20
124.156155962
 30
0.0
 11
205.88
 21
124.156155962
 31
0.0
  0
LINE
  8
0
  6
CONTINUOUS
 62
     1
 10
205.88
 20
124.156155962
 30
0.0
 11
205.73
 21
124.156155962
 31
0.0
  0
LINE
  8
0
  6
CONTINUOUS
 62
     1
 10
205.73
 20
124.156155962
 30
0.0
 11
205.58
 21
124.156155962
 31
0.0
  0
LINE
  8
0
  6
CONTINUOUS
 62
     1
 10
205.58
 20
124.156155962
 30
0.0
 11
205.38
 21
124.156155962
 31
0.0
  0
LINE
  8
0
  6
CONTINUOUS
 62
     1
 10
205.38
 20
124.156155962
 30
0.0
 11
205.53
 21
124.156155962
 31
0.0
  0
LINE
  8
0
  6
CONTINUOUS
 62
     1
 10
205.53
 20
124.156155962
 30
0.0
 11
205.68
 21
124.156155962
 31
0.0
  0
LINE
  8
0
  6
CONTINUOUS
 62
     1
 10
205.68
 20
124.156155962
 30
0.0
 11
205.83
 21
124.156155962
 31
0.0
  0
LINE
  8
0
  6
CONTINUOUS
 62
     1
 10
205.83
 20
124.156155962
 30
0.0
 11
205.98
 21
124.156155962
 31
0.0
  0
LINE
  8
0
  6
CONTINUOUS
 62
     1
 10
205.98
 20
124.156155962
 30
0.0
 11
206.08
 21
124.156155962
 31
0.0
  0
LINE
  8
0
  6
CONTINUOUS
 62
     1
 10
206.08
 20
124.156155962
 30
0.0
 11
206.08
 21
124.356155962
 31
0.0
  0
LINE
  8
0
  6
CONTINUOUS
 62
     1
 10
206.08
 20
124.356155962
 30
0.0
 11
206.08
 21
124.206155962
 31
0.0
  0
LINE
  8
0
  6
CONTINUOUS
 62
     1
 10
206.08
 20
124.206155962
 30
0.0
 11
206.08
 21
124.056155962
 31
0.0
  0
LINE
  8
0
  6
CONTINUOUS
 62
     1
 10
206.08
 20
124.056155962
 30
0.0
 11
206.08
 21
123.906155962
 31
0.0
  0
LINE
  8
0
  6
CONTINUOUS
 62
     1
 10
206.08
 20
123.906155962
 30
0.0
 11
206.08
 21
123.756155962
 31
0.0
  0
LINE
  8
0
  6
CONTINUOUS
 62
     1
 10
206.08
 20
123.756155962
 30
0.0
 11
206.08
 21
123.636155962
 31
0.0
  0
LINE
  8
0
  6
CONTINUOUS
 62
     1
 10
206.08
 20
123.636155962
 30
0.0
 11
205.93837931
 21
123.670604237
 31
0.0
  0
LINE
  8
0
  6
CONTINUOUS
 62
     1
 10
205.93837931
 20
123.670604237
 30
0.0
 11
205.796758621
 21
123.705052513
 31
0.0
  0
LINE
  8
0
  6
CONTINUOUS
 62
     1
 10
205.796758621
 20
123.705052513
 30
0.0
 11
205.655137931
 21
123.739500789
 31
0.0
  0
LINE
  8
0
  6
CONTINUOUS
 62
     1
 10
205.655137931
 20
123.739500789
 30
0.0
 11
205.513517241
 21
123.773949065
 31
0.0
  0
LINE
  8
0
  6
CONTINUOUS
 62
     1
 10
205.513517241
 20
123.773949065
 30
0.0
 11
205.371896552
 21
123.808397341
 31
0.0
  0
LINE
  8
0
  6
CONTINUOUS
 62
     1
 10
205.371896552
 20
123.808397341
 30
0.0
 11
205.230275862
 21
123.842845617
 31
0.0
  0
LINE
  8
0
  6
CONTINUOUS
 62
     1
 10
205.230275862
 20
123.842845617
 30
0.0
 11
205.088655172
 21
123.877293893
 31
0.0
  0
LINE
  8
0
  6
CONTINUOUS
 62
     1
 10
205.088655172
 20
123.877293893
 30
0.0
 11
204.947034483
 21
123.911742168
 31
0.0
  0
LINE
  8
0
  6
CONTINUOUS
 62
     1
 10
204.947034483
 20
123.911742168
 30
0.0
 11
204.805413793
 21
123.946190444
 31
0.0
  0
LINE
  8
0
  6
CONTINUOUS
 62
     1
 10
204.805413793
 20
123.946190444
 30
0.0
 11
204.716600112
 21
123.967793772
 31
0.0
  0
LINE
  8
0
  6
CONTINUOUS
 62
     1
 10
206.0
 20
131.616155962
 30
0.0
 11
205.853189384
 21
131.634366336
 31
0.0
  0
LINE
  8
0
  6
CONTINUOUS
 62
     1
 10
205.853189384
 20
131.634366336
 30
0.0
 11
205.727354183
 21
131.68340829
 31
0.0
  0
LINE
  8
0
  6
CONTINUOUS
 62
     1
 10
205.727354183
 20
131.68340829
 30
0.0
 11
205.626259838
 21
131.757710099
 31
0.0
  0
LINE
  8
0
  6
CONTINUOUS
 62
     1
 10
205.626259838
 20
131.757710099
 30
0.0
 11
205.552762077
 21
131.858173572
 31
0.0
  0
LINE
  8
0
  6
CONTINUOUS
 62
     1
 10
205.552762077
 20
131.858173572
 30
0.0
 11
205.520289149
 21
131.982968132
 31
0.0
  0
LINE
  8
0
  6
CONTINUOUS
 62
     1
 10
205.520289149
 20
131.982968132
 30
0.0
 11
205.558466128
 21
132.145207769
 31
0.0
  0
LINE
  8
0
  6
CONTINUOUS
 62
     1
 10
205.558466128
 20
132.145207769
 30
0.0
 11
205.62246802
 21
132.230828189
 31
0.0
  0
LINE
  8
0
  6
CONTINUOUS
 62
     1
 10
205.62246802
 20
132.230828189
 30
0.0
 11
205.728564152
 21
132.309562568
 31
0.0
  0
LINE
  8
0
  6
CONTINUOUS
 62
     1
 10
205.728564152
 20
132.309562568
 30
0.0
 11
205.850388838
 21
132.357225834
 31
0.0
  0
LINE
  8
0
  6
CONTINUOUS
 62
     1
 10
205.850388838
 20
132.357225834
 30
0.0
 11
206.000392902
 21
132.376155834
 31
0.0
  0
LINE
  8
0
  6
CONTINUOUS
 62
     1
 10
206.000392902
 20
132.376155834
 30
0.0
 11
206.116540461
 21
132.364785683
 31
0.0
  0
LINE
  8
0
  6
CONTINUOUS
 62
     1
 10
206.116540461
 20
132.364785683
 30
0.0
 11
206.246997566
 21
132.32198446
 31
0.0
  0
LINE
  8
0
  6
CONTINUOUS
 62
     1
 10
206.246997566
 20
132.32198446
 30
0.0
 11
206.374674221
 21
132.23368133
 31
0.0
  0
LINE
  8
0
  6
CONTINUOUS
 62
     1
 10
206.374674221
 20
132.23368133
 30
0.0
 11
206.437985053
 21
132.151631502
 31
0.0
  0
LINE
  8
0
  6
CONTINUOUS
 62
     1
 10
206.437985053
 20
132.151631502
 30
0.0
 11
206.479851154
 21
131.986693302
 31
0.0
  0
LINE
  8
0
  6
CONTINUOUS
 62
     1
 10
206.479851154
 20
131.986693302
 30
0.0
 11
206.450594451
 21
131.865196392
 31
0.0
  0
LINE
  8
0
  6
CONTINUOUS
 62
     1
 10
206.450594451
 20
131.865196392
 30
0.0
 11
206.372031844
 21
131.756041612
 31
0.0
  0
LINE
  8
0
  6
CONTINUOUS
 62
     1
 10
206.372031844
 20
131.756041612
 30
0.0
 11
206.263931173
 21
131.678757516
 31
0.0
  0
LINE
  8
0
  6
CONTINUOUS
 62
     1
 10
206.263931173
 20
131.678757516
 30
0.0
 11
206.131814408
 21
131.630765162
 31
0.0
  0
LINE
  8
0
  6
CONTINUOUS
 62
     1
 10
206.131814408
 20
131.630765162
 30
0.0
 11
205.853442132
 21
131.621938932
 31
0.0
  0
LINE
  8
0
  6
CONTINUOUS
 62
     1
 10
205.853442132
 20
131.621938932
 30
0.0
 11
205.728318929
 21
131.636104496
 31
0.0
  0
LINE
  8
0
  6
CONTINUOUS
 62
     1
 10
205.728318929
 20
131.636104496
 30
0.0
 11
205.580427314
 21
131.664096702
 31
0.0
  0
LINE
  8
0
  6
CONTINUOUS
 62
     1
 10
205.580427314
 20
131.664096702
 30
0.0
 11
205.427913737
 21
131.706320571
 31
0.0
  0
LINE
  8
0
  6
CONTINUOUS
 62
     1
 10
205.427913737
 20
131.706320571
 30
0.0
 11
205.297358096
 21
131.753978748
 31
0.0
  0
LINE
  8
0
  6
CONTINUOUS
 62
     1
 10
205.297358096
 20
131.753978748
 30
0.0
 11
205.174729578
 21
131.809264024
 31
0.0
  0
LINE
  8
0
  6
CONTINUOUS
 62
     1
 10
205.174729578
 20
131.809264024
 30
0.0
 11
205.060704708
 21
131.87075123
 31
0.0
  0
LINE
  8
0
  6
CONTINUOUS
 62
     1
 10
205.060704708
 20
131.87075123
 30
0.0
 11
204.955664139
 21
131.937012495
 31
0.0
  0
LINE
  8
0
  6
CONTINUOUS
 62
     1
 10
204.955664139
 20
131.937012495
 30
0.0
 11
204.85972239
 21
132.006677492
 31
0.0
  0
LINE
  8
0
  6
CONTINUOUS
 62
     1
 10
204.85972239
 20
132.006677492
 30
0.0
 11
204.717375504
 21
132.129131685
 31
0.0
  0
LINE
  8
0
  6
CONTINUOUS
 62
     1
 10
205.52
 20
139.996156011
 30
0.0
 11
205.535804237
 21
140.09286346
 31
0.0
  0
LINE
  8
0
  6
CONTINUOUS
 62
     1
 10
205.535804237
 20
140.09286346
 30
0.0
 11
205.574773015
 21
140.172436524
 31
0.0
  0
LINE
  8
0
  6
CONTINUOUS
 62
     1
 10
205.574773015
 20
140.172436524
 30
0.0
 11
205.644333247
 21
140.251339444
 31
0.0
  0
LINE
  8
0
  6
CONTINUOUS
 62
     1
 10
205.644333247
 20
140.251339444
 30
0.0
 11
205.74914109
 21
140.320130306
 31
0.0
  0
LINE
  8
0
  6
CONTINUOUS
 62
     1
 10
205.74914109
 20
140.320130306
 30
0.0
 11
205.876424044
 21
140.363346787
 31
0.0
  0
LINE
  8
0
  6
CONTINUOUS
 62
     1
 10
205.876424044
 20
140.363346787
 30
0.0
 11
206.001473714
 21
140.376154171
 31
0.0
  0
LINE
  8
0
  6
CONTINUOUS
 62
     1
 10
206.001473714
 20
140.376154171
 30
0.0
 11
206.129982597
 21
140.361957814
 31
0.0
  0
LINE
  8
0
  6
CONTINUOUS
 62
     1
 10
206.129982597
 20
140.361957814
 30
0.0
 11
206.241796501
 21
140.324420382
 31
0.0
  0
LINE
  8
0
  6
CONTINUOUS
 62
     1
 10
206.241796501
 20
140.324420382
 30
0.0
 11
206.35281054
 21
140.253812416
 31
0.0
  0
LINE
  8
0
  6
CONTINUOUS
 62
     1
 10
206.35281054
 20
140.253812416
 30
0.0
 11
206.422865337
 21
140.175961757
 31
0.0
  0
LINE
  8
0
  6
CONTINUOUS
 62
     1
 10
206.422865337
 20
140.175961757
 30
0.0
 11
206.464698801
 21
140.091337294
 31
0.0
  0
LINE
  8
0
  6
CONTINUOUS
 62
     1
 10
206.464698801
 20
140.091337294
 30
0.0
 11
206.479999945
 21
139.996337408
 31
0.0
  0
LINE
  8
0
  6
CONTINUOUS
 62
     1
 10
206.479999945
 20
139.996337408
 30
0.0
 11
206.459968919
 21
139.88752558
 31
0.0
  0
LINE
  8
0
  6
CONTINUOUS
 62
     1
 10
206.459968919
 20
139.88752558
 30
0.0
 11
206.420172646
 21
139.812436501
 31
0.0
  0
LINE
  8
0
  6
CONTINUOUS
 62
     1
 10
206.420172646
 20
139.812436501
 30
0.0
 11
206.357279683
 21
139.742388538
 31
0.0
  0
LINE
  8
0
  6
CONTINUOUS
 62
     1
 10
206.357279683
 20
139.742388538
 30
0.0
 11
206.247474144
 21
139.670554185
 31
0.0
  0
LINE
  8
0
  6
CONTINUOUS
 62
     1
 10
206.247474144
 20
139.670554185
 30
0.0
 11
206.13235344
 21
139.630887304
 31
0.0
  0
LINE
  8
0
  6
CONTINUOUS
 62
     1
 10
206.13235344
 20
139.630887304
 30
0.0
 11
206.002383082
 21
139.616160645
 31
0.0
  0
LINE
  8
0
  6
CONTINUOUS
 62
     1
 10
206.002383082
 20
139.616160645
 30
0.0
 11
205.876630878
 21
139.628921549
 31
0.0
  0
LINE
  8
0
  6
CONTINUOUS
 62
     1
 10
205.876630878
 20
139.628921549
 30
0.0
 11
205.747124496
 21
139.673165683
 31
0.0
  0
LINE
  8
0
  6
CONTINUOUS
 62
     1
 10
205.747124496
 20
139.673165683
 30
0.0
 11
205.647369674
 21
139.738344934
 31
0.0
  0
LINE
  8
0
  6
CONTINUOUS
 62
     1
 10
205.647369674
 20
139.738344934
 30
0.0
 11
205.570941939
 21
139.825792716
 31
0.0
  0
LINE
  8
0
  6
CONTINUOUS
 62
     1
 10
205.570941939
 20
139.825792716
 30
0.0
 11
205.528568831
 21
139.924674762
 31
0.0
  0
LINE
  8
0
  6
CONTINUOUS
 62
     1
 10
205.528568831
 20
139.924674762
 30
0.0
 11
205.499970297
 21
140.096148195
 31
0.0
  0
LINE
  8
0
  6
CONTINUOUS
 62
     1
 10
205.499970297
 20
140.096148195
 30
0.0
 11
205.447206286
 21
140.180218641
 31
0.0
  0
LINE
  8
0
  6
CONTINUOUS
 62
     1
 10
205.447206286
 20
140.180218641
 30
0.0
 11
205.368859188
 21
140.246683858
 31
0.0
  0
LINE
  8
0
  6
CONTINUOUS
 62
     1
 10
205.368859188
 20
140.246683858
 30
0.0
 11
205.258684982
 21
140.296306831
 31
0.0
  0
LINE
  8
0
  6
CONTINUOUS
 62
     1
 10
205.258684982
 20
140.296306831
 30
0.0
 11
205.118685609
 21
140.316154234
 31
0.0
  0
LINE
  8
0
  6
CONTINUOUS
 62
     1
 10
205.118685609
 20
140.316154234
 30
0.0
 11
204.983345683
 21
140.296902337
 31
0.0
  0
LINE
  8
0
  6
CONTINUOUS
 62
     1
 10
204.983345683
 20
140.296902337
 30
0.0
 11
204.869571443
 21
140.245680999
 31
0.0
  0
LINE
  8
0
  6
CONTINUOUS
 62
     1
 10
204.869571443
 20
140.245680999
 30
0.0
 11
204.789096688
 21
140.175938938
 31
0.0
  0
LINE
  8
0
  6
CONTINUOUS
 62
     1
 10
204.789096688
 20
140.175938938
 30
0.0
 11
204.740353613
 21
140.096932532
 31
0.0
  0
LINE
  8
0
  6
CONTINUOUS
 62
     1
 10
204.740353613
 20
140.096932532
 30
0.0
 11
204.720001274
 21
139.996963527
 31
0.0
  0
LINE
  8
0
  6
CONTINUOUS
 62
     1
 10
204.720001274
 20
139.996963527
 30
0.0
 11
204.739731052
 21
139.89689299
 31
0.0
  0
LINE
  8
0
  6
CONTINUOUS
 62
     1
 10
204.739731052
 20
139.89689299
 30
0.0
 11
204.788994623
 21
139.816493272
 31
0.0
  0
LINE
  8
0
  6
CONTINUOUS
 62
     1
 10
204.788994623
 20
139.816493272
 30
0.0
 11
204.869305138
 21
139.746802126
 31
0.0
  0
LINE
  8
0
  6
CONTINUOUS
 62
     1
 10
204.869305138
 20
139.746802126
 30
0.0
 11
204.981594671
 21
139.69592249
 31
0.0
  0
LINE
  8
0
  6
CONTINUOUS
 62
     1
 10
204.981594671
 20
139.69592249
 30
0.0
 11
205.121593496
 21
139.676158501
 31
0.0
  0
LINE
  8
0
  6
CONTINUOUS
 62
     1
 10
205.121593496
 20
139.676158501
 30
0.0
 11
205.258944166
 21
139.696081818
 31
0.0
  0
LINE
  8
0
  6
CONTINUOUS
 62
     1
 10
205.258944166
 20
139.696081818
 30
0.0
 11
205.369187725
 21
139.745837153
 31
0.0
  0
LINE
  8
0
  6
CONTINUOUS
 62
     1
 10
205.369187725
 20
139.745837153
 30
0.0
 11
205.455877063
 21
139.822376149
 31
0.0
  0
LINE
  8
0
  6
CONTINUOUS
 62
     1
 10
205.455877063
 20
139.822376149
 30
0.0
 11
205.50568641
 21
139.911318259
 31
0.0
  0
LINE
  8
0
  6
CONTINUOUS
 62
     1
 10
205.50568641
 20
139.911318259
 30
0.0
 11
205.52
 21
139.996156011
 31
0.0
  0
LINE
  8
0
  6
CONTINUOUS
 62
     1
 10
204.723575091
 20
147.371155962
 30
0.0
 11
204.873575091
 21
147.371155962
 31
0.0
  0
LINE
  8
0
  6
CONTINUOUS
 62
     1
 10
204.873575091
 20
147.371155962
 30
0.0
 11
205.023575091
 21
147.371155962
 31
0.0
  0
LINE
  8
0
  6
CONTINUOUS
 62
     1
 10
205.023575091
 20
147.371155962
 30
0.0
 11
205.173575091
 21
147.371155962
 31
0.0
  0
LINE
  8
0
  6
CONTINUOUS
 62
     1
 10
205.173575091
 20
147.371155962
 30
0.0
 11
205.323575091
 21
147.371155962
 31
0.0
  0
LINE
  8
0
  6
CONTINUOUS
 62
     1
 10
205.323575091
 20
147.371155962
 30
0.0
 11
205.473575091
 21
147.371155962
 31
0.0
  0
LINE
  8
0
  6
CONTINUOUS
 62
     1
 10
205.473575091
 20
147.371155962
 30
0.0
 11
205.623575091
 21
147.371155962
 31
0.0
  0
LINE
  8
0
  6
CONTINUOUS
 62
     1
 10
205.623575091
 20
147.371155962
 30
0.0
 11
205.773575091
 21
147.371155962
 31
0.0
  0
LINE
  8
0
  6
CONTINUOUS
 62
     1
 10
205.773575091
 20
147.371155962
 30
0.0
 11
205.923575091
 21
147.371155962
 31
0.0
  0
LINE
  8
0
  6
CONTINUOUS
 62
     1
 10
205.923575091
 20
147.371155962
 30
0.0
 11
206.073575091
 21
147.371155962
 31
0.0
  0
LINE
  8
0
  6
CONTINUOUS
 62
     1
 10
206.073575091
 20
147.371155962
 30
0.0
 11
206.223575091
 21
147.371155962
 31
0.0
  0
LINE
  8
0
  6
CONTINUOUS
 62
     1
 10
206.223575091
 20
147.371155962
 30
0.0
 11
206.373575091
 21
147.371155962
 31
0.0
  0
LINE
  8
0
  6
CONTINUOUS
 62
     1
 10
206.373575091
 20
147.371155962
 30
0.0
 11
206.483575091
 21
147.371155962
 31
0.0
  0
LINE
  8
0
  6
CONTINUOUS
 62
     1
 10
204.875943196
 20
148.36584894
 30
0.0
 11
205.018620975
 21
148.331470604
 31
0.0
  0
LINE
  8
0
  6
CONTINUOUS
 62
     1
 10
205.018620975
 20
148.331470604
 30
0.0
 11
205.164374612
 21
148.304496295
 31
0.0
  0
LINE
  8
0
  6
CONTINUOUS
 62
     1
 10
205.164374612
 20
148.304496295
 30
0.0
 11
205.312406674
 21
148.285279166
 31
0.0
  0
LINE
  8
0
  6
CONTINUOUS
 62
     1
 10
205.312406674
 20
148.285279166
 30
0.0
 11
205.461870903
 21
148.274064314
 31
0.0
  0
LINE
  8
0
  6
CONTINUOUS
 62
     1
 10
205.461870903
 20
148.274064314
 30
0.0
 11
205.611891366
 21
148.270980911
 31
0.0
  0
LINE
  8
0
  6
CONTINUOUS
 62
     1
 10
205.611891366
 20
148.270980911
 30
0.0
 11
205.761582933
 21
148.2760384
 31
0.0
  0
LINE
  8
0
  6
CONTINUOUS
 62
     1
 10
205.761582933
 20
148.2760384
 30
0.0
 11
205.910072061
 21
148.289126985
 31
0.0
  0
LINE
  8
0
  6
CONTINUOUS
 62
     1
 10
205.910072061
 20
148.289126985
 30
0.0
 11
206.056516866
 21
148.31002232
 31
0.0
  0
LINE
  8
0
  6
CONTINUOUS
 62
     1
 10
206.056516866
 20
148.31002232
 30
0.0
 11
206.200125508
 21
148.338394072
 31
0.0
  0
LINE
  8
0
  6
CONTINUOUS
 62
     1
 10
206.200125508
 20
148.338394072
 30
0.0
 11
206.340172095
 21
148.373817781
 31
0.0
  0
LINE
  8
0
  6
CONTINUOUS
 62
     1
 10
206.340172095
 20
148.373817781
 30
0.0
 11
206.405448256
 21
148.432905584
 31
0.0
  0
LINE
  8
0
  6
CONTINUOUS
 62
     1
 10
206.405448256
 20
148.432905584
 30
0.0
 11
206.456057363
 21
148.507619457
 31
0.0
  0
LINE
  8
0
  6
CONTINUOUS
 62
     1
 10
206.456057363
 20
148.507619457
 30
0.0
 11
206.483570024
 21
148.63263431
 31
0.0
  0
LINE
  8
0
  6
CONTINUOUS
 62
     1
 10
206.483570024
 20
148.63263431
 30
0.0
 11
206.464316097
 21
148.73483985
 31
0.0
  0
LINE
  8
0
  6
CONTINUOUS
 62
     1
 10
206.464316097
 20
148.73483985
 30
0.0
 11
206.406591703
 21
148.827704083
 31
0.0
  0
LINE
  8
0
  6
CONTINUOUS
 62
     1
 10
206.406591703
 20
148.827704083
 30
0.0
 11
206.346395215
 21
148.877387189
 31
0.0
  0
LINE
  8
0
  6
CONTINUOUS
 62
     1
 10
206.346395215
 20
148.877387189
 30
0.0
 11
206.200488427
 21
148.923364414
 31
0.0
  0
LINE
  8
0
  6
CONTINUOUS
 62
     1
 10
206.200488427
 20
148.923364414
 30
0.0
 11
206.060951533
 21
148.9510597
 31
0.0
  0
LINE
  8
0
  6
CONTINUOUS
 62
     1
 10
206.060951533
 20
148.9510597
 30
0.0
 11
205.910558148
 21
148.972657127
 31
0.0
  0
LINE
  8
0
  6
CONTINUOUS
 62
     1
 10
205.910558148
 20
148.972657127
 30
0.0
 11
205.761359546
 21
148.985815481
 31
0.0
  0
LINE
  8
0
  6
CONTINUOUS
 62
     1
 10
205.761359546
 20
148.985815481
 30
0.0
 11
205.611359851
 21
148.990862833
 31
0.0
  0
LINE
  8
0
  6
CONTINUOUS
 62
     1
 10
205.611359851
 20
148.990862833
 30
0.0
 11
205.456526273
 21
148.987515429
 31
0.0
  0
LINE
  8
0
  6
CONTINUOUS
 62
     1
 10
205.456526273
 20
148.987515429
 30
0.0
 11
205.312644604
 21
148.976585456
 31
0.0
  0
LINE
  8
0
  6
CONTINUOUS
 62
     1
 10
205.312644604
 20
148.976585456
 30
0.0
 11
205.163339701
 21
148.957180853
 31
0.0
  0
LINE
  8
0
  6
CONTINUOUS
 62
     1
 10
205.163339701
 20
148.957180853
 30
0.0
 11
205.019736995
 21
148.930607123
 31
0.0
  0
LINE
  8
0
  6
CONTINUOUS
 62
     1
 10
205.019736995
 20
148.930607123
 30
0.0
 11
204.872900582
 21
148.894620082
 31
0.0
  0
LINE
  8
0
  6
CONTINUOUS
 62
     1
 10
204.872900582
 20
148.894620082
 30
0.0
 11
204.795222287
 21
148.842476663
 31
0.0
  0
LINE
  8
0
  6
CONTINUOUS
 62
     1
 10
204.795222287
 20
148.842476663
 30
0.0
 11
204.732112144
 21
148.756367841
 31
0.0
  0
LINE
  8
0
  6
CONTINUOUS
 62
     1
 10
204.732112144
 20
148.756367841
 30
0.0
 11
204.703767772
 21
148.641489815
 31
0.0
  0
LINE
  8
0
  6
CONTINUOUS
 62
     1
 10
204.703767772
 20
148.641489815
 30
0.0
 11
204.731107106
 21
148.507589045
 31
0.0
  0
LINE
  8
0
  6
CONTINUOUS
 62
     1
 10
204.731107106
 20
148.507589045
 30
0.0
 11
204.796579421
 21
148.418099302
 31
0.0
  0
LINE
  8
0
  6
CONTINUOUS
 62
     1
 10
204.796579421
 20
148.418099302
 30
0.0
 11
204.875943196
 21
148.36584894
 31
0.0
  0
LINE
  8
0
  6
CONTINUOUS
 62
     1
 10
213.1
 20
127.324731052
 30
0.0
 11
213.1
 21
128.674731052
 31
0.0
  0
LINE
  8
0
  6
CONTINUOUS
 62
     1
 10
212.35
 20
127.999731052
 30
0.0
 11
210.40539448
 21
127.469384092
 31
0.0
  0
LINE
  8
0
  6
CONTINUOUS
 62
     1
 10
210.40539448
 20
128.530078012
 30
0.0
 11
212.35
 21
127.999731052
 31
0.0
  0
LINE
  8
0
  6
CONTINUOUS
 62
     2
 10
203.5
 20
107.749731052
 30
0.0
 11
210.0
 21
107.749731052
 31
0.0
  0
LINE
  8
0
  6
CONTINUOUS
 62
     2
 10
203.5
 20
108.249731052
 30
0.0
 11
203.5
 21
107.749731052
 31
0.0
  0
LINE
  8
0
  6
CONTINUOUS
 62
     2
 10
210.0
 20
108.249731052
 30
0.0
 11
203.5
 21
108.249731052
 31
0.0
  0
LINE
  8
0
  6
LTYPE1
 62
     2
 10
210.0
 20
107.749731052
 30
0.0
 11
210.0
 21
108.249731052
 31
0.0
  0
LINE
  8
0
  6
CONTINUOUS
 62
     1
 10
200.0
 20
154.999731052
 30
0.0
 11
200.0
 21
100.999731052
 31
0.0
  0
LINE
  8
0
  6
CONTINUOUS
 62
     1
 10
215.0
 20
100.999731052
 30
0.0
 11
215.0
 21
154.999731052
 31
0.0
  0
POLYLINE
  8
0
  6
CONTINUOUS
 62
     1
 66
     1
  0
VERTEX
  8
0
  6
CONTINUOUS
 62
     1
 10
166.5
 20
102.499731052
 30
0.0
  0
VERTEX
  8
0
  6
CONTINUOUS
 62
     1
 10
178.5
 20
102.499731052
 30
0.0
  0
VERTEX
  8
0
  6
CONTINUOUS
 62
     1
 10
178.5
 20
153.499731052
 30
0.0
  0
VERTEX
  8
0
  6
CONTINUOUS
 62
     1
 10
166.5
 20
153.499731052
 30
0.0
  0
VERTEX
  8
0
  6
CONTINUOUS
 62
     1
 10
166.5
 20
102.499731052
 30
0.0
  0
SEQEND
  0
LINE
  8
0
  6
CONTINUOUS
 62
     1
 10
169.0
 20
153.499731052
 30
0.0
 11
169.0
 21
102.499731052
 31
0.0
  0
LINE
  8
0
  6
CONTINUOUS
 62
     1
 10
165.0
 20
154.999731052
 30
0.0
 11
180.0
 21
154.999731052
 31
0.0
  0
LINE
  8
0
  6
CONTINUOUS
 62
     1
 10
180.0
 20
100.999731052
 30
0.0
 11
165.0
 21
100.999731052
 31
0.0
  0
LINE
  8
0
  6
CONTINUOUS
 62
     2
 10
181.0
 20
154.999731052
 30
0.0
 11
188.7
 21
154.999731052
 31
0.0
  0
LINE
  8
0
  6
CONTINUOUS
 62
     2
 10
186.7
 20
154.999731052
 30
0.0
 11
186.052952387
 21
152.584916486
 31
0.0
  0
LINE
  8
0
  6
CONTINUOUS
 62
     2
 10
186.7
 20
154.999731052
 30
0.0
 11
187.347047613
 21
152.584916486
 31
0.0
  0
LINE
  8
0
  6
CONTINUOUS
 62
     2
 10
186.7
 20
154.999731052
 30
0.0
 11
186.7
 21
100.999731052
 31
0.0
  0
LINE
  8
0
  6
CONTINUOUS
 62
     2
 10
186.7
 20
100.999731052
 30
0.0
 11
187.347047613
 21
103.414545618
 31
0.0
  0
LINE
  8
0
  6
CONTINUOUS
 62
     2
 10
186.7
 20
100.999731052
 30
0.0
 11
186.052952387
 21
103.414545618
 31
0.0
  0
LINE
  8
0
  6
CONTINUOUS
 62
     2
 10
181.0
 20
100.999731052
 30
0.0
 11
188.7
 21
100.999731052
 31
0.0
  0
LINE
  8
0
  6
CONTINUOUS
 62
     2
 10
169.0
 20
102.999731052
 30
0.0
 11
169.0
 21
152.999731052
 31
0.0
  0
LINE
  8
0
  6
CONTINUOUS
 62
     2
 10
178.5
 20
102.999731052
 30
0.0
 11
169.0
 21
102.999731052
 31
0.0
  0
LINE
  8
0
  6
CONTINUOUS
 62
     2
 10
169.0
 20
152.999731052
 30
0.0
 11
178.5
 21
152.999731052
 31
0.0
  0
LINE
  8
0
  6
CONTINUOUS
 62
     2
 10
178.5
 20
152.999731052
 30
0.0
 11
178.5
 21
102.999731052
 31
0.0
  0
LINE
  8
0
  6
CONTINUOUS
 62
     2
 10
175.0
 20
107.999731052
 30
0.0
 11
173.0
 21
107.999731052
 31
0.0
  0
LINE
  8
0
  6
CONTINUOUS
 62
     2
 10
175.0
 20
107.999731052
 30
0.0
 11
172.0
 21
107.999731052
 31
0.0
  0
LINE
  8
0
  6
CONTINUOUS
 62
     2
 10
175.0
 20
107.889731052
 30
0.0
 11
172.0
 21
107.889731052
 31
0.0
  0
LINE
  8
0
  6
CONTINUOUS
 62
     2
 10
175.0
 20
108.109731052
 30
0.0
 11
172.0
 21
108.109731052
 31
0.0
  0
LINE
  8
0
  6
CONTINUOUS
 62
     2
 10
175.0
 20
109.999731052
 30
0.0
 11
173.0
 21
109.999731052
 31
0.0
  0
LINE
  8
0
  6
CONTINUOUS
 62
     2
 10
175.0
 20
111.999731052
 30
0.0
 11
172.0
 21
111.999731052
 31
0.0
  0
LINE
  8
0
  6
CONTINUOUS
 62
     2
 10
175.0
 20
111.889731052
 30
0.0
 11
172.0
 21
111.889731052
 31
0.0
  0
LINE
  8
0
  6
CONTINUOUS
 62
     2
 10
175.0
 20
112.109731052
 30
0.0
 11
172.0
 21
112.109731052
 31
0.0
  0
LINE
  8
0
  6
CONTINUOUS
 62
     2
 10
175.0
 20
113.999731052
 30
0.0
 11
173.0
 21
113.999731052
 31
0.0
  0
LINE
  8
0
  6
CONTINUOUS
 62
     2
 10
175.0
 20
115.999731052
 30
0.0
 11
172.0
 21
115.999731052
 31
0.0
  0
LINE
  8
0
  6
CONTINUOUS
 62
     2
 10
175.0
 20
115.889731052
 30
0.0
 11
172.0
 21
115.889731052
 31
0.0
  0
LINE
  8
0
  6
CONTINUOUS
 62
     2
 10
175.0
 20
116.109731052
 30
0.0
 11
172.0
 21
116.109731052
 31
0.0
  0
LINE
  8
0
  6
CONTINUOUS
 62
     2
 10
175.0
 20
117.999731052
 30
0.0
 11
173.0
 21
117.999731052
 31
0.0
  0
LINE
  8
0
  6
CONTINUOUS
 62
     2
 10
175.0
 20
119.999731052
 30
0.0
 11
172.0
 21
119.999731052
 31
0.0
  0
LINE
  8
0
  6
CONTINUOUS
 62
     2
 10
175.0
 20
119.889731052
 30
0.0
 11
172.0
 21
119.889731052
 31
0.0
  0
LINE
  8
0
  6
CONTINUOUS
 62
     2
 10
175.0
 20
120.109731052
 30
0.0
 11
172.0
 21
120.109731052
 31
0.0
  0
LINE
  8
0
  6
CONTINUOUS
 62
     2
 10
175.0
 20
121.999731052
 30
0.0
 11
173.0
 21
121.999731052
 31
0.0
  0
LINE
  8
0
  6
CONTINUOUS
 62
     2
 10
175.0
 20
123.999731052
 30
0.0
 11
172.0
 21
123.999731052
 31
0.0
  0
LINE
  8
0
  6
CONTINUOUS
 62
     2
 10
175.0
 20
123.889731052
 30
0.0
 11
172.0
 21
123.889731052
 31
0.0
  0
LINE
  8
0
  6
CONTINUOUS
 62
     2
 10
175.0
 20
124.109731052
 30
0.0
 11
172.0
 21
124.109731052
 31
0.0
  0
LINE
  8
0
  6
CONTINUOUS
 62
     2
 10
175.0
 20
125.999731052
 30
0.0
 11
173.0
 21
125.999731052
 31
0.0
  0
LINE
  8
0
  6
CONTINUOUS
 62
     2
 10
175.0
 20
127.999731052
 30
0.0
 11
172.0
 21
127.999731052
 31
0.0
  0
LINE
  8
0
  6
CONTINUOUS
 62
     2
 10
175.0
 20
127.889731052
 30
0.0
 11
172.0
 21
127.889731052
 31
0.0
  0
LINE
  8
0
  6
CONTINUOUS
 62
     2
 10
175.0
 20
128.109731052
 30
0.0
 11
172.0
 21
128.109731052
 31
0.0
  0
LINE
  8
0
  6
CONTINUOUS
 62
     2
 10
175.0
 20
129.999731052
 30
0.0
 11
173.0
 21
129.999731052
 31
0.0
  0
LINE
  8
0
  6
CONTINUOUS
 62
     2
 10
175.0
 20
131.999731052
 30
0.0
 11
172.0
 21
131.999731052
 31
0.0
  0
LINE
  8
0
  6
CONTINUOUS
 62
     2
 10
175.0
 20
131.889731052
 30
0.0
 11
172.0
 21
131.889731052
 31
0.0
  0
LINE
  8
0
  6
CONTINUOUS
 62
     2
 10
175.0
 20
132.109731052
 30
0.0
 11
172.0
 21
132.109731052
 31
0.0
  0
LINE
  8
0
  6
CONTINUOUS
 62
     2
 10
175.0
 20
133.999731052
 30
0.0
 11
173.0
 21
133.999731052
 31
0.0
  0
LINE
  8
0
  6
CONTINUOUS
 62
     2
 10
175.0
 20
135.999731052
 30
0.0
 11
172.0
 21
135.999731052
 31
0.0
  0
LINE
  8
0
  6
CONTINUOUS
 62
     2
 10
175.0
 20
135.889731052
 30
0.0
 11
172.0
 21
135.889731052
 31
0.0
  0
LINE
  8
0
  6
CONTINUOUS
 62
     2
 10
175.0
 20
136.109731052
 30
0.0
 11
172.0
 21
136.109731052
 31
0.0
  0
LINE
  8
0
  6
CONTINUOUS
 62
     2
 10
175.0
 20
137.999731052
 30
0.0
 11
173.0
 21
137.999731052
 31
0.0
  0
LINE
  8
0
  6
CONTINUOUS
 62
     2
 10
175.0
 20
139.999731052
 30
0.0
 11
172.0
 21
139.999731052
 31
0.0
  0
LINE
  8
0
  6
CONTINUOUS
 62
     2
 10
175.0
 20
139.889731052
 30
0.0
 11
172.0
 21
139.889731052
 31
0.0
  0
LINE
  8
0
  6
CONTINUOUS
 62
     2
 10
175.0
 20
140.109731052
 30
0.0
 11
172.0
 21
140.109731052
 31
0.0
  0
LINE
  8
0
  6
CONTINUOUS
 62
     2
 10
175.0
 20
141.999731052
 30
0.0
 11
173.0
 21
141.999731052
 31
0.0
  0
LINE
  8
0
  6
CONTINUOUS
 62
     2
 10
175.0
 20
143.999731052
 30
0.0
 11
172.0
 21
143.999731052
 31
0.0
  0
LINE
  8
0
  6
CONTINUOUS
 62
     2
 10
175.0
 20
143.889731052
 30
0.0
 11
172.0
 21
143.889731052
 31
0.0
  0
LINE
  8
0
  6
CONTINUOUS
 62
     2
 10
175.0
 20
144.109731052
 30
0.0
 11
172.0
 21
144.109731052
 31
0.0
  0
LINE
  8
0
  6
CONTINUOUS
 62
     2
 10
175.0
 20
145.999731052
 30
0.0
 11
173.0
 21
145.999731052
 31
0.0
  0
LINE
  8
0
  6
CONTINUOUS
 62
     2
 10
175.0
 20
147.999731052
 30
0.0
 11
172.0
 21
147.999731052
 31
0.0
  0
LINE
  8
0
  6
CONTINUOUS
 62
     2
 10
175.0
 20
147.889731052
 30
0.0
 11
172.0
 21
147.889731052
 31
0.0
  0
LINE
  8
0
  6
CONTINUOUS
 62
     2
 10
175.0
 20
148.109731052
 30
0.0
 11
172.0
 21
148.109731052
 31
0.0
  0
LINE
  8
0
  6
CONTINUOUS
 62
     1
 10
176.025
 20
126.174691052
 30
0.0
 11
177.375
 21
126.174691052
 31
0.0
  0
LINE
  8
0
  6
CONTINUOUS
 62
     1
 10
176.7
 20
126.924691052
 30
0.0
 11
176.16965304
 21
128.869296572
 31
0.0
  0
LINE
  8
0
  6
CONTINUOUS
 62
     1
 10
177.23034696
 20
128.869296572
 30
0.0
 11
176.7
 21
126.924691052
 31
0.0
  0
LINE
  8
0
  6
CONTINUOUS
 62
     1
 10
170.916117888
 20
108.727362947
 30
0.0
 11
170.881739551
 21
108.584685168
 31
0.0
  0
LINE
  8
0
  6
CONTINUOUS
 62
     1
 10
170.881739551
 20
108.584685168
 30
0.0
 11
170.854765242
 21
108.438931531
 31
0.0
  0
LINE
  8
0
  6
CONTINUOUS
 62
     1
 10
170.854765242
 20
108.438931531
 30
0.0
 11
170.835548114
 21
108.290899469
 31
0.0
  0
LINE
  8
0
  6
CONTINUOUS
 62
     1
 10
170.835548114
 20
108.290899469
 30
0.0
 11
170.824333262
 21
108.14143524
 31
0.0
  0
LINE
  8
0
  6
CONTINUOUS
 62
     1
 10
170.824333262
 20
108.14143524
 30
0.0
 11
170.821249858
 21
107.991414777
 31
0.0
  0
LINE
  8
0
  6
CONTINUOUS
 62
     1
 10
170.821249858
 20
107.991414777
 30
0.0
 11
170.826307348
 21
107.84172321
 31
0.0
  0
LINE
  8
0
  6
CONTINUOUS
 62
     1
 10
170.826307348
 20
107.84172321
 30
0.0
 11
170.839395933
 21
107.693234082
 31
0.0
  0
LINE
  8
0
  6
CONTINUOUS
 62
     1
 10
170.839395933
 20
107.693234082
 30
0.0
 11
170.860291268
 21
107.546789277
 31
0.0
  0
LINE
  8
0
  6
CONTINUOUS
 62
     1
 10
170.860291268
 20
107.546789277
 30
0.0
 11
170.88866302
 21
107.403180635
 31
0.0
  0
LINE
  8
0
  6
CONTINUOUS
 62
     1
 10
170.88866302
 20
107.403180635
 30
0.0
 11
170.924086729
 21
107.263134047
 31
0.0
  0
LINE
  8
0
  6
CONTINUOUS
 62
     1
 10
170.924086729
 20
107.263134047
 30
0.0
 11
170.983174532
 21
107.197857887
 31
0.0
  0
LINE
  8
0
  6
CONTINUOUS
 62
     1
 10
170.983174532
 20
107.197857887
 30
0.0
 11
171.057888405
 21
107.14724878
 31
0.0
  0
LINE
  8
0
  6
CONTINUOUS
 62
     1
 10
171.057888405
 20
107.14724878
 30
0.0
 11
171.182903257
 21
107.119736118
 31
0.0
  0
LINE
  8
0
  6
CONTINUOUS
 62
     1
 10
171.182903257
 20
107.119736118
 30
0.0
 11
171.285108798
 21
107.138990046
 31
0.0
  0
LINE
  8
0
  6
CONTINUOUS
 62
     1
 10
171.285108798
 20
107.138990046
 30
0.0
 11
171.377973031
 21
107.19671444
 31
0.0
  0
LINE
  8
0
  6
CONTINUOUS
 62
     1
 10
171.377973031
 20
107.19671444
 30
0.0
 11
171.427656137
 21
107.256910928
 31
0.0
  0
LINE
  8
0
  6
CONTINUOUS
 62
     1
 10
171.427656137
 20
107.256910928
 30
0.0
 11
171.473633362
 21
107.402817716
 31
0.0
  0
LINE
  8
0
  6
CONTINUOUS
 62
     1
 10
171.473633362
 20
107.402817716
 30
0.0
 11
171.501328648
 21
107.54235461
 31
0.0
  0
LINE
  8
0
  6
CONTINUOUS
 62
     1
 10
171.501328648
 20
107.54235461
 30
0.0
 11
171.522926075
 21
107.692747995
 31
0.0
  0
LINE
  8
0
  6
CONTINUOUS
 62
     1
 10
171.522926075
 20
107.692747995
 30
0.0
 11
171.536084429
 21
107.841946597
 31
0.0
  0
LINE
  8
0
  6
CONTINUOUS
 62
     1
 10
171.536084429
 20
107.841946597
 30
0.0
 11
171.54113178
 21
107.991946292
 31
0.0
  0
LINE
  8
0
  6
CONTINUOUS
 62
     1
 10
171.54113178
 20
107.991946292
 30
0.0
 11
171.537784376
 21
108.14677987
 31
0.0
  0
LINE
  8
0
  6
CONTINUOUS
 62
     1
 10
171.537784376
 20
108.14677987
 30
0.0
 11
171.526854403
 21
108.290661539
 31
0.0
  0
LINE
  8
0
  6
CONTINUOUS
 62
     1
 10
171.526854403
 20
108.290661539
 30
0.0
 11
171.507449801
 21
108.439966442
 31
0.0
  0
LINE
  8
0
  6
CONTINUOUS
 62
     1
 10
171.507449801
 20
108.439966442
 30
0.0
 11
171.480876071
 21
108.583569148
 31
0.0
  0
LINE
  8
0
  6
CONTINUOUS
 62
     1
 10
171.480876071
 20
108.583569148
 30
0.0
 11
171.44488903
 21
108.73040556
 31
0.0
  0
LINE
  8
0
  6
CONTINUOUS
 62
     1
 10
171.44488903
 20
108.73040556
 30
0.0
 11
171.392745611
 21
108.808083856
 31
0.0
  0
LINE
  8
0
  6
CONTINUOUS
 62
     1
 10
171.392745611
 20
108.808083856
 30
0.0
 11
171.306636789
 21
108.871193999
 31
0.0
  0
LINE
  8
0
  6
CONTINUOUS
 62
     1
 10
171.306636789
 20
108.871193999
 30
0.0
 11
171.191758763
 21
108.899538371
 31
0.0
  0
LINE
  8
0
  6
CONTINUOUS
 62
     1
 10
171.191758763
 20
108.899538371
 30
0.0
 11
171.057857993
 21
108.872199036
 31
0.0
  0
LINE
  8
0
  6
CONTINUOUS
 62
     1
 10
171.057857993
 20
108.872199036
 30
0.0
 11
170.96836825
 21
108.806726722
 31
0.0
  0
LINE
  8
0
  6
CONTINUOUS
 62
     1
 10
170.96836825
 20
108.806726722
 30
0.0
 11
170.916117888
 21
108.727362947
 31
0.0
  0
LINE
  8
0
  6
CONTINUOUS
 62
     1
 10
170.786424909
 20
116.519731052
 30
0.0
 11
170.795428154
 21
116.599739037
 31
0.0
  0
LINE
  8
0
  6
CONTINUOUS
 62
     1
 10
170.795428154
 20
116.599739037
 30
0.0
 11
170.821306692
 21
116.674321301
 31
0.0
  0
LINE
  8
0
  6
CONTINUOUS
 62
     1
 10
170.821306692
 20
116.674321301
 30
0.0
 11
170.857546091
 21
116.734554301
 31
0.0
  0
LINE
  8
0
  6
CONTINUOUS
 62
     1
 10
170.857546091
 20
116.734554301
 30
0.0
 11
170.905297781
 21
116.787046798
 31
0.0
  0
LINE
  8
0
  6
CONTINUOUS
 62
     1
 10
170.905297781
 20
116.787046798
 30
0.0
 11
170.960679569
 21
116.828111772
 31
0.0
  0
LINE
  8
0
  6
CONTINUOUS
 62
     1
 10
170.960679569
 20
116.828111772
 30
0.0
 11
171.032934895
 21
116.861374165
 31
0.0
  0
LINE
  8
0
  6
CONTINUOUS
 62
     1
 10
171.032934895
 20
116.861374165
 30
0.0
 11
171.133188273
 21
116.879487625
 31
0.0
  0
LINE
  8
0
  6
CONTINUOUS
 62
     1
 10
171.133188273
 20
116.879487625
 30
0.0
 11
171.236746532
 21
116.868216352
 31
0.0
  0
LINE
  8
0
  6
CONTINUOUS
 62
     1
 10
171.236746532
 20
116.868216352
 30
0.0
 11
171.310252863
 21
116.840293685
 31
0.0
  0
LINE
  8
0
  6
CONTINUOUS
 62
     1
 10
171.310252863
 20
116.840293685
 30
0.0
 11
171.369642082
 21
116.802174133
 31
0.0
  0
LINE
  8
0
  6
CONTINUOUS
 62
     1
 10
171.369642082
 20
116.802174133
 30
0.0
 11
171.420619788
 21
116.753005929
 31
0.0
  0
LINE
  8
0
  6
CONTINUOUS
 62
     1
 10
171.420619788
 20
116.753005929
 30
0.0
 11
171.45981333
 21
116.696896788
 31
0.0
  0
LINE
  8
0
  6
CONTINUOUS
 62
     1
 10
171.45981333
 20
116.696896788
 30
0.0
 11
171.491059859
 21
116.623782731
 31
0.0
  0
LINE
  8
0
  6
CONTINUOUS
 62
     1
 10
171.491059859
 20
116.623782731
 30
0.0
 11
171.505318126
 21
116.547938478
 31
0.0
  0
LINE
  8
0
  6
CONTINUOUS
 62
     1
 10
171.505318126
 20
116.547938478
 30
0.0
 11
171.503403555
 21
116.4731881
 31
0.0
  0
LINE
  8
0
  6
CONTINUOUS
 62
     1
 10
171.503403555
 20
116.4731881
 30
0.0
 11
171.484480426
 21
116.395963256
 31
0.0
  0
LINE
  8
0
  6
CONTINUOUS
 62
     1
 10
171.484480426
 20
116.395963256
 30
0.0
 11
171.450363182
 21
116.326265296
 31
0.0
  0
LINE
  8
0
  6
CONTINUOUS
 62
     1
 10
171.450363182
 20
116.326265296
 30
0.0
 11
171.407076561
 21
116.251830802
 31
0.0
  0
LINE
  8
0
  6
CONTINUOUS
 62
     1
 10
171.407076561
 20
116.251830802
 30
0.0
 11
171.341890703
 21
116.139738972
 31
0.0
  0
LINE
  8
0
  6
CONTINUOUS
 62
     1
 10
171.341890703
 20
116.139738972
 30
0.0
 11
171.276704844
 21
116.027647143
 31
0.0
  0
LINE
  8
0
  6
CONTINUOUS
 62
     1
 10
171.276704844
 20
116.027647143
 30
0.0
 11
171.211518985
 21
115.915555314
 31
0.0
  0
LINE
  8
0
  6
CONTINUOUS
 62
     1
 10
171.211518985
 20
115.915555314
 30
0.0
 11
171.146333126
 21
115.803463485
 31
0.0
  0
LINE
  8
0
  6
CONTINUOUS
 62
     1
 10
171.146333126
 20
115.803463485
 30
0.0
 11
171.081147267
 21
115.691371656
 31
0.0
  0
LINE
  8
0
  6
CONTINUOUS
 62
     1
 10
171.081147267
 20
115.691371656
 30
0.0
 11
171.015961408
 21
115.579279826
 31
0.0
  0
LINE
  8
0
  6
CONTINUOUS
 62
     1
 10
171.015961408
 20
115.579279826
 30
0.0
 11
170.950775549
 21
115.467187997
 31
0.0
  0
LINE
  8
0
  6
CONTINUOUS
 62
     1
 10
170.950775549
 20
115.467187997
 30
0.0
 11
170.88558969
 21
115.355096168
 31
0.0
  0
LINE
  8
0
  6
CONTINUOUS
 62
     1
 10
170.88558969
 20
115.355096168
 30
0.0
 11
170.820403831
 21
115.243004339
 31
0.0
  0
LINE
  8
0
  6
CONTINUOUS
 62
     1
 10
170.820403831
 20
115.243004339
 30
0.0
 11
170.74871551
 21
115.119731052
 31
0.0
  0
LINE
  8
0
  6
CONTINUOUS
 62
     1
 10
170.74871551
 20
115.119731052
 30
0.0
 11
170.89871551
 21
115.119731052
 31
0.0
  0
LINE
  8
0
  6
CONTINUOUS
 62
     1
 10
170.89871551
 20
115.119731052
 30
0.0
 11
171.04871551
 21
115.119731052
 31
0.0
  0
LINE
  8
0
  6
CONTINUOUS
 62
     1
 10
171.04871551
 20
115.119731052
 30
0.0
 11
171.19871551
 21
115.119731052
 31
0.0
  0
LINE
  8
0
  6
CONTINUOUS
 62
     1
 10
171.19871551
 20
115.119731052
 30
0.0
 11
171.34871551
 21
115.119731052
 31
0.0
  0
LINE
  8
0
  6
CONTINUOUS
 62
     1
 10
171.34871551
 20
115.119731052
 30
0.0
 11
171.506424919
 21
115.119731052
 31
0.0
  0
LINE
  8
0
  6
CONTINUOUS
 62
     1
 10
171.306424909
 20
123.119731052
 30
0.0
 11
171.306424909
 21
123.269731052
 31
0.0
  0
LINE
  8
0
  6
CONTINUOUS
 62
     1
 10
171.306424909
 20
123.269731052
 30
0.0
 11
171.306424909
 21
123.419731052
 31
0.0
  0
LINE
  8
0
  6
CONTINUOUS
 62
     1
 10
171.306424909
 20
123.419731052
 30
0.0
 11
171.306424909
 21
123.569731052
 31
0.0
  0
LINE
  8
0
  6
CONTINUOUS
 62
     1
 10
171.306424909
 20
123.569731052
 30
0.0
 11
171.306424909
 21
123.719731052
 31
0.0
  0
LINE
  8
0
  6
CONTINUOUS
 62
     1
 10
171.306424909
 20
123.719731052
 30
0.0
 11
171.306424909
 21
123.869731052
 31
0.0
  0
LINE
  8
0
  6
CONTINUOUS
 62
     1
 10
171.306424909
 20
123.869731052
 30
0.0
 11
171.306424909
 21
124.019731052
 31
0.0
  0
LINE
  8
0
  6
CONTINUOUS
 62
     1
 10
171.306424909
 20
124.019731052
 30
0.0
 11
171.306424909
 21
124.219731052
 31
0.0
  0
LINE
  8
0
  6
CONTINUOUS
 62
     1
 10
171.306424909
 20
124.219731052
 30
0.0
 11
171.306424909
 21
124.069731052
 31
0.0
  0
LINE
  8
0
  6
CONTINUOUS
 62
     1
 10
171.306424909
 20
124.069731052
 30
0.0
 11
171.306424909
 21
123.919731052
 31
0.0
  0
LINE
  8
0
  6
CONTINUOUS
 62
     1
 10
171.306424909
 20
123.919731052
 30
0.0
 11
171.306424909
 21
123.769731052
 31
0.0
  0
LINE
  8
0
  6
CONTINUOUS
 62
     1
 10
171.306424909
 20
123.769731052
 30
0.0
 11
171.306424909
 21
123.619731052
 31
0.0
  0
LINE
  8
0
  6
CONTINUOUS
 62
     1
 10
171.306424909
 20
123.619731052
 30
0.0
 11
171.306424909
 21
123.519731052
 31
0.0
  0
LINE
  8
0
  6
CONTINUOUS
 62
     1
 10
171.306424909
 20
123.519731052
 30
0.0
 11
171.506424909
 21
123.519731052
 31
0.0
  0
LINE
  8
0
  6
CONTINUOUS
 62
     1
 10
171.506424909
 20
123.519731052
 30
0.0
 11
171.356424909
 21
123.519731052
 31
0.0
  0
LINE
  8
0
  6
CONTINUOUS
 62
     1
 10
171.356424909
 20
123.519731052
 30
0.0
 11
171.206424909
 21
123.519731052
 31
0.0
  0
LINE
  8
0
  6
CONTINUOUS
 62
     1
 10
171.206424909
 20
123.519731052
 30
0.0
 11
171.056424909
 21
123.519731052
 31
0.0
  0
LINE
  8
0
  6
CONTINUOUS
 62
     1
 10
171.056424909
 20
123.519731052
 30
0.0
 11
170.906424909
 21
123.519731052
 31
0.0
  0
LINE
  8
0
  6
CONTINUOUS
 62
     1
 10
170.906424909
 20
123.519731052
 30
0.0
 11
170.786424909
 21
123.519731052
 31
0.0
  0
LINE
  8
0
  6
CONTINUOUS
 62
     1
 10
170.786424909
 20
123.519731052
 30
0.0
 11
170.820873185
 21
123.661351742
 31
0.0
  0
LINE
  8
0
  6
CONTINUOUS
 62
     1
 10
170.820873185
 20
123.661351742
 30
0.0
 11
170.855321461
 21
123.802972431
 31
0.0
  0
LINE
  8
0
  6
CONTINUOUS
 62
     1
 10
170.855321461
 20
123.802972431
 30
0.0
 11
170.889769737
 21
123.944593121
 31
0.0
  0
LINE
  8
0
  6
CONTINUOUS
 62
     1
 10
170.889769737
 20
123.944593121
 30
0.0
 11
170.924218013
 21
124.086213811
 31
0.0
  0
LINE
  8
0
  6
CONTINUOUS
 62
     1
 10
170.924218013
 20
124.086213811
 30
0.0
 11
170.958666289
 21
124.2278345
 31
0.0
  0
LINE
  8
0
  6
CONTINUOUS
 62
     1
 10
170.958666289
 20
124.2278345
 30
0.0
 11
170.993114565
 21
124.36945519
 31
0.0
  0
LINE
  8
0
  6
CONTINUOUS
 62
     1
 10
170.993114565
 20
124.36945519
 30
0.0
 11
171.02756284
 21
124.51107588
 31
0.0
  0
LINE
  8
0
  6
CONTINUOUS
 62
     1
 10
171.02756284
 20
124.51107588
 30
0.0
 11
171.062011116
 21
124.652696569
 31
0.0
  0
LINE
  8
0
  6
CONTINUOUS
 62
     1
 10
171.062011116
 20
124.652696569
 30
0.0
 11
171.096459392
 21
124.794317259
 31
0.0
  0
LINE
  8
0
  6
CONTINUOUS
 62
     1
 10
171.096459392
 20
124.794317259
 30
0.0
 11
171.11806272
 21
124.88313094
 31
0.0
  0
LINE
  8
0
  6
CONTINUOUS
 62
     1
 10
170.766424909
 20
131.599731052
 30
0.0
 11
170.784635284
 21
131.746541668
 31
0.0
  0
LINE
  8
0
  6
CONTINUOUS
 62
     1
 10
170.784635284
 20
131.746541668
 30
0.0
 11
170.833677237
 21
131.87237687
 31
0.0
  0
LINE
  8
0
  6
CONTINUOUS
 62
     1
 10
170.833677237
 20
131.87237687
 30
0.0
 11
170.907979047
 21
131.973471214
 31
0.0
  0
LINE
  8
0
  6
CONTINUOUS
 62
     1
 10
170.907979047
 20
131.973471214
 30
0.0
 11
171.008442519
 21
132.046968976
 31
0.0
  0
LINE
  8
0
  6
CONTINUOUS
 62
     1
 10
171.008442519
 20
132.046968976
 30
0.0
 11
171.13323708
 21
132.079441903
 31
0.0
  0
LINE
  8
0
  6
CONTINUOUS
 62
     1
 10
171.13323708
 20
132.079441903
 30
0.0
 11
171.295476717
 21
132.041264924
 31
0.0
  0
LINE
  8
0
  6
CONTINUOUS
 62
     1
 10
171.295476717
 20
132.041264924
 30
0.0
 11
171.381097136
 21
131.977263032
 31
0.0
  0
LINE
  8
0
  6
CONTINUOUS
 62
     1
 10
171.381097136
 20
131.977263032
 30
0.0
 11
171.459831515
 21
131.8711669
 31
0.0
  0
LINE
  8
0
  6
CONTINUOUS
 62
     1
 10
171.459831515
 20
131.8711669
 30
0.0
 11
171.507494781
 21
131.749342214
 31
0.0
  0
LINE
  8
0
  6
CONTINUOUS
 62
     1
 10
171.507494781
 20
131.749342214
 30
0.0
 11
171.526424782
 21
131.59933815
 31
0.0
  0
LINE
  8
0
  6
CONTINUOUS
 62
     1
 10
171.526424782
 20
131.59933815
 30
0.0
 11
171.515054631
 21
131.483190592
 31
0.0
  0
LINE
  8
0
  6
CONTINUOUS
 62
     1
 10
171.515054631
 20
131.483190592
 30
0.0
 11
171.472253408
 21
131.352733486
 31
0.0
  0
LINE
  8
0
  6
CONTINUOUS
 62
     1
 10
171.472253408
 20
131.352733486
 30
0.0
 11
171.383950278
 21
131.225056831
 31
0.0
  0
LINE
  8
0
  6
CONTINUOUS
 62
     1
 10
171.383950278
 20
131.225056831
 30
0.0
 11
171.30190045
 21
131.161745999
 31
0.0
  0
LINE
  8
0
  6
CONTINUOUS
 62
     1
 10
171.30190045
 20
131.161745999
 30
0.0
 11
171.13696225
 21
131.119879898
 31
0.0
  0
LINE
  8
0
  6
CONTINUOUS
 62
     1
 10
171.13696225
 20
131.119879898
 30
0.0
 11
171.01546534
 21
131.149136602
 31
0.0
  0
LINE
  8
0
  6
CONTINUOUS
 62
     1
 10
171.01546534
 20
131.149136602
 30
0.0
 11
170.90631056
 21
131.227699208
 31
0.0
  0
LINE
  8
0
  6
CONTINUOUS
 62
     1
 10
170.90631056
 20
131.227699208
 30
0.0
 11
170.829026464
 21
131.335799879
 31
0.0
  0
LINE
  8
0
  6
CONTINUOUS
 62
     1
 10
170.829026464
 20
131.335799879
 30
0.0
 11
170.78103411
 21
131.467916644
 31
0.0
  0
LINE
  8
0
  6
CONTINUOUS
 62
     1
 10
170.78103411
 20
131.467916644
 30
0.0
 11
170.77220788
 21
131.74628892
 31
0.0
  0
LINE
  8
0
  6
CONTINUOUS
 62
     1
 10
170.77220788
 20
131.74628892
 30
0.0
 11
170.786373444
 21
131.871412124
 31
0.0
  0
LINE
  8
0
  6
CONTINUOUS
 62
     1
 10
170.786373444
 20
131.871412124
 30
0.0
 11
170.81436565
 21
132.019303738
 31
0.0
  0
LINE
  8
0
  6
CONTINUOUS
 62
     1
 10
170.81436565
 20
132.019303738
 30
0.0
 11
170.856589519
 21
132.171817315
 31
0.0
  0
LINE
  8
0
  6
CONTINUOUS
 62
     1
 10
170.856589519
 20
132.171817315
 30
0.0
 11
170.904247696
 21
132.302372956
 31
0.0
  0
LINE
  8
0
  6
CONTINUOUS
 62
     1
 10
170.904247696
 20
132.302372956
 30
0.0
 11
170.959532972
 21
132.425001474
 31
0.0
  0
LINE
  8
0
  6
CONTINUOUS
 62
     1
 10
170.959532972
 20
132.425001474
 30
0.0
 11
171.021020177
 21
132.539026345
 31
0.0
  0
LINE
  8
0
  6
CONTINUOUS
 62
     1
 10
171.021020177
 20
132.539026345
 30
0.0
 11
171.087281443
 21
132.644066913
 31
0.0
  0
LINE
  8
0
  6
CONTINUOUS
 62
     1
 10
171.087281443
 20
132.644066913
 30
0.0
 11
171.15694644
 21
132.740008662
 31
0.0
  0
LINE
  8
0
  6
CONTINUOUS
 62
     1
 10
171.15694644
 20
132.740008662
 30
0.0
 11
171.279400633
 21
132.882355548
 31
0.0
  0
LINE
  8
0
  6
CONTINUOUS
 62
     1
 10
171.146424959
 20
140.079731052
 30
0.0
 11
171.243132408
 21
140.063926815
 31
0.0
  0
LINE
  8
0
  6
CONTINUOUS
 62
     1
 10
171.243132408
 20
140.063926815
 30
0.0
 11
171.322705472
 21
140.024958038
 31
0.0
  0
LINE
  8
0
  6
CONTINUOUS
 62
     1
 10
171.322705472
 20
140.024958038
 30
0.0
 11
171.401608392
 21
139.955397805
 31
0.0
  0
LINE
  8
0
  6
CONTINUOUS
 62
     1
 10
171.401608392
 20
139.955397805
 30
0.0
 11
171.470399254
 21
139.850589962
 31
0.0
  0
LINE
  8
0
  6
CONTINUOUS
 62
     1
 10
171.470399254
 20
139.850589962
 30
0.0
 11
171.513615735
 21
139.723307008
 31
0.0
  0
LINE
  8
0
  6
CONTINUOUS
 62
     1
 10
171.513615735
 20
139.723307008
 30
0.0
 11
171.526423118
 21
139.598257338
 31
0.0
  0
LINE
  8
0
  6
CONTINUOUS
 62
     1
 10
171.526423118
 20
139.598257338
 30
0.0
 11
171.512226762
 21
139.469748455
 31
0.0
  0
LINE
  8
0
  6
CONTINUOUS
 62
     1
 10
171.512226762
 20
139.469748455
 30
0.0
 11
171.47468933
 21
139.357934551
 31
0.0
  0
LINE
  8
0
  6
CONTINUOUS
 62
     1
 10
171.47468933
 20
139.357934551
 30
0.0
 11
171.404081364
 21
139.246920512
 31
0.0
  0
LINE
  8
0
  6
CONTINUOUS
 62
     1
 10
171.404081364
 20
139.246920512
 30
0.0
 11
171.326230705
 21
139.176865716
 31
0.0
  0
LINE
  8
0
  6
CONTINUOUS
 62
     1
 10
171.326230705
 20
139.176865716
 30
0.0
 11
171.241606242
 21
139.135032252
 31
0.0
  0
LINE
  8
0
  6
CONTINUOUS
 62
     1
 10
171.241606242
 20
139.135032252
 30
0.0
 11
171.146606356
 21
139.119731107
 31
0.0
  0
LINE
  8
0
  6
CONTINUOUS
 62
     1
 10
171.146606356
 20
139.119731107
 30
0.0
 11
171.037794528
 21
139.139762134
 31
0.0
  0
LINE
  8
0
  6
CONTINUOUS
 62
     1
 10
171.037794528
 20
139.139762134
 30
0.0
 11
170.962705448
 21
139.179558406
 31
0.0
  0
LINE
  8
0
  6
CONTINUOUS
 62
     1
 10
170.962705448
 20
139.179558406
 30
0.0
 11
170.892657486
 21
139.242451369
 31
0.0
  0
LINE
  8
0
  6
CONTINUOUS
 62
     1
 10
170.892657486
 20
139.242451369
 30
0.0
 11
170.820823133
 21
139.352256908
 31
0.0
  0
LINE
  8
0
  6
CONTINUOUS
 62
     1
 10
170.820823133
 20
139.352256908
 30
0.0
 11
170.781156252
 21
139.467377612
 31
0.0
  0
LINE
  8
0
  6
CONTINUOUS
 62
     1
 10
170.781156252
 20
139.467377612
 30
0.0
 11
170.766429593
 21
139.59734797
 31
0.0
  0
LINE
  8
0
  6
CONTINUOUS
 62
     1
 10
170.766429593
 20
139.59734797
 30
0.0
 11
170.779190497
 21
139.723100174
 31
0.0
  0
LINE
  8
0
  6
CONTINUOUS
 62
     1
 10
170.779190497
 20
139.723100174
 30
0.0
 11
170.823434631
 21
139.852606556
 31
0.0
  0
LINE
  8
0
  6
CONTINUOUS
 62
     1
 10
170.823434631
 20
139.852606556
 30
0.0
 11
170.888613882
 21
139.952361379
 31
0.0
  0
LINE
  8
0
  6
CONTINUOUS
 62
     1
 10
170.888613882
 20
139.952361379
 30
0.0
 11
170.976061664
 21
140.028789113
 31
0.0
  0
LINE
  8
0
  6
CONTINUOUS
 62
     1
 10
170.976061664
 20
140.028789113
 30
0.0
 11
171.074943709
 21
140.071162221
 31
0.0
  0
LINE
  8
0
  6
CONTINUOUS
 62
     1
 10
171.074943709
 20
140.071162221
 30
0.0
 11
171.246417143
 21
140.099760755
 31
0.0
  0
LINE
  8
0
  6
CONTINUOUS
 62
     1
 10
171.246417143
 20
140.099760755
 30
0.0
 11
171.330487588
 21
140.152524766
 31
0.0
  0
LINE
  8
0
  6
CONTINUOUS
 62
     1
 10
171.330487588
 20
140.152524766
 30
0.0
 11
171.396952806
 21
140.230871865
 31
0.0
  0
LINE
  8
0
  6
CONTINUOUS
 62
     1
 10
171.396952806
 20
140.230871865
 30
0.0
 11
171.446575779
 21
140.34104607
 31
0.0
  0
LINE
  8
0
  6
CONTINUOUS
 62
     1
 10
171.446575779
 20
140.34104607
 30
0.0
 11
171.466423182
 21
140.481045444
 31
0.0
  0
LINE
  8
0
  6
CONTINUOUS
 62
     1
 10
171.466423182
 20
140.481045444
 30
0.0
 11
171.447171285
 21
140.61638537
 31
0.0
  0
LINE
  8
0
  6
CONTINUOUS
 62
     1
 10
171.447171285
 20
140.61638537
 30
0.0
 11
171.395949947
 21
140.730159609
 31
0.0
  0
LINE
  8
0
  6
CONTINUOUS
 62
     1
 10
171.395949947
 20
140.730159609
 30
0.0
 11
171.326207886
 21
140.810634364
 31
0.0
  0
LINE
  8
0
  6
CONTINUOUS
 62
     1
 10
171.326207886
 20
140.810634364
 30
0.0
 11
171.24720148
 21
140.85937744
 31
0.0
  0
LINE
  8
0
  6
CONTINUOUS
 62
     1
 10
171.24720148
 20
140.85937744
 30
0.0
 11
171.147232475
 21
140.879729778
 31
0.0
  0
LINE
  8
0
  6
CONTINUOUS
 62
     1
 10
171.147232475
 20
140.879729778
 30
0.0
 11
171.047161938
 21
140.86
 31
0.0
  0
LINE
  8
0
  6
CONTINUOUS
 62
     1
 10
171.047161938
 20
140.86
 30
0.0
 11
170.96676222
 21
140.810736429
 31
0.0
  0
LINE
  8
0
  6
CONTINUOUS
 62
     1
 10
170.96676222
 20
140.810736429
 30
0.0
 11
170.897071074
 21
140.730425914
 31
0.0
  0
LINE
  8
0
  6
CONTINUOUS
 62
     1
 10
170.897071074
 20
140.730425914
 30
0.0
 11
170.846191438
 21
140.618136381
 31
0.0
  0
LINE
  8
0
  6
CONTINUOUS
 62
     1
 10
170.846191438
 20
140.618136381
 30
0.0
 11
170.826427449
 21
140.478137556
 31
0.0
  0
LINE
  8
0
  6
CONTINUOUS
 62
     1
 10
170.826427449
 20
140.478137556
 30
0.0
 11
170.846350765
 21
140.340786886
 31
0.0
  0
LINE
  8
0
  6
CONTINUOUS
 62
     1
 10
170.846350765
 20
140.340786886
 30
0.0
 11
170.896106101
 21
140.230543327
 31
0.0
  0
LINE
  8
0
  6
CONTINUOUS
 62
     1
 10
170.896106101
 20
140.230543327
 30
0.0
 11
170.972645097
 21
140.143853989
 31
0.0
  0
LINE
  8
0
  6
CONTINUOUS
 62
     1
 10
170.972645097
 20
140.143853989
 30
0.0
 11
171.061587207
 21
140.094044643
 31
0.0
  0
LINE
  8
0
  6
CONTINUOUS
 62
     1
 10
171.061587207
 20
140.094044643
 30
0.0
 11
171.146424959
 21
140.079731052
 31
0.0
  0
LINE
  8
0
  6
CONTINUOUS
 62
     1
 10
169.825
 20
148.879731052
 30
0.0
 11
169.825
 21
148.729731052
 31
0.0
  0
LINE
  8
0
  6
CONTINUOUS
 62
     1
 10
169.825
 20
148.729731052
 30
0.0
 11
169.825
 21
148.579731052
 31
0.0
  0
LINE
  8
0
  6
CONTINUOUS
 62
     1
 10
169.825
 20
148.579731052
 30
0.0
 11
169.825
 21
148.429731052
 31
0.0
  0
LINE
  8
0
  6
CONTINUOUS
 62
     1
 10
169.825
 20
148.429731052
 30
0.0
 11
169.825
 21
148.279731052
 31
0.0
  0
LINE
  8
0
  6
CONTINUOUS
 62
     1
 10
169.825
 20
148.279731052
 30
0.0
 11
169.825
 21
148.129731052
 31
0.0
  0
LINE
  8
0
  6
CONTINUOUS
 62
     1
 10
169.825
 20
148.129731052
 30
0.0
 11
169.825
 21
147.979731052
 31
0.0
  0
LINE
  8
0
  6
CONTINUOUS
 62
     1
 10
169.825
 20
147.979731052
 30
0.0
 11
169.825
 21
147.829731052
 31
0.0
  0
LINE
  8
0
  6
CONTINUOUS
 62
     1
 10
169.825
 20
147.829731052
 30
0.0
 11
169.825
 21
147.679731052
 31
0.0
  0
LINE
  8
0
  6
CONTINUOUS
 62
     1
 10
169.825
 20
147.679731052
 30
0.0
 11
169.825
 21
147.529731052
 31
0.0
  0
LINE
  8
0
  6
CONTINUOUS
 62
     1
 10
169.825
 20
147.529731052
 30
0.0
 11
169.825
 21
147.379731052
 31
0.0
  0
LINE
  8
0
  6
CONTINUOUS
 62
     1
 10
169.825
 20
147.379731052
 30
0.0
 11
169.825
 21
147.229731052
 31
0.0
  0
LINE
  8
0
  6
CONTINUOUS
 62
     1
 10
169.825
 20
147.229731052
 30
0.0
 11
169.825
 21
147.119731052
 31
0.0
  0
LINE
  8
0
  6
CONTINUOUS
 62
     1
 10
170.819692979
 20
148.727362947
 30
0.0
 11
170.785314642
 21
148.584685168
 31
0.0
  0
LINE
  8
0
  6
CONTINUOUS
 62
     1
 10
170.785314642
 20
148.584685168
 30
0.0
 11
170.758340333
 21
148.438931531
 31
0.0
  0
LINE
  8
0
  6
CONTINUOUS
 62
     1
 10
170.758340333
 20
148.438931531
 30
0.0
 11
170.739123205
 21
148.290899469
 31
0.0
  0
LINE
  8
0
  6
CONTINUOUS
 62
     1
 10
170.739123205
 20
148.290899469
 30
0.0
 11
170.727908353
 21
148.14143524
 31
0.0
  0
LINE
  8
0
  6
CONTINUOUS
 62
     1
 10
170.727908353
 20
148.14143524
 30
0.0
 11
170.724824949
 21
147.991414777
 31
0.0
  0
LINE
  8
0
  6
CONTINUOUS
 62
     1
 10
170.724824949
 20
147.991414777
 30
0.0
 11
170.729882439
 21
147.84172321
 31
0.0
  0
LINE
  8
0
  6
CONTINUOUS
 62
     1
 10
170.729882439
 20
147.84172321
 30
0.0
 11
170.742971024
 21
147.693234082
 31
0.0
  0
LINE
  8
0
  6
CONTINUOUS
 62
     1
 10
170.742971024
 20
147.693234082
 30
0.0
 11
170.763866358
 21
147.546789277
 31
0.0
  0
LINE
  8
0
  6
CONTINUOUS
 62
     1
 10
170.763866358
 20
147.546789277
 30
0.0
 11
170.79223811
 21
147.403180635
 31
0.0
  0
LINE
  8
0
  6
CONTINUOUS
 62
     1
 10
170.79223811
 20
147.403180635
 30
0.0
 11
170.827661819
 21
147.263134047
 31
0.0
  0
LINE
  8
0
  6
CONTINUOUS
 62
     1
 10
170.827661819
 20
147.263134047
 30
0.0
 11
170.886749623
 21
147.197857887
 31
0.0
  0
LINE
  8
0
  6
CONTINUOUS
 62
     1
 10
170.886749623
 20
147.197857887
 30
0.0
 11
170.961463496
 21
147.14724878
 31
0.0
  0
LINE
  8
0
  6
CONTINUOUS
 62
     1
 10
170.961463496
 20
147.14724878
 30
0.0
 11
171.086478348
 21
147.119736118
 31
0.0
  0
LINE
  8
0
  6
CONTINUOUS
 62
     1
 10
171.086478348
 20
147.119736118
 30
0.0
 11
171.188683888
 21
147.138990046
 31
0.0
  0
LINE
  8
0
  6
CONTINUOUS
 62
     1
 10
171.188683888
 20
147.138990046
 30
0.0
 11
171.281548122
 21
147.19671444
 31
0.0
  0
LINE
  8
0
  6
CONTINUOUS
 62
     1
 10
171.281548122
 20
147.19671444
 30
0.0
 11
171.331231228
 21
147.256910928
 31
0.0
  0
LINE
  8
0
  6
CONTINUOUS
 62
     1
 10
171.331231228
 20
147.256910928
 30
0.0
 11
171.377208452
 21
147.402817716
 31
0.0
  0
LINE
  8
0
  6
CONTINUOUS
 62
     1
 10
171.377208452
 20
147.402817716
 30
0.0
 11
171.404903738
 21
147.54235461
 31
0.0
  0
LINE
  8
0
  6
CONTINUOUS
 62
     1
 10
171.404903738
 20
147.54235461
 30
0.0
 11
171.426501165
 21
147.692747995
 31
0.0
  0
LINE
  8
0
  6
CONTINUOUS
 62
     1
 10
171.426501165
 20
147.692747995
 30
0.0
 11
171.43965952
 21
147.841946597
 31
0.0
  0
LINE
  8
0
  6
CONTINUOUS
 62
     1
 10
171.43965952
 20
147.841946597
 30
0.0
 11
171.444706871
 21
147.991946292
 31
0.0
  0
LINE
  8
0
  6
CONTINUOUS
 62
     1
 10
171.444706871
 20
147.991946292
 30
0.0
 11
171.441359467
 21
148.14677987
 31
0.0
  0
LINE
  8
0
  6
CONTINUOUS
 62
     1
 10
171.441359467
 20
148.14677987
 30
0.0
 11
171.430429494
 21
148.290661539
 31
0.0
  0
LINE
  8
0
  6
CONTINUOUS
 62
     1
 10
171.430429494
 20
148.290661539
 30
0.0
 11
171.411024891
 21
148.439966442
 31
0.0
  0
LINE
  8
0
  6
CONTINUOUS
 62
     1
 10
171.411024891
 20
148.439966442
 30
0.0
 11
171.384451161
 21
148.583569148
 31
0.0
  0
LINE
  8
0
  6
CONTINUOUS
 62
     1
 10
171.384451161
 20
148.583569148
 30
0.0
 11
171.348464121
 21
148.73040556
 31
0.0
  0
LINE
  8
0
  6
CONTINUOUS
 62
     1
 10
171.348464121
 20
148.73040556
 30
0.0
 11
171.296320702
 21
148.808083856
 31
0.0
  0
LINE
  8
0
  6
CONTINUOUS
 62
     1
 10
171.296320702
 20
148.808083856
 30
0.0
 11
171.21021188
 21
148.871193999
 31
0.0
  0
LINE
  8
0
  6
CONTINUOUS
 62
     1
 10
171.21021188
 20
148.871193999
 30
0.0
 11
171.095333854
 21
148.899538371
 31
0.0
  0
LINE
  8
0
  6
CONTINUOUS
 62
     1
 10
171.095333854
 20
148.899538371
 30
0.0
 11
170.961433084
 21
148.872199036
 31
0.0
  0
LINE
  8
0
  6
CONTINUOUS
 62
     1
 10
170.961433084
 20
148.872199036
 30
0.0
 11
170.871943341
 21
148.806726722
 31
0.0
  0
LINE
  8
0
  6
CONTINUOUS
 62
     1
 10
170.871943341
 20
148.806726722
 30
0.0
 11
170.819692979
 21
148.727362947
 31
0.0
  0
LINE
  8
0
  6
CONTINUOUS
 62
     2
 10
168.5
 20
107.749731052
 30
0.0
 11
175.0
 21
107.749731052
 31
0.0
  0
LINE
  8
0
  6
CONTINUOUS
 62
     2
 10
168.5
 20
108.249731052
 30
0.0
 11
168.5
 21
107.749731052
 31
0.0
  0
LINE
  8
0
  6
CONTINUOUS
 62
     2
 10
175.0
 20
108.249731052
 30
0.0
 11
168.5
 21
108.249731052
 31
0.0
  0
LINE
  8
0
  6
CONTINUOUS
 62
     2
 10
175.0
 20
107.749731052
 30
0.0
 11
175.0
 21
108.249731052
 31
0.0
  0
LINE
  8
0
  6
CONTINUOUS
 62
     2
 10
168.5
 20
107.999731052
 30
0.0
 11
162.162880782
 21
97.399731052
 31
0.0
  0
TEXT
  8
0
  6
CONTINUOUS
 62
     2
 10
155.822947342
 20
98.399731052
 30
0.3
 40
3.0
  1
指針
 50
0.0
 41
0.9
 51
0.0
  7
KANJI3
  0
LINE
  8
0
  6
CONTINUOUS
 62
     2
 10
155.722947342
 20
97.399731052
 30
0.0
 11
162.162880782
 21
97.399731052
 31
0.0
  0
TEXT
  8
0
  6
CONTINUOUS
 62
     2
 10
185.7
 20
124.619731052
 30
0.3
 40
3.0
  1
５４
 50
90.0
 41
0.6
 51
0.0
  7
KANJI0
  0
LINE
  8
0
  6
CONTINUOUS
 62
     1
 10
165.0
 20
154.999731052
 30
0.0
 11
165.0
 21
100.999731052
 31
0.0
  0
LINE
  8
0
  6
CONTINUOUS
 62
     1
 10
180.0
 20
100.999731052
 30
0.0
 11
180.0
 21
154.999731052
 31
0.0
  0
LINE
  8
0
  6
CONTINUOUS
 62
     2
 10
80.0
 20
170.999731052
 30
0.0
 11
82.414814566
 21
170.352683439
 31
0.0
  0
LINE
  8
0
  6
CONTINUOUS
 62
     2
 10
80.0
 20
170.999731052
 30
0.0
 11
82.414814566
 21
171.646778665
 31
0.0
  0
LINE
  8
0
  6
CONTINUOUS
 62
     2
 10
80.0
 20
175.999731052
 30
0.0
 11
82.414814566
 21
175.352683439
 31
0.0
  0
LINE
  8
0
  6
CONTINUOUS
 62
     2
 10
80.0
 20
175.999731052
 30
0.0
 11
82.414814566
 21
176.646778665
 31
0.0
  0
LINE
  8
0
  6
CONTINUOUS
 62
     2
 10
80.0
 20
175.999731052
 30
0.0
 11
136.0
 21
175.999731052
 31
0.0
  0
LINE
  8
0
  6
CONTINUOUS
 62
     2
 10
136.0
 20
175.999731052
 30
0.0
 11
133.585185434
 21
176.646778665
 31
0.0
  0
LINE
  8
0
  6
CONTINUOUS
 62
     2
 10
136.0
 20
175.999731052
 30
0.0
 11
133.585185434
 21
175.352683439
 31
0.0
  0
TEXT
  8
0
  6
CONTINUOUS
 62
     2
 10
106.05
 20
176.999731052
 30
0.3
 40
3.0
  1
５６
 50
0.0
 41
0.6
 51
0.0
  7
KANJI0
  0
LINE
  8
0
  6
CONTINUOUS
 62
     2
 10
136.0
 20
175.999731052
 30
0.0
 11
138.414814566
 21
175.352683439
 31
0.0
  0
LINE
  8
0
  6
CONTINUOUS
 62
     2
 10
136.0
 20
175.999731052
 30
0.0
 11
138.414814566
 21
176.646778665
 31
0.0
  0
LINE
  8
0
  6
CONTINUOUS
 62
     2
 10
151.0
 20
175.999731052
 30
0.0
 11
148.585185434
 21
176.646778665
 31
0.0
  0
LINE
  8
0
  6
CONTINUOUS
 62
     2
 10
151.0
 20
175.999731052
 30
0.0
 11
148.585185434
 21
175.352683439
 31
0.0
  0
LINE
  8
0
  6
CONTINUOUS
 62
     2
 10
80.0
 20
170.999731052
 30
0.0
 11
77.585185434
 21
171.646778665
 31
0.0
  0
LINE
  8
0
  6
CONTINUOUS
 62
     2
 10
80.0
 20
170.999731052
 30
0.0
 11
77.585185434
 21
170.352683439
 31
0.0
  0
LINE
  8
0
  6
CONTINUOUS
 62
     2
 10
80.0
 20
170.999731052
 30
0.0
 11
74.0
 21
170.999731052
 31
0.0
  0
LINE
  8
0
  6
CONTINUOUS
 62
     2
 10
74.0
 20
170.999731052
 30
0.0
 11
76.414814566
 21
170.352683439
 31
0.0
  0
LINE
  8
0
  6
CONTINUOUS
 62
     2
 10
74.0
 20
170.999731052
 30
0.0
 11
76.414814566
 21
171.646778665
 31
0.0
  0
TEXT
  8
0
  6
CONTINUOUS
 62
     2
 10
76.1
 20
171.999731052
 30
0.3
 40
3.0
  1
６
 50
0.0
 41
0.6
 51
0.0
  7
KANJI0
  0
LINE
  8
0
  6
CONTINUOUS
 62
     2
 10
74.0
 20
146.264732645
 30
0.0
 11
74.0
 21
172.999731052
 31
0.0
  0
LINE
  8
0
  6
CONTINUOUS
 62
     2
 10
74.7475
 20
109.987231052
 30
0.0
 11
72.979733047
 21
108.219464099
 31
0.0
  0
LINE
  8
0
  6
CONTINUOUS
 62
     2
 10
74.7475
 20
109.987231052
 30
0.0
 11
74.100452387
 21
107.572416486
 31
0.0
  0
TEXT
  8
0
  6
CONTINUOUS
 62
     2
 10
70.249163379
 20
97.999731052
 30
0.3
 40
3.0
  1
２－Ｍ２．３ターミナルネジ
 50
0.0
 41
0.9
 51
0.0
  7
KANJI3
  0
LINE
  8
0
  6
CONTINUOUS
 62
     2
 10
107.599163379
 20
96.999731052
 30
0.0
 11
67.249163379
 21
96.999731052
 31
0.0
  0
LINE
  8
0
  6
CONTINUOUS
 62
     2
 10
74.7475
 20
109.987231052
 30
0.0
 11
67.249163379
 21
96.999731052
 31
0.0
  0
LINE
  8
0
  6
CONTINUOUS
 62
     1
 10
136.0
 20
154.999731052
 30
0.0
 11
143.266615306
 21
154.999731052
 31
0.0
  0
LINE
  8
0
  6
CONTINUOUS
 62
     1
 10
136.0
 20
100.999731052
 30
0.0
 11
143.266615306
 21
100.999731052
 31
0.0
  0
ARC
  8
0
  6
CONTINUOUS
 62
     1
 10
100.0
 20
127.999731052
 30
0.0
 40
51.0
 50
328.034281249
 51
31.965718751
  0
ARC
  8
0
  6
CONTINUOUS
 62
     1
 10
81.0
 20
149.999731052
 30
0.0
 40
1.0
 50
90.0
 51
180.0
  0
ARC
  8
0
  6
CONTINUOUS
 62
     1
 10
81.0
 20
105.999731052
 30
0.0
 40
1.0
 50
180.0
 51
270.0
  0
LINE
  8
0
  6
CONTINUOUS
 62
     1
 10
80.0
 20
149.999731052
 30
0.0
 11
80.0
 21
105.999731052
 31
0.0
  0
LINE
  8
0
  6
CONTINUOUS
 62
     2
 10
66.47
 20
143.999731052
 30
0.0
 11
65.822952387
 21
141.584916486
 31
0.0
  0
LINE
  8
0
  6
CONTINUOUS
 62
     2
 10
66.47
 20
143.999731052
 30
0.0
 11
67.117047613
 21
141.584916486
 31
0.0
  0
LINE
  8
0
  6
CONTINUOUS
 62
     2
 10
66.47
 20
143.999731052
 30
0.0
 11
66.47
 21
111.999731052
 31
0.0
  0
LINE
  8
0
  6
CONTINUOUS
 62
     2
 10
66.47
 20
111.999731052
 30
0.0
 11
67.117047613
 21
114.414545618
 31
0.0
  0
LINE
  8
0
  6
CONTINUOUS
 62
     2
 10
66.47
 20
111.999731052
 30
0.0
 11
65.822952387
 21
114.414545618
 31
0.0
  0
TEXT
  8
0
  6
CONTINUOUS
 62
     2
 10
65.47
 20
126.049731052
 30
0.3
 40
3.0
  1
３２
 50
90.0
 41
0.6
 51
0.0
  7
KANJI0
  0
LINE
  8
0
  6
CONTINUOUS
 62
     2
 10
70.47
 20
143.999731052
 30
0.0
 11
64.47
 21
143.999731052
 31
0.0
  0
LINE
  8
0
  6
CONTINUOUS
 62
     2
 10
70.47
 20
111.999731052
 30
0.0
 11
64.47
 21
111.999731052
 31
0.0
  0
LINE
  8
0
  6
CONTINUOUS
 62
     2
 10
74.0
 20
144.287231052
 30
0.0
 11
73.378781759
 21
146.70881894
 31
0.0
  0
LINE
  8
0
  6
CONTINUOUS
 62
     2
 10
74.0
 20
144.287231052
 30
0.0
 11
72.251215278
 21
146.07377856
 31
0.0
  0
TEXT
  8
0
  6
CONTINUOUS
 62
     2
 10
28.092241503
 20
163.031237973
 30
0.3
 40
3.0
  1
＋端子（直流計器の場合）
 50
0.0
 41
0.9
 51
0.0
  7
KANJI3
  0
LINE
  8
0
  6
CONTINUOUS
 62
     2
 10
74.0
 20
144.287231052
 30
0.0
 11
64.006654961
 21
162.031237973
 31
0.0
  0
LINE
  8
0
  6
CONTINUOUS
 62
     2
 10
64.006654961
 20
162.031237973
 30
0.0
 11
27.692241503
 21
162.031237973
 31
0.0
  0
LINE
  8
0
  6
CONTINUOUS
 62
     1
 10
76.07
 20
143.999731052
 30
0.0
 11
75.495
 21
144.331707457
 31
0.0
  0
LINE
  8
0
  6
CONTINUOUS
 62
     1
 10
75.495
 20
143.999731052
 30
0.0
 11
76.07
 21
143.667754647
 31
0.0
  0
LINE
  8
0
  6
CONTINUOUS
 62
     1
 10
76.07
 20
141.814731052
 30
0.0
 11
75.495
 21
141.814731052
 31
0.0
  0
LINE
  8
0
  6
CONTINUOUS
 62
     1
 10
75.495
 20
141.814731052
 30
0.0
 11
75.495
 21
146.184731052
 31
0.0
  0
LINE
  8
0
  6
CONTINUOUS
 62
     1
 10
75.495
 20
146.184731052
 30
0.0
 11
76.07
 21
146.184731052
 31
0.0
  0
LINE
  8
0
  6
CONTINUOUS
 62
     1
 10
75.495
 20
141.987231052
 30
0.0
 11
74.7475
 21
141.987231052
 31
0.0
  0
ARC
  8
0
  6
CONTINUOUS
 62
     1
 10
74.7475
 20
142.734731052
 30
0.0
 40
0.7475
 50
180.0
 51
270.0
  0
LINE
  8
0
  6
CONTINUOUS
 62
     1
 10
74.0
 20
142.734731052
 30
0.0
 11
74.0
 21
143.712231052
 31
0.0
  0
LINE
  8
0
  6
CONTINUOUS
 62
     1
 10
74.0
 20
143.712231052
 30
0.0
 11
74.805
 21
143.712231052
 31
0.0
  0
LINE
  8
0
  6
CONTINUOUS
 62
     1
 10
74.805
 20
143.712231052
 30
0.0
 11
74.805
 21
144.287231052
 31
0.0
  0
LINE
  8
0
  6
CONTINUOUS
 62
     1
 10
74.805
 20
144.287231052
 30
0.0
 11
74.0
 21
144.287231052
 31
0.0
  0
LINE
  8
0
  6
CONTINUOUS
 62
     1
 10
74.0
 20
144.287231052
 30
0.0
 11
74.0
 21
145.264731052
 31
0.0
  0
ARC
  8
0
  6
CONTINUOUS
 62
     1
 10
74.7475
 20
145.264731052
 30
0.0
 40
0.7475
 50
90.0
 51
180.0
  0
LINE
  8
0
  6
CONTINUOUS
 62
     1
 10
74.7475
 20
146.012231052
 30
0.0
 11
75.495
 21
146.012231052
 31
0.0
  0
LINE
  8
0
  6
LTYPE2
 62
     2
 10
71.47
 20
143.999731052
 30
0.0
 11
76.07
 21
143.999731052
 31
0.0
  0
LINE
  8
0
  6
CONTINUOUS
 62
     1
 10
76.07
 20
141.814731052
 30
0.0
 11
76.07
 21
146.184731052
 31
0.0
  0
LINE
  8
0
  6
CONTINUOUS
 62
     2
 10
76.07
 20
134.999731052
 30
0.0
 11
76.07
 21
141.814731052
 31
0.0
  0
LINE
  8
0
  6
CONTINUOUS
 62
     2
 10
76.57
 20
146.999731052
 30
0.0
 11
76.57
 21
134.999731052
 31
0.0
  0
LINE
  8
0
  6
CONTINUOUS
 62
     2
 10
76.57
 20
134.999731052
 30
0.0
 11
76.07
 21
134.999731052
 31
0.0
  0
LINE
  8
0
  6
CONTINUOUS
 62
     2
 10
76.07
 20
146.999731052
 30
0.0
 11
76.07
 21
146.184731052
 31
0.0
  0
LINE
  8
0
  6
CONTINUOUS
 62
     2
 10
76.07
 20
146.999731052
 30
0.0
 11
76.57
 21
146.999731052
 31
0.0
  0
LINE
  8
0
  6
CONTINUOUS
 62
     1
 10
80.0
 20
145.999731052
 30
0.0
 11
76.57
 21
145.999731052
 31
0.0
  0
LINE
  8
0
  6
CONTINUOUS
 62
     1
 10
80.0
 20
141.999731052
 30
0.0
 11
76.57
 21
141.999731052
 31
0.0
  0
LINE
  8
0
  6
CONTINUOUS
 62
     1
 10
76.07
 20
111.999731052
 30
0.0
 11
75.495
 21
111.667754647
 31
0.0
  0
LINE
  8
0
  6
CONTINUOUS
 62
     1
 10
75.495
 20
111.999731052
 30
0.0
 11
76.07
 21
112.331707457
 31
0.0
  0
LINE
  8
0
  6
CONTINUOUS
 62
     1
 10
76.07
 20
114.184731052
 30
0.0
 11
75.495
 21
114.184731052
 31
0.0
  0
LINE
  8
0
  6
CONTINUOUS
 62
     1
 10
75.495
 20
114.184731052
 30
0.0
 11
75.495
 21
109.814731052
 31
0.0
  0
LINE
  8
0
  6
CONTINUOUS
 62
     1
 10
75.495
 20
109.814731052
 30
0.0
 11
76.07
 21
109.814731052
 31
0.0
  0
LINE
  8
0
  6
CONTINUOUS
 62
     1
 10
75.495
 20
114.012231052
 30
0.0
 11
74.7475
 21
114.012231052
 31
0.0
  0
ARC
  8
0
  6
CONTINUOUS
 62
     1
 10
74.7475
 20
113.264731052
 30
0.0
 40
0.7475
 50
90.0
 51
180.0
  0
LINE
  8
0
  6
CONTINUOUS
 62
     1
 10
74.0
 20
113.264731052
 30
0.0
 11
74.0
 21
112.287231052
 31
0.0
  0
LINE
  8
0
  6
CONTINUOUS
 62
     1
 10
74.0
 20
112.287231052
 30
0.0
 11
74.805
 21
112.287231052
 31
0.0
  0
LINE
  8
0
  6
CONTINUOUS
 62
     1
 10
74.805
 20
112.287231052
 30
0.0
 11
74.805
 21
111.712231052
 31
0.0
  0
LINE
  8
0
  6
CONTINUOUS
 62
     1
 10
74.805
 20
111.712231052
 30
0.0
 11
74.0
 21
111.712231052
 31
0.0
  0
LINE
  8
0
  6
CONTINUOUS
 62
     1
 10
74.0
 20
111.712231052
 30
0.0
 11
74.0
 21
110.734731052
 31
0.0
  0
ARC
  8
0
  6
CONTINUOUS
 62
     1
 10
74.7475
 20
110.734731052
 30
0.0
 40
0.7475
 50
180.0
 51
270.0
  0
LINE
  8
0
  6
CONTINUOUS
 62
     1
 10
74.7475
 20
109.987231052
 30
0.0
 11
75.495
 21
109.987231052
 31
0.0
  0
LINE
  8
0
  6
LTYPE2
 62
     2
 10
71.47
 20
111.999731052
 30
0.0
 11
76.07
 21
111.999731052
 31
0.0
  0
LINE
  8
0
  6
CONTINUOUS
 62
     1
 10
76.07
 20
114.184731052
 30
0.0
 11
76.07
 21
109.814731052
 31
0.0
  0
LINE
  8
0
  6
CONTINUOUS
 62
     2
 10
76.07
 20
120.999731052
 30
0.0
 11
76.07
 21
114.184731052
 31
0.0
  0
LINE
  8
0
  6
CONTINUOUS
 62
     2
 10
76.57
 20
108.999731052
 30
0.0
 11
76.57
 21
120.999731052
 31
0.0
  0
LINE
  8
0
  6
CONTINUOUS
 62
     2
 10
76.57
 20
120.999731052
 30
0.0
 11
76.07
 21
120.999731052
 31
0.0
  0
LINE
  8
0
  6
CONTINUOUS
 62
     2
 10
76.07
 20
108.999731052
 30
0.0
 11
76.07
 21
109.814731052
 31
0.0
  0
LINE
  8
0
  6
CONTINUOUS
 62
     2
 10
76.07
 20
108.999731052
 30
0.0
 11
76.57
 21
108.999731052
 31
0.0
  0
LINE
  8
0
  6
CONTINUOUS
 62
     1
 10
80.0
 20
109.999731052
 30
0.0
 11
76.57
 21
109.999731052
 31
0.0
  0
LINE
  8
0
  6
CONTINUOUS
 62
     1
 10
80.0
 20
113.999731052
 30
0.0
 11
76.57
 21
113.999731052
 31
0.0
  0
LINE
  8
0
  6
CONTINUOUS
 62
     2
 10
104.492757148
 20
129.931237973
 30
0.0
 11
89.117519707
 21
157.231237973
 31
0.0
  0
LINE
  8
0
  6
CONTINUOUS
 62
     2
 10
106.0
 20
170.999731052
 30
0.0
 11
103.585185434
 21
171.646778665
 31
0.0
  0
LINE
  8
0
  6
CONTINUOUS
 62
     2
 10
106.0
 20
170.999731052
 30
0.0
 11
103.585185434
 21
170.352683439
 31
0.0
  0
LINE
  8
0
  6
CONTINUOUS
 62
     2
 10
79.0
 20
170.999731052
 30
0.0
 11
106.0
 21
170.999731052
 31
0.0
  0
CIRCLE
  8
0
  6
CONTINUOUS
 62
     2
 10
106.0
 20
127.999731052
 30
0.0
 40
2.45
  0
LINE
  8
0
  6
CONTINUOUS
 62
     2
 10
107.61034518
 20
126.813649941
 30
0.0
 11
104.813918889
 21
129.610076232
 31
0.0
  0
LINE
  8
0
  6
CONTINUOUS
 62
     2
 10
104.38965482
 20
129.185812163
 30
0.0
 11
107.186081111
 21
126.389385872
 31
0.0
  0
ARC
  8
0
  6
CONTINUOUS
 62
     2
 10
106.0
 20
127.999731052
 30
0.0
 40
2.0
 50
143.626926559
 51
306.373073441
  0
ARC
  8
0
  6
CONTINUOUS
 62
     2
 10
106.0
 20
127.999731052
 30
0.0
 40
2.0
 50
323.626926559
 51
126.373073441
  0
LINE
  8
0
  6
CONTINUOUS
 62
     2
 10
104.492757148
 20
129.931237973
 30
0.0
 11
102.743972426
 21
131.717785481
 31
0.0
  0
LINE
  8
0
  6
CONTINUOUS
 62
     2
 10
104.492757148
 20
129.931237973
 30
0.0
 11
103.871538907
 21
132.35282586
 31
0.0
  0
TEXT
  8
0
  6
CONTINUOUS
 62
     2
 10
90.2
 20
171.999731052
 30
0.3
 40
3.0
  1
２６
 50
0.0
 41
0.6
 51
0.0
  7
KANJI0
  0
ARC
  8
0
  6
CONTINUOUS
 62
     1
 10
123.0
 20
145.499731052
 30
0.0
 40
4.0
 50
180.0
 51
0.0
  0
LINE
  8
0
  6
CONTINUOUS
 62
     1
 10
127.0
 20
152.299731052
 30
0.0
 11
127.0
 21
145.499731052
 31
0.0
  0
LINE
  8
0
  6
CONTINUOUS
 62
     1
 10
119.0
 20
152.299731052
 30
0.0
 11
119.0
 21
145.499731052
 31
0.0
  0
LINE
  8
0
  6
CONTINUOUS
 62
     1
 10
119.0
 20
150.999731052
 30
0.0
 11
81.0
 21
150.999731052
 31
0.0
  0
LINE
  8
0
  6
CONTINUOUS
 62
     1
 10
127.0
 20
150.999731052
 30
0.0
 11
136.0
 21
150.999731052
 31
0.0
  0
LINE
  8
0
  6
CONTINUOUS
 62
     1
 10
119.0
 20
152.299731052
 30
0.0
 11
127.0
 21
152.299731052
 31
0.0
  0
LINE
  8
0
  6
CONTINUOUS
 62
     1
 10
127.0
 20
151.499731052
 30
0.0
 11
134.0
 21
151.499731052
 31
0.0
  0
LINE
  8
0
  6
CONTINUOUS
 62
     1
 10
134.0
 20
151.499731052
 30
0.0
 11
134.0
 21
150.999731052
 31
0.0
  0
LINE
  8
0
  6
CONTINUOUS
 62
     1
 10
136.0
 20
154.999731052
 30
0.0
 11
136.0
 21
100.999731052
 31
0.0
  0
ARC
  8
0
  6
CONTINUOUS
 62
     1
 10
123.0
 20
110.499731052
 30
0.0
 40
4.0
 50
0.0
 51
180.0
  0
LINE
  8
0
  6
CONTINUOUS
 62
     1
 10
127.0
 20
103.699731052
 30
0.0
 11
127.0
 21
110.499731052
 31
0.0
  0
LINE
  8
0
  6
CONTINUOUS
 62
     1
 10
119.0
 20
103.699731052
 30
0.0
 11
119.0
 21
110.499731052
 31
0.0
  0
LINE
  8
0
  6
CONTINUOUS
 62
     1
 10
119.0
 20
104.499731052
 30
0.0
 11
105.0
 21
104.499731052
 31
0.0
  0
ARC
  8
0
  6
CONTINUOUS
 62
     1
 10
105.0
 20
104.499731052
 30
0.0
 40
0.5
 50
90.0
 51
270.0
  0
LINE
  8
0
  6
CONTINUOUS
 62
     1
 10
119.0
 20
103.699731052
 30
0.0
 11
127.0
 21
103.699731052
 31
0.0
  0
LINE
  8
0
  6
CONTINUOUS
 62
     1
 10
127.0
 20
104.499731052
 30
0.0
 11
134.0
 21
104.499731052
 31
0.0
  0
LINE
  8
0
  6
CONTINUOUS
 62
     1
 10
134.0
 20
104.499731052
 30
0.0
 11
134.0
 21
104.999731052
 31
0.0
  0
LINE
  8
0
  6
CONTINUOUS
 62
     1
 10
108.5
 20
103.999731052
 30
0.0
 11
119.0
 21
99.499731052
 31
0.0
  0
LINE
  8
0
  6
CONTINUOUS
 62
     1
 10
109.0
 20
104.499731052
 30
0.0
 11
119.0
 21
99.999731052
 31
0.0
  0
LINE
  8
0
  6
CONTINUOUS
 62
     1
 10
108.5
 20
103.999731052
 30
0.0
 11
105.0
 21
103.999731052
 31
0.0
  0
LINE
  8
0
  6
CONTINUOUS
 62
     1
 10
119.0
 20
99.999731052
 30
0.0
 11
129.0
 21
99.999731052
 31
0.0
  0
LINE
  8
0
  6
CONTINUOUS
 62
     1
 10
119.0
 20
99.499731052
 30
0.0
 11
129.0
 21
99.499731052
 31
0.0
  0
LINE
  8
0
  6
CONTINUOUS
 62
     1
 10
129.0
 20
99.499731052
 30
0.0
 11
129.0
 21
99.999731052
 31
0.0
  0
LINE
  8
0
  6
CONTINUOUS
 62
     1
 10
136.0
 20
104.999731052
 30
0.0
 11
127.0
 21
104.999731052
 31
0.0
  0
LINE
  8
0
  6
CONTINUOUS
 62
     1
 10
81.0
 20
104.999731052
 30
0.0
 11
119.0
 21
104.999731052
 31
0.0
  0
LINE
  8
0
  6
CONTINUOUS
 62
     2
 10
151.0
 20
135.999731052
 30
0.0
 11
151.0
 21
177.999731052
 31
0.0
  0
LINE
  8
0
  6
CONTINUOUS
 62
     2
 10
136.0
 20
175.999731052
 30
0.0
 11
151.0
 21
175.999731052
 31
0.0
  0
TEXT
  8
0
  6
CONTINUOUS
 62
     2
 10
141.176592717
 20
176.999731052
 30
0.3
 40
3.0
  1
１５
 50
0.0
 41
0.6
 51
0.0
  7
KANJI0
  0
LINE
  8
0
  6
CONTINUOUS
 62
     2
 10
136.0
 20
156.526731052
 30
0.0
 11
136.0
 21
177.999731052
 31
0.0
  0
LINE
  8
0
  6
CONTINUOUS
 62
     2
 10
80.0
 20
150.999731052
 30
0.0
 11
80.0
 21
177.999731052
 31
0.0
  0
ARC
  8
0
  6
CONTINUOUS
 62
     1
 10
106.739
 20
151.499731052
 30
0.0
 40
0.5
 50
90.0
 51
270.0
  0
LINE
  8
0
  6
CONTINUOUS
 62
     1
 10
110.239
 20
151.999731052
 30
0.0
 11
106.739
 21
151.999731052
 31
0.0
  0
LINE
  8
0
  6
CONTINUOUS
 62
     1
 10
110.239
 20
151.999731052
 30
0.0
 11
120.739
 21
156.499731052
 31
0.0
  0
LINE
  8
0
  6
CONTINUOUS
 62
     1
 10
110.739
 20
151.499731052
 30
0.0
 11
120.739
 21
155.999731052
 31
0.0
  0
LINE
  8
0
  6
CONTINUOUS
 62
     1
 10
120.739
 20
155.999731052
 30
0.0
 11
130.739
 21
155.999731052
 31
0.0
  0
LINE
  8
0
  6
CONTINUOUS
 62
     1
 10
120.739
 20
156.499731052
 30
0.0
 11
130.739
 21
156.499731052
 31
0.0
  0
LINE
  8
0
  6
CONTINUOUS
 62
     1
 10
130.739
 20
156.499731052
 30
0.0
 11
130.739
 21
155.999731052
 31
0.0
  0
LINE
  8
0
  6
CONTINUOUS
 62
     1
 10
119.0
 20
151.499731052
 30
0.0
 11
106.739
 21
151.499731052
 31
0.0
  0
LINE
  8
0
  6
CONTINUOUS
 62
     2
 10
126.267
 20
156.499731052
 30
0.0
 11
125.456722928
 21
158.864778846
 31
0.0
  0
LINE
  8
0
  6
CONTINUOUS
 62
     2
 10
126.267
 20
156.499731052
 30
0.0
 11
124.382755574
 21
158.142783986
 31
0.0
  0
LINE
  8
0
  6
CONTINUOUS
 62
     2
 10
126.267
 20
156.499731052
 30
0.0
 11
122.347
 21
162.330731052
 31
0.0
  0
LINE
  8
0
  6
CONTINUOUS
 62
     2
 10
122.347
 20
162.330731052
 30
0.0
 11
107.647
 21
162.330731052
 31
0.0
  0
TEXT
  8
0
  6
CONTINUOUS
 62
     2
 10
107.647
 20
163.330731052
 30
0.3
 40
3.0
  1
取付板バネ
 50
0.0
 41
0.9
 51
0.0
  7
KANJI3
  0
LINE
  8
0
  6
CONTINUOUS
 62
     2
 10
106.0
 20
170.999731052
 30
0.0
 11
108.414814566
 21
170.352683439
 31
0.0
  0
LINE
  8
0
  6
CONTINUOUS
 62
     2
 10
106.0
 20
170.999731052
 30
0.0
 11
108.414814566
 21
171.646778665
 31
0.0
  0
LINE
  8
0
  6
CONTINUOUS
 62
     2
 10
106.0
 20
170.999731052
 30
0.0
 11
136.0
 21
170.999731052
 31
0.0
  0
LINE
  8
0
  6
CONTINUOUS
 62
     2
 10
136.0
 20
170.999731052
 30
0.0
 11
133.585185434
 21
171.646778665
 31
0.0
  0
LINE
  8
0
  6
CONTINUOUS
 62
     2
 10
136.0
 20
170.999731052
 30
0.0
 11
133.585185434
 21
170.352683439
 31
0.0
  0
LINE
  8
0
  6
CONTINUOUS
 62
     2
 10
136.0
 20
151.999731052
 30
0.0
 11
136.0
 21
172.999731052
 31
0.0
  0
TEXT
  8
0
  6
CONTINUOUS
 62
     2
 10
119.05
 20
171.999731052
 30
0.3
 40
3.0
  1
３０
 50
0.0
 41
0.6
 51
0.0
  7
KANJI0
  0
LINE
  8
0
  6
CONTINUOUS
 62
     2
 10
136.0
 20
155.999731052
 30
0.0
 11
136.0
 21
172.999731052
 31
0.0
  0
LINE
  8
0
  6
CONTINUOUS
 62
     2
 10
136.0
 20
170.999731052
 30
0.0
 11
138.414814566
 21
170.352683439
 31
0.0
  0
LINE
  8
0
  6
CONTINUOUS
 62
     2
 10
136.0
 20
170.999731052
 30
0.0
 11
138.414814566
 21
171.646778665
 31
0.0
  0
LINE
  8
0
  6
CONTINUOUS
 62
     2
 10
136.0
 20
170.999731052
 30
0.0
 11
143.266615306
 21
170.999731052
 31
0.0
  0
LINE
  8
0
  6
CONTINUOUS
 62
     2
 10
143.266615306
 20
170.999731052
 30
0.0
 11
140.85180074
 21
171.646778665
 31
0.0
  0
LINE
  8
0
  6
CONTINUOUS
 62
     2
 10
143.266615306
 20
170.999731052
 30
0.0
 11
140.85180074
 21
170.352683439
 31
0.0
  0
LINE
  8
0
  6
CONTINUOUS
 62
     2
 10
143.266615306
 20
155.999731052
 30
0.0
 11
143.266615306
 21
172.999731052
 31
0.0
  0
TEXT
  8
0
  6
CONTINUOUS
 62
     2
 10
138.733307653
 20
171.999731052
 30
0.3
 40
3.0
  1
７
 50
0.0
 41
0.6
 51
0.0
  7
KANJI0
  0
LINE
  8
0
  6
CONTINUOUS
 62
     2
 10
80.0
 20
150.999731052
 30
0.0
 11
59.47
 21
150.999731052
 31
0.0
  0
LINE
  8
0
  6
CONTINUOUS
 62
     2
 10
61.47
 20
150.999731052
 30
0.0
 11
60.822952387
 21
148.584916486
 31
0.0
  0
LINE
  8
0
  6
CONTINUOUS
 62
     2
 10
61.47
 20
150.999731052
 30
0.0
 11
62.117047613
 21
148.584916486
 31
0.0
  0
LINE
  8
0
  6
CONTINUOUS
 62
     2
 10
61.47
 20
150.999731052
 30
0.0
 11
61.47
 21
104.999731052
 31
0.0
  0
LINE
  8
0
  6
CONTINUOUS
 62
     2
 10
61.47
 20
104.999731052
 30
0.0
 11
62.117047613
 21
107.414545618
 31
0.0
  0
LINE
  8
0
  6
CONTINUOUS
 62
     2
 10
61.47
 20
104.999731052
 30
0.0
 11
60.822952387
 21
107.414545618
 31
0.0
  0
LINE
  8
0
  6
CONTINUOUS
 62
     2
 10
80.0
 20
104.999731052
 30
0.0
 11
59.47
 21
104.999731052
 31
0.0
  0
TEXT
  8
0
  6
CONTINUOUS
 62
     2
 10
60.47
 20
126.049731052
 30
0.3
 40
3.0
  1
４６
 50
90.0
 41
0.6
 51
0.0
  7
KANJI0
  0
LINE
  8
0
  6
CONTINUOUS
 62
     2
 10
104.0
 20
103.999731052
 30
0.0
 11
59.47
 21
103.999731052
 31
0.0
  0
LINE
  8
0
  6
CONTINUOUS
 62
     2
 10
61.47
 20
103.999731052
 30
0.0
 11
60.822952387
 21
101.584916486
 31
0.0
  0
LINE
  8
0
  6
CONTINUOUS
 62
     2
 10
61.47
 20
103.999731052
 30
0.0
 11
62.117047613
 21
101.584916486
 31
0.0
  0
LINE
  8
0
  6
CONTINUOUS
 62
     2
 10
61.47
 20
100.249731052
 30
0.0
 11
61.47
 21
103.999731052
 31
0.0
  0
LINE
  8
0
  6
CONTINUOUS
 62
     2
 10
61.47
 20
103.999731052
 30
0.0
 11
61.47
 21
104.999731052
 31
0.0
  0
LINE
  8
0
  6
CONTINUOUS
 62
     2
 10
61.47
 20
104.999731052
 30
0.0
 11
61.47
 21
108.749731052
 31
0.0
  0
LINE
  8
0
  6
CONTINUOUS
 62
     2
 10
61.47
 20
104.999731052
 30
0.0
 11
62.117047613
 21
107.414545618
 31
0.0
  0
LINE
  8
0
  6
CONTINUOUS
 62
     2
 10
61.47
 20
104.999731052
 30
0.0
 11
60.822952387
 21
107.414545618
 31
0.0
  0
LINE
  8
0
  6
CONTINUOUS
 62
     2
 10
80.0
 20
104.999731052
 30
0.0
 11
59.47
 21
104.999731052
 31
0.0
  0
TEXT
  8
0
  6
CONTINUOUS
 62
     2
 10
60.47
 20
103.599731052
 30
0.3
 40
3.0
  1
１
 50
90.0
 41
0.6
 51
0.0
  7
KANJI0
  0
LINE
  8
0
  6
CONTINUOUS
 62
     2
 10
80.0
 20
150.999731052
 30
0.0
 11
59.47
 21
150.999731052
 31
0.0
  0
LINE
  8
0
  6
CONTINUOUS
 62
     2
 10
61.47
 20
150.999731052
 30
0.0
 11
60.822952387
 21
148.584916486
 31
0.0
  0
LINE
  8
0
  6
CONTINUOUS
 62
     2
 10
61.47
 20
150.999731052
 30
0.0
 11
62.117047613
 21
148.584916486
 31
0.0
  0
LINE
  8
0
  6
CONTINUOUS
 62
     2
 10
61.47
 20
147.249731052
 30
0.0
 11
61.47
 21
150.999731052
 31
0.0
  0
LINE
  8
0
  6
CONTINUOUS
 62
     2
 10
61.47
 20
150.999731052
 30
0.0
 11
61.47
 21
151.999731052
 31
0.0
  0
LINE
  8
0
  6
CONTINUOUS
 62
     2
 10
61.47
 20
151.999731052
 30
0.0
 11
61.47
 21
155.749731052
 31
0.0
  0
LINE
  8
0
  6
CONTINUOUS
 62
     2
 10
61.47
 20
151.999731052
 30
0.0
 11
62.117047613
 21
154.414545618
 31
0.0
  0
LINE
  8
0
  6
CONTINUOUS
 62
     2
 10
61.47
 20
151.999731052
 30
0.0
 11
60.822952387
 21
154.414545618
 31
0.0
  0
LINE
  8
0
  6
CONTINUOUS
 62
     2
 10
109.239
 20
151.999731052
 30
0.0
 11
59.47
 21
151.999731052
 31
0.0
  0
TEXT
  8
0
  6
CONTINUOUS
 62
     2
 10
60.47
 20
150.599731052
 30
0.3
 40
3.0
  1
１
 50
90.0
 41
0.6
 51
0.0
  7
KANJI0
  0
LINE
  8
0
  6
CONTINUOUS
 62
     2
 10
201.2
 20
84.0
 30
0.0
 11
216.2
 21
84.0
 31
0.0
  0
TEXT
  8
0
  6
CONTINUOUS
 62
     2
 10
201.2
 20
85.0
 30
0.3
 40
3.0
  1
横形の場合
 50
0.0
 41
0.9
 51
0.0
  7
KANJI3
  0
TEXT
  8
0
  6
CONTINUOUS
 62
     2
 10
166.2
 20
85.0
 30
0.3
 40
3.0
  1
縦形の場合
 50
0.0
 41
0.9
 51
0.0
  7
KANJI3
  0
LINE
  8
0
  6
CONTINUOUS
 62
     2
 10
166.2
 20
84.0
 30
0.0
 11
181.2
 21
84.0
 31
0.0
  0
TEXT
  8
0
  6
CONTINUOUS
 62
     2
 10
28.07
 20
70.0
 30
0.18
 40
1.8
  1
－０
 50
0.0
 41
0.6
 51
0.0
  7
KANJI4
  0
TEXT
  8
0
  6
CONTINUOUS
 62
     2
 10
22.25
 20
55.07
 30
0.18
 40
1.8
  1
－０
 50
90.0
 41
0.6
 51
0.0
  7
KANJI4
  0
LINE
  8
0
  6
CONTINUOUS
 62
     1
 10
169.0
 20
156.499731052
 30
0.0
 11
164.0
 21
156.499731052
 31
0.0
  0
LINE
  8
0
  6
CONTINUOUS
 62
     1
 10
164.0
 20
156.499731052
 30
0.0
 11
165.0
 21
152.499731052
 31
0.0
  0
LINE
  8
0
  6
CONTINUOUS
 62
     1
 10
169.0
 20
155.999731052
 30
0.0
 11
164.640388203
 21
155.999731052
 31
0.0
  0
LINE
  8
0
  6
CONTINUOUS
 62
     1
 10
164.640388203
 20
155.999731052
 30
0.0
 11
164.890388203
 21
154.999731052
 31
0.0
  0
LINE
  8
0
  6
CONTINUOUS
 62
     1
 10
169.0
 20
156.499731052
 30
0.0
 11
169.0
 21
154.999731052
 31
0.0
  0
LINE
  8
0
  6
CONTINUOUS
 62
     1
 10
176.0
 20
156.499731052
 30
0.0
 11
181.0
 21
156.499731052
 31
0.0
  0
LINE
  8
0
  6
CONTINUOUS
 62
     1
 10
181.0
 20
156.499731052
 30
0.0
 11
180.0
 21
152.499731052
 31
0.0
  0
LINE
  8
0
  6
CONTINUOUS
 62
     1
 10
176.0
 20
155.999731052
 30
0.0
 11
180.359611797
 21
155.999731052
 31
0.0
  0
LINE
  8
0
  6
CONTINUOUS
 62
     1
 10
180.359611797
 20
155.999731052
 30
0.0
 11
180.109611797
 21
154.999731052
 31
0.0
  0
LINE
  8
0
  6
CONTINUOUS
 62
     1
 10
176.0
 20
156.499731052
 30
0.0
 11
176.0
 21
154.999731052
 31
0.0
  0
LINE
  8
0
  6
CONTINUOUS
 62
     1
 10
169.0
 20
99.499731052
 30
0.0
 11
164.0
 21
99.499731052
 31
0.0
  0
LINE
  8
0
  6
CONTINUOUS
 62
     1
 10
164.0
 20
99.499731052
 30
0.0
 11
165.0
 21
103.499731052
 31
0.0
  0
LINE
  8
0
  6
CONTINUOUS
 62
     1
 10
169.0
 20
99.999731052
 30
0.0
 11
164.640388203
 21
99.999731052
 31
0.0
  0
LINE
  8
0
  6
CONTINUOUS
 62
     1
 10
164.640388203
 20
99.999731052
 30
0.0
 11
164.890388203
 21
100.999731052
 31
0.0
  0
LINE
  8
0
  6
CONTINUOUS
 62
     1
 10
169.0
 20
99.499731052
 30
0.0
 11
169.0
 21
100.999731052
 31
0.0
  0
LINE
  8
0
  6
CONTINUOUS
 62
     1
 10
176.0
 20
99.499731052
 30
0.0
 11
181.0
 21
99.499731052
 31
0.0
  0
LINE
  8
0
  6
CONTINUOUS
 62
     1
 10
181.0
 20
99.499731052
 30
0.0
 11
180.0
 21
103.499731052
 31
0.0
  0
LINE
  8
0
  6
CONTINUOUS
 62
     1
 10
176.0
 20
99.999731052
 30
0.0
 11
180.359611797
 21
99.999731052
 31
0.0
  0
LINE
  8
0
  6
CONTINUOUS
 62
     1
 10
180.359611797
 20
99.999731052
 30
0.0
 11
180.109611797
 21
100.999731052
 31
0.0
  0
LINE
  8
0
  6
CONTINUOUS
 62
     1
 10
176.0
 20
99.499731052
 30
0.0
 11
176.0
 21
100.999731052
 31
0.0
  0
LINE
  8
0
  6
CONTINUOUS
 62
     1
 10
204.0
 20
156.499731052
 30
0.0
 11
199.0
 21
156.499731052
 31
0.0
  0
LINE
  8
0
  6
CONTINUOUS
 62
     1
 10
199.0
 20
156.499731052
 30
0.0
 11
200.0
 21
152.499731052
 31
0.0
  0
LINE
  8
0
  6
CONTINUOUS
 62
     1
 10
204.0
 20
155.999731052
 30
0.0
 11
199.640388203
 21
155.999731052
 31
0.0
  0
LINE
  8
0
  6
CONTINUOUS
 62
     1
 10
199.640388203
 20
155.999731052
 30
0.0
 11
199.890388203
 21
154.999731052
 31
0.0
  0
LINE
  8
0
  6
CONTINUOUS
 62
     1
 10
204.0
 20
156.499731052
 30
0.0
 11
204.0
 21
154.999731052
 31
0.0
  0
LINE
  8
0
  6
CONTINUOUS
 62
     1
 10
211.0
 20
156.499731052
 30
0.0
 11
216.0
 21
156.499731052
 31
0.0
  0
LINE
  8
0
  6
CONTINUOUS
 62
     1
 10
216.0
 20
156.499731052
 30
0.0
 11
215.0
 21
152.499731052
 31
0.0
  0
LINE
  8
0
  6
CONTINUOUS
 62
     1
 10
211.0
 20
155.999731052
 30
0.0
 11
215.359611797
 21
155.999731052
 31
0.0
  0
LINE
  8
0
  6
CONTINUOUS
 62
     1
 10
215.359611797
 20
155.999731052
 30
0.0
 11
215.109611797
 21
154.999731052
 31
0.0
  0
LINE
  8
0
  6
CONTINUOUS
 62
     1
 10
211.0
 20
156.499731052
 30
0.0
 11
211.0
 21
154.999731052
 31
0.0
  0
LINE
  8
0
  6
CONTINUOUS
 62
     1
 10
204.0
 20
99.499731052
 30
0.0
 11
199.0
 21
99.499731052
 31
0.0
  0
LINE
  8
0
  6
CONTINUOUS
 62
     1
 10
199.0
 20
99.499731052
 30
0.0
 11
200.0
 21
103.499731052
 31
0.0
  0
LINE
  8
0
  6
CONTINUOUS
 62
     1
 10
204.0
 20
99.999731052
 30
0.0
 11
199.640388203
 21
99.999731052
 31
0.0
  0
LINE
  8
0
  6
CONTINUOUS
 62
     1
 10
199.640388203
 20
99.999731052
 30
0.0
 11
199.890388203
 21
100.999731052
 31
0.0
  0
LINE
  8
0
  6
CONTINUOUS
 62
     1
 10
204.0
 20
99.499731052
 30
0.0
 11
204.0
 21
100.999731052
 31
0.0
  0
LINE
  8
0
  6
CONTINUOUS
 62
     1
 10
211.0
 20
99.499731052
 30
0.0
 11
216.0
 21
99.499731052
 31
0.0
  0
LINE
  8
0
  6
CONTINUOUS
 62
     1
 10
216.0
 20
99.499731052
 30
0.0
 11
215.0
 21
103.499731052
 31
0.0
  0
LINE
  8
0
  6
CONTINUOUS
 62
     1
 10
211.0
 20
99.999731052
 30
0.0
 11
215.359611797
 21
99.999731052
 31
0.0
  0
LINE
  8
0
  6
CONTINUOUS
 62
     1
 10
215.359611797
 20
99.999731052
 30
0.0
 11
215.109611797
 21
100.999731052
 31
0.0
  0
LINE
  8
0
  6
CONTINUOUS
 62
     1
 10
211.0
 20
99.499731052
 30
0.0
 11
211.0
 21
100.999731052
 31
0.0
  0
LINE
  8
0
  6
CONTINUOUS
 62
     1
 10
199.0
 20
130.449731052
 30
0.0
 11
198.5
 21
130.449731052
 31
0.0
  0
LINE
  8
0
  6
CONTINUOUS
 62
     1
 10
199.0
 20
125.549731052
 30
0.0
 11
198.5
 21
125.549731052
 31
0.0
  0
LINE
  8
0
  6
CONTINUOUS
 62
     1
 10
198.5
 20
130.449731052
 30
0.0
 11
198.5
 21
125.549731052
 31
0.0
  0
LINE
  8
0
  6
CONTINUOUS
 62
     2
 10
203.5
 20
107.999731052
 30
0.0
 11
197.162880782
 21
97.399731052
 31
0.0
  0
TEXT
  8
0
  6
CONTINUOUS
 62
     2
 10
190.822947342
 20
98.399731052
 30
0.3
 40
3.0
  1
指針
 50
0.0
 41
0.9
 51
0.0
  7
KANJI3
  0
LINE
  8
0
  6
CONTINUOUS
 62
     2
 10
190.722947342
 20
97.399731052
 30
0.0
 11
197.162880782
 21
97.399731052
 31
0.0
  0
LINE
  8
0
  6
CONTINUOUS
 62
     2
 10
203.5
 20
107.999731052
 30
0.0
 11
202.816246334
 21
105.595052087
 31
0.0
  0
LINE
  8
0
  6
CONTINUOUS
 62
     2
 10
203.5
 20
107.999731052
 30
0.0
 11
201.705512473
 21
106.259094813
 31
0.0
  0
LINE
  8
0
  6
CONTINUOUS
 62
     1
 10
24.567
 20
156.499731052
 30
0.0
 11
19.567
 21
156.499731052
 31
0.0
  0
LINE
  8
0
  6
CONTINUOUS
 62
     1
 10
31.567
 20
156.499731052
 30
0.0
 11
36.567
 21
156.499731052
 31
0.0
  0
LINE
  8
0
  6
CONTINUOUS
 62
     1
 10
164.0
 20
130.449731052
 30
0.0
 11
163.5
 21
130.449731052
 31
0.0
  0
LINE
  8
0
  6
CONTINUOUS
 62
     1
 10
164.0
 20
125.549731052
 30
0.0
 11
163.5
 21
125.549731052
 31
0.0
  0
LINE
  8
0
  6
CONTINUOUS
 62
     1
 10
163.5
 20
130.449731052
 30
0.0
 11
163.5
 21
125.549731052
 31
0.0
  0
LINE
  8
0
  6
CONTINUOUS
 62
     1
 10
36.567
 20
130.449731052
 30
0.0
 11
37.067
 21
130.449731052
 31
0.0
  0
LINE
  8
0
  6
CONTINUOUS
 62
     1
 10
36.567
 20
125.549731052
 30
0.0
 11
37.067
 21
125.549731052
 31
0.0
  0
LINE
  8
0
  6
CONTINUOUS
 62
     1
 10
37.067
 20
130.449731052
 30
0.0
 11
37.067
 21
125.549731052
 31
0.0
  0
LINE
  8
0
  6
CONTINUOUS
 62
     1
 10
164.0
 20
104.999731052
 30
0.0
 11
165.0
 21
104.999731052
 31
0.0
  0
LINE
  8
0
  6
CONTINUOUS
 62
     1
 10
181.0
 20
104.999731052
 30
0.0
 11
180.0
 21
104.999731052
 31
0.0
  0
LINE
  8
0
  6
CONTINUOUS
 62
     1
 10
164.0
 20
150.999731052
 30
0.0
 11
165.0
 21
150.999731052
 31
0.0
  0
LINE
  8
0
  6
CONTINUOUS
 62
     1
 10
181.0
 20
150.999731052
 30
0.0
 11
180.0
 21
150.999731052
 31
0.0
  0
LINE
  8
0
  6
CONTINUOUS
 62
     1
 10
164.0
 20
150.999731052
 30
0.0
 11
164.0
 21
104.999731052
 31
0.0
  0
LINE
  8
0
  6
CONTINUOUS
 62
     1
 10
181.0
 20
150.999731052
 30
0.0
 11
181.0
 21
104.999731052
 31
0.0
  0
LINE
  8
0
  6
CONTINUOUS
 62
     1
 10
200.0
 20
150.999731052
 30
0.0
 11
199.0
 21
150.999731052
 31
0.0
  0
LINE
  8
0
  6
CONTINUOUS
 62
     1
 10
215.0
 20
150.999731052
 30
0.0
 11
216.0
 21
150.999731052
 31
0.0
  0
LINE
  8
0
  6
CONTINUOUS
 62
     1
 10
199.0
 20
104.999731052
 30
0.0
 11
200.0
 21
104.999731052
 31
0.0
  0
LINE
  8
0
  6
CONTINUOUS
 62
     1
 10
199.0
 20
150.999731052
 30
0.0
 11
199.0
 21
104.999731052
 31
0.0
  0
LINE
  8
0
  6
CONTINUOUS
 62
     1
 10
216.0
 20
104.999731052
 30
0.0
 11
215.0
 21
104.999731052
 31
0.0
  0
LINE
  8
0
  6
CONTINUOUS
 62
     1
 10
216.0
 20
150.999731052
 30
0.0
 11
216.0
 21
104.999731052
 31
0.0
  0
LINE
  8
0
  6
CONTINUOUS
 62
     1
 10
19.567
 20
104.999731052
 30
0.0
 11
36.567
 21
104.999731052
 31
0.0
  0
LINE
  8
0
  6
CONTINUOUS
 62
     1
 10
36.567
 20
150.999731052
 30
0.0
 11
19.567
 21
150.999731052
 31
0.0
  0
LINE
  8
0
  6
CONTINUOUS
 62
     1
 10
19.567
 20
150.999731052
 30
0.0
 11
19.567
 21
104.999731052
 31
0.0
  0
LINE
  8
0
  6
CONTINUOUS
 62
     1
 10
36.567
 20
150.999731052
 30
0.0
 11
36.567
 21
104.999731052
 31
0.0
  0
LINE
  8
0
  6
CONTINUOUS
 62
     1
 10
20.567
 20
151.999731052
 30
0.0
 11
35.567
 21
151.999731052
 31
0.0
  0
LINE
  8
0
  6
CONTINUOUS
 62
     1
 10
24.567
 20
156.499731052
 30
0.0
 11
25.067
 21
151.999731052
 31
0.0
  0
LINE
  8
0
  6
CONTINUOUS
 62
     1
 10
31.567
 20
156.499731052
 30
0.0
 11
31.067
 21
151.999731052
 31
0.0
  0
LINE
  8
0
  6
CONTINUOUS
 62
     1
 10
36.567
 20
156.499731052
 30
0.0
 11
35.442
 21
151.999731052
 31
0.0
  0
LINE
  8
0
  6
CONTINUOUS
 62
     1
 10
24.733666667
 20
154.999731052
 30
0.0
 11
31.400333333
 21
154.999731052
 31
0.0
  0
LINE
  8
0
  6
CONTINUOUS
 62
     1
 10
19.567
 20
156.499731052
 30
0.0
 11
20.692
 21
151.999731052
 31
0.0
  0
LINE
  8
0
  6
CONTINUOUS
 62
     1
 10
20.567
 20
151.999731052
 30
0.0
 11
20.567
 21
150.999731052
 31
0.0
  0
LINE
  8
0
  6
CONTINUOUS
 62
     1
 10
35.567
 20
150.999731052
 30
0.0
 11
35.567
 21
151.999731052
 31
0.0
  0
LINE
  8
0
  6
CONTINUOUS
 62
     1
 10
24.567
 20
99.499731052
 30
0.0
 11
19.567
 21
99.499731052
 31
0.0
  0
LINE
  8
0
  6
CONTINUOUS
 62
     1
 10
31.567
 20
99.499731052
 30
0.0
 11
36.567
 21
99.499731052
 31
0.0
  0
LINE
  8
0
  6
CONTINUOUS
 62
     1
 10
36.567
 20
104.999731052
 30
0.0
 11
19.567
 21
104.999731052
 31
0.0
  0
LINE
  8
0
  6
CONTINUOUS
 62
     1
 10
20.567
 20
103.999731052
 30
0.0
 11
35.567
 21
103.999731052
 31
0.0
  0
LINE
  8
0
  6
CONTINUOUS
 62
     1
 10
24.567
 20
99.499731052
 30
0.0
 11
25.067
 21
103.999731052
 31
0.0
  0
LINE
  8
0
  6
CONTINUOUS
 62
     1
 10
31.567
 20
99.499731052
 30
0.0
 11
31.067
 21
103.999731052
 31
0.0
  0
LINE
  8
0
  6
CONTINUOUS
 62
     1
 10
36.567
 20
99.499731052
 30
0.0
 11
35.442
 21
103.999731052
 31
0.0
  0
LINE
  8
0
  6
CONTINUOUS
 62
     1
 10
24.733666667
 20
100.999731052
 30
0.0
 11
31.400333333
 21
100.999731052
 31
0.0
  0
LINE
  8
0
  6
CONTINUOUS
 62
     1
 10
19.567
 20
99.499731052
 30
0.0
 11
20.692
 21
103.999731052
 31
0.0
  0
LINE
  8
0
  6
CONTINUOUS
 62
     1
 10
20.567
 20
103.999731052
 30
0.0
 11
20.567
 21
104.999731052
 31
0.0
  0
LINE
  8
0
  6
CONTINUOUS
 62
     1
 10
35.567
 20
104.999731052
 30
0.0
 11
35.567
 21
103.999731052
 31
0.0
  0
LINE
  8
0
  6
CONTINUOUS
 62
     2
 10
26.842
 20
144.279731052
 30
0.0
 11
27.507
 21
144.279731052
 31
0.0
  0
ARC
  8
0
  6
CONTINUOUS
 62
     2
 10
27.507
 20
144.559731052
 30
0.0
 40
0.28
 50
270.0
 51
0.0
  0
LINE
  8
0
  6
CONTINUOUS
 62
     2
 10
27.787
 20
144.559731052
 30
0.0
 11
27.787
 21
145.224731052
 31
0.0
  0
LINE
  8
0
  6
CONTINUOUS
 62
     2
 10
27.787
 20
145.224731052
 30
0.0
 11
28.347
 21
145.224731052
 31
0.0
  0
LINE
  8
0
  6
CONTINUOUS
 62
     2
 10
28.347
 20
145.224731052
 30
0.0
 11
28.347
 21
144.559731052
 31
0.0
  0
ARC
  8
0
  6
CONTINUOUS
 62
     2
 10
28.627
 20
144.559731052
 30
0.0
 40
0.28
 50
180.0
 51
270.0
  0
LINE
  8
0
  6
CONTINUOUS
 62
     2
 10
28.627
 20
144.279731052
 30
0.0
 11
29.292
 21
144.279731052
 31
0.0
  0
LINE
  8
0
  6
CONTINUOUS
 62
     2
 10
29.292
 20
144.279731052
 30
0.0
 11
29.292
 21
143.719731052
 31
0.0
  0
LINE
  8
0
  6
CONTINUOUS
 62
     2
 10
29.292
 20
143.719731052
 30
0.0
 11
28.627
 21
143.719731052
 31
0.0
  0
ARC
  8
0
  6
CONTINUOUS
 62
     2
 10
28.627
 20
143.439731052
 30
0.0
 40
0.28
 50
90.0
 51
180.0
  0
LINE
  8
0
  6
CONTINUOUS
 62
     2
 10
28.347
 20
143.439731052
 30
0.0
 11
28.347
 21
142.774731052
 31
0.0
  0
LINE
  8
0
  6
CONTINUOUS
 62
     2
 10
28.347
 20
142.774731052
 30
0.0
 11
27.787
 21
142.774731052
 31
0.0
  0
LINE
  8
0
  6
CONTINUOUS
 62
     2
 10
27.787
 20
142.774731052
 30
0.0
 11
27.787
 21
143.439731052
 31
0.0
  0
ARC
  8
0
  6
CONTINUOUS
 62
     2
 10
27.507
 20
143.439731052
 30
0.0
 40
0.28
 50
0.0
 51
90.0
  0
LINE
  8
0
  6
CONTINUOUS
 62
     2
 10
27.507
 20
143.719731052
 30
0.0
 11
26.842
 21
143.719731052
 31
0.0
  0
LINE
  8
0
  6
CONTINUOUS
 62
     2
 10
26.842
 20
143.719731052
 30
0.0
 11
26.842
 21
144.279731052
 31
0.0
  0
LINE
  8
0
  6
LTYPE2
 62
     2
 10
25.267
 20
143.999731052
 30
0.0
 11
30.867
 21
143.999731052
 31
0.0
  0
LINE
  8
0
  6
LTYPE2
 62
     2
 10
28.067
 20
146.799731052
 30
0.0
 11
28.067
 21
141.199731052
 31
0.0
  0
CIRCLE
  8
0
  6
CONTINUOUS
 62
     2
 10
28.067
 20
143.999731052
 30
0.0
 40
2.3
  0
ARC
  8
0
  6
CONTINUOUS
 62
     2
 10
28.067000874
 20
136.999730952
 30
0.0
 40
2.0
 50
180.0
 51
0.0
  0
CIRCLE
  8
0
  6
CONTINUOUS
 62
     2
 10
28.067000874
 20
136.999730952
 30
0.0
 40
0.5
  0
LINE
  8
0
  6
CONTINUOUS
 62
     2
 10
26.842
 20
111.719731052
 30
0.0
 11
27.507
 21
111.719731052
 31
0.0
  0
ARC
  8
0
  6
CONTINUOUS
 62
     2
 10
27.507
 20
111.439731052
 30
0.0
 40
0.28
 50
0.0
 51
90.0
  0
LINE
  8
0
  6
CONTINUOUS
 62
     2
 10
27.787
 20
111.439731052
 30
0.0
 11
27.787
 21
110.774731052
 31
0.0
  0
LINE
  8
0
  6
CONTINUOUS
 62
     2
 10
27.787
 20
110.774731052
 30
0.0
 11
28.347
 21
110.774731052
 31
0.0
  0
LINE
  8
0
  6
CONTINUOUS
 62
     2
 10
28.347
 20
110.774731052
 30
0.0
 11
28.347
 21
111.439731052
 31
0.0
  0
ARC
  8
0
  6
CONTINUOUS
 62
     2
 10
28.627
 20
111.439731052
 30
0.0
 40
0.28
 50
90.0
 51
180.0
  0
LINE
  8
0
  6
CONTINUOUS
 62
     2
 10
28.627
 20
111.719731052
 30
0.0
 11
29.292
 21
111.719731052
 31
0.0
  0
LINE
  8
0
  6
CONTINUOUS
 62
     2
 10
29.292
 20
111.719731052
 30
0.0
 11
29.292
 21
112.279731052
 31
0.0
  0
LINE
  8
0
  6
CONTINUOUS
 62
     2
 10
29.292
 20
112.279731052
 30
0.0
 11
28.627
 21
112.279731052
 31
0.0
  0
ARC
  8
0
  6
CONTINUOUS
 62
     2
 10
28.627
 20
112.559731052
 30
0.0
 40
0.28
 50
180.0
 51
270.0
  0
LINE
  8
0
  6
CONTINUOUS
 62
     2
 10
28.347
 20
112.559731052
 30
0.0
 11
28.347
 21
113.224731052
 31
0.0
  0
LINE
  8
0
  6
CONTINUOUS
 62
     2
 10
28.347
 20
113.224731052
 30
0.0
 11
27.787
 21
113.224731052
 31
0.0
  0
LINE
  8
0
  6
CONTINUOUS
 62
     2
 10
27.787
 20
113.224731052
 30
0.0
 11
27.787
 21
112.559731052
 31
0.0
  0
ARC
  8
0
  6
CONTINUOUS
 62
     2
 10
27.507
 20
112.559731052
 30
0.0
 40
0.28
 50
270.0
 51
0.0
  0
LINE
  8
0
  6
CONTINUOUS
 62
     2
 10
27.507
 20
112.279731052
 30
0.0
 11
26.842
 21
112.279731052
 31
0.0
  0
LINE
  8
0
  6
CONTINUOUS
 62
     2
 10
26.842
 20
112.279731052
 30
0.0
 11
26.842
 21
111.719731052
 31
0.0
  0
LINE
  8
0
  6
LTYPE2
 62
     2
 10
25.267
 20
111.999731052
 30
0.0
 11
30.867
 21
111.999731052
 31
0.0
  0
LINE
  8
0
  6
LTYPE2
 62
     2
 10
28.067
 20
109.199731052
 30
0.0
 11
28.067
 21
114.799731052
 31
0.0
  0
CIRCLE
  8
0
  6
CONTINUOUS
 62
     2
 10
28.067
 20
111.999731052
 30
0.0
 40
2.3
  0
ARC
  8
0
  6
CONTINUOUS
 62
     2
 10
28.067000874
 20
118.999731152
 30
0.0
 40
2.0
 50
0.0
 51
180.0
  0
CIRCLE
  8
0
  6
CONTINUOUS
 62
     2
 10
28.067000874
 20
118.999731152
 30
0.0
 40
0.5
  0
LINE
  8
0
  6
CONTINUOUS
 62
     2
 10
26.067000437
 20
141.127449425
 30
0.0
 11
26.067000437
 21
136.999730952
 31
0.0
  0
LINE
  8
0
  6
CONTINUOUS
 62
     2
 10
30.067000567
 20
141.127450033
 30
0.0
 11
30.067000874
 21
136.999730952
 31
0.0
  0
ARC
  8
0
  6
CONTINUOUS
 62
     2
 10
28.067
 20
143.999731052
 30
0.0
 40
3.5
 50
304.849915039
 51
235.150104142
  0
LINE
  8
0
  6
CONTINUOUS
 62
     2
 10
26.067000437
 20
114.87201268
 30
0.0
 11
26.067000437
 21
118.999731152
 31
0.0
  0
LINE
  8
0
  6
CONTINUOUS
 62
     2
 10
30.067000567
 20
114.872012071
 30
0.0
 11
30.067000874
 21
118.999731152
 31
0.0
  0
ARC
  8
0
  6
CONTINUOUS
 62
     2
 10
28.067
 20
111.999731052
 30
0.0
 40
3.5
 50
124.849895858
 51
55.1500867
  0
POLYLINE
  8
0
  6
CONTINUOUS
 62
     1
 66
     1
  0
VERTEX
  8
0
  6
CONTINUOUS
 62
     1
 10
80.0
 20
45.0
 30
0.0
  0
VERTEX
  8
0
  6
CONTINUOUS
 62
     1
 10
136.0
 20
45.0
 30
0.0
  0
VERTEX
  8
0
  6
CONTINUOUS
 62
     1
 10
136.0
 20
62.0
 30
0.0
  0
VERTEX
  8
0
  6
CONTINUOUS
 62
     1
 10
80.0
 20
62.0
 30
0.0
  0
VERTEX
  8
0
  6
CONTINUOUS
 62
     1
 10
80.0
 20
45.0
 30
0.0
  0
SEQEND
  0
LINE
  8
0
  6
CONTINUOUS
 62
     1
 10
136.0
 20
46.0
 30
0.0
 11
151.0
 21
46.0
 31
0.0
  0
LINE
  8
0
  6
CONTINUOUS
 62
     1
 10
151.0
 20
46.0
 30
0.0
 11
151.0
 21
61.0
 31
0.0
  0
LINE
  8
0
  6
CONTINUOUS
 62
     1
 10
151.0
 20
61.0
 30
0.0
 11
136.0
 21
61.0
 31
0.0
  0
LINE
  8
0
  6
CONTINUOUS
 62
     1
 10
143.0
 20
61.0
 30
0.0
 11
143.0
 21
46.0
 31
0.0
  0
LINE
  8
0
  6
CONTINUOUS
 62
     1
 10
76.07
 20
53.5
 30
0.0
 11
75.495
 21
53.831976405
 31
0.0
  0
LINE
  8
0
  6
CONTINUOUS
 62
     1
 10
75.495
 20
53.5
 30
0.0
 11
76.07
 21
53.168023595
 31
0.0
  0
LINE
  8
0
  6
CONTINUOUS
 62
     1
 10
76.07
 20
51.315
 30
0.0
 11
75.495
 21
51.315
 31
0.0
  0
LINE
  8
0
  6
CONTINUOUS
 62
     1
 10
75.495
 20
51.315
 30
0.0
 11
75.495
 21
55.685
 31
0.0
  0
LINE
  8
0
  6
CONTINUOUS
 62
     1
 10
75.495
 20
55.685
 30
0.0
 11
76.07
 21
55.685
 31
0.0
  0
LINE
  8
0
  6
CONTINUOUS
 62
     1
 10
75.495
 20
51.4875
 30
0.0
 11
74.7475
 21
51.4875
 31
0.0
  0
ARC
  8
0
  6
CONTINUOUS
 62
     1
 10
74.7475
 20
52.235
 30
0.0
 40
0.7475
 50
180.0
 51
270.0
  0
LINE
  8
0
  6
CONTINUOUS
 62
     1
 10
74.0
 20
52.235
 30
0.0
 11
74.0
 21
53.2125
 31
0.0
  0
LINE
  8
0
  6
CONTINUOUS
 62
     1
 10
74.0
 20
53.2125
 30
0.0
 11
74.805
 21
53.2125
 31
0.0
  0
LINE
  8
0
  6
CONTINUOUS
 62
     1
 10
74.805
 20
53.2125
 30
0.0
 11
74.805
 21
53.7875
 31
0.0
  0
LINE
  8
0
  6
CONTINUOUS
 62
     1
 10
74.805
 20
53.7875
 30
0.0
 11
74.0
 21
53.7875
 31
0.0
  0
LINE
  8
0
  6
CONTINUOUS
 62
     1
 10
74.0
 20
53.7875
 30
0.0
 11
74.0
 21
54.765
 31
0.0
  0
ARC
  8
0
  6
CONTINUOUS
 62
     1
 10
74.7475
 20
54.765
 30
0.0
 40
0.7475
 50
90.0
 51
180.0
  0
LINE
  8
0
  6
CONTINUOUS
 62
     1
 10
74.7475
 20
55.5125
 30
0.0
 11
75.495
 21
55.5125
 31
0.0
  0
LINE
  8
0
  6
CONTINUOUS
 62
     1
 10
76.07
 20
51.315
 30
0.0
 11
76.07
 21
55.685
 31
0.0
  0
LINE
  8
0
  6
CONTINUOUS
 62
     2
 10
152.0
 20
61.0
 30
0.0
 11
158.0
 21
61.0
 31
0.0
  0
LINE
  8
0
  6
CONTINUOUS
 62
     2
 10
156.0
 20
61.0
 30
0.0
 11
155.352952387
 21
58.585185434
 31
0.0
  0
LINE
  8
0
  6
CONTINUOUS
 62
     2
 10
156.0
 20
61.0
 30
0.0
 11
156.647047613
 21
58.585185434
 31
0.0
  0
LINE
  8
0
  6
CONTINUOUS
 62
     2
 10
156.0
 20
61.0
 30
0.0
 11
156.0
 21
46.0
 31
0.0
  0
LINE
  8
0
  6
CONTINUOUS
 62
     2
 10
156.0
 20
46.0
 30
0.0
 11
156.647047613
 21
48.414814566
 31
0.0
  0
LINE
  8
0
  6
CONTINUOUS
 62
     2
 10
156.0
 20
46.0
 30
0.0
 11
155.352952387
 21
48.414814566
 31
0.0
  0
LINE
  8
0
  6
CONTINUOUS
 62
     2
 10
152.0
 20
46.0
 30
0.0
 11
158.0
 21
46.0
 31
0.0
  0
TEXT
  8
0
  6
CONTINUOUS
 62
     2
 10
155.0
 20
51.55
 30
0.3
 40
3.0
  1
１５
 50
90.0
 41
0.6
 51
0.0
  7
KANJI0
  0
LINE
  8
0
  6
CONTINUOUS
 62
     2
 10
76.07
 20
50.5
 30
0.0
 11
76.57
 21
50.5
 31
0.0
  0
LINE
  8
0
  6
CONTINUOUS
 62
     2
 10
76.57
 20
50.5
 30
0.0
 11
76.57
 21
56.5
 31
0.0
  0
LINE
  8
0
  6
CONTINUOUS
 62
     2
 10
76.07
 20
56.5
 30
0.0
 11
76.57
 21
56.5
 31
0.0
  0
LINE
  8
0
  6
CONTINUOUS
 62
     2
 10
76.07
 20
50.5
 30
0.0
 11
76.07
 21
56.5
 31
0.0
  0
LINE
  8
0
  6
CONTINUOUS
 62
     1
 10
80.0
 20
55.5
 30
0.0
 11
76.57
 21
55.5
 31
0.0
  0
LINE
  8
0
  6
CONTINUOUS
 62
     1
 10
80.0
 20
51.5
 30
0.0
 11
76.57
 21
51.5
 31
0.0
  0
LINE
  8
0
  6
CONTINUOUS
 62
     1
 10
103.55
 20
62.0
 30
0.0
 11
103.55
 21
62.5
 31
0.0
  0
LINE
  8
0
  6
CONTINUOUS
 62
     1
 10
108.45
 20
62.0
 30
0.0
 11
108.45
 21
62.5
 31
0.0
  0
LINE
  8
0
  6
CONTINUOUS
 62
     1
 10
103.55
 20
62.5
 30
0.0
 11
108.45
 21
62.5
 31
0.0
  0
LINE
  8
0
  6
CONTINUOUS
 62
     1
 10
103.55
 20
62.0
 30
0.0
 11
108.45
 21
62.0
 31
0.0
  0
LINE
  8
0
  6
CONTINUOUS
 62
     1
 10
106.0
 20
46.0
 30
0.0
 11
106.0
 21
61.0
 31
0.0
  0
LINE
  8
0
  6
CONTINUOUS
 62
     1
 10
109.0
 20
46.0
 30
0.0
 11
109.0
 21
61.0
 31
0.0
  0
LINE
  8
0
  6
CONTINUOUS
 62
     1
 10
106.0
 20
61.0
 30
0.0
 11
109.0
 21
61.0
 31
0.0
  0
LINE
  8
0
  6
CONTINUOUS
 62
     1
 10
106.0
 20
46.0
 30
0.0
 11
109.0
 21
46.0
 31
0.0
  0
LINE
  8
0
  6
CONTINUOUS
 62
     1
 10
109.0
 20
61.0
 30
0.0
 11
119.0
 21
62.0
 31
0.0
  0
LINE
  8
0
  6
CONTINUOUS
 62
     1
 10
109.0
 20
46.0
 30
0.0
 11
119.0
 21
45.0
 31
0.0
  0
LINE
  8
0
  6
CONTINUOUS
 62
     1
 10
109.0
 20
56.5
 30
0.0
 11
119.0
 21
57.0
 31
0.0
  0
LINE
  8
0
  6
CONTINUOUS
 62
     1
 10
109.0
 20
50.5
 30
0.0
 11
119.0
 21
50.0
 31
0.0
  0
LINE
  8
0
  6
CONTINUOUS
 62
     1
 10
119.0
 20
57.0
 30
0.0
 11
128.0
 21
57.0
 31
0.0
  0
LINE
  8
0
  6
CONTINUOUS
 62
     1
 10
129.0
 20
62.0
 30
0.0
 11
129.0
 21
58.0
 31
0.0
  0
ARC
  8
0
  6
CONTINUOUS
 62
     1
 10
128.0
 20
58.0
 30
0.0
 40
1.0
 50
270.0
 51
0.0
  0
LINE
  8
0
  6
CONTINUOUS
 62
     1
 10
119.0
 20
50.0
 30
0.0
 11
128.0
 21
50.0
 31
0.0
  0
LINE
  8
0
  6
CONTINUOUS
 62
     1
 10
129.0
 20
49.0
 30
0.0
 11
129.0
 21
45.0
 31
0.0
  0
ARC
  8
0
  6
CONTINUOUS
 62
     1
 10
128.0
 20
49.0
 30
0.0
 40
1.0
 50
0.0
 51
90.0
  0
LINE
  8
0
  6
CONTINUOUS
 62
     2
 10
79.0
 20
62.0
 30
0.0
 11
60.287
 21
62.0
 31
0.0
  0
LINE
  8
0
  6
CONTINUOUS
 62
     2
 10
62.287
 20
62.0
 30
0.0
 11
61.639952387
 21
59.585185434
 31
0.0
  0
LINE
  8
0
  6
CONTINUOUS
 62
     2
 10
62.287
 20
62.0
 30
0.0
 11
62.934047613
 21
59.585185434
 31
0.0
  0
LINE
  8
0
  6
CONTINUOUS
 62
     2
 10
62.287
 20
62.0
 30
0.0
 11
62.287
 21
45.0
 31
0.0
  0
LINE
  8
0
  6
CONTINUOUS
 62
     2
 10
62.287
 20
45.0
 30
0.0
 11
62.934047613
 21
47.414814566
 31
0.0
  0
LINE
  8
0
  6
CONTINUOUS
 62
     2
 10
62.287
 20
45.0
 30
0.0
 11
61.639952387
 21
47.414814566
 31
0.0
  0
LINE
  8
0
  6
CONTINUOUS
 62
     2
 10
79.0
 20
45.0
 30
0.0
 11
60.287
 21
45.0
 31
0.0
  0
TEXT
  8
0
  6
CONTINUOUS
 62
     2
 10
61.287
 20
51.55
 30
0.3
 40
3.0
  1
１７
 50
90.0
 41
0.6
 51
0.0
  7
KANJI0
  0
LINE
  8
0
  6
CONTINUOUS
 62
     2
 10
75.495
 20
53.831976405
 30
0.0
 11
73.936341524
 21
51.877345044
 31
0.0
  0
LINE
  8
0
  6
CONTINUOUS
 62
     2
 10
75.495
 20
53.831976405
 30
0.0
 11
75.122477844
 21
51.359886754
 31
0.0
  0
LINE
  8
0
  6
CONTINUOUS
 62
     2
 10
75.495
 20
53.831976405
 30
0.0
 11
68.025
 21
36.708976405
 31
0.0
  0
LINE
  8
0
  6
CONTINUOUS
 62
     2
 10
68.025
 20
36.708976405
 30
0.0
 11
36.675
 21
36.708976405
 31
0.0
  0
TEXT
  8
0
  6
CONTINUOUS
 62
     2
 10
36.675
 20
37.708976405
 30
0.3
 40
3.0
  1
Ｍ２．３ターミナルネジ
 50
0.0
 41
0.9
 51
0.0
  7
KANJI3
  0
LINE
  8
0
  6
CONTINUOUS
 62
     2
 10
17.4
 20
69.0
 30
0.0
 11
34.6
 21
69.0
 31
0.0
  0
LINE
  8
0
  6
CONTINUOUS
 62
     2
 10
17.4
 20
69.0
 30
0.0
 11
19.814814566
 21
68.352952387
 31
0.0
  0
LINE
  8
0
  6
CONTINUOUS
 62
     2
 10
17.4
 20
69.0
 30
0.0
 11
19.814814566
 21
69.647047613
 31
0.0
  0
LINE
  8
0
  6
CONTINUOUS
 62
     2
 10
34.6
 20
69.0
 30
0.0
 11
32.185185434
 21
69.647047613
 31
0.0
  0
LINE
  8
0
  6
CONTINUOUS
 62
     2
 10
34.6
 20
69.0
 30
0.0
 11
32.185185434
 21
68.352952387
 31
0.0
  0
TEXT
  8
0
  6
CONTINUOUS
 62
     2
 10
19.52
 20
70.0
 30
0.3
 40
3.0
  1
１７．２
 50
0.0
 41
0.6
 51
0.0
  7
KANJI0
  0
TEXT
  8
0
  6
CONTINUOUS
 62
     2
 10
28.07
 20
71.8
 30
0.18
 40
1.8
  1
＋０．３
 50
0.0
 41
0.6
 51
0.0
  7
KANJI4
  0
LINE
  8
0
  6
CONTINUOUS
 62
     1
 10
34.6
 20
77.15
 30
0.0
 11
17.4
 21
77.15
 31
0.0
  0
LINE
  8
0
  6
CONTINUOUS
 62
     1
 10
17.4
 20
28.85
 30
0.0
 11
34.6
 21
28.85
 31
0.0
  0
LINE
  8
0
  6
CONTINUOUS
 62
     1
 10
17.4
 20
77.15
 30
0.0
 11
17.4
 21
28.85
 31
0.0
  0
LINE
  8
0
  6
CONTINUOUS
 62
     1
 10
34.6
 20
28.85
 30
0.0
 11
34.6
 21
77.15
 31
0.0
  0
LINE
  8
0
  6
CONTINUOUS
 62
     2
 10
23.25
 20
77.15
 30
0.0
 11
22.602952387
 21
74.735185434
 31
0.0
  0
LINE
  8
0
  6
CONTINUOUS
 62
     2
 10
23.25
 20
77.15
 30
0.0
 11
23.897047613
 21
74.735185434
 31
0.0
  0
LINE
  8
0
  6
CONTINUOUS
 62
     2
 10
23.25
 20
28.85
 30
0.0
 11
23.897047613
 21
31.264814566
 31
0.0
  0
LINE
  8
0
  6
CONTINUOUS
 62
     2
 10
23.25
 20
28.85
 30
0.0
 11
22.602952387
 21
31.264814566
 31
0.0
  0
TEXT
  8
0
  6
CONTINUOUS
 62
     2
 10
20.45
 20
55.07
 30
0.18
 40
1.8
  1
＋０．３
 50
90.0
 41
0.6
 51
0.0
  7
KANJI4
  0
TEXT
  8
0
  6
CONTINUOUS
 62
     2
 10
22.25
 20
46.52
 30
0.3
 40
3.0
  1
４８．３
 50
90.0
 41
0.6
 51
0.0
  7
KANJI0
  0
LINE
  8
0
  6
CONTINUOUS
 62
     2
 10
106.0
 20
161.948237973
 30
0.0
 11
106.0
 21
172.999731052
 31
0.0
  0
LINE
  8
0
  6
CONTINUOUS
 62
     2
 10
106.0
 20
161.948237973
 30
0.0
 11
106.0
 21
172.999731052
 31
0.0
  0
LINE
  8
0
  6
CONTINUOUS
 62
     2
 10
78.33
 20
24.768
 30
0.0
 11
107.33
 21
24.768
 31
0.0
  0
TEXT
  8
0
  6
CONTINUOUS
 62
     2
 10
79.33
 20
25.768
 30
0.4
 40
4.0
  1
質量：約６０ｇ
 50
0.0
 41
0.9
 51
0.0
  7
KANJI1
  0
TEXT
  8
0
  6
CONTINUOUS
 62
     2
 10
159.883
 20
37.739
 30
0.3
 40
3.0
  1
計器の取り付け方
 50
0.0
 41
0.866666667
 51
0.0
  7
KANJI5
  0
TEXT
  8
0
  6
CONTINUOUS
 62
     2
 10
159.682
 20
31.369
 30
0.3
 40
3.0
  1
パネルカット後，パネル前面から計器をはめ込む。
 50
0.0
 41
0.866666667
 51
0.0
  7
KANJI5
  0
TEXT
  8
0
  6
CONTINUOUS
 62
     2
 10
159.682
 20
26.683
 30
0.3
 40
3.0
  1
ただし計器に大きな衝撃を加えないよう，
 50
0.0
 41
0.866666667
 51
0.0
  7
KANJI5
  0
TEXT
  8
0
  6
CONTINUOUS
 62
     2
 10
159.682
 20
21.551
 30
0.3
 40
3.0
  1
ていねいに行ってください。
 50
0.0
 41
0.866666667
 51
0.0
  7
KANJI5
  0
LINE
  8
0
  6
CONTINUOUS
 62
     2
 10
32.45
 20
144.056731052
 30
0.0
 11
34.012
 21
144.056731052
 31
0.0
  0
LINE
  8
0
  6
CONTINUOUS
 62
     2
 10
33.231
 20
143.275731052
 30
0.0
 11
33.231
 21
144.837731052
 31
0.0
  0
TEXT
  8
0
  6
CONTINUOUS
 62
     2
 10
171.568
 20
67.494
 30
0.3
 40
3.0
  1
注）目盛は一例を示します。
 50
0.0
 41
0.9
 51
0.0
  7
KANJI3
  0
LINE
  8
0
  6
CONTINUOUS
 62
     2
 10
171.568
 20
66.494
 30
0.0
 11
208.568
 21
66.494
 31
0.0
  0
TEXT
  8
0
  6
CONTINUOUS
 62
     2
 10
162.467
 20
80.0
 30
0.3
 40
3.0
  1
（□Ｅｆ－５４ｓＴＭ）
 50
0.0
 41
0.9
 51
0.0
  7
KANJI3
  0
TEXT
  8
0
  6
CONTINUOUS
 62
     2
 10
197.94
 20
80.0
 30
0.3
 40
3.0
  1
（□Ｅｆ－５４ｓＹＭ）
 50
0.0
 41
0.9
 51
0.0
  7
KANJI3
  0
TEXT
  8
0
  6
CONTINUOUS
 62
     1
 10
239.0
 20
21.0
 30
0.4
 40
4.0
  1
計器外形図
 50
0.0
 41
0.9
 51
0.0
  7
KANJI1
  0
TEXT
  8
0
  6
CONTINUOUS
 62
     2
 10
235.0
 20
31.0
 30
0.3
 40
3.0
  1
取付板バネ付
 50
0.0
 41
0.9
 51
0.0
  7
KANJI3
  0
TEXT
  8
0
  6
CONTINUOUS
 62
     1
 10
235.0
 20
35.0
 30
0.4
 40
4.0
  1
□Ｅｆ－５４ｓ□Ｍ
 50
0.0
 41
0.9
 51
0.0
  7
KANJI1
  0
LINE
  8
0
  6
LTYPE1
 62
     2
 10
18.0
 20
127.999731052
 30
0.0
 11
38.567
 21
127.999731052
 31
0.0
  0
LINE
  8
0
  6
LTYPE3
 62
     2
 10
28.067
 20
157.0
 30
0.0
 11
28.067
 21
98.0
 31
0.0
  0
TEXT
  8
0
  6
CONTINUOUS
 62
     2
 10
89.392241503
 20
158.231237973
 30
0.3
 40
3.0
  1
零位調整器
 50
0.0
 41
0.9
 51
0.0
  7
KANJI3
  0
TEXT
  8
0
  6
CONTINUOUS
 62
     2
 10
89.392241503
 20
161.831237973
 30
0.3
 40
3.0
  1
機械的
 50
0.0
 41
0.9
 51
0.0
  7
KANJI3
  0
LINE
  8
0
  6
CONTINUOUS
 62
     2
 10
104.6
 20
157.231237973
 30
0.0
 11
89.117519707
 21
157.231237973
 31
0.0
  0
LINE
  8
0
  6
CONTINUOUS
 62
     2
 10
106.0
 20
128.999731052
 30
0.0
 11
106.0
 21
156.057731052
 31
0.0
  0
LINE
  8
0
  6
CONTINUOUS
 62
     2
 10
106.0
 20
151.999731052
 30
0.0
 11
106.0
 21
161.948237973
 31
0.0
  0
LINE
  8
0
  6
LTYPE1
 62
     2
 10
77.2
 20
127.999731052
 30
0.0
 11
154.0
 21
127.999731052
 31
0.0
  0
LINE
  8
0
  6
LTYPE1
 62
     2
 10
161.8
 20
127.999731052
 30
0.0
 11
182.0
 21
127.999731052
 31
0.0
  0
LINE
  8
0
  6
LTYPE1
 62
     2
 10
207.5
 20
158.748237973
 30
0.0
 11
207.5
 21
96.648237973
 31
0.0
  0
LINE
  8
0
  6
LTYPE1
 62
     2
 10
172.5
 20
158.748237973
 30
0.0
 11
172.5
 21
97.048237973
 31
0.0
  0
LINE
  8
0
  6
LTYPE1
 62
     2
 10
151.7
 20
53.5
 30
0.0
 11
72.3
 21
53.5
 31
0.0
  0
LINE
  8
0
  6
CONTINUOUS
 62
     2
 10
23.25
 20
63.448237973
 30
0.0
 11
23.25
 21
28.85
 31
0.0
  0
LINE
  8
0
  6
CONTINUOUS
 62
     2
 10
23.25
 20
77.15
 30
0.0
 11
23.25
 21
73.648237973
 31
0.0
  0
LINE
  8
0
  6
LTYPE1
 62
     2
 10
26.0
 20
64.448237973
 30
0.0
 11
26.0
 21
26.648237973
 31
0.0
  0
LINE
  8
0
  6
LTYPE1
 62
     2
 10
26.0
 20
79.848237973
 30
0.0
 11
26.0
 21
74.248237973
 31
0.0
  0
LINE
  8
0
  6
LTYPE1
 62
     2
 10
216.0
 20
127.999731052
 30
0.0
 11
218.0
 21
127.999731052
 31
0.0
  0
LINE
  8
0
  6
LTYPE1
 62
     2
 10
194.0
 20
127.999731052
 30
0.0
 11
210.6
 21
127.999731052
 31
0.0
  0
ENDSEC
  0
EOF
