  0
SECTION
  2
HEADER
  9
$ACADVER
  1
AC1009
  9
$DWGCODEPAGE
  3
dos932
  9
$EXTMIN
 10
0.0
 20
0.0
 30
0.0
  9
$EXTMAX
 10
297.0
 20
210.0
 30
0.0
  9
$LIMMIN
 10
0.0
 20
0.0
  9
$LIMMAX
 10
297.0
 20
210.0
  9
$LTSCALE
 40
1.0
  9
$PDMODE
 70
     0
  0
ENDSEC
  0
SECTION
  2
TABLES
  0
TABLE
  2
VPORT
 70
     1
  0
VPORT
  2
*ACTIVE
 70
     0
 10
0.0
 20
0.0
 11
1.0
 21
1.0
 12
148.5
 22
105.0
 13
0.0
 23
0.0
 14
10.0
 24
10.0
 15
10.0
 25
10.0
 16
0.0
 26
0.0
 36
1.0
 17
0.0
 27
0.0
 37
0.0
 40
297.0
 41
1.414285714
 42
50.0
 43
0.0
 44
0.0
 50
0.0
 51
0.0
 71
     0
 72
  1000
 73
     1
 74
     3
 75
     0
 76
     0
 77
     0
 78
     0
  0
ENDTAB
  0
TABLE
  2
LTYPE
 70
     3
  0
LTYPE
  2
CONTINUOUS
 70
    64
  3
Solid line
 72
    65
 73
     0
 40
0.0
  0
LTYPE
  2
LTYPE1
 70
    64
  3
CENTER
 72
    65
 73
     4
 40
5.0
 49
3.5
 49
-0.5
 49
0.5
 49
-0.5
  0
LTYPE
  2
LTYPE2
 70
    64
  3
HIDDEN
 72
    65
 73
     2
 40
1.0
 49
0.6
 49
-0.4
  0
ENDTAB
  0
TABLE
  2
LAYER
 70
   128
  0
LAYER
  2
0
 70
     0
 62
     7
  6
CONTINUOUS
  0
LAYER
  2
2
 70
     0
 62
     7
  6
CONTINUOUS
  0
LAYER
  2
3
 70
     0
 62
     7
  6
CONTINUOUS
  0
LAYER
  2
4
 70
     0
 62
     7
  6
CONTINUOUS
  0
LAYER
  2
5
 70
     0
 62
     7
  6
CONTINUOUS
  0
LAYER
  2
6
 70
     0
 62
     7
  6
CONTINUOUS
  0
LAYER
  2
7
 70
     0
 62
     7
  6
CONTINUOUS
  0
LAYER
  2
8
 70
     0
 62
     7
  6
CONTINUOUS
  0
LAYER
  2
9
 70
     0
 62
     7
  6
CONTINUOUS
  0
LAYER
  2
10
 70
     0
 62
     7
  6
CONTINUOUS
  0
LAYER
  2
11
 70
     0
 62
     7
  6
CONTINUOUS
  0
LAYER
  2
12
 70
     0
 62
     7
  6
CONTINUOUS
  0
LAYER
  2
13
 70
     0
 62
     7
  6
CONTINUOUS
  0
LAYER
  2
14
 70
     0
 62
     7
  6
CONTINUOUS
  0
LAYER
  2
15
 70
     0
 62
     7
  6
CONTINUOUS
  0
LAYER
  2
16
 70
     0
 62
     7
  6
CONTINUOUS
  0
LAYER
  2
17
 70
     0
 62
     7
  6
CONTINUOUS
  0
LAYER
  2
18
 70
     0
 62
     7
  6
CONTINUOUS
  0
LAYER
  2
19
 70
     0
 62
     7
  6
CONTINUOUS
  0
LAYER
  2
20
 70
     0
 62
     7
  6
CONTINUOUS
  0
LAYER
  2
21
 70
     0
 62
     7
  6
CONTINUOUS
  0
LAYER
  2
22
 70
     0
 62
     7
  6
CONTINUOUS
  0
LAYER
  2
23
 70
     0
 62
     7
  6
CONTINUOUS
  0
LAYER
  2
24
 70
     0
 62
     7
  6
CONTINUOUS
  0
LAYER
  2
25
 70
     0
 62
     7
  6
CONTINUOUS
  0
LAYER
  2
26
 70
     0
 62
     7
  6
CONTINUOUS
  0
LAYER
  2
27
 70
     0
 62
     7
  6
CONTINUOUS
  0
LAYER
  2
28
 70
     0
 62
     7
  6
CONTINUOUS
  0
LAYER
  2
29
 70
     0
 62
     7
  6
CONTINUOUS
  0
LAYER
  2
30
 70
     0
 62
     7
  6
CONTINUOUS
  0
LAYER
  2
31
 70
     0
 62
     7
  6
CONTINUOUS
  0
LAYER
  2
32
 70
     0
 62
     7
  6
CONTINUOUS
  0
LAYER
  2
33
 70
     0
 62
     7
  6
CONTINUOUS
  0
LAYER
  2
34
 70
     0
 62
     7
  6
CONTINUOUS
  0
LAYER
  2
35
 70
     0
 62
     7
  6
CONTINUOUS
  0
LAYER
  2
36
 70
     0
 62
     7
  6
CONTINUOUS
  0
LAYER
  2
37
 70
     0
 62
     7
  6
CONTINUOUS
  0
LAYER
  2
38
 70
     0
 62
     7
  6
CONTINUOUS
  0
LAYER
  2
39
 70
     0
 62
     7
  6
CONTINUOUS
  0
LAYER
  2
40
 70
     0
 62
     7
  6
CONTINUOUS
  0
LAYER
  2
41
 70
     0
 62
     7
  6
CONTINUOUS
  0
LAYER
  2
42
 70
     0
 62
     7
  6
CONTINUOUS
  0
LAYER
  2
43
 70
     0
 62
     7
  6
CONTINUOUS
  0
LAYER
  2
44
 70
     0
 62
     7
  6
CONTINUOUS
  0
LAYER
  2
45
 70
     0
 62
     7
  6
CONTINUOUS
  0
LAYER
  2
46
 70
     0
 62
     7
  6
CONTINUOUS
  0
LAYER
  2
47
 70
     0
 62
     7
  6
CONTINUOUS
  0
LAYER
  2
48
 70
     0
 62
     7
  6
CONTINUOUS
  0
LAYER
  2
49
 70
     0
 62
     7
  6
CONTINUOUS
  0
LAYER
  2
50
 70
     0
 62
     7
  6
CONTINUOUS
  0
LAYER
  2
51
 70
     0
 62
     7
  6
CONTINUOUS
  0
LAYER
  2
52
 70
     0
 62
     7
  6
CONTINUOUS
  0
LAYER
  2
53
 70
     0
 62
     7
  6
CONTINUOUS
  0
LAYER
  2
54
 70
     0
 62
     7
  6
CONTINUOUS
  0
LAYER
  2
55
 70
     0
 62
     7
  6
CONTINUOUS
  0
LAYER
  2
56
 70
     0
 62
     7
  6
CONTINUOUS
  0
LAYER
  2
57
 70
     0
 62
     7
  6
CONTINUOUS
  0
LAYER
  2
58
 70
     0
 62
     7
  6
CONTINUOUS
  0
LAYER
  2
59
 70
     0
 62
     7
  6
CONTINUOUS
  0
LAYER
  2
60
 70
     0
 62
     7
  6
CONTINUOUS
  0
LAYER
  2
61
 70
     0
 62
     7
  6
CONTINUOUS
  0
LAYER
  2
62
 70
     0
 62
     7
  6
CONTINUOUS
  0
LAYER
  2
63
 70
     0
 62
     7
  6
CONTINUOUS
  0
LAYER
  2
64
 70
     0
 62
     7
  6
CONTINUOUS
  0
LAYER
  2
65
 70
     0
 62
     7
  6
CONTINUOUS
  0
LAYER
  2
66
 70
     0
 62
     7
  6
CONTINUOUS
  0
LAYER
  2
67
 70
     0
 62
     7
  6
CONTINUOUS
  0
LAYER
  2
68
 70
     0
 62
     7
  6
CONTINUOUS
  0
LAYER
  2
69
 70
     0
 62
     7
  6
CONTINUOUS
  0
LAYER
  2
70
 70
     0
 62
     7
  6
CONTINUOUS
  0
LAYER
  2
71
 70
     0
 62
     7
  6
CONTINUOUS
  0
LAYER
  2
72
 70
     0
 62
     7
  6
CONTINUOUS
  0
LAYER
  2
73
 70
     0
 62
     7
  6
CONTINUOUS
  0
LAYER
  2
74
 70
     0
 62
     7
  6
CONTINUOUS
  0
LAYER
  2
75
 70
     0
 62
     7
  6
CONTINUOUS
  0
LAYER
  2
76
 70
     0
 62
     7
  6
CONTINUOUS
  0
LAYER
  2
77
 70
     0
 62
     7
  6
CONTINUOUS
  0
LAYER
  2
78
 70
     0
 62
     7
  6
CONTINUOUS
  0
LAYER
  2
79
 70
     0
 62
     7
  6
CONTINUOUS
  0
LAYER
  2
80
 70
     0
 62
     7
  6
CONTINUOUS
  0
LAYER
  2
81
 70
     0
 62
     7
  6
CONTINUOUS
  0
LAYER
  2
82
 70
     0
 62
     7
  6
CONTINUOUS
  0
LAYER
  2
83
 70
     0
 62
     7
  6
CONTINUOUS
  0
LAYER
  2
84
 70
     0
 62
     7
  6
CONTINUOUS
  0
LAYER
  2
85
 70
     0
 62
     7
  6
CONTINUOUS
  0
LAYER
  2
86
 70
     0
 62
     7
  6
CONTINUOUS
  0
LAYER
  2
87
 70
     0
 62
     7
  6
CONTINUOUS
  0
LAYER
  2
88
 70
     0
 62
     7
  6
CONTINUOUS
  0
LAYER
  2
89
 70
     0
 62
     7
  6
CONTINUOUS
  0
LAYER
  2
90
 70
     0
 62
     7
  6
CONTINUOUS
  0
LAYER
  2
91
 70
     0
 62
     7
  6
CONTINUOUS
  0
LAYER
  2
92
 70
     0
 62
     7
  6
CONTINUOUS
  0
LAYER
  2
93
 70
     0
 62
     7
  6
CONTINUOUS
  0
LAYER
  2
94
 70
     0
 62
     7
  6
CONTINUOUS
  0
LAYER
  2
95
 70
     0
 62
     7
  6
CONTINUOUS
  0
LAYER
  2
96
 70
     0
 62
     7
  6
CONTINUOUS
  0
LAYER
  2
97
 70
     0
 62
     7
  6
CONTINUOUS
  0
LAYER
  2
98
 70
     0
 62
     7
  6
CONTINUOUS
  0
LAYER
  2
99
 70
     0
 62
     7
  6
CONTINUOUS
  0
LAYER
  2
100
 70
     0
 62
     7
  6
CONTINUOUS
  0
LAYER
  2
101
 70
     0
 62
     7
  6
CONTINUOUS
  0
LAYER
  2
102
 70
     0
 62
     7
  6
CONTINUOUS
  0
LAYER
  2
103
 70
     0
 62
     7
  6
CONTINUOUS
  0
LAYER
  2
104
 70
     0
 62
     7
  6
CONTINUOUS
  0
LAYER
  2
105
 70
     0
 62
     7
  6
CONTINUOUS
  0
LAYER
  2
106
 70
     0
 62
     7
  6
CONTINUOUS
  0
LAYER
  2
107
 70
     0
 62
     7
  6
CONTINUOUS
  0
LAYER
  2
108
 70
     0
 62
     7
  6
CONTINUOUS
  0
LAYER
  2
109
 70
     0
 62
     7
  6
CONTINUOUS
  0
LAYER
  2
110
 70
     0
 62
     7
  6
CONTINUOUS
  0
LAYER
  2
111
 70
     0
 62
     7
  6
CONTINUOUS
  0
LAYER
  2
112
 70
     0
 62
     7
  6
CONTINUOUS
  0
LAYER
  2
113
 70
     0
 62
     7
  6
CONTINUOUS
  0
LAYER
  2
114
 70
     0
 62
     7
  6
CONTINUOUS
  0
LAYER
  2
115
 70
     0
 62
     7
  6
CONTINUOUS
  0
LAYER
  2
116
 70
     0
 62
     7
  6
CONTINUOUS
  0
LAYER
  2
117
 70
     0
 62
     7
  6
CONTINUOUS
  0
LAYER
  2
118
 70
     0
 62
     7
  6
CONTINUOUS
  0
LAYER
  2
119
 70
     0
 62
     7
  6
CONTINUOUS
  0
LAYER
  2
120
 70
     0
 62
     7
  6
CONTINUOUS
  0
LAYER
  2
121
 70
     0
 62
     7
  6
CONTINUOUS
  0
LAYER
  2
122
 70
     0
 62
     7
  6
CONTINUOUS
  0
LAYER
  2
123
 70
     0
 62
     7
  6
CONTINUOUS
  0
LAYER
  2
124
 70
     0
 62
     7
  6
CONTINUOUS
  0
LAYER
  2
125
 70
     0
 62
     7
  6
CONTINUOUS
  0
LAYER
  2
126
 70
     0
 62
     7
  6
CONTINUOUS
  0
LAYER
  2
127
 70
     0
 62
     7
  6
CONTINUOUS
  0
LAYER
  2
128
 70
     0
 62
     7
  6
CONTINUOUS
  0
ENDTAB
  0
TABLE
  2
STYLE
 70
     9
  0
STYLE
  2
STANDARD
 70
     0
 40
0.0
 41
1.0
 50
0.0
 71
     0
 42
0.2
  3
txt.shx
  4
extfont.shx
  0
STYLE
  2
KANJI0
 70
     0
 40
2.5
 41
0.6
 50
0.0
 71
     0
 42
2.5
  3
txt.shx
  4
extfont.shx
  0
STYLE
  2
KANJI1
 70
     0
 40
2.0
 41
0.5
 50
0.0
 71
     0
 42
2.0
  3
txt.shx
  4
extfont.shx
  0
STYLE
  2
KANJI2
 70
     0
 40
1.5
 41
0.666666667
 50
0.0
 71
     0
 42
1.5
  3
txt.shx
  4
extfont.shx
  0
STYLE
  2
KANJI3
 70
     0
 40
1.8
 41
0.6
 50
0.0
 71
     0
 42
1.8
  3
txt.shx
  4
extfont.shx
  0
STYLE
  2
KANJI4
 70
     0
 40
3.0
 41
0.6
 50
0.0
 71
     0
 42
3.0
  3
txt.shx
  4
extfont.shx
  0
STYLE
  2
KANJI5
 70
     0
 40
3.0
 41
0.9
 50
0.0
 71
     0
 42
3.0
  3
txt.shx
  4
extfont.shx
  0
STYLE
  2
KANJI6
 70
     0
 40
6.0
 41
0.9
 50
0.0
 71
     0
 42
6.0
  3
txt.shx
  4
extfont.shx
  0
STYLE
  2
KANJI7
 70
     0
 40
4.0
 41
0.9
 50
0.0
 71
     0
 42
4.0
  3
txt.shx
  4
extfont.shx
  0
ENDTAB
  0
TABLE
  2
VIEW
 70
     0
  0
ENDTAB
  0
ENDSEC
  0
SECTION
  2
BLOCKS
  0
ENDSEC
  0
SECTION
  2
ENTITIES
  0
ARC
  8
0
  6
CONTINUOUS
 62
     1
 10
246.7
 20
223.3
 30
0.0
 40
1.7
 50
90.0
 51
180.0
  0
LINE
  8
0
  6
CONTINUOUS
 62
     1
 10
246.7
 20
225.0
 30
0.0
 11
293.3
 21
225.0
 31
0.0
  0
ARC
  8
0
  6
CONTINUOUS
 62
     1
 10
293.3
 20
223.3
 30
0.0
 40
1.7
 50
0.0
 51
90.0
  0
ARC
  8
0
  6
CONTINUOUS
 62
     1
 10
246.7
 20
223.3
 30
0.0
 40
0.9
 50
90.0
 51
180.0
  0
LINE
  8
0
  6
CONTINUOUS
 62
     1
 10
246.7
 20
224.2
 30
0.0
 11
293.3
 21
224.2
 31
0.0
  0
ARC
  8
0
  6
CONTINUOUS
 62
     1
 10
293.3
 20
223.3
 30
0.0
 40
0.9
 50
0.0
 51
90.0
  0
TEXT
  8
0
  6
CONTINUOUS
 62
     1
 10
247.5
 20
220.5
 30
0.3
 40
2.5
  1
ＣＯＮＮＥＣＴＩＯＮＳ　ＯＦ　ＴＡＣＨＯ－ＭＥＴＥＲ
 50
0.0
 41
0.6
 51
0.0
  7
KANJI0
  0
CIRCLE
  8
0
  6
CONTINUOUS
 62
     1
 10
273.3
 20
214.0
 30
0.0
 40
1.5
  0
CIRCLE
  8
0
  6
CONTINUOUS
 62
     1
 10
269.9
 20
214.0
 30
0.0
 40
1.5
  0
CIRCLE
  8
0
  6
CONTINUOUS
 62
     1
 10
276.7
 20
214.0
 30
0.0
 40
1.5
  0
CIRCLE
  8
0
  6
CONTINUOUS
 62
     1
 10
280.1
 20
214.0
 30
0.0
 40
1.5
  0
LINE
  8
0
  6
CONTINUOUS
 62
     1
 10
255.0
 20
214.0
 30
0.0
 11
255.0
 21
217.6
 31
0.0
  0
LINE
  8
0
  6
CONTINUOUS
 62
     1
 10
255.0
 20
217.6
 30
0.0
 11
256.5
 21
217.6
 31
0.0
  0
LINE
  8
0
  6
CONTINUOUS
 62
     1
 10
256.5
 20
217.6
 30
0.0
 11
256.5
 21
214.0
 31
0.0
  0
LINE
  8
0
  6
CONTINUOUS
 62
     1
 10
256.5
 20
214.0
 30
0.0
 11
255.0
 21
214.0
 31
0.0
  0
LINE
  8
0
  6
CONTINUOUS
 62
     1
 10
255.0
 20
217.0
 30
0.0
 11
252.0
 21
217.0
 31
0.0
  0
LINE
  8
0
  6
CONTINUOUS
 62
     1
 10
252.0
 20
217.0
 30
0.0
 11
252.0
 21
214.6
 31
0.0
  0
LINE
  8
0
  6
CONTINUOUS
 62
     1
 10
252.0
 20
214.6
 30
0.0
 11
255.0
 21
214.6
 31
0.0
  0
LINE
  8
0
  6
CONTINUOUS
 62
     1
 10
256.5
 20
214.6
 30
0.0
 11
259.5
 21
214.6
 31
0.0
  0
LINE
  8
0
  6
CONTINUOUS
 62
     1
 10
259.5
 20
214.6
 30
0.0
 11
259.5
 21
217.0
 31
0.0
  0
LINE
  8
0
  6
CONTINUOUS
 62
     1
 10
259.5
 20
217.0
 30
0.0
 11
256.5
 21
217.0
 31
0.0
  0
LINE
  8
0
  6
CONTINUOUS
 62
     1
 10
259.5
 20
217.0
 30
0.0
 11
259.8
 21
216.7
 31
0.0
  0
LINE
  8
0
  6
CONTINUOUS
 62
     1
 10
259.8
 20
216.7
 30
0.0
 11
259.8
 21
214.9
 31
0.0
  0
LINE
  8
0
  6
CONTINUOUS
 62
     1
 10
259.8
 20
214.9
 30
0.0
 11
259.5
 21
214.6
 31
0.0
  0
LINE
  8
0
  6
CONTINUOUS
 62
     1
 10
252.0
 20
214.6
 30
0.0
 11
251.7
 21
214.9
 31
0.0
  0
LINE
  8
0
  6
CONTINUOUS
 62
     1
 10
251.7
 20
214.9
 30
0.0
 11
251.7
 21
216.7
 31
0.0
  0
LINE
  8
0
  6
CONTINUOUS
 62
     1
 10
251.7
 20
216.7
 30
0.0
 11
252.0
 21
217.0
 31
0.0
  0
LINE
  8
0
  6
CONTINUOUS
 62
     1
 10
259.8
 20
216.2
 30
0.0
 11
273.3
 21
216.2
 31
0.0
  0
LINE
  8
0
  6
CONTINUOUS
 62
     1
 10
273.3
 20
216.2
 30
0.0
 11
273.3
 21
215.5
 31
0.0
  0
LINE
  8
0
  6
CONTINUOUS
 62
     1
 10
269.9
 20
215.5
 30
0.0
 11
269.9
 21
215.6
 31
0.0
  0
LINE
  8
0
  6
CONTINUOUS
 62
     1
 10
269.9
 20
215.6
 30
0.0
 11
259.8
 21
215.6
 31
0.0
  0
TEXT
  8
0
  6
CONTINUOUS
 62
     1
 10
247.5
 20
212.0
 30
0.2
 40
2.0
  1
ＴＹＰＥ　ＴＮ－１／ＴＮ－２　　　　　　　　　　　　
 50
0.0
 41
0.5
 51
0.0
  7
KANJI1
  0
TEXT
  8
0
  6
CONTINUOUS
 62
     1
 10
269.5
 20
213.2
 30
0.2
 40
2.0
  1
１　　　　　　　　　　　　　　　　　　　　　　　　　
 50
0.0
 41
0.5
 51
0.0
  7
KANJI1
  0
TEXT
  8
0
  6
CONTINUOUS
 62
     1
 10
272.9
 20
213.2
 30
0.2
 40
2.0
  1
２　　　　　　　　　　　　　　　　　　　　　　　　　
 50
0.0
 41
0.5
 51
0.0
  7
KANJI1
  0
TEXT
  8
0
  6
CONTINUOUS
 62
     1
 10
276.2
 20
213.2
 30
0.2
 40
2.0
  1
３　　　　　　　　　　　　　　　　　　　　　　　　　
 50
0.0
 41
0.5
 51
0.0
  7
KANJI1
  0
TEXT
  8
0
  6
CONTINUOUS
 62
     1
 10
279.6
 20
213.2
 30
0.2
 40
2.0
  1
４　　　　　　　　　　　　　　　　　　　　　　　　　
 50
0.0
 41
0.5
 51
0.0
  7
KANJI1
  0
TEXT
  8
0
  6
CONTINUOUS
 62
     1
 10
271.1
 20
210.2
 30
0.2
 40
2.0
  1
５　　　　　　　　　　　　　　　　　　　　　　　　　
 50
0.0
 41
0.5
 51
0.0
  7
KANJI1
  0
TEXT
  8
0
  6
CONTINUOUS
 62
     1
 10
274.5
 20
210.2
 30
0.2
 40
2.0
  1
６　　　　　　　　　　　　　　　　　　　　　　　　　
 50
0.0
 41
0.5
 51
0.0
  7
KANJI1
  0
TEXT
  8
0
  6
CONTINUOUS
 62
     1
 10
277.9
 20
210.2
 30
0.2
 40
2.0
  1
７　　　　　　　　　　　　　　　　　　　　　　　　　
 50
0.0
 41
0.5
 51
0.0
  7
KANJI1
  0
TEXT
  8
0
  6
CONTINUOUS
 62
     1
 10
284.5
 20
210.8
 30
0.15
 40
1.5
  1
ＳＯＵＲＣＥ　　　
 50
0.0
 41
0.666666667
 51
0.0
  7
KANJI2
  0
ARC
  8
0
  6
CONTINUOUS
 62
     1
 10
246.7
 20
223.3
 30
0.0
 40
1.7
 50
90.0
 51
180.0
  0
LINE
  8
0
  6
CONTINUOUS
 62
     1
 10
246.7
 20
225.0
 30
0.0
 11
293.3
 21
225.0
 31
0.0
  0
ARC
  8
0
  6
CONTINUOUS
 62
     1
 10
293.3
 20
223.3
 30
0.0
 40
1.7
 50
0.0
 51
90.0
  0
ARC
  8
0
  6
CONTINUOUS
 62
     1
 10
246.7
 20
223.3
 30
0.0
 40
0.9
 50
90.0
 51
180.0
  0
LINE
  8
0
  6
CONTINUOUS
 62
     1
 10
246.7
 20
224.2
 30
0.0
 11
293.3
 21
224.2
 31
0.0
  0
ARC
  8
0
  6
CONTINUOUS
 62
     1
 10
293.3
 20
223.3
 30
0.0
 40
0.9
 50
0.0
 51
90.0
  0
TEXT
  8
0
  6
CONTINUOUS
 62
     1
 10
247.5
 20
220.5
 30
0.3
 40
2.5
  1
ＣＯＮＮＥＣＴＩＯＮＳ　ＯＦ　ＴＡＣＨＯ－ＭＥＴＥＲ
 50
0.0
 41
0.6
 51
0.0
  7
KANJI0
  0
CIRCLE
  8
0
  6
CONTINUOUS
 62
     1
 10
273.3
 20
214.0
 30
0.0
 40
1.5
  0
CIRCLE
  8
0
  6
CONTINUOUS
 62
     1
 10
269.9
 20
214.0
 30
0.0
 40
1.5
  0
CIRCLE
  8
0
  6
CONTINUOUS
 62
     1
 10
276.7
 20
214.0
 30
0.0
 40
1.5
  0
CIRCLE
  8
0
  6
CONTINUOUS
 62
     1
 10
280.1
 20
214.0
 30
0.0
 40
1.5
  0
LINE
  8
0
  6
CONTINUOUS
 62
     1
 10
255.0
 20
214.0
 30
0.0
 11
255.0
 21
217.6
 31
0.0
  0
LINE
  8
0
  6
CONTINUOUS
 62
     1
 10
255.0
 20
217.6
 30
0.0
 11
256.5
 21
217.6
 31
0.0
  0
LINE
  8
0
  6
CONTINUOUS
 62
     1
 10
256.5
 20
217.6
 30
0.0
 11
256.5
 21
214.0
 31
0.0
  0
LINE
  8
0
  6
CONTINUOUS
 62
     1
 10
256.5
 20
214.0
 30
0.0
 11
255.0
 21
214.0
 31
0.0
  0
LINE
  8
0
  6
CONTINUOUS
 62
     1
 10
255.0
 20
217.0
 30
0.0
 11
252.0
 21
217.0
 31
0.0
  0
LINE
  8
0
  6
CONTINUOUS
 62
     1
 10
252.0
 20
217.0
 30
0.0
 11
252.0
 21
214.6
 31
0.0
  0
LINE
  8
0
  6
CONTINUOUS
 62
     1
 10
252.0
 20
214.6
 30
0.0
 11
255.0
 21
214.6
 31
0.0
  0
LINE
  8
0
  6
CONTINUOUS
 62
     1
 10
256.5
 20
214.6
 30
0.0
 11
259.5
 21
214.6
 31
0.0
  0
LINE
  8
0
  6
CONTINUOUS
 62
     1
 10
259.5
 20
214.6
 30
0.0
 11
259.5
 21
217.0
 31
0.0
  0
LINE
  8
0
  6
CONTINUOUS
 62
     1
 10
259.5
 20
217.0
 30
0.0
 11
256.5
 21
217.0
 31
0.0
  0
LINE
  8
0
  6
CONTINUOUS
 62
     1
 10
259.5
 20
217.0
 30
0.0
 11
259.8
 21
216.7
 31
0.0
  0
LINE
  8
0
  6
CONTINUOUS
 62
     1
 10
259.8
 20
216.7
 30
0.0
 11
259.8
 21
214.9
 31
0.0
  0
LINE
  8
0
  6
CONTINUOUS
 62
     1
 10
259.8
 20
214.9
 30
0.0
 11
259.5
 21
214.6
 31
0.0
  0
LINE
  8
0
  6
CONTINUOUS
 62
     1
 10
252.0
 20
214.6
 30
0.0
 11
251.7
 21
214.9
 31
0.0
  0
LINE
  8
0
  6
CONTINUOUS
 62
     1
 10
251.7
 20
214.9
 30
0.0
 11
251.7
 21
216.7
 31
0.0
  0
LINE
  8
0
  6
CONTINUOUS
 62
     1
 10
251.7
 20
216.7
 30
0.0
 11
252.0
 21
217.0
 31
0.0
  0
LINE
  8
0
  6
CONTINUOUS
 62
     1
 10
259.8
 20
216.2
 30
0.0
 11
273.3
 21
216.2
 31
0.0
  0
LINE
  8
0
  6
CONTINUOUS
 62
     1
 10
273.3
 20
216.2
 30
0.0
 11
273.3
 21
215.5
 31
0.0
  0
LINE
  8
0
  6
CONTINUOUS
 62
     1
 10
269.9
 20
215.5
 30
0.0
 11
269.9
 21
215.6
 31
0.0
  0
LINE
  8
0
  6
CONTINUOUS
 62
     1
 10
269.9
 20
215.6
 30
0.0
 11
259.8
 21
215.6
 31
0.0
  0
TEXT
  8
0
  6
CONTINUOUS
 62
     1
 10
247.5
 20
212.0
 30
0.2
 40
2.0
  1
ＴＹＰＥ　ＴＮ－１／ＴＮ－２　　　　　　　　　　　　
 50
0.0
 41
0.5
 51
0.0
  7
KANJI1
  0
TEXT
  8
0
  6
CONTINUOUS
 62
     1
 10
269.5
 20
213.2
 30
0.2
 40
2.0
  1
１　　　　　　　　　　　　　　　　　　　　　　　　　
 50
0.0
 41
0.5
 51
0.0
  7
KANJI1
  0
TEXT
  8
0
  6
CONTINUOUS
 62
     1
 10
272.9
 20
213.2
 30
0.2
 40
2.0
  1
２　　　　　　　　　　　　　　　　　　　　　　　　　
 50
0.0
 41
0.5
 51
0.0
  7
KANJI1
  0
TEXT
  8
0
  6
CONTINUOUS
 62
     1
 10
276.2
 20
213.2
 30
0.2
 40
2.0
  1
３　　　　　　　　　　　　　　　　　　　　　　　　　
 50
0.0
 41
0.5
 51
0.0
  7
KANJI1
  0
TEXT
  8
0
  6
CONTINUOUS
 62
     1
 10
279.6
 20
213.2
 30
0.2
 40
2.0
  1
４　　　　　　　　　　　　　　　　　　　　　　　　　
 50
0.0
 41
0.5
 51
0.0
  7
KANJI1
  0
TEXT
  8
0
  6
CONTINUOUS
 62
     1
 10
271.1
 20
210.2
 30
0.2
 40
2.0
  1
５　　　　　　　　　　　　　　　　　　　　　　　　　
 50
0.0
 41
0.5
 51
0.0
  7
KANJI1
  0
TEXT
  8
0
  6
CONTINUOUS
 62
     1
 10
274.5
 20
210.2
 30
0.2
 40
2.0
  1
６　　　　　　　　　　　　　　　　　　　　　　　　　
 50
0.0
 41
0.5
 51
0.0
  7
KANJI1
  0
TEXT
  8
0
  6
CONTINUOUS
 62
     1
 10
277.9
 20
210.2
 30
0.2
 40
2.0
  1
７　　　　　　　　　　　　　　　　　　　　　　　　　
 50
0.0
 41
0.5
 51
0.0
  7
KANJI1
  0
TEXT
  8
0
  6
CONTINUOUS
 62
     1
 10
284.5
 20
210.8
 30
0.15
 40
1.5
  1
ＳＯＵＲＣＥ　　　
 50
0.0
 41
0.666666667
 51
0.0
  7
KANJI2
  0
ARC
  8
0
  6
CONTINUOUS
 62
     1
 10
246.7
 20
223.3
 30
0.0
 40
1.7
 50
90.0
 51
180.0
  0
LINE
  8
0
  6
CONTINUOUS
 62
     1
 10
246.7
 20
225.0
 30
0.0
 11
293.3
 21
225.0
 31
0.0
  0
ARC
  8
0
  6
CONTINUOUS
 62
     1
 10
293.3
 20
223.3
 30
0.0
 40
1.7
 50
0.0
 51
90.0
  0
ARC
  8
0
  6
CONTINUOUS
 62
     1
 10
246.7
 20
223.3
 30
0.0
 40
0.9
 50
90.0
 51
180.0
  0
LINE
  8
0
  6
CONTINUOUS
 62
     1
 10
246.7
 20
224.2
 30
0.0
 11
293.3
 21
224.2
 31
0.0
  0
ARC
  8
0
  6
CONTINUOUS
 62
     1
 10
293.3
 20
223.3
 30
0.0
 40
0.9
 50
0.0
 51
90.0
  0
TEXT
  8
0
  6
CONTINUOUS
 62
     1
 10
247.5
 20
220.5
 30
0.3
 40
2.5
  1
ＣＯＮＮＥＣＴＩＯＮＳ　ＯＦ　ＴＡＣＨＯ－ＭＥＴＥＲ
 50
0.0
 41
0.6
 51
0.0
  7
KANJI0
  0
CIRCLE
  8
0
  6
CONTINUOUS
 62
     1
 10
273.3
 20
214.0
 30
0.0
 40
1.5
  0
CIRCLE
  8
0
  6
CONTINUOUS
 62
     1
 10
269.9
 20
214.0
 30
0.0
 40
1.5
  0
CIRCLE
  8
0
  6
CONTINUOUS
 62
     1
 10
276.7
 20
214.0
 30
0.0
 40
1.5
  0
CIRCLE
  8
0
  6
CONTINUOUS
 62
     1
 10
280.1
 20
214.0
 30
0.0
 40
1.5
  0
LINE
  8
0
  6
CONTINUOUS
 62
     1
 10
255.0
 20
214.0
 30
0.0
 11
255.0
 21
217.6
 31
0.0
  0
LINE
  8
0
  6
CONTINUOUS
 62
     1
 10
255.0
 20
217.6
 30
0.0
 11
256.5
 21
217.6
 31
0.0
  0
LINE
  8
0
  6
CONTINUOUS
 62
     1
 10
256.5
 20
217.6
 30
0.0
 11
256.5
 21
214.0
 31
0.0
  0
LINE
  8
0
  6
CONTINUOUS
 62
     1
 10
256.5
 20
214.0
 30
0.0
 11
255.0
 21
214.0
 31
0.0
  0
LINE
  8
0
  6
CONTINUOUS
 62
     1
 10
255.0
 20
217.0
 30
0.0
 11
252.0
 21
217.0
 31
0.0
  0
LINE
  8
0
  6
CONTINUOUS
 62
     1
 10
252.0
 20
217.0
 30
0.0
 11
252.0
 21
214.6
 31
0.0
  0
LINE
  8
0
  6
CONTINUOUS
 62
     1
 10
252.0
 20
214.6
 30
0.0
 11
255.0
 21
214.6
 31
0.0
  0
LINE
  8
0
  6
CONTINUOUS
 62
     1
 10
256.5
 20
214.6
 30
0.0
 11
259.5
 21
214.6
 31
0.0
  0
LINE
  8
0
  6
CONTINUOUS
 62
     1
 10
259.5
 20
214.6
 30
0.0
 11
259.5
 21
217.0
 31
0.0
  0
LINE
  8
0
  6
CONTINUOUS
 62
     1
 10
259.5
 20
217.0
 30
0.0
 11
256.5
 21
217.0
 31
0.0
  0
LINE
  8
0
  6
CONTINUOUS
 62
     1
 10
259.5
 20
217.0
 30
0.0
 11
259.8
 21
216.7
 31
0.0
  0
LINE
  8
0
  6
CONTINUOUS
 62
     1
 10
259.8
 20
216.7
 30
0.0
 11
259.8
 21
214.9
 31
0.0
  0
LINE
  8
0
  6
CONTINUOUS
 62
     1
 10
259.8
 20
214.9
 30
0.0
 11
259.5
 21
214.6
 31
0.0
  0
LINE
  8
0
  6
CONTINUOUS
 62
     1
 10
252.0
 20
214.6
 30
0.0
 11
251.7
 21
214.9
 31
0.0
  0
LINE
  8
0
  6
CONTINUOUS
 62
     1
 10
251.7
 20
214.9
 30
0.0
 11
251.7
 21
216.7
 31
0.0
  0
LINE
  8
0
  6
CONTINUOUS
 62
     1
 10
251.7
 20
216.7
 30
0.0
 11
252.0
 21
217.0
 31
0.0
  0
LINE
  8
0
  6
CONTINUOUS
 62
     1
 10
259.8
 20
216.2
 30
0.0
 11
273.3
 21
216.2
 31
0.0
  0
LINE
  8
0
  6
CONTINUOUS
 62
     1
 10
273.3
 20
216.2
 30
0.0
 11
273.3
 21
215.5
 31
0.0
  0
LINE
  8
0
  6
CONTINUOUS
 62
     1
 10
269.9
 20
215.5
 30
0.0
 11
269.9
 21
215.6
 31
0.0
  0
LINE
  8
0
  6
CONTINUOUS
 62
     1
 10
269.9
 20
215.6
 30
0.0
 11
259.8
 21
215.6
 31
0.0
  0
TEXT
  8
0
  6
CONTINUOUS
 62
     1
 10
247.5
 20
212.0
 30
0.2
 40
2.0
  1
ＴＹＰＥ　ＴＮ－１／ＴＮ－２　　　　　　　　　　　　
 50
0.0
 41
0.5
 51
0.0
  7
KANJI1
  0
TEXT
  8
0
  6
CONTINUOUS
 62
     1
 10
269.5
 20
213.2
 30
0.2
 40
2.0
  1
１　　　　　　　　　　　　　　　　　　　　　　　　　
 50
0.0
 41
0.5
 51
0.0
  7
KANJI1
  0
TEXT
  8
0
  6
CONTINUOUS
 62
     1
 10
272.9
 20
213.2
 30
0.2
 40
2.0
  1
２　　　　　　　　　　　　　　　　　　　　　　　　　
 50
0.0
 41
0.5
 51
0.0
  7
KANJI1
  0
TEXT
  8
0
  6
CONTINUOUS
 62
     1
 10
276.2
 20
213.2
 30
0.2
 40
2.0
  1
３　　　　　　　　　　　　　　　　　　　　　　　　　
 50
0.0
 41
0.5
 51
0.0
  7
KANJI1
  0
TEXT
  8
0
  6
CONTINUOUS
 62
     1
 10
279.6
 20
213.2
 30
0.2
 40
2.0
  1
４　　　　　　　　　　　　　　　　　　　　　　　　　
 50
0.0
 41
0.5
 51
0.0
  7
KANJI1
  0
TEXT
  8
0
  6
CONTINUOUS
 62
     1
 10
271.1
 20
210.2
 30
0.2
 40
2.0
  1
５　　　　　　　　　　　　　　　　　　　　　　　　　
 50
0.0
 41
0.5
 51
0.0
  7
KANJI1
  0
TEXT
  8
0
  6
CONTINUOUS
 62
     1
 10
274.5
 20
210.2
 30
0.2
 40
2.0
  1
６　　　　　　　　　　　　　　　　　　　　　　　　　
 50
0.0
 41
0.5
 51
0.0
  7
KANJI1
  0
TEXT
  8
0
  6
CONTINUOUS
 62
     1
 10
277.9
 20
210.2
 30
0.2
 40
2.0
  1
７　　　　　　　　　　　　　　　　　　　　　　　　　
 50
0.0
 41
0.5
 51
0.0
  7
KANJI1
  0
TEXT
  8
0
  6
CONTINUOUS
 62
     1
 10
284.5
 20
210.8
 30
0.15
 40
1.5
  1
ＳＯＵＲＣＥ　　　
 50
0.0
 41
0.666666667
 51
0.0
  7
KANJI2
  0
LINE
  8
0
  6
CONTINUOUS
 62
     1
 10
48.0
 20
36.25
 30
0.0
 11
92.0
 21
36.25
 31
0.0
  0
LINE
  8
0
  6
CONTINUOUS
 62
     1
 10
92.0
 20
36.25
 30
0.0
 11
92.0
 21
53.75
 31
0.0
  0
LINE
  8
0
  6
CONTINUOUS
 62
     1
 10
92.0
 20
53.75
 30
0.0
 11
48.0
 21
53.75
 31
0.0
  0
LINE
  8
0
  6
CONTINUOUS
 62
     1
 10
48.0
 20
53.75
 30
0.0
 11
48.0
 21
36.25
 31
0.0
  0
CIRCLE
  8
0
  6
CONTINUOUS
 62
     1
 10
94.0
 20
45.0
 30
0.0
 40
1.0
  0
CIRCLE
  8
0
  6
CONTINUOUS
 62
     1
 10
46.0
 20
45.0
 30
0.0
 40
1.0
  0
LINE
  8
0
  6
CONTINUOUS
 62
     1
 10
50.0
 20
73.0
 30
0.0
 11
90.0
 21
73.0
 31
0.0
  0
LINE
  8
0
  6
CONTINUOUS
 62
     1
 10
90.0
 20
73.0
 30
0.0
 11
90.0
 21
87.0
 31
0.0
  0
LINE
  8
0
  6
CONTINUOUS
 62
     1
 10
90.0
 20
87.0
 30
0.0
 11
50.0
 21
87.0
 31
0.0
  0
LINE
  8
0
  6
CONTINUOUS
 62
     1
 10
50.0
 20
87.0
 30
0.0
 11
50.0
 21
73.0
 31
0.0
  0
CIRCLE
  8
0
  6
CONTINUOUS
 62
     1
 10
46.0
 20
80.0
 30
0.0
 40
1.125
  0
CIRCLE
  8
0
  6
CONTINUOUS
 62
     1
 10
94.0
 20
80.0
 30
0.0
 40
1.125
  0
ARC
  8
0
  6
CONTINUOUS
 62
     1
 10
44.0
 20
88.25
 30
0.0
 40
1.5
 50
90.0
 51
180.0
  0
LINE
  8
0
  6
CONTINUOUS
 62
     1
 10
96.0
 20
89.75
 30
0.0
 11
44.0
 21
89.75
 31
0.0
  0
ARC
  8
0
  6
CONTINUOUS
 62
     1
 10
96.0
 20
88.25
 30
0.0
 40
1.5
 50
0.0
 51
90.0
  0
LINE
  8
0
  6
CONTINUOUS
 62
     1
 10
97.5
 20
71.75
 30
0.0
 11
97.5
 21
88.25
 31
0.0
  0
ARC
  8
0
  6
CONTINUOUS
 62
     1
 10
96.0
 20
71.75
 30
0.0
 40
1.5
 50
270.0
 51
0.0
  0
LINE
  8
0
  6
CONTINUOUS
 62
     1
 10
44.0
 20
70.25
 30
0.0
 11
96.0
 21
70.25
 31
0.0
  0
LINE
  8
0
  6
CONTINUOUS
 62
     1
 10
42.5
 20
88.25
 30
0.0
 11
42.5
 21
71.75
 31
0.0
  0
ARC
  8
0
  6
CONTINUOUS
 62
     1
 10
44.0
 20
71.75
 30
0.0
 40
1.5
 50
180.0
 51
270.0
  0
LINE
  8
0
  6
CONTINUOUS
 62
     1
 10
97.5
 20
125.0
 30
0.0
 11
42.5
 21
125.0
 31
0.0
  0
LINE
  8
0
  6
CONTINUOUS
 62
     1
 10
42.5
 20
125.0
 30
0.0
 11
42.5
 21
125.8
 31
0.0
  0
LINE
  8
0
  6
CONTINUOUS
 62
     1
 10
97.5
 20
125.0
 30
0.0
 11
97.5
 21
125.8
 31
0.0
  0
LINE
  8
0
  6
CONTINUOUS
 62
     1
 10
42.5
 20
125.8
 30
0.0
 11
97.5
 21
125.8
 31
0.0
  0
LINE
  8
0
  6
CONTINUOUS
 62
     1
 10
50.0
 20
125.8
 30
0.0
 11
50.0
 21
134.8
 31
0.0
  0
LINE
  8
0
  6
CONTINUOUS
 62
     1
 10
50.0
 20
134.8
 30
0.0
 11
49.2
 21
134.8
 31
0.0
  0
LINE
  8
0
  6
CONTINUOUS
 62
     1
 10
49.2
 20
134.8
 30
0.0
 11
49.2
 21
125.8
 31
0.0
  0
LINE
  8
0
  6
CONTINUOUS
 62
     1
 10
90.0
 20
125.8
 30
0.0
 11
90.0
 21
134.8
 31
0.0
  0
LINE
  8
0
  6
CONTINUOUS
 62
     1
 10
90.0
 20
134.8
 30
0.0
 11
90.8
 21
134.8
 31
0.0
  0
LINE
  8
0
  6
CONTINUOUS
 62
     1
 10
90.8
 20
134.8
 30
0.0
 11
90.8
 21
125.8
 31
0.0
  0
LINE
  8
0
  6
CONTINUOUS
 62
     1
 10
50.0
 20
124.682623085
 30
0.0
 11
50.0
 21
125.0
 31
0.0
  0
LINE
  8
0
  6
CONTINUOUS
 62
     1
 10
90.0
 20
124.682623085
 30
0.0
 11
90.0
 21
125.0
 31
0.0
  0
ARC
  8
0
  6
CONTINUOUS
 62
     1
 10
70.0
 20
150.3
 30
0.0
 40
32.5
 50
232.020127555
 51
307.979872445
  0
LINE
  8
0
  6
CONTINUOUS
 62
     1
 10
50.0
 20
134.8
 30
0.0
 11
50.0
 21
160.8
 31
0.0
  0
LINE
  8
0
  6
CONTINUOUS
 62
     1
 10
50.0
 20
160.8
 30
0.0
 11
90.0
 21
160.8
 31
0.0
  0
LINE
  8
0
  6
CONTINUOUS
 62
     1
 10
90.0
 20
160.8
 30
0.0
 11
90.0
 21
134.8
 31
0.0
  0
LINE
  8
0
  6
CONTINUOUS
 62
     1
 10
50.625
 20
160.25
 30
0.0
 11
89.375
 21
160.25
 31
0.0
  0
LINE
  8
0
  6
CONTINUOUS
 62
     1
 10
89.375
 20
160.25
 30
0.0
 11
89.375
 21
130.85
 31
0.0
  0
LINE
  8
0
  6
CONTINUOUS
 62
     1
 10
89.375
 20
130.85
 30
0.0
 11
50.625
 21
130.85
 31
0.0
  0
LINE
  8
0
  6
CONTINUOUS
 62
     1
 10
50.625
 20
130.85
 30
0.0
 11
50.625
 21
160.25
 31
0.0
  0
LINE
  8
0
  6
CONTINUOUS
 62
     1
 10
59.75
 20
160.8
 30
0.0
 11
59.75
 21
163.8
 31
0.0
  0
LINE
  8
0
  6
CONTINUOUS
 62
     1
 10
59.75
 20
163.8
 30
0.0
 11
62.75
 21
163.8
 31
0.0
  0
LINE
  8
0
  6
CONTINUOUS
 62
     1
 10
62.75
 20
163.8
 30
0.0
 11
62.75
 21
160.8
 31
0.0
  0
LINE
  8
0
  6
CONTINUOUS
 62
     1
 10
61.25
 20
163.8
 30
0.0
 11
61.538675135
 21
164.3
 31
0.0
  0
LINE
  8
0
  6
CONTINUOUS
 62
     1
 10
61.25
 20
164.3
 30
0.0
 11
60.961324865
 21
163.8
 31
0.0
  0
LINE
  8
0
  6
CONTINUOUS
 62
     1
 10
59.75
 20
163.8
 30
0.0
 11
59.35
 21
163.8
 31
0.0
  0
LINE
  8
0
  6
CONTINUOUS
 62
     1
 10
59.35
 20
163.8
 30
0.0
 11
59.35
 21
164.3
 31
0.0
  0
LINE
  8
0
  6
CONTINUOUS
 62
     1
 10
59.35
 20
164.3
 30
0.0
 11
63.15
 21
164.3
 31
0.0
  0
LINE
  8
0
  6
CONTINUOUS
 62
     1
 10
63.15
 20
164.3
 30
0.0
 11
63.15
 21
163.8
 31
0.0
  0
LINE
  8
0
  6
CONTINUOUS
 62
     1
 10
63.15
 20
163.8
 30
0.0
 11
62.75
 21
163.8
 31
0.0
  0
LINE
  8
0
  6
CONTINUOUS
 62
     1
 10
59.5
 20
164.3
 30
0.0
 11
59.5
 21
164.95
 31
0.0
  0
ARC
  8
0
  6
CONTINUOUS
 62
     1
 10
60.15
 20
164.95
 30
0.0
 40
0.65
 50
90.0
 51
180.0
  0
LINE
  8
0
  6
CONTINUOUS
 62
     1
 10
60.15
 20
165.6
 30
0.0
 11
61.0
 21
165.6
 31
0.0
  0
LINE
  8
0
  6
CONTINUOUS
 62
     1
 10
61.0
 20
165.6
 30
0.0
 11
61.0
 21
164.9
 31
0.0
  0
LINE
  8
0
  6
CONTINUOUS
 62
     1
 10
61.0
 20
164.9
 30
0.0
 11
61.5
 21
164.9
 31
0.0
  0
LINE
  8
0
  6
CONTINUOUS
 62
     1
 10
61.5
 20
164.9
 30
0.0
 11
61.5
 21
165.6
 31
0.0
  0
LINE
  8
0
  6
CONTINUOUS
 62
     1
 10
61.5
 20
165.6
 30
0.0
 11
62.35
 21
165.6
 31
0.0
  0
ARC
  8
0
  6
CONTINUOUS
 62
     1
 10
62.35
 20
164.95
 30
0.0
 40
0.65
 50
0.0
 51
90.0
  0
LINE
  8
0
  6
CONTINUOUS
 62
     1
 10
63.0
 20
164.95
 30
0.0
 11
63.0
 21
164.3
 31
0.0
  0
LINE
  8
0
  6
CONTINUOUS
 62
     1
 10
77.25
 20
160.8
 30
0.0
 11
77.25
 21
163.8
 31
0.0
  0
LINE
  8
0
  6
CONTINUOUS
 62
     1
 10
77.25
 20
163.8
 30
0.0
 11
80.25
 21
163.8
 31
0.0
  0
LINE
  8
0
  6
CONTINUOUS
 62
     1
 10
80.25
 20
163.8
 30
0.0
 11
80.25
 21
160.8
 31
0.0
  0
LINE
  8
0
  6
CONTINUOUS
 62
     1
 10
78.75
 20
163.8
 30
0.0
 11
79.038675135
 21
164.3
 31
0.0
  0
LINE
  8
0
  6
CONTINUOUS
 62
     1
 10
78.75
 20
164.3
 30
0.0
 11
78.461324865
 21
163.8
 31
0.0
  0
LINE
  8
0
  6
CONTINUOUS
 62
     1
 10
77.25
 20
163.8
 30
0.0
 11
76.85
 21
163.8
 31
0.0
  0
LINE
  8
0
  6
CONTINUOUS
 62
     1
 10
76.85
 20
163.8
 30
0.0
 11
76.85
 21
164.3
 31
0.0
  0
LINE
  8
0
  6
CONTINUOUS
 62
     1
 10
76.85
 20
164.3
 30
0.0
 11
80.65
 21
164.3
 31
0.0
  0
LINE
  8
0
  6
CONTINUOUS
 62
     1
 10
80.65
 20
164.3
 30
0.0
 11
80.65
 21
163.8
 31
0.0
  0
LINE
  8
0
  6
CONTINUOUS
 62
     1
 10
80.65
 20
163.8
 30
0.0
 11
80.25
 21
163.8
 31
0.0
  0
LINE
  8
0
  6
CONTINUOUS
 62
     1
 10
77.0
 20
164.3
 30
0.0
 11
77.0
 21
164.95
 31
0.0
  0
ARC
  8
0
  6
CONTINUOUS
 62
     1
 10
77.65
 20
164.95
 30
0.0
 40
0.65
 50
90.0
 51
180.0
  0
LINE
  8
0
  6
CONTINUOUS
 62
     1
 10
77.65
 20
165.6
 30
0.0
 11
78.5
 21
165.6
 31
0.0
  0
LINE
  8
0
  6
CONTINUOUS
 62
     1
 10
78.5
 20
165.6
 30
0.0
 11
78.5
 21
164.9
 31
0.0
  0
LINE
  8
0
  6
CONTINUOUS
 62
     1
 10
78.5
 20
164.9
 30
0.0
 11
79.0
 21
164.9
 31
0.0
  0
LINE
  8
0
  6
CONTINUOUS
 62
     1
 10
79.0
 20
164.9
 30
0.0
 11
79.0
 21
165.6
 31
0.0
  0
LINE
  8
0
  6
CONTINUOUS
 62
     1
 10
79.0
 20
165.6
 30
0.0
 11
79.85
 21
165.6
 31
0.0
  0
ARC
  8
0
  6
CONTINUOUS
 62
     1
 10
79.85
 20
164.95
 30
0.0
 40
0.65
 50
0.0
 51
90.0
  0
LINE
  8
0
  6
CONTINUOUS
 62
     1
 10
80.5
 20
164.95
 30
0.0
 11
80.5
 21
164.3
 31
0.0
  0
CIRCLE
  8
0
  6
CONTINUOUS
 62
     1
 10
70.0
 20
154.25
 30
0.0
 40
1.5
  0
LINE
  8
0
  6
CONTINUOUS
 62
     1
 10
68.507518844
 20
154.4
 30
0.0
 11
71.492481156
 21
154.4
 31
0.0
  0
LINE
  8
0
  6
CONTINUOUS
 62
     1
 10
71.492481156
 20
154.1
 30
0.0
 11
68.507518844
 21
154.1
 31
0.0
  0
LINE
  8
0
  6
CONTINUOUS
 62
     1
 10
48.7
 20
134.175
 30
0.0
 11
49.2
 21
134.175
 31
0.0
  0
ARC
  8
0
  6
CONTINUOUS
 62
     1
 10
48.7
 20
133.675
 30
0.0
 40
0.5
 50
90.0
 51
180.0
  0
LINE
  8
0
  6
CONTINUOUS
 62
     1
 10
49.2
 20
131.425
 30
0.0
 11
48.7
 21
131.425
 31
0.0
  0
ARC
  8
0
  6
CONTINUOUS
 62
     1
 10
48.7
 20
131.925
 30
0.0
 40
0.5
 50
180.0
 51
270.0
  0
LINE
  8
0
  6
CONTINUOUS
 62
     1
 10
48.2
 20
132.6
 30
0.0
 11
48.75
 21
132.6
 31
0.0
  0
LINE
  8
0
  6
CONTINUOUS
 62
     1
 10
48.75
 20
132.6
 30
0.0
 11
48.75
 21
133.0
 31
0.0
  0
LINE
  8
0
  6
CONTINUOUS
 62
     1
 10
48.75
 20
133.0
 30
0.0
 11
48.2
 21
133.0
 31
0.0
  0
LINE
  8
0
  6
CONTINUOUS
 62
     1
 10
48.2
 20
133.0
 30
0.0
 11
48.2
 21
133.675
 31
0.0
  0
LINE
  8
0
  6
CONTINUOUS
 62
     1
 10
48.2
 20
131.925
 30
0.0
 11
48.2
 21
132.6
 31
0.0
  0
LINE
  8
0
  6
CONTINUOUS
 62
     1
 10
91.3
 20
134.175
 30
0.0
 11
90.8
 21
134.175
 31
0.0
  0
ARC
  8
0
  6
CONTINUOUS
 62
     1
 10
91.3
 20
133.675
 30
0.0
 40
0.5
 50
360.0
 51
90.0
  0
LINE
  8
0
  6
CONTINUOUS
 62
     1
 10
90.8
 20
131.425
 30
0.0
 11
91.3
 21
131.425
 31
0.0
  0
ARC
  8
0
  6
CONTINUOUS
 62
     1
 10
91.3
 20
131.925
 30
0.0
 40
0.5
 50
270.0
 51
360.0
  0
LINE
  8
0
  6
CONTINUOUS
 62
     1
 10
91.8
 20
132.6
 30
0.0
 11
91.25
 21
132.6
 31
0.0
  0
LINE
  8
0
  6
CONTINUOUS
 62
     1
 10
91.25
 20
132.6
 30
0.0
 11
91.25
 21
133.0
 31
0.0
  0
LINE
  8
0
  6
CONTINUOUS
 62
     1
 10
91.25
 20
133.0
 30
0.0
 11
91.8
 21
133.0
 31
0.0
  0
LINE
  8
0
  6
CONTINUOUS
 62
     1
 10
91.8
 20
133.0
 30
0.0
 11
91.8
 21
133.675
 31
0.0
  0
LINE
  8
0
  6
CONTINUOUS
 62
     1
 10
91.8
 20
131.925
 30
0.0
 11
91.8
 21
132.6
 31
0.0
  0
LINE
  8
0
  6
CONTINUOUS
 62
     1
 10
147.0
 20
125.0
 30
0.0
 11
147.0
 21
165.0
 31
0.0
  0
LINE
  8
0
  6
CONTINUOUS
 62
     1
 10
147.0
 20
165.0
 30
0.0
 11
133.0
 21
165.0
 31
0.0
  0
LINE
  8
0
  6
CONTINUOUS
 62
     1
 10
133.0
 20
165.0
 30
0.0
 11
133.0
 21
125.0
 31
0.0
  0
LINE
  8
0
  6
CONTINUOUS
 62
     1
 10
133.0
 20
125.0
 30
0.0
 11
147.0
 21
125.0
 31
0.0
  0
CIRCLE
  8
0
  6
CONTINUOUS
 62
     1
 10
140.0
 20
121.0
 30
0.0
 40
1.125
  0
CIRCLE
  8
0
  6
CONTINUOUS
 62
     1
 10
140.0
 20
169.0
 30
0.0
 40
1.125
  0
ARC
  8
0
  6
CONTINUOUS
 62
     1
 10
131.75
 20
119.0
 30
0.0
 40
1.5
 50
180.0
 51
270.0
  0
LINE
  8
0
  6
CONTINUOUS
 62
     1
 10
130.25
 20
171.0
 30
0.0
 11
130.25
 21
119.0
 31
0.0
  0
ARC
  8
0
  6
CONTINUOUS
 62
     1
 10
131.75
 20
171.0
 30
0.0
 40
1.5
 50
90.0
 51
180.0
  0
LINE
  8
0
  6
CONTINUOUS
 62
     1
 10
148.25
 20
172.5
 30
0.0
 11
131.75
 21
172.5
 31
0.0
  0
ARC
  8
0
  6
CONTINUOUS
 62
     1
 10
148.25
 20
171.0
 30
0.0
 40
1.5
 50
0.0
 51
90.0
  0
LINE
  8
0
  6
CONTINUOUS
 62
     1
 10
149.75
 20
119.0
 30
0.0
 11
149.75
 21
171.0
 31
0.0
  0
LINE
  8
0
  6
CONTINUOUS
 62
     1
 10
131.75
 20
117.5
 30
0.0
 11
148.25
 21
117.5
 31
0.0
  0
ARC
  8
0
  6
CONTINUOUS
 62
     1
 10
148.25
 20
119.0
 30
0.0
 40
1.5
 50
270.0
 51
0.0
  0
LINE
  8
0
  6
CONTINUOUS
 62
     1
 10
198.75
 20
123.0
 30
0.0
 11
198.75
 21
167.0
 31
0.0
  0
LINE
  8
0
  6
CONTINUOUS
 62
     1
 10
198.75
 20
167.0
 30
0.0
 11
181.25
 21
167.0
 31
0.0
  0
LINE
  8
0
  6
CONTINUOUS
 62
     1
 10
181.25
 20
167.0
 30
0.0
 11
181.25
 21
123.0
 31
0.0
  0
LINE
  8
0
  6
CONTINUOUS
 62
     1
 10
181.25
 20
123.0
 30
0.0
 11
198.75
 21
123.0
 31
0.0
  0
CIRCLE
  8
0
  6
CONTINUOUS
 62
     1
 10
190.0
 20
169.0
 30
0.0
 40
1.0
  0
CIRCLE
  8
0
  6
CONTINUOUS
 62
     1
 10
190.0
 20
121.0
 30
0.0
 40
1.0
  0
LINE
  8
0
  6
CONTINUOUS
 62
     1
 10
145.2
 20
89.75
 30
0.0
 11
146.0
 21
89.75
 31
0.0
  0
LINE
  8
0
  6
CONTINUOUS
 62
     1
 10
146.0
 20
89.75
 30
0.0
 11
146.0
 21
70.25
 31
0.0
  0
LINE
  8
0
  6
CONTINUOUS
 62
     1
 10
146.0
 20
70.25
 30
0.0
 11
145.2
 21
70.25
 31
0.0
  0
LINE
  8
0
  6
CONTINUOUS
 62
     1
 10
145.2
 20
70.25
 30
0.0
 11
145.2
 21
89.75
 31
0.0
  0
LINE
  8
0
  6
CONTINUOUS
 62
     1
 10
146.0
 20
87.0
 30
0.0
 11
155.0
 21
87.0
 31
0.0
  0
LINE
  8
0
  6
CONTINUOUS
 62
     1
 10
155.0
 20
87.0
 30
0.0
 11
155.0
 21
73.0
 31
0.0
  0
LINE
  8
0
  6
CONTINUOUS
 62
     1
 10
155.0
 20
73.0
 30
0.0
 11
146.0
 21
73.0
 31
0.0
  0
LINE
  8
0
  6
CONTINUOUS
 62
     1
 10
146.0
 20
88.3
 30
0.0
 11
181.0
 21
88.3
 31
0.0
  0
LINE
  8
0
  6
CONTINUOUS
 62
     1
 10
181.0
 20
88.3
 30
0.0
 11
181.0
 21
71.8
 31
0.0
  0
LINE
  8
0
  6
CONTINUOUS
 62
     1
 10
181.0
 20
71.8
 30
0.0
 11
146.0
 21
71.8
 31
0.0
  0
LINE
  8
0
  6
CONTINUOUS
 62
     1
 10
184.0
 20
84.8
 30
0.0
 11
184.0
 21
81.8
 31
0.0
  0
LINE
  8
0
  6
CONTINUOUS
 62
     1
 10
184.0
 20
83.3
 30
0.0
 11
184.5
 21
83.011324865
 31
0.0
  0
LINE
  8
0
  6
CONTINUOUS
 62
     1
 10
184.5
 20
83.3
 30
0.0
 11
184.0
 21
83.588675135
 31
0.0
  0
LINE
  8
0
  6
CONTINUOUS
 62
     1
 10
184.0
 20
84.8
 30
0.0
 11
184.0
 21
85.2
 31
0.0
  0
LINE
  8
0
  6
CONTINUOUS
 62
     1
 10
184.0
 20
85.2
 30
0.0
 11
184.5
 21
85.2
 31
0.0
  0
LINE
  8
0
  6
CONTINUOUS
 62
     1
 10
184.5
 20
85.2
 30
0.0
 11
184.5
 21
81.4
 31
0.0
  0
LINE
  8
0
  6
CONTINUOUS
 62
     1
 10
184.5
 20
81.4
 30
0.0
 11
184.0
 21
81.4
 31
0.0
  0
LINE
  8
0
  6
CONTINUOUS
 62
     1
 10
184.0
 20
81.4
 30
0.0
 11
184.0
 21
81.8
 31
0.0
  0
LINE
  8
0
  6
CONTINUOUS
 62
     1
 10
184.5
 20
85.05
 30
0.0
 11
185.15
 21
85.05
 31
0.0
  0
ARC
  8
0
  6
CONTINUOUS
 62
     1
 10
185.15
 20
84.4
 30
0.0
 40
0.65
 50
0.0
 51
90.0
  0
ARC
  8
0
  6
CONTINUOUS
 62
     1
 10
185.15
 20
82.2
 30
0.0
 40
0.65
 50
270.0
 51
0.0
  0
LINE
  8
0
  6
CONTINUOUS
 62
     1
 10
185.15
 20
81.55
 30
0.0
 11
184.5
 21
81.55
 31
0.0
  0
LINE
  8
0
  6
CONTINUOUS
 62
     1
 10
181.0
 20
85.025
 30
0.0
 11
184.0
 21
85.025
 31
0.0
  0
LINE
  8
0
  6
CONTINUOUS
 62
     1
 10
181.0
 20
81.575
 30
0.0
 11
184.0
 21
81.575
 31
0.0
  0
LINE
  8
0
  6
CONTINUOUS
 62
     1
 10
181.0
 20
84.1625
 30
0.0
 11
184.0
 21
84.1625
 31
0.0
  0
LINE
  8
0
  6
CONTINUOUS
 62
     1
 10
181.0
 20
82.4375
 30
0.0
 11
184.0
 21
82.4375
 31
0.0
  0
LINE
  8
0
  6
CONTINUOUS
 62
     1
 10
185.8
 20
84.4
 30
0.0
 11
185.8
 21
82.2
 31
0.0
  0
LINE
  8
0
  6
CONTINUOUS
 62
     1
 10
138.5
 20
73.05
 30
0.0
 11
145.2
 21
73.05
 31
0.0
  0
ARC
  8
0
  6
CONTINUOUS
 62
     1
 10
138.5
 20
73.55
 30
0.0
 40
0.5
 50
180.0
 51
270.0
  0
LINE
  8
0
  6
CONTINUOUS
 62
     1
 10
138.0
 20
86.45
 30
0.0
 11
138.0
 21
73.55
 31
0.0
  0
LINE
  8
0
  6
CONTINUOUS
 62
     1
 10
145.2
 20
86.95
 30
0.0
 11
138.5
 21
86.95
 31
0.0
  0
ARC
  8
0
  6
CONTINUOUS
 62
     1
 10
138.5
 20
86.45
 30
0.0
 40
0.5
 50
90.0
 51
180.0
  0
LINE
  8
0
  6
CONTINUOUS
 62
     1
 10
172.95
 20
88.3
 30
0.0
 11
172.95
 21
88.55
 31
0.0
  0
LINE
  8
0
  6
CONTINUOUS
 62
     1
 10
172.95
 20
88.55
 30
0.0
 11
174.3
 21
88.55
 31
0.0
  0
LINE
  8
0
  6
CONTINUOUS
 62
     1
 10
174.3
 20
88.35
 30
0.0
 11
174.6
 21
88.35
 31
0.0
  0
LINE
  8
0
  6
CONTINUOUS
 62
     1
 10
174.6
 20
88.55
 30
0.0
 11
175.95
 21
88.55
 31
0.0
  0
LINE
  8
0
  6
CONTINUOUS
 62
     1
 10
175.95
 20
88.55
 30
0.0
 11
175.95
 21
88.3
 31
0.0
  0
LINE
  8
0
  6
CONTINUOUS
 62
     1
 10
174.6
 20
88.35
 30
0.0
 11
174.6
 21
88.8
 31
0.0
  0
LINE
  8
0
  6
CONTINUOUS
 62
     1
 10
174.3
 20
88.8
 30
0.0
 11
174.3
 21
88.35
 31
0.0
  0
ARC
  8
0
  6
CONTINUOUS
 62
     1
 10
174.45
 20
83.8
 30
0.0
 40
5.0
 50
91.718358002
 51
107.525568374
  0
ARC
  8
0
  6
CONTINUOUS
 62
     1
 10
174.45
 20
83.8
 30
0.0
 40
5.0
 50
72.474431626
 51
88.281641998
  0
LINE
  8
0
  6
LTYPE1
 62
     2
 10
94.0
 20
46.5
 30
0.0
 11
94.0
 21
43.5
 31
0.0
  0
LINE
  8
0
  6
LTYPE1
 62
     2
 10
46.0
 20
43.5
 30
0.0
 11
46.0
 21
46.5
 31
0.0
  0
LINE
  8
0
  6
CONTINUOUS
 62
     2
 10
46.0
 20
46.5
 30
0.0
 11
46.0
 21
60.75
 31
0.0
  0
LINE
  8
0
  6
CONTINUOUS
 62
     2
 10
46.0
 20
58.75
 30
0.0
 11
48.414814566
 21
58.102952387
 31
0.0
  0
LINE
  8
0
  6
CONTINUOUS
 62
     2
 10
46.0
 20
58.75
 30
0.0
 11
48.414814566
 21
59.397047613
 31
0.0
  0
LINE
  8
0
  6
CONTINUOUS
 62
     2
 10
46.0
 20
58.75
 30
0.0
 11
94.0
 21
58.75
 31
0.0
  0
LINE
  8
0
  6
CONTINUOUS
 62
     2
 10
94.0
 20
58.75
 30
0.0
 11
91.585185434
 21
59.397047613
 31
0.0
  0
LINE
  8
0
  6
CONTINUOUS
 62
     2
 10
94.0
 20
58.75
 30
0.0
 11
91.585185434
 21
58.102952387
 31
0.0
  0
LINE
  8
0
  6
CONTINUOUS
 62
     2
 10
94.0
 20
46.5
 30
0.0
 11
94.0
 21
60.75
 31
0.0
  0
TEXT
  8
0
  6
CONTINUOUS
 62
     2
 10
69.52
 20
59.75
 30
0.18
 40
1.8
  1
±０．２
 50
0.0
 41
0.6
 51
0.0
  7
KANJI3
  0
LINE
  8
0
  6
CONTINUOUS
 62
     2
 10
48.0
 20
48.0
 30
0.0
 11
50.414814566
 21
47.352952387
 31
0.0
  0
LINE
  8
0
  6
CONTINUOUS
 62
     2
 10
48.0
 20
48.0
 30
0.0
 11
50.414814566
 21
48.647047613
 31
0.0
  0
LINE
  8
0
  6
CONTINUOUS
 62
     2
 10
48.0
 20
48.0
 30
0.0
 11
92.0
 21
48.0
 31
0.0
  0
LINE
  8
0
  6
CONTINUOUS
 62
     2
 10
92.0
 20
48.0
 30
0.0
 11
89.585185434
 21
48.647047613
 31
0.0
  0
LINE
  8
0
  6
CONTINUOUS
 62
     2
 10
92.0
 20
48.0
 30
0.0
 11
89.585185434
 21
47.352952387
 31
0.0
  0
TEXT
  8
0
  6
CONTINUOUS
 62
     2
 10
70.78
 20
49.0
 30
0.18
 40
1.8
  1
－０
 50
0.0
 41
0.6
 51
0.0
  7
KANJI3
  0
TEXT
  8
0
  6
CONTINUOUS
 62
     2
 10
70.78
 20
50.8
 30
0.18
 40
1.8
  1
＋１
 50
0.0
 41
0.6
 51
0.0
  7
KANJI3
  0
LINE
  8
0
  6
CONTINUOUS
 62
     2
 10
65.0
 20
53.75
 30
0.0
 11
64.352952387
 21
51.335185434
 31
0.0
  0
LINE
  8
0
  6
CONTINUOUS
 62
     2
 10
65.0
 20
53.75
 30
0.0
 11
65.647047613
 21
51.335185434
 31
0.0
  0
LINE
  8
0
  6
CONTINUOUS
 62
     2
 10
65.0
 20
53.75
 30
0.0
 11
65.0
 21
36.25
 31
0.0
  0
LINE
  8
0
  6
CONTINUOUS
 62
     2
 10
65.0
 20
36.25
 30
0.0
 11
65.647047613
 21
38.664814566
 31
0.0
  0
LINE
  8
0
  6
CONTINUOUS
 62
     2
 10
65.0
 20
36.25
 30
0.0
 11
64.352952387
 21
38.664814566
 31
0.0
  0
TEXT
  8
0
  6
CONTINUOUS
 62
     2
 10
66.88
 20
49.0
 30
0.3
 40
3.0
  1
８８
 50
0.0
 41
0.6
 51
0.0
  7
KANJI4
  0
TEXT
  8
0
  6
CONTINUOUS
 62
     2
 10
54.0
 20
28.0
 30
0.3
 40
3.0
  1
横形計器パネルカット図
 50
0.0
 41
0.9
 51
0.0
  7
KANJI5
  0
LINE
  8
0
  6
CONTINUOUS
 62
     2
 10
53.0
 20
27.0
 30
0.0
 11
87.0
 21
27.0
 31
0.0
  0
LINE
  8
0
  6
CONTINUOUS
 62
     2
 10
94.5
 20
45.866025404
 30
0.0
 11
96.267766953
 21
47.633792357
 31
0.0
  0
LINE
  8
0
  6
CONTINUOUS
 62
     2
 10
94.5
 20
45.866025404
 30
0.0
 11
95.147047613
 21
48.28083997
 31
0.0
  0
LINE
  8
0
  6
CONTINUOUS
 62
     2
 10
94.5
 20
45.866025404
 30
0.0
 11
99.773502692
 21
55.0
 31
0.0
  0
LINE
  8
0
  6
CONTINUOUS
 62
     2
 10
99.773502692
 20
55.0
 30
0.0
 11
135.173502692
 21
55.0
 31
0.0
  0
TEXT
  8
0
  6
CONTINUOUS
 62
     2
 10
99.773502692
 20
56.0
 30
0.3
 40
3.0
  1
２－Ｍ４タップまたはφ４．５貫通穴
 50
0.0
 41
0.6
 51
0.0
  7
KANJI4
  0
TEXT
  8
0
  6
CONTINUOUS
 62
     2
 10
65.62
 20
59.75
 30
0.3
 40
3.0
  1
９６
 50
0.0
 41
0.6
 51
0.0
  7
KANJI4
  0
LINE
  8
0
  6
LTYPE1
 62
     2
 10
46.0
 20
77.5
 30
0.0
 11
46.0
 21
82.5
 31
0.0
  0
LINE
  8
0
  6
LTYPE1
 62
     2
 10
94.0
 20
82.5
 30
0.0
 11
94.0
 21
77.5
 31
0.0
  0
LINE
  8
0
  6
LTYPE2
 62
     2
 10
51.25
 20
85.9
 30
0.0
 11
88.75
 21
85.9
 31
0.0
  0
LINE
  8
0
  6
LTYPE2
 62
     2
 10
88.75
 20
85.9
 30
0.0
 11
88.75
 21
74.5
 31
0.0
  0
LINE
  8
0
  6
LTYPE2
 62
     2
 10
88.75
 20
74.5
 30
0.0
 11
51.25
 21
74.5
 31
0.0
  0
LINE
  8
0
  6
LTYPE2
 62
     2
 10
51.25
 20
74.5
 30
0.0
 11
51.25
 21
85.9
 31
0.0
  0
LINE
  8
0
  6
CONTINUOUS
 62
     2
 10
51.25
 20
83.0
 30
0.0
 11
88.75
 21
83.0
 31
0.0
  0
LINE
  8
0
  6
CONTINUOUS
 62
     2
 10
46.0
 20
82.5
 30
0.0
 11
46.0
 21
96.75
 31
0.0
  0
LINE
  8
0
  6
CONTINUOUS
 62
     2
 10
46.0
 20
94.75
 30
0.0
 11
48.414814566
 21
94.102952387
 31
0.0
  0
LINE
  8
0
  6
CONTINUOUS
 62
     2
 10
46.0
 20
94.75
 30
0.0
 11
48.414814566
 21
95.397047613
 31
0.0
  0
LINE
  8
0
  6
CONTINUOUS
 62
     2
 10
46.0
 20
94.75
 30
0.0
 11
94.0
 21
94.75
 31
0.0
  0
LINE
  8
0
  6
CONTINUOUS
 62
     2
 10
94.0
 20
94.75
 30
0.0
 11
91.585185434
 21
95.397047613
 31
0.0
  0
LINE
  8
0
  6
CONTINUOUS
 62
     2
 10
94.0
 20
94.75
 30
0.0
 11
91.585185434
 21
94.102952387
 31
0.0
  0
LINE
  8
0
  6
CONTINUOUS
 62
     2
 10
94.0
 20
82.5
 30
0.0
 11
94.0
 21
96.75
 31
0.0
  0
TEXT
  8
0
  6
CONTINUOUS
 62
     2
 10
69.52
 20
95.75
 30
0.18
 40
1.8
  1
±０．５
 50
0.0
 41
0.6
 51
0.0
  7
KANJI3
  0
LINE
  8
0
  6
CONTINUOUS
 62
     2
 10
42.5
 20
89.25
 30
0.0
 11
42.5
 21
101.75
 31
0.0
  0
LINE
  8
0
  6
CONTINUOUS
 62
     2
 10
42.5
 20
99.75
 30
0.0
 11
44.914814566
 21
99.102952387
 31
0.0
  0
LINE
  8
0
  6
CONTINUOUS
 62
     2
 10
42.5
 20
99.75
 30
0.0
 11
44.914814566
 21
100.397047613
 31
0.0
  0
LINE
  8
0
  6
CONTINUOUS
 62
     2
 10
42.5
 20
99.75
 30
0.0
 11
97.5
 21
99.75
 31
0.0
  0
LINE
  8
0
  6
CONTINUOUS
 62
     2
 10
97.5
 20
99.75
 30
0.0
 11
95.085185434
 21
100.397047613
 31
0.0
  0
LINE
  8
0
  6
CONTINUOUS
 62
     2
 10
97.5
 20
99.75
 30
0.0
 11
95.085185434
 21
99.102952387
 31
0.0
  0
LINE
  8
0
  6
CONTINUOUS
 62
     2
 10
97.5
 20
89.25
 30
0.0
 11
97.5
 21
101.75
 31
0.0
  0
TEXT
  8
0
  6
CONTINUOUS
 62
     2
 10
67.0
 20
100.75
 30
0.3
 40
3.0
  1
１１０
 50
0.0
 41
0.6
 51
0.0
  7
KANJI4
  0
TEXT
  8
0
  6
CONTINUOUS
 62
     2
 10
65.62
 20
95.75
 30
0.3
 40
3.0
  1
９６
 50
0.0
 41
0.6
 51
0.0
  7
KANJI4
  0
LINE
  8
0
  6
CONTINUOUS
 62
     2
 10
43.0
 20
70.25
 30
0.0
 11
35.5
 21
70.25
 31
0.0
  0
LINE
  8
0
  6
CONTINUOUS
 62
     2
 10
37.5
 20
70.25
 30
0.0
 11
38.147047613
 21
72.664814566
 31
0.0
  0
LINE
  8
0
  6
CONTINUOUS
 62
     2
 10
37.5
 20
70.25
 30
0.0
 11
36.852952387
 21
72.664814566
 31
0.0
  0
LINE
  8
0
  6
CONTINUOUS
 62
     2
 10
37.5
 20
70.25
 30
0.0
 11
37.5
 21
89.75
 31
0.0
  0
LINE
  8
0
  6
CONTINUOUS
 62
     2
 10
37.5
 20
89.75
 30
0.0
 11
36.852952387
 21
87.335185434
 31
0.0
  0
LINE
  8
0
  6
CONTINUOUS
 62
     2
 10
37.5
 20
89.75
 30
0.0
 11
38.147047613
 21
87.335185434
 31
0.0
  0
LINE
  8
0
  6
CONTINUOUS
 62
     2
 10
43.0
 20
89.75
 30
0.0
 11
35.5
 21
89.75
 31
0.0
  0
TEXT
  8
0
  6
CONTINUOUS
 62
     2
 10
36.5
 20
78.05
 30
0.3
 40
3.0
  1
３９
 50
90.0
 41
0.6
 51
0.0
  7
KANJI4
  0
LINE
  8
0
  6
CONTINUOUS
 62
     2
 10
94.5625
 20
80.974278579
 30
0.0
 11
96.330266953
 21
82.742045532
 31
0.0
  0
LINE
  8
0
  6
CONTINUOUS
 62
     2
 10
94.5625
 20
80.974278579
 30
0.0
 11
95.209547613
 21
83.389093145
 31
0.0
  0
LINE
  8
0
  6
CONTINUOUS
 62
     2
 10
94.5625
 20
80.974278579
 30
0.0
 11
99.773502692
 21
90.0
 31
0.0
  0
LINE
  8
0
  6
CONTINUOUS
 62
     2
 10
99.773502692
 20
90.0
 30
0.0
 11
118.373502692
 21
90.0
 31
0.0
  0
TEXT
  8
0
  6
CONTINUOUS
 62
     2
 10
99.773502692
 20
91.0
 30
0.3
 40
3.0
  1
２－φ４．５取付穴
 50
0.0
 41
0.6
 51
0.0
  7
KANJI4
  0
LINE
  8
0
  6
LTYPE1
 62
     2
 10
61.25
 20
167.8
 30
0.0
 11
61.25
 21
163.8
 31
0.0
  0
LINE
  8
0
  6
LTYPE1
 62
     2
 10
78.75
 20
167.8
 30
0.0
 11
78.75
 21
163.8
 31
0.0
  0
CIRCLE
  8
0
  6
CONTINUOUS
 62
     2
 10
53.25
 20
158.3
 30
0.0
 40
1.15
  0
LINE
  8
0
  6
CONTINUOUS
 62
     2
 10
53.1
 20
158.9
 30
0.0
 11
53.4
 21
158.9
 31
0.0
  0
LINE
  8
0
  6
CONTINUOUS
 62
     2
 10
53.85
 20
158.45
 30
0.0
 11
53.85
 21
158.15
 31
0.0
  0
LINE
  8
0
  6
CONTINUOUS
 62
     2
 10
53.4
 20
157.7
 30
0.0
 11
53.1
 21
157.7
 31
0.0
  0
LINE
  8
0
  6
CONTINUOUS
 62
     2
 10
52.65
 20
158.15
 30
0.0
 11
52.65
 21
158.45
 31
0.0
  0
LINE
  8
0
  6
CONTINUOUS
 62
     2
 10
52.65
 20
158.45
 30
0.0
 11
52.95
 21
158.45
 31
0.0
  0
LINE
  8
0
  6
CONTINUOUS
 62
     2
 10
53.1
 20
158.6
 30
0.0
 11
53.1
 21
158.9
 31
0.0
  0
ARC
  8
0
  6
CONTINUOUS
 62
     2
 10
52.95
 20
158.6
 30
0.0
 40
0.15
 50
270.0
 51
0.0
  0
LINE
  8
0
  6
CONTINUOUS
 62
     2
 10
53.4
 20
158.9
 30
0.0
 11
53.4
 21
158.6
 31
0.0
  0
LINE
  8
0
  6
CONTINUOUS
 62
     2
 10
53.55
 20
158.45
 30
0.0
 11
53.85
 21
158.45
 31
0.0
  0
ARC
  8
0
  6
CONTINUOUS
 62
     2
 10
53.55
 20
158.6
 30
0.0
 40
0.15
 50
180.0
 51
270.0
  0
LINE
  8
0
  6
CONTINUOUS
 62
     2
 10
53.85
 20
158.15
 30
0.0
 11
53.55
 21
158.15
 31
0.0
  0
LINE
  8
0
  6
CONTINUOUS
 62
     2
 10
53.4
 20
158.0
 30
0.0
 11
53.4
 21
157.7
 31
0.0
  0
ARC
  8
0
  6
CONTINUOUS
 62
     2
 10
53.55
 20
158.0
 30
0.0
 40
0.15
 50
90.0
 51
180.0
  0
LINE
  8
0
  6
CONTINUOUS
 62
     2
 10
53.1
 20
157.7
 30
0.0
 11
53.1
 21
158.0
 31
0.0
  0
LINE
  8
0
  6
CONTINUOUS
 62
     2
 10
52.95
 20
158.15
 30
0.0
 11
52.65
 21
158.15
 31
0.0
  0
ARC
  8
0
  6
CONTINUOUS
 62
     2
 10
52.95
 20
158.0
 30
0.0
 40
0.15
 50
0.0
 51
90.0
  0
LINE
  8
0
  6
LTYPE1
 62
     2
 10
51.75
 20
158.3
 30
0.0
 11
54.75
 21
158.3
 31
0.0
  0
LINE
  8
0
  6
LTYPE1
 62
     2
 10
53.25
 20
159.8
 30
0.0
 11
53.25
 21
156.8
 31
0.0
  0
CIRCLE
  8
0
  6
CONTINUOUS
 62
     2
 10
86.75
 20
158.3
 30
0.0
 40
1.15
  0
LINE
  8
0
  6
CONTINUOUS
 62
     2
 10
86.6
 20
158.9
 30
0.0
 11
86.9
 21
158.9
 31
0.0
  0
LINE
  8
0
  6
CONTINUOUS
 62
     2
 10
87.35
 20
158.45
 30
0.0
 11
87.35
 21
158.15
 31
0.0
  0
LINE
  8
0
  6
CONTINUOUS
 62
     2
 10
86.9
 20
157.7
 30
0.0
 11
86.6
 21
157.7
 31
0.0
  0
LINE
  8
0
  6
CONTINUOUS
 62
     2
 10
86.15
 20
158.15
 30
0.0
 11
86.15
 21
158.45
 31
0.0
  0
LINE
  8
0
  6
CONTINUOUS
 62
     2
 10
86.15
 20
158.45
 30
0.0
 11
86.45
 21
158.45
 31
0.0
  0
LINE
  8
0
  6
CONTINUOUS
 62
     2
 10
86.6
 20
158.6
 30
0.0
 11
86.6
 21
158.9
 31
0.0
  0
ARC
  8
0
  6
CONTINUOUS
 62
     2
 10
86.45
 20
158.6
 30
0.0
 40
0.15
 50
270.0
 51
0.0
  0
LINE
  8
0
  6
CONTINUOUS
 62
     2
 10
86.9
 20
158.9
 30
0.0
 11
86.9
 21
158.6
 31
0.0
  0
LINE
  8
0
  6
CONTINUOUS
 62
     2
 10
87.05
 20
158.45
 30
0.0
 11
87.35
 21
158.45
 31
0.0
  0
ARC
  8
0
  6
CONTINUOUS
 62
     2
 10
87.05
 20
158.6
 30
0.0
 40
0.15
 50
180.0
 51
270.0
  0
LINE
  8
0
  6
CONTINUOUS
 62
     2
 10
87.35
 20
158.15
 30
0.0
 11
87.05
 21
158.15
 31
0.0
  0
LINE
  8
0
  6
CONTINUOUS
 62
     2
 10
86.9
 20
158.0
 30
0.0
 11
86.9
 21
157.7
 31
0.0
  0
ARC
  8
0
  6
CONTINUOUS
 62
     2
 10
87.05
 20
158.0
 30
0.0
 40
0.15
 50
90.0
 51
180.0
  0
LINE
  8
0
  6
CONTINUOUS
 62
     2
 10
86.6
 20
157.7
 30
0.0
 11
86.6
 21
158.0
 31
0.0
  0
LINE
  8
0
  6
CONTINUOUS
 62
     2
 10
86.45
 20
158.15
 30
0.0
 11
86.15
 21
158.15
 31
0.0
  0
ARC
  8
0
  6
CONTINUOUS
 62
     2
 10
86.45
 20
158.0
 30
0.0
 40
0.15
 50
0.0
 51
90.0
  0
LINE
  8
0
  6
LTYPE1
 62
     2
 10
85.25
 20
158.3
 30
0.0
 11
88.25
 21
158.3
 31
0.0
  0
LINE
  8
0
  6
LTYPE1
 62
     2
 10
86.75
 20
159.8
 30
0.0
 11
86.75
 21
156.8
 31
0.0
  0
CIRCLE
  8
0
  6
CONTINUOUS
 62
     2
 10
86.75
 20
132.8
 30
0.0
 40
1.15
  0
LINE
  8
0
  6
CONTINUOUS
 62
     2
 10
86.6
 20
133.4
 30
0.0
 11
86.9
 21
133.4
 31
0.0
  0
LINE
  8
0
  6
CONTINUOUS
 62
     2
 10
87.35
 20
132.95
 30
0.0
 11
87.35
 21
132.65
 31
0.0
  0
LINE
  8
0
  6
CONTINUOUS
 62
     2
 10
86.9
 20
132.2
 30
0.0
 11
86.6
 21
132.2
 31
0.0
  0
LINE
  8
0
  6
CONTINUOUS
 62
     2
 10
86.15
 20
132.65
 30
0.0
 11
86.15
 21
132.95
 31
0.0
  0
LINE
  8
0
  6
CONTINUOUS
 62
     2
 10
86.15
 20
132.95
 30
0.0
 11
86.45
 21
132.95
 31
0.0
  0
LINE
  8
0
  6
CONTINUOUS
 62
     2
 10
86.6
 20
133.1
 30
0.0
 11
86.6
 21
133.4
 31
0.0
  0
ARC
  8
0
  6
CONTINUOUS
 62
     2
 10
86.45
 20
133.1
 30
0.0
 40
0.15
 50
270.0
 51
0.0
  0
LINE
  8
0
  6
CONTINUOUS
 62
     2
 10
86.9
 20
133.4
 30
0.0
 11
86.9
 21
133.1
 31
0.0
  0
LINE
  8
0
  6
CONTINUOUS
 62
     2
 10
87.05
 20
132.95
 30
0.0
 11
87.35
 21
132.95
 31
0.0
  0
ARC
  8
0
  6
CONTINUOUS
 62
     2
 10
87.05
 20
133.1
 30
0.0
 40
0.15
 50
180.0
 51
270.0
  0
LINE
  8
0
  6
CONTINUOUS
 62
     2
 10
87.35
 20
132.65
 30
0.0
 11
87.05
 21
132.65
 31
0.0
  0
LINE
  8
0
  6
CONTINUOUS
 62
     2
 10
86.9
 20
132.5
 30
0.0
 11
86.9
 21
132.2
 31
0.0
  0
ARC
  8
0
  6
CONTINUOUS
 62
     2
 10
87.05
 20
132.5
 30
0.0
 40
0.15
 50
90.0
 51
180.0
  0
LINE
  8
0
  6
CONTINUOUS
 62
     2
 10
86.6
 20
132.2
 30
0.0
 11
86.6
 21
132.5
 31
0.0
  0
LINE
  8
0
  6
CONTINUOUS
 62
     2
 10
86.45
 20
132.65
 30
0.0
 11
86.15
 21
132.65
 31
0.0
  0
ARC
  8
0
  6
CONTINUOUS
 62
     2
 10
86.45
 20
132.5
 30
0.0
 40
0.15
 50
0.0
 51
90.0
  0
LINE
  8
0
  6
LTYPE1
 62
     2
 10
85.25
 20
132.8
 30
0.0
 11
88.25
 21
132.8
 31
0.0
  0
LINE
  8
0
  6
LTYPE1
 62
     2
 10
86.75
 20
134.3
 30
0.0
 11
86.75
 21
131.3
 31
0.0
  0
CIRCLE
  8
0
  6
CONTINUOUS
 62
     2
 10
53.25
 20
132.8
 30
0.0
 40
1.15
  0
LINE
  8
0
  6
CONTINUOUS
 62
     2
 10
53.1
 20
133.4
 30
0.0
 11
53.4
 21
133.4
 31
0.0
  0
LINE
  8
0
  6
CONTINUOUS
 62
     2
 10
53.85
 20
132.95
 30
0.0
 11
53.85
 21
132.65
 31
0.0
  0
LINE
  8
0
  6
CONTINUOUS
 62
     2
 10
53.4
 20
132.2
 30
0.0
 11
53.1
 21
132.2
 31
0.0
  0
LINE
  8
0
  6
CONTINUOUS
 62
     2
 10
52.65
 20
132.65
 30
0.0
 11
52.65
 21
132.95
 31
0.0
  0
LINE
  8
0
  6
CONTINUOUS
 62
     2
 10
52.65
 20
132.95
 30
0.0
 11
52.95
 21
132.95
 31
0.0
  0
LINE
  8
0
  6
CONTINUOUS
 62
     2
 10
53.1
 20
133.1
 30
0.0
 11
53.1
 21
133.4
 31
0.0
  0
ARC
  8
0
  6
CONTINUOUS
 62
     2
 10
52.95
 20
133.1
 30
0.0
 40
0.15
 50
270.0
 51
0.0
  0
LINE
  8
0
  6
CONTINUOUS
 62
     2
 10
53.4
 20
133.4
 30
0.0
 11
53.4
 21
133.1
 31
0.0
  0
LINE
  8
0
  6
CONTINUOUS
 62
     2
 10
53.55
 20
132.95
 30
0.0
 11
53.85
 21
132.95
 31
0.0
  0
ARC
  8
0
  6
CONTINUOUS
 62
     2
 10
53.55
 20
133.1
 30
0.0
 40
0.15
 50
180.0
 51
270.0
  0
LINE
  8
0
  6
CONTINUOUS
 62
     2
 10
53.85
 20
132.65
 30
0.0
 11
53.55
 21
132.65
 31
0.0
  0
LINE
  8
0
  6
CONTINUOUS
 62
     2
 10
53.4
 20
132.5
 30
0.0
 11
53.4
 21
132.2
 31
0.0
  0
ARC
  8
0
  6
CONTINUOUS
 62
     2
 10
53.55
 20
132.5
 30
0.0
 40
0.15
 50
90.0
 51
180.0
  0
LINE
  8
0
  6
CONTINUOUS
 62
     2
 10
53.1
 20
132.2
 30
0.0
 11
53.1
 21
132.5
 31
0.0
  0
LINE
  8
0
  6
CONTINUOUS
 62
     2
 10
52.95
 20
132.65
 30
0.0
 11
52.65
 21
132.65
 31
0.0
  0
ARC
  8
0
  6
CONTINUOUS
 62
     2
 10
52.95
 20
132.5
 30
0.0
 40
0.15
 50
0.0
 51
90.0
  0
LINE
  8
0
  6
LTYPE1
 62
     2
 10
51.75
 20
132.8
 30
0.0
 11
54.75
 21
132.8
 31
0.0
  0
LINE
  8
0
  6
LTYPE1
 62
     2
 10
53.25
 20
134.3
 30
0.0
 11
53.25
 21
131.3
 31
0.0
  0
LINE
  8
0
  6
LTYPE1
 62
     2
 10
46.7
 20
132.8
 30
0.0
 11
51.2
 21
132.8
 31
0.0
  0
LINE
  8
0
  6
LTYPE1
 62
     2
 10
93.3
 20
132.8
 30
0.0
 11
88.8
 21
132.8
 31
0.0
  0
LINE
  8
0
  6
LTYPE1
 62
     2
 10
94.0
 20
123.5
 30
0.0
 11
94.0
 21
127.3
 31
0.0
  0
LINE
  8
0
  6
LTYPE1
 62
     2
 10
46.0
 20
123.5
 30
0.0
 11
46.0
 21
127.3
 31
0.0
  0
LINE
  8
0
  6
LTYPE2
 62
     2
 10
95.125
 20
125.0
 30
0.0
 11
95.125
 21
125.8
 31
0.0
  0
LINE
  8
0
  6
LTYPE2
 62
     2
 10
92.875
 20
125.8
 30
0.0
 11
92.875
 21
125.0
 31
0.0
  0
LINE
  8
0
  6
LTYPE2
 62
     2
 10
47.125
 20
125.0
 30
0.0
 11
47.125
 21
125.8
 31
0.0
  0
LINE
  8
0
  6
LTYPE2
 62
     2
 10
44.875
 20
125.8
 30
0.0
 11
44.875
 21
125.0
 31
0.0
  0
LINE
  8
0
  6
LTYPE1
 62
     2
 10
70.0
 20
137.8
 30
0.0
 11
70.0
 21
117.3
 31
0.0
  0
LINE
  8
0
  6
CONTINUOUS
 62
     2
 10
50.0
 20
123.682623085
 30
0.0
 11
50.0
 21
110.8
 31
0.0
  0
LINE
  8
0
  6
CONTINUOUS
 62
     2
 10
50.0
 20
112.8
 30
0.0
 11
52.414814566
 21
112.152952387
 31
0.0
  0
LINE
  8
0
  6
CONTINUOUS
 62
     2
 10
50.0
 20
112.8
 30
0.0
 11
52.414814566
 21
113.447047613
 31
0.0
  0
LINE
  8
0
  6
CONTINUOUS
 62
     2
 10
50.0
 20
112.8
 30
0.0
 11
90.0
 21
112.8
 31
0.0
  0
LINE
  8
0
  6
CONTINUOUS
 62
     2
 10
90.0
 20
112.8
 30
0.0
 11
87.585185434
 21
113.447047613
 31
0.0
  0
LINE
  8
0
  6
CONTINUOUS
 62
     2
 10
90.0
 20
112.8
 30
0.0
 11
87.585185434
 21
112.152952387
 31
0.0
  0
LINE
  8
0
  6
CONTINUOUS
 62
     2
 10
90.0
 20
123.682623085
 30
0.0
 11
90.0
 21
110.8
 31
0.0
  0
TEXT
  8
0
  6
CONTINUOUS
 62
     2
 10
68.05
 20
113.8
 30
0.3
 40
3.0
  1
８０
 50
0.0
 41
0.6
 51
0.0
  7
KANJI4
  0
LINE
  8
0
  6
CONTINUOUS
 62
     2
 10
90.8
 20
135.8
 30
0.0
 11
90.8
 21
141.8
 31
0.0
  0
LINE
  8
0
  6
CONTINUOUS
 62
     2
 10
90.8
 20
139.8
 30
0.0
 11
88.385185434
 21
140.447047613
 31
0.0
  0
LINE
  8
0
  6
CONTINUOUS
 62
     2
 10
90.8
 20
139.8
 30
0.0
 11
88.385185434
 21
139.152952387
 31
0.0
  0
LINE
  8
0
  6
CONTINUOUS
 62
     2
 10
49.2
 20
139.8
 30
0.0
 11
51.614814566
 21
139.152952387
 31
0.0
  0
LINE
  8
0
  6
CONTINUOUS
 62
     2
 10
49.2
 20
139.8
 30
0.0
 11
51.614814566
 21
140.447047613
 31
0.0
  0
LINE
  8
0
  6
CONTINUOUS
 62
     2
 10
49.2
 20
135.8
 30
0.0
 11
49.2
 21
141.8
 31
0.0
  0
TEXT
  8
0
  6
CONTINUOUS
 62
     2
 10
72.88
 20
140.8
 30
0.18
 40
1.8
  1
±１
 50
0.0
 41
0.6
 51
0.0
  7
KANJI3
  0
LINE
  8
0
  6
CONTINUOUS
 62
     2
 10
48.2
 20
139.8
 30
0.0
 11
45.785185434
 21
140.447047613
 31
0.0
  0
LINE
  8
0
  6
CONTINUOUS
 62
     2
 10
48.2
 20
139.8
 30
0.0
 11
45.785185434
 21
139.152952387
 31
0.0
  0
LINE
  8
0
  6
CONTINUOUS
 62
     2
 10
48.2
 20
134.675
 30
0.0
 11
48.2
 21
141.8
 31
0.0
  0
TEXT
  8
0
  6
CONTINUOUS
 62
     2
 10
41.4
 20
140.8
 30
0.3
 40
3.0
  1
２
 50
0.0
 41
0.6
 51
0.0
  7
KANJI4
  0
LINE
  8
0
  6
CONTINUOUS
 62
     2
 10
91.8
 20
139.8
 30
0.0
 11
94.214814566
 21
139.152952387
 31
0.0
  0
LINE
  8
0
  6
CONTINUOUS
 62
     2
 10
91.8
 20
139.8
 30
0.0
 11
94.214814566
 21
140.447047613
 31
0.0
  0
LINE
  8
0
  6
CONTINUOUS
 62
     2
 10
91.8
 20
134.675
 30
0.0
 11
91.8
 21
141.8
 31
0.0
  0
TEXT
  8
0
  6
CONTINUOUS
 62
     2
 10
96.8
 20
140.8
 30
0.3
 40
3.0
  1
２
 50
0.0
 41
0.6
 51
0.0
  7
KANJI4
  0
LINE
  8
0
  6
CONTINUOUS
 62
     2
 10
98.6
 20
139.8
 30
0.0
 11
41.4
 21
139.8
 31
0.0
  0
TEXT
  8
0
  6
CONTINUOUS
 62
     2
 10
64.78
 20
140.8
 30
0.3
 40
3.0
  1
８３．２
 50
0.0
 41
0.6
 51
0.0
  7
KANJI4
  0
LINE
  8
0
  6
CONTINUOUS
 62
     2
 10
41.5
 20
125.0
 30
0.0
 11
35.5
 21
125.0
 31
0.0
  0
LINE
  8
0
  6
CONTINUOUS
 62
     2
 10
37.5
 20
125.0
 30
0.0
 11
36.852952387
 21
122.585185434
 31
0.0
  0
LINE
  8
0
  6
CONTINUOUS
 62
     2
 10
37.5
 20
125.0
 30
0.0
 11
38.147047613
 21
122.585185434
 31
0.0
  0
LINE
  8
0
  6
CONTINUOUS
 62
     2
 10
37.5
 20
125.0
 30
0.0
 11
37.5
 21
117.8
 31
0.0
  0
LINE
  8
0
  6
CONTINUOUS
 62
     2
 10
37.5
 20
117.8
 30
0.0
 11
38.147047613
 21
120.214814566
 31
0.0
  0
LINE
  8
0
  6
CONTINUOUS
 62
     2
 10
37.5
 20
117.8
 30
0.0
 11
36.852952387
 21
120.214814566
 31
0.0
  0
LINE
  8
0
  6
CONTINUOUS
 62
     2
 10
66.0
 20
117.8
 30
0.0
 11
35.5
 21
117.8
 31
0.0
  0
LINE
  8
0
  6
CONTINUOUS
 62
     2
 10
41.5
 20
125.8
 30
0.0
 11
35.5
 21
125.8
 31
0.0
  0
LINE
  8
0
  6
CONTINUOUS
 62
     2
 10
37.5
 20
125.8
 30
0.0
 11
38.147047613
 21
128.214814566
 31
0.0
  0
LINE
  8
0
  6
CONTINUOUS
 62
     2
 10
37.5
 20
125.8
 30
0.0
 11
36.852952387
 21
128.214814566
 31
0.0
  0
LINE
  8
0
  6
CONTINUOUS
 62
     2
 10
37.5
 20
125.8
 30
0.0
 11
37.5
 21
160.8
 31
0.0
  0
LINE
  8
0
  6
CONTINUOUS
 62
     2
 10
37.5
 20
160.8
 30
0.0
 11
36.852952387
 21
158.385185434
 31
0.0
  0
LINE
  8
0
  6
CONTINUOUS
 62
     2
 10
37.5
 20
160.8
 30
0.0
 11
38.147047613
 21
158.385185434
 31
0.0
  0
LINE
  8
0
  6
CONTINUOUS
 62
     2
 10
49.0
 20
160.8
 30
0.0
 11
35.5
 21
160.8
 31
0.0
  0
TEXT
  8
0
  6
CONTINUOUS
 62
     2
 10
36.5
 20
141.35
 30
0.3
 40
3.0
  1
７０
 50
90.0
 41
0.6
 51
0.0
  7
KANJI4
  0
LINE
  8
0
  6
CONTINUOUS
 62
     2
 10
37.5
 20
160.8
 30
0.0
 11
37.5
 21
165.6
 31
0.0
  0
LINE
  8
0
  6
CONTINUOUS
 62
     2
 10
59.15
 20
165.6
 30
0.0
 11
35.5
 21
165.6
 31
0.0
  0
TEXT
  8
0
  6
CONTINUOUS
 62
     2
 10
36.5
 20
161.25
 30
0.3
 40
3.0
  1
１０
 50
90.0
 41
0.6
 51
0.0
  7
KANJI4
  0
LINE
  8
0
  6
CONTINUOUS
 62
     2
 10
37.5
 20
125.0
 30
0.0
 11
36.852952387
 21
122.585185434
 31
0.0
  0
LINE
  8
0
  6
CONTINUOUS
 62
     2
 10
37.5
 20
125.0
 30
0.0
 11
38.147047613
 21
122.585185434
 31
0.0
  0
LINE
  8
0
  6
CONTINUOUS
 62
     2
 10
37.5
 20
120.0
 30
0.0
 11
37.5
 21
130.8
 31
0.0
  0
LINE
  8
0
  6
CONTINUOUS
 62
     2
 10
37.5
 20
125.8
 30
0.0
 11
38.147047613
 21
128.214814566
 31
0.0
  0
LINE
  8
0
  6
CONTINUOUS
 62
     2
 10
37.5
 20
125.8
 30
0.0
 11
36.852952387
 21
128.214814566
 31
0.0
  0
TEXT
  8
0
  6
CONTINUOUS
 62
     2
 10
34.0
 20
122.4
 30
0.3
 40
3.0
  1
１．６
 50
90.0
 41
0.6
 51
0.0
  7
KANJI4
  0
TEXT
  8
0
  6
CONTINUOUS
 62
     2
 10
36.5
 20
117.35
 30
0.3
 40
3.0
  1
１４．４
 50
90.0
 41
0.6
 51
0.0
  7
KANJI4
  0
LINE
  8
0
  6
CONTINUOUS
 62
     2
 10
61.25
 20
164.9
 30
0.0
 11
63.017766953
 21
166.667766953
 31
0.0
  0
LINE
  8
0
  6
CONTINUOUS
 62
     2
 10
61.25
 20
164.9
 30
0.0
 11
61.897047613
 21
167.314814566
 31
0.0
  0
LINE
  8
0
  6
CONTINUOUS
 62
     2
 10
61.25
 20
164.9
 30
0.0
 11
64.540896534
 21
170.6
 31
0.0
  0
LINE
  8
0
  6
CONTINUOUS
 62
     2
 10
64.540896534
 20
170.6
 30
0.0
 11
87.340896534
 21
170.6
 31
0.0
  0
TEXT
  8
0
  6
CONTINUOUS
 62
     2
 10
64.540896534
 20
171.6
 30
0.3
 40
3.0
  1
２－Ｍ４タ－ミナルネジ
 50
0.0
 41
0.6
 51
0.0
  7
KANJI4
  0
LINE
  8
0
  6
CONTINUOUS
 62
     2
 10
70.0
 20
154.25
 30
0.0
 11
70.647047613
 21
151.835185434
 31
0.0
  0
LINE
  8
0
  6
CONTINUOUS
 62
     2
 10
70.0
 20
154.25
 30
0.0
 11
71.767766953
 21
152.482233047
 31
0.0
  0
LINE
  8
0
  6
CONTINUOUS
 62
     2
 10
70.0
 20
154.25
 30
0.0
 11
72.886751346
 21
149.25
 31
0.0
  0
LINE
  8
0
  6
CONTINUOUS
 62
     2
 10
72.886751346
 20
149.25
 30
0.0
 11
83.086751346
 21
149.25
 31
0.0
  0
TEXT
  8
0
  6
CONTINUOUS
 62
     2
 10
72.886751346
 20
150.25
 30
0.3
 40
3.0
  1
零位調整器
 50
0.0
 41
0.6
 51
0.0
  7
KANJI4
  0
LINE
  8
0
  6
LTYPE1
 62
     2
 10
36.5
 20
80.0
 30
0.0
 11
105.0
 21
80.0
 31
0.0
  0
LINE
  8
0
  6
CONTINUOUS
 62
     2
 10
37.5
 20
160.8
 30
0.0
 11
38.093457774
 21
163.014814566
 31
0.0
  0
LINE
  8
0
  6
CONTINUOUS
 62
     2
 10
37.5
 20
165.6
 30
0.0
 11
38.085518672
 21
163.414814566
 31
0.0
  0
LINE
  8
0
  6
CONTINUOUS
 62
     2
 10
37.5
 20
160.8
 30
0.0
 11
36.906542226
 21
163.014814566
 31
0.0
  0
LINE
  8
0
  6
CONTINUOUS
 62
     2
 10
37.5
 20
165.6
 30
0.0
 11
36.914481328
 21
163.414814566
 31
0.0
  0
LINE
  8
0
  6
CONTINUOUS
 62
     2
 10
55.4
 20
78.45
 30
0.0
 11
55.4
 21
79.95
 31
0.0
  0
LINE
  8
0
  6
CONTINUOUS
 62
     2
 10
55.55
 20
79.95
 30
0.0
 11
55.55
 21
78.45
 31
0.0
  0
LINE
  8
0
  6
CONTINUOUS
 62
     2
 10
55.475
 20
79.85
 30
0.0
 11
55.475
 21
78.55
 31
0.0
  0
LINE
  8
0
  6
CONTINUOUS
 62
     2
 10
55.55
 20
78.45
 30
0.0
 11
55.4
 21
78.45
 31
0.0
  0
LINE
  8
0
  6
CONTINUOUS
 62
     2
 10
55.4
 20
79.95
 30
0.0
 11
55.55
 21
79.95
 31
0.0
  0
LINE
  8
0
  6
CONTINUOUS
 62
     2
 10
58.3
 20
78.45
 30
0.0
 11
58.3
 21
79.95
 31
0.0
  0
LINE
  8
0
  6
CONTINUOUS
 62
     2
 10
58.45
 20
79.95
 30
0.0
 11
58.45
 21
78.45
 31
0.0
  0
LINE
  8
0
  6
CONTINUOUS
 62
     2
 10
58.375
 20
79.85
 30
0.0
 11
58.375
 21
78.55
 31
0.0
  0
LINE
  8
0
  6
CONTINUOUS
 62
     2
 10
58.45
 20
78.45
 30
0.0
 11
58.3
 21
78.45
 31
0.0
  0
LINE
  8
0
  6
CONTINUOUS
 62
     2
 10
58.3
 20
79.95
 30
0.0
 11
58.45
 21
79.95
 31
0.0
  0
LINE
  8
0
  6
CONTINUOUS
 62
     2
 10
61.2
 20
78.45
 30
0.0
 11
61.2
 21
79.95
 31
0.0
  0
LINE
  8
0
  6
CONTINUOUS
 62
     2
 10
61.35
 20
79.95
 30
0.0
 11
61.35
 21
78.45
 31
0.0
  0
LINE
  8
0
  6
CONTINUOUS
 62
     2
 10
61.275
 20
79.85
 30
0.0
 11
61.275
 21
78.55
 31
0.0
  0
LINE
  8
0
  6
CONTINUOUS
 62
     2
 10
61.35
 20
78.45
 30
0.0
 11
61.2
 21
78.45
 31
0.0
  0
LINE
  8
0
  6
CONTINUOUS
 62
     2
 10
61.2
 20
79.95
 30
0.0
 11
61.35
 21
79.95
 31
0.0
  0
LINE
  8
0
  6
CONTINUOUS
 62
     2
 10
64.1
 20
78.45
 30
0.0
 11
64.1
 21
79.95
 31
0.0
  0
LINE
  8
0
  6
CONTINUOUS
 62
     2
 10
64.25
 20
79.95
 30
0.0
 11
64.25
 21
78.45
 31
0.0
  0
LINE
  8
0
  6
CONTINUOUS
 62
     2
 10
64.175
 20
79.85
 30
0.0
 11
64.175
 21
78.55
 31
0.0
  0
LINE
  8
0
  6
CONTINUOUS
 62
     2
 10
64.25
 20
78.45
 30
0.0
 11
64.1
 21
78.45
 31
0.0
  0
LINE
  8
0
  6
CONTINUOUS
 62
     2
 10
64.1
 20
79.95
 30
0.0
 11
64.25
 21
79.95
 31
0.0
  0
LINE
  8
0
  6
CONTINUOUS
 62
     2
 10
67.0
 20
78.45
 30
0.0
 11
67.0
 21
79.95
 31
0.0
  0
LINE
  8
0
  6
CONTINUOUS
 62
     2
 10
67.15
 20
79.95
 30
0.0
 11
67.15
 21
78.45
 31
0.0
  0
LINE
  8
0
  6
CONTINUOUS
 62
     2
 10
67.075
 20
79.85
 30
0.0
 11
67.075
 21
78.55
 31
0.0
  0
LINE
  8
0
  6
CONTINUOUS
 62
     2
 10
67.15
 20
78.45
 30
0.0
 11
67.0
 21
78.45
 31
0.0
  0
LINE
  8
0
  6
CONTINUOUS
 62
     2
 10
67.0
 20
79.95
 30
0.0
 11
67.15
 21
79.95
 31
0.0
  0
LINE
  8
0
  6
CONTINUOUS
 62
     2
 10
69.9
 20
78.45
 30
0.0
 11
69.9
 21
79.95
 31
0.0
  0
LINE
  8
0
  6
CONTINUOUS
 62
     2
 10
70.05
 20
79.95
 30
0.0
 11
70.05
 21
78.45
 31
0.0
  0
LINE
  8
0
  6
CONTINUOUS
 62
     2
 10
69.975
 20
79.85
 30
0.0
 11
69.975
 21
78.55
 31
0.0
  0
LINE
  8
0
  6
CONTINUOUS
 62
     2
 10
70.05
 20
78.45
 30
0.0
 11
69.9
 21
78.45
 31
0.0
  0
LINE
  8
0
  6
CONTINUOUS
 62
     2
 10
69.9
 20
79.95
 30
0.0
 11
70.05
 21
79.95
 31
0.0
  0
LINE
  8
0
  6
CONTINUOUS
 62
     2
 10
72.8
 20
78.45
 30
0.0
 11
72.8
 21
79.95
 31
0.0
  0
LINE
  8
0
  6
CONTINUOUS
 62
     2
 10
72.95
 20
79.95
 30
0.0
 11
72.95
 21
78.45
 31
0.0
  0
LINE
  8
0
  6
CONTINUOUS
 62
     2
 10
72.875
 20
79.85
 30
0.0
 11
72.875
 21
78.55
 31
0.0
  0
LINE
  8
0
  6
CONTINUOUS
 62
     2
 10
72.95
 20
78.45
 30
0.0
 11
72.8
 21
78.45
 31
0.0
  0
LINE
  8
0
  6
CONTINUOUS
 62
     2
 10
72.8
 20
79.95
 30
0.0
 11
72.95
 21
79.95
 31
0.0
  0
LINE
  8
0
  6
CONTINUOUS
 62
     2
 10
75.7
 20
78.45
 30
0.0
 11
75.7
 21
79.95
 31
0.0
  0
LINE
  8
0
  6
CONTINUOUS
 62
     2
 10
75.85
 20
79.95
 30
0.0
 11
75.85
 21
78.45
 31
0.0
  0
LINE
  8
0
  6
CONTINUOUS
 62
     2
 10
75.775
 20
79.85
 30
0.0
 11
75.775
 21
78.55
 31
0.0
  0
LINE
  8
0
  6
CONTINUOUS
 62
     2
 10
75.85
 20
78.45
 30
0.0
 11
75.7
 21
78.45
 31
0.0
  0
LINE
  8
0
  6
CONTINUOUS
 62
     2
 10
75.7
 20
79.95
 30
0.0
 11
75.85
 21
79.95
 31
0.0
  0
LINE
  8
0
  6
CONTINUOUS
 62
     2
 10
78.6
 20
78.45
 30
0.0
 11
78.6
 21
79.95
 31
0.0
  0
LINE
  8
0
  6
CONTINUOUS
 62
     2
 10
78.75
 20
79.95
 30
0.0
 11
78.75
 21
78.45
 31
0.0
  0
LINE
  8
0
  6
CONTINUOUS
 62
     2
 10
78.675
 20
79.85
 30
0.0
 11
78.675
 21
78.55
 31
0.0
  0
LINE
  8
0
  6
CONTINUOUS
 62
     2
 10
78.75
 20
78.45
 30
0.0
 11
78.6
 21
78.45
 31
0.0
  0
LINE
  8
0
  6
CONTINUOUS
 62
     2
 10
78.6
 20
79.95
 30
0.0
 11
78.75
 21
79.95
 31
0.0
  0
LINE
  8
0
  6
CONTINUOUS
 62
     2
 10
81.5
 20
78.45
 30
0.0
 11
81.5
 21
79.95
 31
0.0
  0
LINE
  8
0
  6
CONTINUOUS
 62
     2
 10
81.65
 20
79.95
 30
0.0
 11
81.65
 21
78.45
 31
0.0
  0
LINE
  8
0
  6
CONTINUOUS
 62
     2
 10
81.575
 20
79.85
 30
0.0
 11
81.575
 21
78.55
 31
0.0
  0
LINE
  8
0
  6
CONTINUOUS
 62
     2
 10
81.65
 20
78.45
 30
0.0
 11
81.5
 21
78.45
 31
0.0
  0
LINE
  8
0
  6
CONTINUOUS
 62
     2
 10
81.5
 20
79.95
 30
0.0
 11
81.65
 21
79.95
 31
0.0
  0
LINE
  8
0
  6
CONTINUOUS
 62
     2
 10
84.4
 20
78.45
 30
0.0
 11
84.4
 21
79.95
 31
0.0
  0
LINE
  8
0
  6
CONTINUOUS
 62
     2
 10
84.55
 20
79.95
 30
0.0
 11
84.55
 21
78.45
 31
0.0
  0
LINE
  8
0
  6
CONTINUOUS
 62
     2
 10
84.475
 20
79.85
 30
0.0
 11
84.475
 21
78.55
 31
0.0
  0
LINE
  8
0
  6
CONTINUOUS
 62
     2
 10
84.55
 20
78.45
 30
0.0
 11
84.4
 21
78.45
 31
0.0
  0
LINE
  8
0
  6
CONTINUOUS
 62
     2
 10
84.4
 20
79.95
 30
0.0
 11
84.55
 21
79.95
 31
0.0
  0
LINE
  8
0
  6
CONTINUOUS
 62
     2
 10
56.925
 20
79.45
 30
0.0
 11
56.925
 21
78.45
 31
0.0
  0
LINE
  8
0
  6
CONTINUOUS
 62
     2
 10
59.825
 20
79.45
 30
0.0
 11
59.825
 21
78.45
 31
0.0
  0
LINE
  8
0
  6
CONTINUOUS
 62
     2
 10
62.725
 20
79.45
 30
0.0
 11
62.725
 21
78.45
 31
0.0
  0
LINE
  8
0
  6
CONTINUOUS
 62
     2
 10
65.625
 20
79.45
 30
0.0
 11
65.625
 21
78.45
 31
0.0
  0
LINE
  8
0
  6
CONTINUOUS
 62
     2
 10
68.525
 20
79.45
 30
0.0
 11
68.525
 21
78.45
 31
0.0
  0
LINE
  8
0
  6
CONTINUOUS
 62
     2
 10
71.425
 20
79.45
 30
0.0
 11
71.425
 21
78.45
 31
0.0
  0
LINE
  8
0
  6
CONTINUOUS
 62
     2
 10
74.325
 20
79.45
 30
0.0
 11
74.325
 21
78.45
 31
0.0
  0
LINE
  8
0
  6
CONTINUOUS
 62
     2
 10
77.225
 20
79.45
 30
0.0
 11
77.225
 21
78.45
 31
0.0
  0
LINE
  8
0
  6
CONTINUOUS
 62
     2
 10
80.125
 20
79.45
 30
0.0
 11
80.125
 21
78.45
 31
0.0
  0
LINE
  8
0
  6
CONTINUOUS
 62
     2
 10
83.025
 20
79.45
 30
0.0
 11
83.025
 21
78.45
 31
0.0
  0
LINE
  8
0
  6
CONTINUOUS
 62
     2
 10
56.1
 20
83.0
 30
0.0
 11
56.1
 21
76.75
 31
0.0
  0
LINE
  8
0
  6
CONTINUOUS
 62
     2
 10
56.1
 20
76.75
 30
0.0
 11
56.35
 21
76.75
 31
0.0
  0
LINE
  8
0
  6
CONTINUOUS
 62
     2
 10
56.35
 20
76.75
 30
0.0
 11
56.35
 21
83.0
 31
0.0
  0
ARC
  8
0
  6
CONTINUOUS
 62
     2
 10
69.52545
 20
75.44051
 30
0.0
 40
0.02997
 50
90.0
 51
270.0
  0
LINE
  8
0
  6
CONTINUOUS
 62
     2
 10
69.52545
 20
75.47048
 30
0.0
 11
70.42455
 21
75.47048
 31
0.0
  0
ARC
  8
0
  6
CONTINUOUS
 62
     2
 10
70.42455
 20
75.44051
 30
0.0
 40
0.02997
 50
270.0
 51
90.0
  0
LINE
  8
0
  6
CONTINUOUS
 62
     2
 10
70.42455
 20
75.41054
 30
0.0
 11
69.52545
 21
75.41054
 31
0.0
  0
LINE
  8
0
  6
CONTINUOUS
 62
     2
 10
69.52545
 20
75.44051
 30
0.0
 11
70.42455
 21
75.44051
 31
0.0
  0
ARC
  8
0
  6
CONTINUOUS
 62
     2
 10
69.975
 20
76.03991
 30
0.0
 40
0.05994
 50
195.255118703
 51
344.744881297
  0
LINE
  8
0
  6
CONTINUOUS
 62
     2
 10
69.917172057
 20
76.024138743
 30
0.0
 11
69.557532057
 21
77.342818743
 31
0.0
  0
ARC
  8
0
  6
CONTINUOUS
 62
     2
 10
69.61536
 20
77.35859
 30
0.0
 40
0.05994
 50
15.255118703
 51
195.255118703
  0
LINE
  8
0
  6
CONTINUOUS
 62
     2
 10
69.975
 20
76.26771705
 30
0.0
 11
69.673187943
 21
77.374361257
 31
0.0
  0
LINE
  8
0
  6
CONTINUOUS
 62
     2
 10
70.276812057
 20
77.374361257
 30
0.0
 11
69.975
 21
76.26771705
 31
0.0
  0
ARC
  8
0
  6
CONTINUOUS
 62
     2
 10
70.33464
 20
77.35859
 30
0.0
 40
0.05994
 50
344.744881297
 51
164.744881297
  0
LINE
  8
0
  6
CONTINUOUS
 62
     2
 10
70.392467943
 20
77.342818743
 30
0.0
 11
70.032827943
 21
76.024138743
 31
0.0
  0
ARC
  8
0
  6
CONTINUOUS
 62
     2
 10
69.975
 20
76.03991
 30
0.0
 40
0.02997
 50
195.255118703
 51
344.744881297
  0
LINE
  8
0
  6
CONTINUOUS
 62
     2
 10
69.946086028
 20
76.032024371
 30
0.0
 11
69.586446028
 21
77.350704371
 31
0.0
  0
ARC
  8
0
  6
CONTINUOUS
 62
     2
 10
69.61536
 20
77.35859
 30
0.0
 40
0.02997
 50
15.255118703
 51
195.255118703
  0
LINE
  8
0
  6
CONTINUOUS
 62
     2
 10
69.975
 20
76.153813525
 30
0.0
 11
69.644273972
 21
77.366475629
 31
0.0
  0
LINE
  8
0
  6
CONTINUOUS
 62
     2
 10
70.305726028
 20
77.366475629
 30
0.0
 11
69.975
 21
76.153813525
 31
0.0
  0
ARC
  8
0
  6
CONTINUOUS
 62
     2
 10
70.33464
 20
77.35859
 30
0.0
 40
0.02997
 50
344.744881297
 51
164.744881297
  0
LINE
  8
0
  6
CONTINUOUS
 62
     2
 10
70.363553972
 20
77.350704371
 30
0.0
 11
70.003913972
 21
76.032024371
 31
0.0
  0
LINE
  8
0
  6
CONTINUOUS
 62
     2
 10
69.975
 20
76.03991
 30
0.0
 11
69.61536
 21
77.35859
 31
0.0
  0
LINE
  8
0
  6
CONTINUOUS
 62
     2
 10
70.33464
 20
77.35859
 30
0.0
 11
69.975
 21
76.03991
 31
0.0
  0
LINE
  8
0
  6
CONTINUOUS
 62
     2
 10
55.315433112
 20
81.279769934
 30
0.0
 11
55.293946651
 21
81.190596322
 31
0.0
  0
LINE
  8
0
  6
CONTINUOUS
 62
     2
 10
55.293946651
 20
81.190596322
 30
0.0
 11
55.277087708
 21
81.099500299
 31
0.0
  0
LINE
  8
0
  6
CONTINUOUS
 62
     2
 10
55.277087708
 20
81.099500299
 30
0.0
 11
55.265077003
 21
81.00698026
 31
0.0
  0
LINE
  8
0
  6
CONTINUOUS
 62
     2
 10
55.265077003
 20
81.00698026
 30
0.0
 11
55.258067721
 21
80.913565117
 31
0.0
  0
LINE
  8
0
  6
CONTINUOUS
 62
     2
 10
55.258067721
 20
80.913565117
 30
0.0
 11
55.256140593
 21
80.819802328
 31
0.0
  0
LINE
  8
0
  6
CONTINUOUS
 62
     2
 10
55.256140593
 20
80.819802328
 30
0.0
 11
55.259301524
 21
80.726245099
 31
0.0
  0
LINE
  8
0
  6
CONTINUOUS
 62
     2
 10
55.259301524
 20
80.726245099
 30
0.0
 11
55.26748189
 21
80.633439394
 31
0.0
  0
LINE
  8
0
  6
CONTINUOUS
 62
     2
 10
55.26748189
 20
80.633439394
 30
0.0
 11
55.280541474
 21
80.541911391
 31
0.0
  0
LINE
  8
0
  6
CONTINUOUS
 62
     2
 10
55.280541474
 20
80.541911391
 30
0.0
 11
55.298273819
 21
80.452155989
 31
0.0
  0
LINE
  8
0
  6
CONTINUOUS
 62
     2
 10
55.298273819
 20
80.452155989
 30
0.0
 11
55.320413637
 21
80.364626872
 31
0.0
  0
LINE
  8
0
  6
CONTINUOUS
 62
     2
 10
55.320413637
 20
80.364626872
 30
0.0
 11
55.357343514
 21
80.323829272
 31
0.0
  0
LINE
  8
0
  6
CONTINUOUS
 62
     2
 10
55.357343514
 20
80.323829272
 30
0.0
 11
55.404039685
 21
80.29219858
 31
0.0
  0
LINE
  8
0
  6
CONTINUOUS
 62
     2
 10
55.404039685
 20
80.29219858
 30
0.0
 11
55.482173968
 21
80.275003166
 31
0.0
  0
LINE
  8
0
  6
CONTINUOUS
 62
     2
 10
55.482173968
 20
80.275003166
 30
0.0
 11
55.54605243
 21
80.287036871
 31
0.0
  0
LINE
  8
0
  6
CONTINUOUS
 62
     2
 10
55.54605243
 20
80.287036871
 30
0.0
 11
55.604092576
 21
80.323114617
 31
0.0
  0
LINE
  8
0
  6
CONTINUOUS
 62
     2
 10
55.604092576
 20
80.323114617
 30
0.0
 11
55.635144517
 21
80.360737422
 31
0.0
  0
LINE
  8
0
  6
CONTINUOUS
 62
     2
 10
55.635144517
 20
80.360737422
 30
0.0
 11
55.663880283
 21
80.451929165
 31
0.0
  0
LINE
  8
0
  6
CONTINUOUS
 62
     2
 10
55.663880283
 20
80.451929165
 30
0.0
 11
55.681189837
 21
80.539139724
 31
0.0
  0
LINE
  8
0
  6
CONTINUOUS
 62
     2
 10
55.681189837
 20
80.539139724
 30
0.0
 11
55.694688228
 21
80.633135589
 31
0.0
  0
LINE
  8
0
  6
CONTINUOUS
 62
     2
 10
55.694688228
 20
80.633135589
 30
0.0
 11
55.7029122
 21
80.726384715
 31
0.0
  0
LINE
  8
0
  6
CONTINUOUS
 62
     2
 10
55.7029122
 20
80.726384715
 30
0.0
 11
55.706066794
 21
80.820134525
 31
0.0
  0
LINE
  8
0
  6
CONTINUOUS
 62
     2
 10
55.706066794
 20
80.820134525
 30
0.0
 11
55.703974667
 21
80.916905511
 31
0.0
  0
LINE
  8
0
  6
CONTINUOUS
 62
     2
 10
55.703974667
 20
80.916905511
 30
0.0
 11
55.697143434
 21
81.006831554
 31
0.0
  0
LINE
  8
0
  6
CONTINUOUS
 62
     2
 10
55.697143434
 20
81.006831554
 30
0.0
 11
55.685015557
 21
81.100147119
 31
0.0
  0
LINE
  8
0
  6
CONTINUOUS
 62
     2
 10
55.685015557
 20
81.100147119
 30
0.0
 11
55.668406976
 21
81.18989881
 31
0.0
  0
LINE
  8
0
  6
CONTINUOUS
 62
     2
 10
55.668406976
 20
81.18989881
 30
0.0
 11
55.645915076
 21
81.281671568
 31
0.0
  0
LINE
  8
0
  6
CONTINUOUS
 62
     2
 10
55.645915076
 20
81.281671568
 30
0.0
 11
55.613325439
 21
81.330220502
 31
0.0
  0
LINE
  8
0
  6
CONTINUOUS
 62
     2
 10
55.613325439
 20
81.330220502
 30
0.0
 11
55.559507425
 21
81.369664342
 31
0.0
  0
LINE
  8
0
  6
CONTINUOUS
 62
     2
 10
55.559507425
 20
81.369664342
 30
0.0
 11
55.487708659
 21
81.387379574
 31
0.0
  0
LINE
  8
0
  6
CONTINUOUS
 62
     2
 10
55.487708659
 20
81.387379574
 30
0.0
 11
55.404020677
 21
81.37029249
 31
0.0
  0
LINE
  8
0
  6
CONTINUOUS
 62
     2
 10
55.404020677
 20
81.37029249
 30
0.0
 11
55.348089588
 21
81.329372293
 31
0.0
  0
LINE
  8
0
  6
CONTINUOUS
 62
     2
 10
55.348089588
 20
81.329372293
 30
0.0
 11
55.315433112
 21
81.279769934
 31
0.0
  0
LINE
  8
0
  6
CONTINUOUS
 62
     2
 10
60.659375
 20
81.15
 30
0.0
 11
60.665002028
 21
81.20000499
 31
0.0
  0
LINE
  8
0
  6
CONTINUOUS
 62
     2
 10
60.665002028
 20
81.20000499
 30
0.0
 11
60.681176114
 21
81.246618906
 31
0.0
  0
LINE
  8
0
  6
CONTINUOUS
 62
     2
 10
60.681176114
 20
81.246618906
 30
0.0
 11
60.703825739
 21
81.284264531
 31
0.0
  0
LINE
  8
0
  6
CONTINUOUS
 62
     2
 10
60.703825739
 20
81.284264531
 30
0.0
 11
60.733670545
 21
81.317072341
 31
0.0
  0
LINE
  8
0
  6
CONTINUOUS
 62
     2
 10
60.733670545
 20
81.317072341
 30
0.0
 11
60.768284162
 21
81.34273795
 31
0.0
  0
LINE
  8
0
  6
CONTINUOUS
 62
     2
 10
60.768284162
 20
81.34273795
 30
0.0
 11
60.813443741
 21
81.363526946
 31
0.0
  0
LINE
  8
0
  6
CONTINUOUS
 62
     2
 10
60.813443741
 20
81.363526946
 30
0.0
 11
60.876102102
 21
81.374847858
 31
0.0
  0
LINE
  8
0
  6
CONTINUOUS
 62
     2
 10
60.876102102
 20
81.374847858
 30
0.0
 11
60.940826014
 21
81.367803313
 31
0.0
  0
LINE
  8
0
  6
CONTINUOUS
 62
     2
 10
60.940826014
 20
81.367803313
 30
0.0
 11
60.986767471
 21
81.350351646
 31
0.0
  0
LINE
  8
0
  6
CONTINUOUS
 62
     2
 10
60.986767471
 20
81.350351646
 30
0.0
 11
61.023885733
 21
81.326526925
 31
0.0
  0
LINE
  8
0
  6
CONTINUOUS
 62
     2
 10
61.023885733
 20
81.326526925
 30
0.0
 11
61.055746799
 21
81.295796798
 31
0.0
  0
LINE
  8
0
  6
CONTINUOUS
 62
     2
 10
61.055746799
 20
81.295796798
 30
0.0
 11
61.080242763
 21
81.260728585
 31
0.0
  0
LINE
  8
0
  6
CONTINUOUS
 62
     2
 10
61.080242763
 20
81.260728585
 30
0.0
 11
61.099771843
 21
81.215032299
 31
0.0
  0
LINE
  8
0
  6
CONTINUOUS
 62
     2
 10
61.099771843
 20
81.215032299
 30
0.0
 11
61.108683261
 21
81.167629641
 31
0.0
  0
LINE
  8
0
  6
CONTINUOUS
 62
     2
 10
61.108683261
 20
81.167629641
 30
0.0
 11
61.107486654
 21
81.120910655
 31
0.0
  0
LINE
  8
0
  6
CONTINUOUS
 62
     2
 10
61.107486654
 20
81.120910655
 30
0.0
 11
61.095659698
 21
81.072645127
 31
0.0
  0
LINE
  8
0
  6
CONTINUOUS
 62
     2
 10
61.095659698
 20
81.072645127
 30
0.0
 11
61.07433642
 21
81.029083903
 31
0.0
  0
LINE
  8
0
  6
CONTINUOUS
 62
     2
 10
61.07433642
 20
81.029083903
 30
0.0
 11
61.047282283
 21
80.982562343
 31
0.0
  0
LINE
  8
0
  6
CONTINUOUS
 62
     2
 10
61.047282283
 20
80.982562343
 30
0.0
 11
61.006541121
 21
80.91250495
 31
0.0
  0
LINE
  8
0
  6
CONTINUOUS
 62
     2
 10
61.006541121
 20
80.91250495
 30
0.0
 11
60.965799959
 21
80.842447557
 31
0.0
  0
LINE
  8
0
  6
CONTINUOUS
 62
     2
 10
60.965799959
 20
80.842447557
 30
0.0
 11
60.925058797
 21
80.772390164
 31
0.0
  0
LINE
  8
0
  6
CONTINUOUS
 62
     2
 10
60.925058797
 20
80.772390164
 30
0.0
 11
60.884317635
 21
80.70233277
 31
0.0
  0
LINE
  8
0
  6
CONTINUOUS
 62
     2
 10
60.884317635
 20
80.70233277
 30
0.0
 11
60.843576473
 21
80.632275377
 31
0.0
  0
LINE
  8
0
  6
CONTINUOUS
 62
     2
 10
60.843576473
 20
80.632275377
 30
0.0
 11
60.802835312
 21
80.562217984
 31
0.0
  0
LINE
  8
0
  6
CONTINUOUS
 62
     2
 10
60.802835312
 20
80.562217984
 30
0.0
 11
60.76209415
 21
80.492160591
 31
0.0
  0
LINE
  8
0
  6
CONTINUOUS
 62
     2
 10
60.76209415
 20
80.492160591
 30
0.0
 11
60.721352988
 21
80.422103197
 31
0.0
  0
LINE
  8
0
  6
CONTINUOUS
 62
     2
 10
60.721352988
 20
80.422103197
 30
0.0
 11
60.680611826
 21
80.352045804
 31
0.0
  0
LINE
  8
0
  6
CONTINUOUS
 62
     2
 10
60.680611826
 20
80.352045804
 30
0.0
 11
60.635806625
 21
80.275
 31
0.0
  0
LINE
  8
0
  6
CONTINUOUS
 62
     2
 10
60.635806625
 20
80.275
 30
0.0
 11
60.729556625
 21
80.275
 31
0.0
  0
LINE
  8
0
  6
CONTINUOUS
 62
     2
 10
60.729556625
 20
80.275
 30
0.0
 11
60.823306625
 21
80.275
 31
0.0
  0
LINE
  8
0
  6
CONTINUOUS
 62
     2
 10
60.823306625
 20
80.275
 30
0.0
 11
60.917056625
 21
80.275
 31
0.0
  0
LINE
  8
0
  6
CONTINUOUS
 62
     2
 10
60.917056625
 20
80.275
 30
0.0
 11
61.010806625
 21
80.275
 31
0.0
  0
LINE
  8
0
  6
CONTINUOUS
 62
     2
 10
61.010806625
 20
80.275
 30
0.0
 11
61.109375006
 21
80.275
 31
0.0
  0
LINE
  8
0
  6
CONTINUOUS
 62
     2
 10
61.506058112
 20
81.279769934
 30
0.0
 11
61.484571651
 21
81.190596322
 31
0.0
  0
LINE
  8
0
  6
CONTINUOUS
 62
     2
 10
61.484571651
 20
81.190596322
 30
0.0
 11
61.467712708
 21
81.099500299
 31
0.0
  0
LINE
  8
0
  6
CONTINUOUS
 62
     2
 10
61.467712708
 20
81.099500299
 30
0.0
 11
61.455702003
 21
81.00698026
 31
0.0
  0
LINE
  8
0
  6
CONTINUOUS
 62
     2
 10
61.455702003
 20
81.00698026
 30
0.0
 11
61.448692721
 21
80.913565117
 31
0.0
  0
LINE
  8
0
  6
CONTINUOUS
 62
     2
 10
61.448692721
 20
80.913565117
 30
0.0
 11
61.446765593
 21
80.819802328
 31
0.0
  0
LINE
  8
0
  6
CONTINUOUS
 62
     2
 10
61.446765593
 20
80.819802328
 30
0.0
 11
61.449926524
 21
80.726245099
 31
0.0
  0
LINE
  8
0
  6
CONTINUOUS
 62
     2
 10
61.449926524
 20
80.726245099
 30
0.0
 11
61.45810689
 21
80.633439394
 31
0.0
  0
LINE
  8
0
  6
CONTINUOUS
 62
     2
 10
61.45810689
 20
80.633439394
 30
0.0
 11
61.471166474
 21
80.541911391
 31
0.0
  0
LINE
  8
0
  6
CONTINUOUS
 62
     2
 10
61.471166474
 20
80.541911391
 30
0.0
 11
61.488898819
 21
80.452155989
 31
0.0
  0
LINE
  8
0
  6
CONTINUOUS
 62
     2
 10
61.488898819
 20
80.452155989
 30
0.0
 11
61.511038637
 21
80.364626872
 31
0.0
  0
LINE
  8
0
  6
CONTINUOUS
 62
     2
 10
61.511038637
 20
80.364626872
 30
0.0
 11
61.547968514
 21
80.323829272
 31
0.0
  0
LINE
  8
0
  6
CONTINUOUS
 62
     2
 10
61.547968514
 20
80.323829272
 30
0.0
 11
61.594664685
 21
80.29219858
 31
0.0
  0
LINE
  8
0
  6
CONTINUOUS
 62
     2
 10
61.594664685
 20
80.29219858
 30
0.0
 11
61.672798968
 21
80.275003166
 31
0.0
  0
LINE
  8
0
  6
CONTINUOUS
 62
     2
 10
61.672798968
 20
80.275003166
 30
0.0
 11
61.73667743
 21
80.287036871
 31
0.0
  0
LINE
  8
0
  6
CONTINUOUS
 62
     2
 10
61.73667743
 20
80.287036871
 30
0.0
 11
61.794717576
 21
80.323114617
 31
0.0
  0
LINE
  8
0
  6
CONTINUOUS
 62
     2
 10
61.794717576
 20
80.323114617
 30
0.0
 11
61.825769517
 21
80.360737422
 31
0.0
  0
LINE
  8
0
  6
CONTINUOUS
 62
     2
 10
61.825769517
 20
80.360737422
 30
0.0
 11
61.854505283
 21
80.451929165
 31
0.0
  0
LINE
  8
0
  6
CONTINUOUS
 62
     2
 10
61.854505283
 20
80.451929165
 30
0.0
 11
61.871814837
 21
80.539139724
 31
0.0
  0
LINE
  8
0
  6
CONTINUOUS
 62
     2
 10
61.871814837
 20
80.539139724
 30
0.0
 11
61.885313228
 21
80.633135589
 31
0.0
  0
LINE
  8
0
  6
CONTINUOUS
 62
     2
 10
61.885313228
 20
80.633135589
 30
0.0
 11
61.8935372
 21
80.726384715
 31
0.0
  0
LINE
  8
0
  6
CONTINUOUS
 62
     2
 10
61.8935372
 20
80.726384715
 30
0.0
 11
61.896691794
 21
80.820134525
 31
0.0
  0
LINE
  8
0
  6
CONTINUOUS
 62
     2
 10
61.896691794
 20
80.820134525
 30
0.0
 11
61.894599667
 21
80.916905511
 31
0.0
  0
LINE
  8
0
  6
CONTINUOUS
 62
     2
 10
61.894599667
 20
80.916905511
 30
0.0
 11
61.887768434
 21
81.006831554
 31
0.0
  0
LINE
  8
0
  6
CONTINUOUS
 62
     2
 10
61.887768434
 20
81.006831554
 30
0.0
 11
61.875640557
 21
81.100147119
 31
0.0
  0
LINE
  8
0
  6
CONTINUOUS
 62
     2
 10
61.875640557
 20
81.100147119
 30
0.0
 11
61.859031976
 21
81.18989881
 31
0.0
  0
LINE
  8
0
  6
CONTINUOUS
 62
     2
 10
61.859031976
 20
81.18989881
 30
0.0
 11
61.836540076
 21
81.281671568
 31
0.0
  0
LINE
  8
0
  6
CONTINUOUS
 62
     2
 10
61.836540076
 20
81.281671568
 30
0.0
 11
61.803950439
 21
81.330220502
 31
0.0
  0
LINE
  8
0
  6
CONTINUOUS
 62
     2
 10
61.803950439
 20
81.330220502
 30
0.0
 11
61.750132425
 21
81.369664342
 31
0.0
  0
LINE
  8
0
  6
CONTINUOUS
 62
     2
 10
61.750132425
 20
81.369664342
 30
0.0
 11
61.678333659
 21
81.387379574
 31
0.0
  0
LINE
  8
0
  6
CONTINUOUS
 62
     2
 10
61.678333659
 20
81.387379574
 30
0.0
 11
61.594645677
 21
81.37029249
 31
0.0
  0
LINE
  8
0
  6
CONTINUOUS
 62
     2
 10
61.594645677
 20
81.37029249
 30
0.0
 11
61.538714588
 21
81.329372293
 31
0.0
  0
LINE
  8
0
  6
CONTINUOUS
 62
     2
 10
61.538714588
 20
81.329372293
 30
0.0
 11
61.506058112
 21
81.279769934
 31
0.0
  0
LINE
  8
0
  6
CONTINUOUS
 62
     2
 10
67.306058112
 20
81.279769934
 30
0.0
 11
67.284571651
 21
81.190596322
 31
0.0
  0
LINE
  8
0
  6
CONTINUOUS
 62
     2
 10
67.284571651
 20
81.190596322
 30
0.0
 11
67.267712708
 21
81.099500299
 31
0.0
  0
LINE
  8
0
  6
CONTINUOUS
 62
     2
 10
67.267712708
 20
81.099500299
 30
0.0
 11
67.255702003
 21
81.00698026
 31
0.0
  0
LINE
  8
0
  6
CONTINUOUS
 62
     2
 10
67.255702003
 20
81.00698026
 30
0.0
 11
67.248692721
 21
80.913565117
 31
0.0
  0
LINE
  8
0
  6
CONTINUOUS
 62
     2
 10
67.248692721
 20
80.913565117
 30
0.0
 11
67.246765593
 21
80.819802328
 31
0.0
  0
LINE
  8
0
  6
CONTINUOUS
 62
     2
 10
67.246765593
 20
80.819802328
 30
0.0
 11
67.249926524
 21
80.726245099
 31
0.0
  0
LINE
  8
0
  6
CONTINUOUS
 62
     2
 10
67.249926524
 20
80.726245099
 30
0.0
 11
67.25810689
 21
80.633439394
 31
0.0
  0
LINE
  8
0
  6
CONTINUOUS
 62
     2
 10
67.25810689
 20
80.633439394
 30
0.0
 11
67.271166474
 21
80.541911391
 31
0.0
  0
LINE
  8
0
  6
CONTINUOUS
 62
     2
 10
67.271166474
 20
80.541911391
 30
0.0
 11
67.288898819
 21
80.452155989
 31
0.0
  0
LINE
  8
0
  6
CONTINUOUS
 62
     2
 10
67.288898819
 20
80.452155989
 30
0.0
 11
67.311038637
 21
80.364626872
 31
0.0
  0
LINE
  8
0
  6
CONTINUOUS
 62
     2
 10
67.311038637
 20
80.364626872
 30
0.0
 11
67.347968514
 21
80.323829272
 31
0.0
  0
LINE
  8
0
  6
CONTINUOUS
 62
     2
 10
67.347968514
 20
80.323829272
 30
0.0
 11
67.394664685
 21
80.29219858
 31
0.0
  0
LINE
  8
0
  6
CONTINUOUS
 62
     2
 10
67.394664685
 20
80.29219858
 30
0.0
 11
67.472798968
 21
80.275003166
 31
0.0
  0
LINE
  8
0
  6
CONTINUOUS
 62
     2
 10
67.472798968
 20
80.275003166
 30
0.0
 11
67.53667743
 21
80.287036871
 31
0.0
  0
LINE
  8
0
  6
CONTINUOUS
 62
     2
 10
67.53667743
 20
80.287036871
 30
0.0
 11
67.594717576
 21
80.323114617
 31
0.0
  0
LINE
  8
0
  6
CONTINUOUS
 62
     2
 10
67.594717576
 20
80.323114617
 30
0.0
 11
67.625769517
 21
80.360737422
 31
0.0
  0
LINE
  8
0
  6
CONTINUOUS
 62
     2
 10
67.625769517
 20
80.360737422
 30
0.0
 11
67.654505283
 21
80.451929165
 31
0.0
  0
LINE
  8
0
  6
CONTINUOUS
 62
     2
 10
67.654505283
 20
80.451929165
 30
0.0
 11
67.671814837
 21
80.539139724
 31
0.0
  0
LINE
  8
0
  6
CONTINUOUS
 62
     2
 10
67.671814837
 20
80.539139724
 30
0.0
 11
67.685313228
 21
80.633135589
 31
0.0
  0
LINE
  8
0
  6
CONTINUOUS
 62
     2
 10
67.685313228
 20
80.633135589
 30
0.0
 11
67.6935372
 21
80.726384715
 31
0.0
  0
LINE
  8
0
  6
CONTINUOUS
 62
     2
 10
67.6935372
 20
80.726384715
 30
0.0
 11
67.696691794
 21
80.820134525
 31
0.0
  0
LINE
  8
0
  6
CONTINUOUS
 62
     2
 10
67.696691794
 20
80.820134525
 30
0.0
 11
67.694599667
 21
80.916905511
 31
0.0
  0
LINE
  8
0
  6
CONTINUOUS
 62
     2
 10
67.694599667
 20
80.916905511
 30
0.0
 11
67.687768434
 21
81.006831554
 31
0.0
  0
LINE
  8
0
  6
CONTINUOUS
 62
     2
 10
67.687768434
 20
81.006831554
 30
0.0
 11
67.675640557
 21
81.100147119
 31
0.0
  0
LINE
  8
0
  6
CONTINUOUS
 62
     2
 10
67.675640557
 20
81.100147119
 30
0.0
 11
67.659031976
 21
81.18989881
 31
0.0
  0
LINE
  8
0
  6
CONTINUOUS
 62
     2
 10
67.659031976
 20
81.18989881
 30
0.0
 11
67.636540076
 21
81.281671568
 31
0.0
  0
LINE
  8
0
  6
CONTINUOUS
 62
     2
 10
67.636540076
 20
81.281671568
 30
0.0
 11
67.603950439
 21
81.330220502
 31
0.0
  0
LINE
  8
0
  6
CONTINUOUS
 62
     2
 10
67.603950439
 20
81.330220502
 30
0.0
 11
67.550132425
 21
81.369664342
 31
0.0
  0
LINE
  8
0
  6
CONTINUOUS
 62
     2
 10
67.550132425
 20
81.369664342
 30
0.0
 11
67.478333659
 21
81.387379574
 31
0.0
  0
LINE
  8
0
  6
CONTINUOUS
 62
     2
 10
67.478333659
 20
81.387379574
 30
0.0
 11
67.394645677
 21
81.37029249
 31
0.0
  0
LINE
  8
0
  6
CONTINUOUS
 62
     2
 10
67.394645677
 20
81.37029249
 30
0.0
 11
67.338714588
 21
81.329372293
 31
0.0
  0
LINE
  8
0
  6
CONTINUOUS
 62
     2
 10
67.338714588
 20
81.329372293
 30
0.0
 11
67.306058112
 21
81.279769934
 31
0.0
  0
LINE
  8
0
  6
CONTINUOUS
 62
     2
 10
66.784375
 20
80.275
 30
0.0
 11
66.784375
 21
80.36875
 31
0.0
  0
LINE
  8
0
  6
CONTINUOUS
 62
     2
 10
66.784375
 20
80.36875
 30
0.0
 11
66.784375
 21
80.4625
 31
0.0
  0
LINE
  8
0
  6
CONTINUOUS
 62
     2
 10
66.784375
 20
80.4625
 30
0.0
 11
66.784375
 21
80.55625
 31
0.0
  0
LINE
  8
0
  6
CONTINUOUS
 62
     2
 10
66.784375
 20
80.55625
 30
0.0
 11
66.784375
 21
80.65
 31
0.0
  0
LINE
  8
0
  6
CONTINUOUS
 62
     2
 10
66.784375
 20
80.65
 30
0.0
 11
66.784375
 21
80.74375
 31
0.0
  0
LINE
  8
0
  6
CONTINUOUS
 62
     2
 10
66.784375
 20
80.74375
 30
0.0
 11
66.784375
 21
80.8375
 31
0.0
  0
LINE
  8
0
  6
CONTINUOUS
 62
     2
 10
66.784375
 20
80.8375
 30
0.0
 11
66.784375
 21
80.9625
 31
0.0
  0
LINE
  8
0
  6
CONTINUOUS
 62
     2
 10
66.784375
 20
80.9625
 30
0.0
 11
66.784375
 21
80.86875
 31
0.0
  0
LINE
  8
0
  6
CONTINUOUS
 62
     2
 10
66.784375
 20
80.86875
 30
0.0
 11
66.784375
 21
80.775
 31
0.0
  0
LINE
  8
0
  6
CONTINUOUS
 62
     2
 10
66.784375
 20
80.775
 30
0.0
 11
66.784375
 21
80.68125
 31
0.0
  0
LINE
  8
0
  6
CONTINUOUS
 62
     2
 10
66.784375
 20
80.68125
 30
0.0
 11
66.784375
 21
80.5875
 31
0.0
  0
LINE
  8
0
  6
CONTINUOUS
 62
     2
 10
66.784375
 20
80.5875
 30
0.0
 11
66.784375
 21
80.525
 31
0.0
  0
LINE
  8
0
  6
CONTINUOUS
 62
     2
 10
66.784375
 20
80.525
 30
0.0
 11
66.909375
 21
80.525
 31
0.0
  0
LINE
  8
0
  6
CONTINUOUS
 62
     2
 10
66.909375
 20
80.525
 30
0.0
 11
66.815625
 21
80.525
 31
0.0
  0
LINE
  8
0
  6
CONTINUOUS
 62
     2
 10
66.815625
 20
80.525
 30
0.0
 11
66.721875
 21
80.525
 31
0.0
  0
LINE
  8
0
  6
CONTINUOUS
 62
     2
 10
66.721875
 20
80.525
 30
0.0
 11
66.628125
 21
80.525
 31
0.0
  0
LINE
  8
0
  6
CONTINUOUS
 62
     2
 10
66.628125
 20
80.525
 30
0.0
 11
66.534375
 21
80.525
 31
0.0
  0
LINE
  8
0
  6
CONTINUOUS
 62
     2
 10
66.534375
 20
80.525
 30
0.0
 11
66.459375
 21
80.525
 31
0.0
  0
LINE
  8
0
  6
CONTINUOUS
 62
     2
 10
66.459375
 20
80.525
 30
0.0
 11
66.480905172
 21
80.613512931
 31
0.0
  0
LINE
  8
0
  6
CONTINUOUS
 62
     2
 10
66.480905172
 20
80.613512931
 30
0.0
 11
66.502435345
 21
80.702025862
 31
0.0
  0
LINE
  8
0
  6
CONTINUOUS
 62
     2
 10
66.502435345
 20
80.702025862
 30
0.0
 11
66.523965517
 21
80.790538793
 31
0.0
  0
LINE
  8
0
  6
CONTINUOUS
 62
     2
 10
66.523965517
 20
80.790538793
 30
0.0
 11
66.54549569
 21
80.879051724
 31
0.0
  0
LINE
  8
0
  6
CONTINUOUS
 62
     2
 10
66.54549569
 20
80.879051724
 30
0.0
 11
66.567025862
 21
80.967564655
 31
0.0
  0
LINE
  8
0
  6
CONTINUOUS
 62
     2
 10
66.567025862
 20
80.967564655
 30
0.0
 11
66.588556034
 21
81.056077586
 31
0.0
  0
LINE
  8
0
  6
CONTINUOUS
 62
     2
 10
66.588556034
 20
81.056077586
 30
0.0
 11
66.610086207
 21
81.144590517
 31
0.0
  0
LINE
  8
0
  6
CONTINUOUS
 62
     2
 10
66.610086207
 20
81.144590517
 30
0.0
 11
66.631616379
 21
81.233103448
 31
0.0
  0
LINE
  8
0
  6
CONTINUOUS
 62
     2
 10
66.631616379
 20
81.233103448
 30
0.0
 11
66.653146552
 21
81.321616379
 31
0.0
  0
LINE
  8
0
  6
CONTINUOUS
 62
     2
 10
66.653146552
 20
81.321616379
 30
0.0
 11
66.666648632
 21
81.37712493
 31
0.0
  0
LINE
  8
0
  6
CONTINUOUS
 62
     2
 10
73.106058112
 20
81.279769934
 30
0.0
 11
73.084571651
 21
81.190596322
 31
0.0
  0
LINE
  8
0
  6
CONTINUOUS
 62
     2
 10
73.084571651
 20
81.190596322
 30
0.0
 11
73.067712708
 21
81.099500299
 31
0.0
  0
LINE
  8
0
  6
CONTINUOUS
 62
     2
 10
73.067712708
 20
81.099500299
 30
0.0
 11
73.055702003
 21
81.00698026
 31
0.0
  0
LINE
  8
0
  6
CONTINUOUS
 62
     2
 10
73.055702003
 20
81.00698026
 30
0.0
 11
73.048692721
 21
80.913565117
 31
0.0
  0
LINE
  8
0
  6
CONTINUOUS
 62
     2
 10
73.048692721
 20
80.913565117
 30
0.0
 11
73.046765593
 21
80.819802328
 31
0.0
  0
LINE
  8
0
  6
CONTINUOUS
 62
     2
 10
73.046765593
 20
80.819802328
 30
0.0
 11
73.049926524
 21
80.726245099
 31
0.0
  0
LINE
  8
0
  6
CONTINUOUS
 62
     2
 10
73.049926524
 20
80.726245099
 30
0.0
 11
73.05810689
 21
80.633439394
 31
0.0
  0
LINE
  8
0
  6
CONTINUOUS
 62
     2
 10
73.05810689
 20
80.633439394
 30
0.0
 11
73.071166474
 21
80.541911391
 31
0.0
  0
LINE
  8
0
  6
CONTINUOUS
 62
     2
 10
73.071166474
 20
80.541911391
 30
0.0
 11
73.088898819
 21
80.452155989
 31
0.0
  0
LINE
  8
0
  6
CONTINUOUS
 62
     2
 10
73.088898819
 20
80.452155989
 30
0.0
 11
73.111038637
 21
80.364626872
 31
0.0
  0
LINE
  8
0
  6
CONTINUOUS
 62
     2
 10
73.111038637
 20
80.364626872
 30
0.0
 11
73.147968514
 21
80.323829272
 31
0.0
  0
LINE
  8
0
  6
CONTINUOUS
 62
     2
 10
73.147968514
 20
80.323829272
 30
0.0
 11
73.194664685
 21
80.29219858
 31
0.0
  0
LINE
  8
0
  6
CONTINUOUS
 62
     2
 10
73.194664685
 20
80.29219858
 30
0.0
 11
73.272798968
 21
80.275003166
 31
0.0
  0
LINE
  8
0
  6
CONTINUOUS
 62
     2
 10
73.272798968
 20
80.275003166
 30
0.0
 11
73.33667743
 21
80.287036871
 31
0.0
  0
LINE
  8
0
  6
CONTINUOUS
 62
     2
 10
73.33667743
 20
80.287036871
 30
0.0
 11
73.394717576
 21
80.323114617
 31
0.0
  0
LINE
  8
0
  6
CONTINUOUS
 62
     2
 10
73.394717576
 20
80.323114617
 30
0.0
 11
73.425769517
 21
80.360737422
 31
0.0
  0
LINE
  8
0
  6
CONTINUOUS
 62
     2
 10
73.425769517
 20
80.360737422
 30
0.0
 11
73.454505283
 21
80.451929165
 31
0.0
  0
LINE
  8
0
  6
CONTINUOUS
 62
     2
 10
73.454505283
 20
80.451929165
 30
0.0
 11
73.471814837
 21
80.539139724
 31
0.0
  0
LINE
  8
0
  6
CONTINUOUS
 62
     2
 10
73.471814837
 20
80.539139724
 30
0.0
 11
73.485313228
 21
80.633135589
 31
0.0
  0
LINE
  8
0
  6
CONTINUOUS
 62
     2
 10
73.485313228
 20
80.633135589
 30
0.0
 11
73.4935372
 21
80.726384715
 31
0.0
  0
LINE
  8
0
  6
CONTINUOUS
 62
     2
 10
73.4935372
 20
80.726384715
 30
0.0
 11
73.496691794
 21
80.820134525
 31
0.0
  0
LINE
  8
0
  6
CONTINUOUS
 62
     2
 10
73.496691794
 20
80.820134525
 30
0.0
 11
73.494599667
 21
80.916905511
 31
0.0
  0
LINE
  8
0
  6
CONTINUOUS
 62
     2
 10
73.494599667
 20
80.916905511
 30
0.0
 11
73.487768434
 21
81.006831554
 31
0.0
  0
LINE
  8
0
  6
CONTINUOUS
 62
     2
 10
73.487768434
 20
81.006831554
 30
0.0
 11
73.475640557
 21
81.100147119
 31
0.0
  0
LINE
  8
0
  6
CONTINUOUS
 62
     2
 10
73.475640557
 20
81.100147119
 30
0.0
 11
73.459031976
 21
81.18989881
 31
0.0
  0
LINE
  8
0
  6
CONTINUOUS
 62
     2
 10
73.459031976
 20
81.18989881
 30
0.0
 11
73.436540076
 21
81.281671568
 31
0.0
  0
LINE
  8
0
  6
CONTINUOUS
 62
     2
 10
73.436540076
 20
81.281671568
 30
0.0
 11
73.403950439
 21
81.330220502
 31
0.0
  0
LINE
  8
0
  6
CONTINUOUS
 62
     2
 10
73.403950439
 20
81.330220502
 30
0.0
 11
73.350132425
 21
81.369664342
 31
0.0
  0
LINE
  8
0
  6
CONTINUOUS
 62
     2
 10
73.350132425
 20
81.369664342
 30
0.0
 11
73.278333659
 21
81.387379574
 31
0.0
  0
LINE
  8
0
  6
CONTINUOUS
 62
     2
 10
73.278333659
 20
81.387379574
 30
0.0
 11
73.194645677
 21
81.37029249
 31
0.0
  0
LINE
  8
0
  6
CONTINUOUS
 62
     2
 10
73.194645677
 20
81.37029249
 30
0.0
 11
73.138714588
 21
81.329372293
 31
0.0
  0
LINE
  8
0
  6
CONTINUOUS
 62
     2
 10
73.138714588
 20
81.329372293
 30
0.0
 11
73.106058112
 21
81.279769934
 31
0.0
  0
LINE
  8
0
  6
CONTINUOUS
 62
     2
 10
72.246875
 20
80.575
 30
0.0
 11
72.258256484
 21
80.666756635
 31
0.0
  0
LINE
  8
0
  6
CONTINUOUS
 62
     2
 10
72.258256484
 20
80.666756635
 30
0.0
 11
72.288907705
 21
80.745403636
 31
0.0
  0
LINE
  8
0
  6
CONTINUOUS
 62
     2
 10
72.288907705
 20
80.745403636
 30
0.0
 11
72.335346336
 21
80.808587601
 31
0.0
  0
LINE
  8
0
  6
CONTINUOUS
 62
     2
 10
72.335346336
 20
80.808587601
 30
0.0
 11
72.398136006
 21
80.854523702
 31
0.0
  0
LINE
  8
0
  6
CONTINUOUS
 62
     2
 10
72.398136006
 20
80.854523702
 30
0.0
 11
72.476132606
 21
80.874819282
 31
0.0
  0
LINE
  8
0
  6
CONTINUOUS
 62
     2
 10
72.476132606
 20
80.874819282
 30
0.0
 11
72.57753238
 21
80.85095867
 31
0.0
  0
LINE
  8
0
  6
CONTINUOUS
 62
     2
 10
72.57753238
 20
80.85095867
 30
0.0
 11
72.631045142
 21
80.810957487
 31
0.0
  0
LINE
  8
0
  6
CONTINUOUS
 62
     2
 10
72.631045142
 20
80.810957487
 30
0.0
 11
72.680254129
 21
80.744647405
 31
0.0
  0
LINE
  8
0
  6
CONTINUOUS
 62
     2
 10
72.680254129
 20
80.744647405
 30
0.0
 11
72.71004367
 21
80.668506976
 31
0.0
  0
LINE
  8
0
  6
CONTINUOUS
 62
     2
 10
72.71004367
 20
80.668506976
 30
0.0
 11
72.72187492
 21
80.574754436
 31
0.0
  0
LINE
  8
0
  6
CONTINUOUS
 62
     2
 10
72.72187492
 20
80.574754436
 30
0.0
 11
72.714768576
 21
80.502162212
 31
0.0
  0
LINE
  8
0
  6
CONTINUOUS
 62
     2
 10
72.714768576
 20
80.502162212
 30
0.0
 11
72.688017811
 21
80.420626521
 31
0.0
  0
LINE
  8
0
  6
CONTINUOUS
 62
     2
 10
72.688017811
 20
80.420626521
 30
0.0
 11
72.632828355
 21
80.340828612
 31
0.0
  0
LINE
  8
0
  6
CONTINUOUS
 62
     2
 10
72.632828355
 20
80.340828612
 30
0.0
 11
72.581547213
 21
80.301259342
 31
0.0
  0
LINE
  8
0
  6
CONTINUOUS
 62
     2
 10
72.581547213
 20
80.301259342
 30
0.0
 11
72.478460838
 21
80.275093029
 31
0.0
  0
LINE
  8
0
  6
CONTINUOUS
 62
     2
 10
72.478460838
 20
80.275093029
 30
0.0
 11
72.402525269
 21
80.293378468
 31
0.0
  0
LINE
  8
0
  6
CONTINUOUS
 62
     2
 10
72.402525269
 20
80.293378468
 30
0.0
 11
72.334303532
 21
80.342480097
 31
0.0
  0
LINE
  8
0
  6
CONTINUOUS
 62
     2
 10
72.334303532
 20
80.342480097
 30
0.0
 11
72.286000972
 21
80.410043017
 31
0.0
  0
LINE
  8
0
  6
CONTINUOUS
 62
     2
 10
72.286000972
 20
80.410043017
 30
0.0
 11
72.25600575
 21
80.492615995
 31
0.0
  0
LINE
  8
0
  6
CONTINUOUS
 62
     2
 10
72.25600575
 20
80.492615995
 30
0.0
 11
72.250489357
 21
80.666598667
 31
0.0
  0
LINE
  8
0
  6
CONTINUOUS
 62
     2
 10
72.250489357
 20
80.666598667
 30
0.0
 11
72.259342834
 21
80.74480067
 31
0.0
  0
LINE
  8
0
  6
CONTINUOUS
 62
     2
 10
72.259342834
 20
80.74480067
 30
0.0
 11
72.276837963
 21
80.837232929
 31
0.0
  0
LINE
  8
0
  6
CONTINUOUS
 62
     2
 10
72.276837963
 20
80.837232929
 30
0.0
 11
72.303227881
 21
80.932553914
 31
0.0
  0
LINE
  8
0
  6
CONTINUOUS
 62
     2
 10
72.303227881
 20
80.932553914
 30
0.0
 11
72.333014242
 21
81.01415119
 31
0.0
  0
LINE
  8
0
  6
CONTINUOUS
 62
     2
 10
72.333014242
 20
81.01415119
 30
0.0
 11
72.367567539
 21
81.090794013
 31
0.0
  0
LINE
  8
0
  6
CONTINUOUS
 62
     2
 10
72.367567539
 20
81.090794013
 30
0.0
 11
72.405997042
 21
81.162059558
 31
0.0
  0
LINE
  8
0
  6
CONTINUOUS
 62
     2
 10
72.405997042
 20
81.162059558
 30
0.0
 11
72.447410333
 21
81.227709913
 31
0.0
  0
LINE
  8
0
  6
CONTINUOUS
 62
     2
 10
72.447410333
 20
81.227709913
 30
0.0
 11
72.490950956
 21
81.287673506
 31
0.0
  0
LINE
  8
0
  6
CONTINUOUS
 62
     2
 10
72.490950956
 20
81.287673506
 30
0.0
 11
72.567484827
 21
81.37664031
 31
0.0
  0
LINE
  8
0
  6
CONTINUOUS
 62
     2
 10
78.906058112
 20
81.279769934
 30
0.0
 11
78.884571651
 21
81.190596322
 31
0.0
  0
LINE
  8
0
  6
CONTINUOUS
 62
     2
 10
78.884571651
 20
81.190596322
 30
0.0
 11
78.867712708
 21
81.099500299
 31
0.0
  0
LINE
  8
0
  6
CONTINUOUS
 62
     2
 10
78.867712708
 20
81.099500299
 30
0.0
 11
78.855702003
 21
81.00698026
 31
0.0
  0
LINE
  8
0
  6
CONTINUOUS
 62
     2
 10
78.855702003
 20
81.00698026
 30
0.0
 11
78.848692721
 21
80.913565117
 31
0.0
  0
LINE
  8
0
  6
CONTINUOUS
 62
     2
 10
78.848692721
 20
80.913565117
 30
0.0
 11
78.846765593
 21
80.819802328
 31
0.0
  0
LINE
  8
0
  6
CONTINUOUS
 62
     2
 10
78.846765593
 20
80.819802328
 30
0.0
 11
78.849926524
 21
80.726245099
 31
0.0
  0
LINE
  8
0
  6
CONTINUOUS
 62
     2
 10
78.849926524
 20
80.726245099
 30
0.0
 11
78.85810689
 21
80.633439394
 31
0.0
  0
LINE
  8
0
  6
CONTINUOUS
 62
     2
 10
78.85810689
 20
80.633439394
 30
0.0
 11
78.871166474
 21
80.541911391
 31
0.0
  0
LINE
  8
0
  6
CONTINUOUS
 62
     2
 10
78.871166474
 20
80.541911391
 30
0.0
 11
78.888898819
 21
80.452155989
 31
0.0
  0
LINE
  8
0
  6
CONTINUOUS
 62
     2
 10
78.888898819
 20
80.452155989
 30
0.0
 11
78.911038637
 21
80.364626872
 31
0.0
  0
LINE
  8
0
  6
CONTINUOUS
 62
     2
 10
78.911038637
 20
80.364626872
 30
0.0
 11
78.947968514
 21
80.323829272
 31
0.0
  0
LINE
  8
0
  6
CONTINUOUS
 62
     2
 10
78.947968514
 20
80.323829272
 30
0.0
 11
78.994664685
 21
80.29219858
 31
0.0
  0
LINE
  8
0
  6
CONTINUOUS
 62
     2
 10
78.994664685
 20
80.29219858
 30
0.0
 11
79.072798968
 21
80.275003166
 31
0.0
  0
LINE
  8
0
  6
CONTINUOUS
 62
     2
 10
79.072798968
 20
80.275003166
 30
0.0
 11
79.13667743
 21
80.287036871
 31
0.0
  0
LINE
  8
0
  6
CONTINUOUS
 62
     2
 10
79.13667743
 20
80.287036871
 30
0.0
 11
79.194717576
 21
80.323114617
 31
0.0
  0
LINE
  8
0
  6
CONTINUOUS
 62
     2
 10
79.194717576
 20
80.323114617
 30
0.0
 11
79.225769517
 21
80.360737422
 31
0.0
  0
LINE
  8
0
  6
CONTINUOUS
 62
     2
 10
79.225769517
 20
80.360737422
 30
0.0
 11
79.254505283
 21
80.451929165
 31
0.0
  0
LINE
  8
0
  6
CONTINUOUS
 62
     2
 10
79.254505283
 20
80.451929165
 30
0.0
 11
79.271814837
 21
80.539139724
 31
0.0
  0
LINE
  8
0
  6
CONTINUOUS
 62
     2
 10
79.271814837
 20
80.539139724
 30
0.0
 11
79.285313228
 21
80.633135589
 31
0.0
  0
LINE
  8
0
  6
CONTINUOUS
 62
     2
 10
79.285313228
 20
80.633135589
 30
0.0
 11
79.2935372
 21
80.726384715
 31
0.0
  0
LINE
  8
0
  6
CONTINUOUS
 62
     2
 10
79.2935372
 20
80.726384715
 30
0.0
 11
79.296691794
 21
80.820134525
 31
0.0
  0
LINE
  8
0
  6
CONTINUOUS
 62
     2
 10
79.296691794
 20
80.820134525
 30
0.0
 11
79.294599667
 21
80.916905511
 31
0.0
  0
LINE
  8
0
  6
CONTINUOUS
 62
     2
 10
79.294599667
 20
80.916905511
 30
0.0
 11
79.287768434
 21
81.006831554
 31
0.0
  0
LINE
  8
0
  6
CONTINUOUS
 62
     2
 10
79.287768434
 20
81.006831554
 30
0.0
 11
79.275640557
 21
81.100147119
 31
0.0
  0
LINE
  8
0
  6
CONTINUOUS
 62
     2
 10
79.275640557
 20
81.100147119
 30
0.0
 11
79.259031976
 21
81.18989881
 31
0.0
  0
LINE
  8
0
  6
CONTINUOUS
 62
     2
 10
79.259031976
 20
81.18989881
 30
0.0
 11
79.236540076
 21
81.281671568
 31
0.0
  0
LINE
  8
0
  6
CONTINUOUS
 62
     2
 10
79.236540076
 20
81.281671568
 30
0.0
 11
79.203950439
 21
81.330220502
 31
0.0
  0
LINE
  8
0
  6
CONTINUOUS
 62
     2
 10
79.203950439
 20
81.330220502
 30
0.0
 11
79.150132425
 21
81.369664342
 31
0.0
  0
LINE
  8
0
  6
CONTINUOUS
 62
     2
 10
79.150132425
 20
81.369664342
 30
0.0
 11
79.078333659
 21
81.387379574
 31
0.0
  0
LINE
  8
0
  6
CONTINUOUS
 62
     2
 10
79.078333659
 20
81.387379574
 30
0.0
 11
78.994645677
 21
81.37029249
 31
0.0
  0
LINE
  8
0
  6
CONTINUOUS
 62
     2
 10
78.994645677
 20
81.37029249
 30
0.0
 11
78.938714588
 21
81.329372293
 31
0.0
  0
LINE
  8
0
  6
CONTINUOUS
 62
     2
 10
78.938714588
 20
81.329372293
 30
0.0
 11
78.906058112
 21
81.279769934
 31
0.0
  0
LINE
  8
0
  6
CONTINUOUS
 62
     2
 10
78.284375031
 20
80.875
 30
0.0
 11
78.344817187
 21
80.865122352
 31
0.0
  0
LINE
  8
0
  6
CONTINUOUS
 62
     2
 10
78.344817187
 20
80.865122352
 30
0.0
 11
78.394550352
 21
80.840766866
 31
0.0
  0
LINE
  8
0
  6
CONTINUOUS
 62
     2
 10
78.394550352
 20
80.840766866
 30
0.0
 11
78.443864676
 21
80.79729172
 31
0.0
  0
LINE
  8
0
  6
CONTINUOUS
 62
     2
 10
78.443864676
 20
80.79729172
 30
0.0
 11
78.486858965
 21
80.731786819
 31
0.0
  0
LINE
  8
0
  6
CONTINUOUS
 62
     2
 10
78.486858965
 20
80.731786819
 30
0.0
 11
78.513869266
 21
80.652234973
 31
0.0
  0
LINE
  8
0
  6
CONTINUOUS
 62
     2
 10
78.513869266
 20
80.652234973
 30
0.0
 11
78.521873881
 21
80.574078929
 31
0.0
  0
LINE
  8
0
  6
CONTINUOUS
 62
     2
 10
78.521873881
 20
80.574078929
 30
0.0
 11
78.513001158
 21
80.493760877
 31
0.0
  0
LINE
  8
0
  6
CONTINUOUS
 62
     2
 10
78.513001158
 20
80.493760877
 30
0.0
 11
78.489540263
 21
80.423877187
 31
0.0
  0
LINE
  8
0
  6
CONTINUOUS
 62
     2
 10
78.489540263
 20
80.423877187
 30
0.0
 11
78.445410284
 21
80.354493412
 31
0.0
  0
LINE
  8
0
  6
CONTINUOUS
 62
     2
 10
78.445410284
 20
80.354493412
 30
0.0
 11
78.396753622
 21
80.310709165
 31
0.0
  0
LINE
  8
0
  6
CONTINUOUS
 62
     2
 10
78.396753622
 20
80.310709165
 30
0.0
 11
78.343863333
 21
80.28456325
 31
0.0
  0
LINE
  8
0
  6
CONTINUOUS
 62
     2
 10
78.343863333
 20
80.28456325
 30
0.0
 11
78.284488404
 21
80.275000034
 31
0.0
  0
LINE
  8
0
  6
CONTINUOUS
 62
     2
 10
78.284488404
 20
80.275000034
 30
0.0
 11
78.216481012
 21
80.287519426
 31
0.0
  0
LINE
  8
0
  6
CONTINUOUS
 62
     2
 10
78.216481012
 20
80.287519426
 30
0.0
 11
78.169550337
 21
80.312392096
 31
0.0
  0
LINE
  8
0
  6
CONTINUOUS
 62
     2
 10
78.169550337
 20
80.312392096
 30
0.0
 11
78.12577036
 21
80.351700198
 31
0.0
  0
LINE
  8
0
  6
CONTINUOUS
 62
     2
 10
78.12577036
 20
80.351700198
 30
0.0
 11
78.080873889
 21
80.42032866
 31
0.0
  0
LINE
  8
0
  6
CONTINUOUS
 62
     2
 10
78.080873889
 20
80.42032866
 30
0.0
 11
78.056082089
 21
80.4922791
 31
0.0
  0
LINE
  8
0
  6
CONTINUOUS
 62
     2
 10
78.056082089
 20
80.4922791
 30
0.0
 11
78.046877927
 21
80.573510574
 31
0.0
  0
LINE
  8
0
  6
CONTINUOUS
 62
     2
 10
78.046877927
 20
80.573510574
 30
0.0
 11
78.054853492
 21
80.652105701
 31
0.0
  0
LINE
  8
0
  6
CONTINUOUS
 62
     2
 10
78.054853492
 20
80.652105701
 30
0.0
 11
78.082506076
 21
80.73304719
 31
0.0
  0
LINE
  8
0
  6
CONTINUOUS
 62
     2
 10
78.082506076
 20
80.73304719
 30
0.0
 11
78.123243108
 21
80.795393954
 31
0.0
  0
LINE
  8
0
  6
CONTINUOUS
 62
     2
 10
78.123243108
 20
80.795393954
 30
0.0
 11
78.177897972
 21
80.843161288
 31
0.0
  0
LINE
  8
0
  6
CONTINUOUS
 62
     2
 10
78.177897972
 20
80.843161288
 30
0.0
 11
78.23969925
 21
80.869644481
 31
0.0
  0
LINE
  8
0
  6
CONTINUOUS
 62
     2
 10
78.23969925
 20
80.869644481
 30
0.0
 11
78.346870146
 21
80.887518564
 31
0.0
  0
LINE
  8
0
  6
CONTINUOUS
 62
     2
 10
78.346870146
 20
80.887518564
 30
0.0
 11
78.399414174
 21
80.920496071
 31
0.0
  0
LINE
  8
0
  6
CONTINUOUS
 62
     2
 10
78.399414174
 20
80.920496071
 30
0.0
 11
78.440954935
 21
80.969463008
 31
0.0
  0
LINE
  8
0
  6
CONTINUOUS
 62
     2
 10
78.440954935
 20
80.969463008
 30
0.0
 11
78.471969293
 21
81.038321886
 31
0.0
  0
LINE
  8
0
  6
CONTINUOUS
 62
     2
 10
78.471969293
 20
81.038321886
 30
0.0
 11
78.48437392
 21
81.125821495
 31
0.0
  0
LINE
  8
0
  6
CONTINUOUS
 62
     2
 10
78.48437392
 20
81.125821495
 30
0.0
 11
78.472341485
 21
81.210408948
 31
0.0
  0
LINE
  8
0
  6
CONTINUOUS
 62
     2
 10
78.472341485
 20
81.210408948
 30
0.0
 11
78.440328148
 21
81.281517848
 31
0.0
  0
LINE
  8
0
  6
CONTINUOUS
 62
     2
 10
78.440328148
 20
81.281517848
 30
0.0
 11
78.39673936
 21
81.33181457
 31
0.0
  0
LINE
  8
0
  6
CONTINUOUS
 62
     2
 10
78.39673936
 20
81.33181457
 30
0.0
 11
78.347360356
 21
81.362278992
 31
0.0
  0
LINE
  8
0
  6
CONTINUOUS
 62
     2
 10
78.347360356
 20
81.362278992
 30
0.0
 11
78.284879728
 21
81.374999204
 31
0.0
  0
LINE
  8
0
  6
CONTINUOUS
 62
     2
 10
78.284879728
 20
81.374999204
 30
0.0
 11
78.222335643
 21
81.362668092
 31
0.0
  0
LINE
  8
0
  6
CONTINUOUS
 62
     2
 10
78.222335643
 20
81.362668092
 30
0.0
 11
78.172085819
 21
81.33187836
 31
0.0
  0
LINE
  8
0
  6
CONTINUOUS
 62
     2
 10
78.172085819
 20
81.33187836
 30
0.0
 11
78.128528853
 21
81.281684289
 31
0.0
  0
LINE
  8
0
  6
CONTINUOUS
 62
     2
 10
78.128528853
 20
81.281684289
 30
0.0
 11
78.09672908
 21
81.211503331
 31
0.0
  0
LINE
  8
0
  6
CONTINUOUS
 62
     2
 10
78.09672908
 20
81.211503331
 30
0.0
 11
78.084376587
 21
81.124004065
 31
0.0
  0
LINE
  8
0
  6
CONTINUOUS
 62
     2
 10
78.084376587
 20
81.124004065
 30
0.0
 11
78.09682866
 21
81.038159896
 31
0.0
  0
LINE
  8
0
  6
CONTINUOUS
 62
     2
 10
78.09682866
 20
81.038159896
 30
0.0
 11
78.127925745
 21
80.969257672
 31
0.0
  0
LINE
  8
0
  6
CONTINUOUS
 62
     2
 10
78.127925745
 20
80.969257672
 30
0.0
 11
78.175762617
 21
80.915076836
 31
0.0
  0
LINE
  8
0
  6
CONTINUOUS
 62
     2
 10
78.175762617
 20
80.915076836
 30
0.0
 11
78.231351436
 21
80.883945994
 31
0.0
  0
LINE
  8
0
  6
CONTINUOUS
 62
     2
 10
78.231351436
 20
80.883945994
 30
0.0
 11
78.284375031
 21
80.875
 31
0.0
  0
LINE
  8
0
  6
CONTINUOUS
 62
     2
 10
83.69375
 20
81.375
 30
0.0
 11
83.69375
 21
81.28125
 31
0.0
  0
LINE
  8
0
  6
CONTINUOUS
 62
     2
 10
83.69375
 20
81.28125
 30
0.0
 11
83.69375
 21
81.1875
 31
0.0
  0
LINE
  8
0
  6
CONTINUOUS
 62
     2
 10
83.69375
 20
81.1875
 30
0.0
 11
83.69375
 21
81.09375
 31
0.0
  0
LINE
  8
0
  6
CONTINUOUS
 62
     2
 10
83.69375
 20
81.09375
 30
0.0
 11
83.69375
 21
81.0
 31
0.0
  0
LINE
  8
0
  6
CONTINUOUS
 62
     2
 10
83.69375
 20
81.0
 30
0.0
 11
83.69375
 21
80.90625
 31
0.0
  0
LINE
  8
0
  6
CONTINUOUS
 62
     2
 10
83.69375
 20
80.90625
 30
0.0
 11
83.69375
 21
80.8125
 31
0.0
  0
LINE
  8
0
  6
CONTINUOUS
 62
     2
 10
83.69375
 20
80.8125
 30
0.0
 11
83.69375
 21
80.71875
 31
0.0
  0
LINE
  8
0
  6
CONTINUOUS
 62
     2
 10
83.69375
 20
80.71875
 30
0.0
 11
83.69375
 21
80.625
 31
0.0
  0
LINE
  8
0
  6
CONTINUOUS
 62
     2
 10
83.69375
 20
80.625
 30
0.0
 11
83.69375
 21
80.53125
 31
0.0
  0
LINE
  8
0
  6
CONTINUOUS
 62
     2
 10
83.69375
 20
80.53125
 30
0.0
 11
83.69375
 21
80.4375
 31
0.0
  0
LINE
  8
0
  6
CONTINUOUS
 62
     2
 10
83.69375
 20
80.4375
 30
0.0
 11
83.69375
 21
80.34375
 31
0.0
  0
LINE
  8
0
  6
CONTINUOUS
 62
     2
 10
83.69375
 20
80.34375
 30
0.0
 11
83.69375
 21
80.275
 31
0.0
  0
LINE
  8
0
  6
CONTINUOUS
 62
     2
 10
84.315433112
 20
81.279769934
 30
0.0
 11
84.293946651
 21
81.190596322
 31
0.0
  0
LINE
  8
0
  6
CONTINUOUS
 62
     2
 10
84.293946651
 20
81.190596322
 30
0.0
 11
84.277087708
 21
81.099500299
 31
0.0
  0
LINE
  8
0
  6
CONTINUOUS
 62
     2
 10
84.277087708
 20
81.099500299
 30
0.0
 11
84.265077003
 21
81.00698026
 31
0.0
  0
LINE
  8
0
  6
CONTINUOUS
 62
     2
 10
84.265077003
 20
81.00698026
 30
0.0
 11
84.258067721
 21
80.913565117
 31
0.0
  0
LINE
  8
0
  6
CONTINUOUS
 62
     2
 10
84.258067721
 20
80.913565117
 30
0.0
 11
84.256140593
 21
80.819802328
 31
0.0
  0
LINE
  8
0
  6
CONTINUOUS
 62
     2
 10
84.256140593
 20
80.819802328
 30
0.0
 11
84.259301524
 21
80.726245099
 31
0.0
  0
LINE
  8
0
  6
CONTINUOUS
 62
     2
 10
84.259301524
 20
80.726245099
 30
0.0
 11
84.26748189
 21
80.633439394
 31
0.0
  0
LINE
  8
0
  6
CONTINUOUS
 62
     2
 10
84.26748189
 20
80.633439394
 30
0.0
 11
84.280541474
 21
80.541911391
 31
0.0
  0
LINE
  8
0
  6
CONTINUOUS
 62
     2
 10
84.280541474
 20
80.541911391
 30
0.0
 11
84.298273819
 21
80.452155989
 31
0.0
  0
LINE
  8
0
  6
CONTINUOUS
 62
     2
 10
84.298273819
 20
80.452155989
 30
0.0
 11
84.320413637
 21
80.364626872
 31
0.0
  0
LINE
  8
0
  6
CONTINUOUS
 62
     2
 10
84.320413637
 20
80.364626872
 30
0.0
 11
84.357343514
 21
80.323829272
 31
0.0
  0
LINE
  8
0
  6
CONTINUOUS
 62
     2
 10
84.357343514
 20
80.323829272
 30
0.0
 11
84.404039685
 21
80.29219858
 31
0.0
  0
LINE
  8
0
  6
CONTINUOUS
 62
     2
 10
84.404039685
 20
80.29219858
 30
0.0
 11
84.482173968
 21
80.275003166
 31
0.0
  0
LINE
  8
0
  6
CONTINUOUS
 62
     2
 10
84.482173968
 20
80.275003166
 30
0.0
 11
84.54605243
 21
80.287036871
 31
0.0
  0
LINE
  8
0
  6
CONTINUOUS
 62
     2
 10
84.54605243
 20
80.287036871
 30
0.0
 11
84.604092576
 21
80.323114617
 31
0.0
  0
LINE
  8
0
  6
CONTINUOUS
 62
     2
 10
84.604092576
 20
80.323114617
 30
0.0
 11
84.635144517
 21
80.360737422
 31
0.0
  0
LINE
  8
0
  6
CONTINUOUS
 62
     2
 10
84.635144517
 20
80.360737422
 30
0.0
 11
84.663880283
 21
80.451929165
 31
0.0
  0
LINE
  8
0
  6
CONTINUOUS
 62
     2
 10
84.663880283
 20
80.451929165
 30
0.0
 11
84.681189837
 21
80.539139724
 31
0.0
  0
LINE
  8
0
  6
CONTINUOUS
 62
     2
 10
84.681189837
 20
80.539139724
 30
0.0
 11
84.694688228
 21
80.633135589
 31
0.0
  0
LINE
  8
0
  6
CONTINUOUS
 62
     2
 10
84.694688228
 20
80.633135589
 30
0.0
 11
84.7029122
 21
80.726384715
 31
0.0
  0
LINE
  8
0
  6
CONTINUOUS
 62
     2
 10
84.7029122
 20
80.726384715
 30
0.0
 11
84.706066794
 21
80.820134525
 31
0.0
  0
LINE
  8
0
  6
CONTINUOUS
 62
     2
 10
84.706066794
 20
80.820134525
 30
0.0
 11
84.703974667
 21
80.916905511
 31
0.0
  0
LINE
  8
0
  6
CONTINUOUS
 62
     2
 10
84.703974667
 20
80.916905511
 30
0.0
 11
84.697143434
 21
81.006831554
 31
0.0
  0
LINE
  8
0
  6
CONTINUOUS
 62
     2
 10
84.697143434
 20
81.006831554
 30
0.0
 11
84.685015557
 21
81.100147119
 31
0.0
  0
LINE
  8
0
  6
CONTINUOUS
 62
     2
 10
84.685015557
 20
81.100147119
 30
0.0
 11
84.668406976
 21
81.18989881
 31
0.0
  0
LINE
  8
0
  6
CONTINUOUS
 62
     2
 10
84.668406976
 20
81.18989881
 30
0.0
 11
84.645915076
 21
81.281671568
 31
0.0
  0
LINE
  8
0
  6
CONTINUOUS
 62
     2
 10
84.645915076
 20
81.281671568
 30
0.0
 11
84.613325439
 21
81.330220502
 31
0.0
  0
LINE
  8
0
  6
CONTINUOUS
 62
     2
 10
84.613325439
 20
81.330220502
 30
0.0
 11
84.559507425
 21
81.369664342
 31
0.0
  0
LINE
  8
0
  6
CONTINUOUS
 62
     2
 10
84.559507425
 20
81.369664342
 30
0.0
 11
84.487708659
 21
81.387379574
 31
0.0
  0
LINE
  8
0
  6
CONTINUOUS
 62
     2
 10
84.487708659
 20
81.387379574
 30
0.0
 11
84.404020677
 21
81.37029249
 31
0.0
  0
LINE
  8
0
  6
CONTINUOUS
 62
     2
 10
84.404020677
 20
81.37029249
 30
0.0
 11
84.348089588
 21
81.329372293
 31
0.0
  0
LINE
  8
0
  6
CONTINUOUS
 62
     2
 10
84.348089588
 20
81.329372293
 30
0.0
 11
84.315433112
 21
81.279769934
 31
0.0
  0
LINE
  8
0
  6
CONTINUOUS
 62
     2
 10
85.096683112
 20
81.279769934
 30
0.0
 11
85.075196651
 21
81.190596322
 31
0.0
  0
LINE
  8
0
  6
CONTINUOUS
 62
     2
 10
85.075196651
 20
81.190596322
 30
0.0
 11
85.058337708
 21
81.099500299
 31
0.0
  0
LINE
  8
0
  6
CONTINUOUS
 62
     2
 10
85.058337708
 20
81.099500299
 30
0.0
 11
85.046327003
 21
81.00698026
 31
0.0
  0
LINE
  8
0
  6
CONTINUOUS
 62
     2
 10
85.046327003
 20
81.00698026
 30
0.0
 11
85.039317721
 21
80.913565117
 31
0.0
  0
LINE
  8
0
  6
CONTINUOUS
 62
     2
 10
85.039317721
 20
80.913565117
 30
0.0
 11
85.037390593
 21
80.819802328
 31
0.0
  0
LINE
  8
0
  6
CONTINUOUS
 62
     2
 10
85.037390593
 20
80.819802328
 30
0.0
 11
85.040551524
 21
80.726245099
 31
0.0
  0
LINE
  8
0
  6
CONTINUOUS
 62
     2
 10
85.040551524
 20
80.726245099
 30
0.0
 11
85.04873189
 21
80.633439394
 31
0.0
  0
LINE
  8
0
  6
CONTINUOUS
 62
     2
 10
85.04873189
 20
80.633439394
 30
0.0
 11
85.061791474
 21
80.541911391
 31
0.0
  0
LINE
  8
0
  6
CONTINUOUS
 62
     2
 10
85.061791474
 20
80.541911391
 30
0.0
 11
85.079523819
 21
80.452155989
 31
0.0
  0
LINE
  8
0
  6
CONTINUOUS
 62
     2
 10
85.079523819
 20
80.452155989
 30
0.0
 11
85.101663637
 21
80.364626872
 31
0.0
  0
LINE
  8
0
  6
CONTINUOUS
 62
     2
 10
85.101663637
 20
80.364626872
 30
0.0
 11
85.138593514
 21
80.323829272
 31
0.0
  0
LINE
  8
0
  6
CONTINUOUS
 62
     2
 10
85.138593514
 20
80.323829272
 30
0.0
 11
85.185289685
 21
80.29219858
 31
0.0
  0
LINE
  8
0
  6
CONTINUOUS
 62
     2
 10
85.185289685
 20
80.29219858
 30
0.0
 11
85.263423968
 21
80.275003166
 31
0.0
  0
LINE
  8
0
  6
CONTINUOUS
 62
     2
 10
85.263423968
 20
80.275003166
 30
0.0
 11
85.32730243
 21
80.287036871
 31
0.0
  0
LINE
  8
0
  6
CONTINUOUS
 62
     2
 10
85.32730243
 20
80.287036871
 30
0.0
 11
85.385342576
 21
80.323114617
 31
0.0
  0
LINE
  8
0
  6
CONTINUOUS
 62
     2
 10
85.385342576
 20
80.323114617
 30
0.0
 11
85.416394517
 21
80.360737422
 31
0.0
  0
LINE
  8
0
  6
CONTINUOUS
 62
     2
 10
85.416394517
 20
80.360737422
 30
0.0
 11
85.445130283
 21
80.451929165
 31
0.0
  0
LINE
  8
0
  6
CONTINUOUS
 62
     2
 10
85.445130283
 20
80.451929165
 30
0.0
 11
85.462439837
 21
80.539139724
 31
0.0
  0
LINE
  8
0
  6
CONTINUOUS
 62
     2
 10
85.462439837
 20
80.539139724
 30
0.0
 11
85.475938228
 21
80.633135589
 31
0.0
  0
LINE
  8
0
  6
CONTINUOUS
 62
     2
 10
85.475938228
 20
80.633135589
 30
0.0
 11
85.4841622
 21
80.726384715
 31
0.0
  0
LINE
  8
0
  6
CONTINUOUS
 62
     2
 10
85.4841622
 20
80.726384715
 30
0.0
 11
85.487316794
 21
80.820134525
 31
0.0
  0
LINE
  8
0
  6
CONTINUOUS
 62
     2
 10
85.487316794
 20
80.820134525
 30
0.0
 11
85.485224667
 21
80.916905511
 31
0.0
  0
LINE
  8
0
  6
CONTINUOUS
 62
     2
 10
85.485224667
 20
80.916905511
 30
0.0
 11
85.478393434
 21
81.006831554
 31
0.0
  0
LINE
  8
0
  6
CONTINUOUS
 62
     2
 10
85.478393434
 20
81.006831554
 30
0.0
 11
85.466265557
 21
81.100147119
 31
0.0
  0
LINE
  8
0
  6
CONTINUOUS
 62
     2
 10
85.466265557
 20
81.100147119
 30
0.0
 11
85.449656976
 21
81.18989881
 31
0.0
  0
LINE
  8
0
  6
CONTINUOUS
 62
     2
 10
85.449656976
 20
81.18989881
 30
0.0
 11
85.427165076
 21
81.281671568
 31
0.0
  0
LINE
  8
0
  6
CONTINUOUS
 62
     2
 10
85.427165076
 20
81.281671568
 30
0.0
 11
85.394575439
 21
81.330220502
 31
0.0
  0
LINE
  8
0
  6
CONTINUOUS
 62
     2
 10
85.394575439
 20
81.330220502
 30
0.0
 11
85.340757425
 21
81.369664342
 31
0.0
  0
LINE
  8
0
  6
CONTINUOUS
 62
     2
 10
85.340757425
 20
81.369664342
 30
0.0
 11
85.268958659
 21
81.387379574
 31
0.0
  0
LINE
  8
0
  6
CONTINUOUS
 62
     2
 10
85.268958659
 20
81.387379574
 30
0.0
 11
85.185270677
 21
81.37029249
 31
0.0
  0
LINE
  8
0
  6
CONTINUOUS
 62
     2
 10
85.185270677
 20
81.37029249
 30
0.0
 11
85.129339588
 21
81.329372293
 31
0.0
  0
LINE
  8
0
  6
CONTINUOUS
 62
     2
 10
85.129339588
 20
81.329372293
 30
0.0
 11
85.096683112
 21
81.279769934
 31
0.0
  0
LINE
  8
0
  6
LTYPE1
 62
     2
 10
142.5
 20
121.0
 30
0.0
 11
137.5
 21
121.0
 31
0.0
  0
LINE
  8
0
  6
LTYPE1
 62
     2
 10
137.5
 20
169.0
 30
0.0
 11
142.5
 21
169.0
 31
0.0
  0
LINE
  8
0
  6
LTYPE2
 62
     2
 10
134.1
 20
126.25
 30
0.0
 11
134.1
 21
163.75
 31
0.0
  0
LINE
  8
0
  6
LTYPE2
 62
     2
 10
134.1
 20
163.75
 30
0.0
 11
145.5
 21
163.75
 31
0.0
  0
LINE
  8
0
  6
LTYPE2
 62
     2
 10
145.5
 20
163.75
 30
0.0
 11
145.5
 21
126.25
 31
0.0
  0
LINE
  8
0
  6
LTYPE2
 62
     2
 10
145.5
 20
126.25
 30
0.0
 11
134.1
 21
126.25
 31
0.0
  0
LINE
  8
0
  6
CONTINUOUS
 62
     2
 10
137.0
 20
126.25
 30
0.0
 11
137.0
 21
163.75
 31
0.0
  0
TEXT
  8
0
  6
CONTINUOUS
 62
     2
 10
130.0
 20
111.0
 30
0.3
 40
3.0
  1
縦形計器正面図
 50
0.0
 41
0.9
 51
0.0
  7
KANJI5
  0
LINE
  8
0
  6
CONTINUOUS
 62
     2
 10
129.0
 20
110.0
 30
0.0
 11
151.0
 21
110.0
 31
0.0
  0
LINE
  8
0
  6
CONTINUOUS
 62
     2
 10
140.05
 20
159.575
 30
0.0
 11
141.55
 21
159.575
 31
0.0
  0
LINE
  8
0
  6
CONTINUOUS
 62
     2
 10
141.55
 20
159.425
 30
0.0
 11
140.05
 21
159.425
 31
0.0
  0
LINE
  8
0
  6
CONTINUOUS
 62
     2
 10
141.45
 20
159.5
 30
0.0
 11
140.15
 21
159.5
 31
0.0
  0
LINE
  8
0
  6
CONTINUOUS
 62
     2
 10
140.05
 20
159.425
 30
0.0
 11
140.05
 21
159.575
 31
0.0
  0
LINE
  8
0
  6
CONTINUOUS
 62
     2
 10
141.55
 20
159.575
 30
0.0
 11
141.55
 21
159.425
 31
0.0
  0
LINE
  8
0
  6
CONTINUOUS
 62
     2
 10
140.05
 20
156.675
 30
0.0
 11
141.55
 21
156.675
 31
0.0
  0
LINE
  8
0
  6
CONTINUOUS
 62
     2
 10
141.55
 20
156.525
 30
0.0
 11
140.05
 21
156.525
 31
0.0
  0
LINE
  8
0
  6
CONTINUOUS
 62
     2
 10
141.45
 20
156.6
 30
0.0
 11
140.15
 21
156.6
 31
0.0
  0
LINE
  8
0
  6
CONTINUOUS
 62
     2
 10
140.05
 20
156.525
 30
0.0
 11
140.05
 21
156.675
 31
0.0
  0
LINE
  8
0
  6
CONTINUOUS
 62
     2
 10
141.55
 20
156.675
 30
0.0
 11
141.55
 21
156.525
 31
0.0
  0
LINE
  8
0
  6
CONTINUOUS
 62
     2
 10
140.05
 20
153.775
 30
0.0
 11
141.55
 21
153.775
 31
0.0
  0
LINE
  8
0
  6
CONTINUOUS
 62
     2
 10
141.55
 20
153.625
 30
0.0
 11
140.05
 21
153.625
 31
0.0
  0
LINE
  8
0
  6
CONTINUOUS
 62
     2
 10
141.45
 20
153.7
 30
0.0
 11
140.15
 21
153.7
 31
0.0
  0
LINE
  8
0
  6
CONTINUOUS
 62
     2
 10
140.05
 20
153.625
 30
0.0
 11
140.05
 21
153.775
 31
0.0
  0
LINE
  8
0
  6
CONTINUOUS
 62
     2
 10
141.55
 20
153.775
 30
0.0
 11
141.55
 21
153.625
 31
0.0
  0
LINE
  8
0
  6
CONTINUOUS
 62
     2
 10
140.05
 20
150.875
 30
0.0
 11
141.55
 21
150.875
 31
0.0
  0
LINE
  8
0
  6
CONTINUOUS
 62
     2
 10
141.55
 20
150.725
 30
0.0
 11
140.05
 21
150.725
 31
0.0
  0
LINE
  8
0
  6
CONTINUOUS
 62
     2
 10
141.45
 20
150.8
 30
0.0
 11
140.15
 21
150.8
 31
0.0
  0
LINE
  8
0
  6
CONTINUOUS
 62
     2
 10
140.05
 20
150.725
 30
0.0
 11
140.05
 21
150.875
 31
0.0
  0
LINE
  8
0
  6
CONTINUOUS
 62
     2
 10
141.55
 20
150.875
 30
0.0
 11
141.55
 21
150.725
 31
0.0
  0
LINE
  8
0
  6
CONTINUOUS
 62
     2
 10
140.05
 20
147.975
 30
0.0
 11
141.55
 21
147.975
 31
0.0
  0
LINE
  8
0
  6
CONTINUOUS
 62
     2
 10
141.55
 20
147.825
 30
0.0
 11
140.05
 21
147.825
 31
0.0
  0
LINE
  8
0
  6
CONTINUOUS
 62
     2
 10
141.45
 20
147.9
 30
0.0
 11
140.15
 21
147.9
 31
0.0
  0
LINE
  8
0
  6
CONTINUOUS
 62
     2
 10
140.05
 20
147.825
 30
0.0
 11
140.05
 21
147.975
 31
0.0
  0
LINE
  8
0
  6
CONTINUOUS
 62
     2
 10
141.55
 20
147.975
 30
0.0
 11
141.55
 21
147.825
 31
0.0
  0
LINE
  8
0
  6
CONTINUOUS
 62
     2
 10
140.05
 20
145.075
 30
0.0
 11
141.55
 21
145.075
 31
0.0
  0
LINE
  8
0
  6
CONTINUOUS
 62
     2
 10
141.55
 20
144.925
 30
0.0
 11
140.05
 21
144.925
 31
0.0
  0
LINE
  8
0
  6
CONTINUOUS
 62
     2
 10
141.45
 20
145.0
 30
0.0
 11
140.15
 21
145.0
 31
0.0
  0
LINE
  8
0
  6
CONTINUOUS
 62
     2
 10
140.05
 20
144.925
 30
0.0
 11
140.05
 21
145.075
 31
0.0
  0
LINE
  8
0
  6
CONTINUOUS
 62
     2
 10
141.55
 20
145.075
 30
0.0
 11
141.55
 21
144.925
 31
0.0
  0
LINE
  8
0
  6
CONTINUOUS
 62
     2
 10
140.05
 20
142.175
 30
0.0
 11
141.55
 21
142.175
 31
0.0
  0
LINE
  8
0
  6
CONTINUOUS
 62
     2
 10
141.55
 20
142.025
 30
0.0
 11
140.05
 21
142.025
 31
0.0
  0
LINE
  8
0
  6
CONTINUOUS
 62
     2
 10
141.45
 20
142.1
 30
0.0
 11
140.15
 21
142.1
 31
0.0
  0
LINE
  8
0
  6
CONTINUOUS
 62
     2
 10
140.05
 20
142.025
 30
0.0
 11
140.05
 21
142.175
 31
0.0
  0
LINE
  8
0
  6
CONTINUOUS
 62
     2
 10
141.55
 20
142.175
 30
0.0
 11
141.55
 21
142.025
 31
0.0
  0
LINE
  8
0
  6
CONTINUOUS
 62
     2
 10
140.05
 20
139.275
 30
0.0
 11
141.55
 21
139.275
 31
0.0
  0
LINE
  8
0
  6
CONTINUOUS
 62
     2
 10
141.55
 20
139.125
 30
0.0
 11
140.05
 21
139.125
 31
0.0
  0
LINE
  8
0
  6
CONTINUOUS
 62
     2
 10
141.45
 20
139.2
 30
0.0
 11
140.15
 21
139.2
 31
0.0
  0
LINE
  8
0
  6
CONTINUOUS
 62
     2
 10
140.05
 20
139.125
 30
0.0
 11
140.05
 21
139.275
 31
0.0
  0
LINE
  8
0
  6
CONTINUOUS
 62
     2
 10
141.55
 20
139.275
 30
0.0
 11
141.55
 21
139.125
 31
0.0
  0
LINE
  8
0
  6
CONTINUOUS
 62
     2
 10
140.05
 20
136.375
 30
0.0
 11
141.55
 21
136.375
 31
0.0
  0
LINE
  8
0
  6
CONTINUOUS
 62
     2
 10
141.55
 20
136.225
 30
0.0
 11
140.05
 21
136.225
 31
0.0
  0
LINE
  8
0
  6
CONTINUOUS
 62
     2
 10
141.45
 20
136.3
 30
0.0
 11
140.15
 21
136.3
 31
0.0
  0
LINE
  8
0
  6
CONTINUOUS
 62
     2
 10
140.05
 20
136.225
 30
0.0
 11
140.05
 21
136.375
 31
0.0
  0
LINE
  8
0
  6
CONTINUOUS
 62
     2
 10
141.55
 20
136.375
 30
0.0
 11
141.55
 21
136.225
 31
0.0
  0
LINE
  8
0
  6
CONTINUOUS
 62
     2
 10
140.05
 20
133.475
 30
0.0
 11
141.55
 21
133.475
 31
0.0
  0
LINE
  8
0
  6
CONTINUOUS
 62
     2
 10
141.55
 20
133.325
 30
0.0
 11
140.05
 21
133.325
 31
0.0
  0
LINE
  8
0
  6
CONTINUOUS
 62
     2
 10
141.45
 20
133.4
 30
0.0
 11
140.15
 21
133.4
 31
0.0
  0
LINE
  8
0
  6
CONTINUOUS
 62
     2
 10
140.05
 20
133.325
 30
0.0
 11
140.05
 21
133.475
 31
0.0
  0
LINE
  8
0
  6
CONTINUOUS
 62
     2
 10
141.55
 20
133.475
 30
0.0
 11
141.55
 21
133.325
 31
0.0
  0
LINE
  8
0
  6
CONTINUOUS
 62
     2
 10
140.05
 20
130.575
 30
0.0
 11
141.55
 21
130.575
 31
0.0
  0
LINE
  8
0
  6
CONTINUOUS
 62
     2
 10
141.55
 20
130.425
 30
0.0
 11
140.05
 21
130.425
 31
0.0
  0
LINE
  8
0
  6
CONTINUOUS
 62
     2
 10
141.45
 20
130.5
 30
0.0
 11
140.15
 21
130.5
 31
0.0
  0
LINE
  8
0
  6
CONTINUOUS
 62
     2
 10
140.05
 20
130.425
 30
0.0
 11
140.05
 21
130.575
 31
0.0
  0
LINE
  8
0
  6
CONTINUOUS
 62
     2
 10
141.55
 20
130.575
 30
0.0
 11
141.55
 21
130.425
 31
0.0
  0
LINE
  8
0
  6
CONTINUOUS
 62
     2
 10
141.05
 20
158.05
 30
0.0
 11
140.05
 21
158.05
 31
0.0
  0
LINE
  8
0
  6
CONTINUOUS
 62
     2
 10
141.05
 20
155.15
 30
0.0
 11
140.05
 21
155.15
 31
0.0
  0
LINE
  8
0
  6
CONTINUOUS
 62
     2
 10
141.05
 20
152.25
 30
0.0
 11
140.05
 21
152.25
 31
0.0
  0
LINE
  8
0
  6
CONTINUOUS
 62
     2
 10
141.05
 20
149.35
 30
0.0
 11
140.05
 21
149.35
 31
0.0
  0
LINE
  8
0
  6
CONTINUOUS
 62
     2
 10
141.05
 20
146.45
 30
0.0
 11
140.05
 21
146.45
 31
0.0
  0
LINE
  8
0
  6
CONTINUOUS
 62
     2
 10
141.05
 20
143.55
 30
0.0
 11
140.05
 21
143.55
 31
0.0
  0
LINE
  8
0
  6
CONTINUOUS
 62
     2
 10
141.05
 20
140.65
 30
0.0
 11
140.05
 21
140.65
 31
0.0
  0
LINE
  8
0
  6
CONTINUOUS
 62
     2
 10
141.05
 20
137.75
 30
0.0
 11
140.05
 21
137.75
 31
0.0
  0
LINE
  8
0
  6
CONTINUOUS
 62
     2
 10
141.05
 20
134.85
 30
0.0
 11
140.05
 21
134.85
 31
0.0
  0
LINE
  8
0
  6
CONTINUOUS
 62
     2
 10
141.05
 20
131.95
 30
0.0
 11
140.05
 21
131.95
 31
0.0
  0
LINE
  8
0
  6
CONTINUOUS
 62
     2
 10
137.0
 20
131.125
 30
0.0
 11
143.25
 21
131.125
 31
0.0
  0
LINE
  8
0
  6
CONTINUOUS
 62
     2
 10
143.25
 20
131.125
 30
0.0
 11
143.25
 21
131.375
 31
0.0
  0
LINE
  8
0
  6
CONTINUOUS
 62
     2
 10
143.25
 20
131.375
 30
0.0
 11
137.0
 21
131.375
 31
0.0
  0
ARC
  8
0
  6
CONTINUOUS
 62
     2
 10
138.05045
 20
143.74051
 30
0.0
 40
0.02997
 50
90.0
 51
270.0
  0
LINE
  8
0
  6
CONTINUOUS
 62
     2
 10
138.05045
 20
143.77048
 30
0.0
 11
138.94955
 21
143.77048
 31
0.0
  0
ARC
  8
0
  6
CONTINUOUS
 62
     2
 10
138.94955
 20
143.74051
 30
0.0
 40
0.02997
 50
270.0
 51
90.0
  0
LINE
  8
0
  6
CONTINUOUS
 62
     2
 10
138.94955
 20
143.71054
 30
0.0
 11
138.05045
 21
143.71054
 31
0.0
  0
LINE
  8
0
  6
CONTINUOUS
 62
     2
 10
138.05045
 20
143.74051
 30
0.0
 11
138.94955
 21
143.74051
 31
0.0
  0
ARC
  8
0
  6
CONTINUOUS
 62
     2
 10
138.5
 20
144.33991
 30
0.0
 40
0.05994
 50
195.255118703
 51
344.744881297
  0
LINE
  8
0
  6
CONTINUOUS
 62
     2
 10
138.442172057
 20
144.324138743
 30
0.0
 11
138.082532057
 21
145.642818743
 31
0.0
  0
ARC
  8
0
  6
CONTINUOUS
 62
     2
 10
138.14036
 20
145.65859
 30
0.0
 40
0.05994
 50
15.255118703
 51
195.255118703
  0
LINE
  8
0
  6
CONTINUOUS
 62
     2
 10
138.5
 20
144.56771705
 30
0.0
 11
138.198187943
 21
145.674361257
 31
0.0
  0
LINE
  8
0
  6
CONTINUOUS
 62
     2
 10
138.801812057
 20
145.674361257
 30
0.0
 11
138.5
 21
144.56771705
 31
0.0
  0
ARC
  8
0
  6
CONTINUOUS
 62
     2
 10
138.85964
 20
145.65859
 30
0.0
 40
0.05994
 50
344.744881297
 51
164.744881297
  0
LINE
  8
0
  6
CONTINUOUS
 62
     2
 10
138.917467943
 20
145.642818743
 30
0.0
 11
138.557827943
 21
144.324138743
 31
0.0
  0
ARC
  8
0
  6
CONTINUOUS
 62
     2
 10
138.5
 20
144.33991
 30
0.0
 40
0.02997
 50
195.255118703
 51
344.744881297
  0
LINE
  8
0
  6
CONTINUOUS
 62
     2
 10
138.471086028
 20
144.332024371
 30
0.0
 11
138.111446028
 21
145.650704371
 31
0.0
  0
ARC
  8
0
  6
CONTINUOUS
 62
     2
 10
138.14036
 20
145.65859
 30
0.0
 40
0.02997
 50
15.255118703
 51
195.255118703
  0
LINE
  8
0
  6
CONTINUOUS
 62
     2
 10
138.5
 20
144.453813525
 30
0.0
 11
138.169273972
 21
145.666475629
 31
0.0
  0
LINE
  8
0
  6
CONTINUOUS
 62
     2
 10
138.830726028
 20
145.666475629
 30
0.0
 11
138.5
 21
144.453813525
 31
0.0
  0
ARC
  8
0
  6
CONTINUOUS
 62
     2
 10
138.85964
 20
145.65859
 30
0.0
 40
0.02997
 50
344.744881297
 51
164.744881297
  0
LINE
  8
0
  6
CONTINUOUS
 62
     2
 10
138.888553972
 20
145.650704371
 30
0.0
 11
138.528913972
 21
144.332024371
 31
0.0
  0
LINE
  8
0
  6
CONTINUOUS
 62
     2
 10
138.5
 20
144.33991
 30
0.0
 11
138.14036
 21
145.65859
 31
0.0
  0
LINE
  8
0
  6
CONTINUOUS
 62
     2
 10
138.85964
 20
145.65859
 30
0.0
 11
138.5
 21
144.33991
 31
0.0
  0
LINE
  8
0
  6
CONTINUOUS
 62
     2
 10
141.890433112
 20
130.954769934
 30
0.0
 11
141.868946651
 21
130.865596322
 31
0.0
  0
LINE
  8
0
  6
CONTINUOUS
 62
     2
 10
141.868946651
 20
130.865596322
 30
0.0
 11
141.852087708
 21
130.774500299
 31
0.0
  0
LINE
  8
0
  6
CONTINUOUS
 62
     2
 10
141.852087708
 20
130.774500299
 30
0.0
 11
141.840077003
 21
130.68198026
 31
0.0
  0
LINE
  8
0
  6
CONTINUOUS
 62
     2
 10
141.840077003
 20
130.68198026
 30
0.0
 11
141.833067721
 21
130.588565117
 31
0.0
  0
LINE
  8
0
  6
CONTINUOUS
 62
     2
 10
141.833067721
 20
130.588565117
 30
0.0
 11
141.831140593
 21
130.494802328
 31
0.0
  0
LINE
  8
0
  6
CONTINUOUS
 62
     2
 10
141.831140593
 20
130.494802328
 30
0.0
 11
141.834301524
 21
130.401245099
 31
0.0
  0
LINE
  8
0
  6
CONTINUOUS
 62
     2
 10
141.834301524
 20
130.401245099
 30
0.0
 11
141.84248189
 21
130.308439394
 31
0.0
  0
LINE
  8
0
  6
CONTINUOUS
 62
     2
 10
141.84248189
 20
130.308439394
 30
0.0
 11
141.855541474
 21
130.216911391
 31
0.0
  0
LINE
  8
0
  6
CONTINUOUS
 62
     2
 10
141.855541474
 20
130.216911391
 30
0.0
 11
141.873273819
 21
130.127155989
 31
0.0
  0
LINE
  8
0
  6
CONTINUOUS
 62
     2
 10
141.873273819
 20
130.127155989
 30
0.0
 11
141.895413637
 21
130.039626872
 31
0.0
  0
LINE
  8
0
  6
CONTINUOUS
 62
     2
 10
141.895413637
 20
130.039626872
 30
0.0
 11
141.932343514
 21
129.998829272
 31
0.0
  0
LINE
  8
0
  6
CONTINUOUS
 62
     2
 10
141.932343514
 20
129.998829272
 30
0.0
 11
141.979039685
 21
129.96719858
 31
0.0
  0
LINE
  8
0
  6
CONTINUOUS
 62
     2
 10
141.979039685
 20
129.96719858
 30
0.0
 11
142.057173968
 21
129.950003166
 31
0.0
  0
LINE
  8
0
  6
CONTINUOUS
 62
     2
 10
142.057173968
 20
129.950003166
 30
0.0
 11
142.12105243
 21
129.962036871
 31
0.0
  0
LINE
  8
0
  6
CONTINUOUS
 62
     2
 10
142.12105243
 20
129.962036871
 30
0.0
 11
142.179092576
 21
129.998114617
 31
0.0
  0
LINE
  8
0
  6
CONTINUOUS
 62
     2
 10
142.179092576
 20
129.998114617
 30
0.0
 11
142.210144517
 21
130.035737422
 31
0.0
  0
LINE
  8
0
  6
CONTINUOUS
 62
     2
 10
142.210144517
 20
130.035737422
 30
0.0
 11
142.238880283
 21
130.126929165
 31
0.0
  0
LINE
  8
0
  6
CONTINUOUS
 62
     2
 10
142.238880283
 20
130.126929165
 30
0.0
 11
142.256189837
 21
130.214139724
 31
0.0
  0
LINE
  8
0
  6
CONTINUOUS
 62
     2
 10
142.256189837
 20
130.214139724
 30
0.0
 11
142.269688228
 21
130.308135589
 31
0.0
  0
LINE
  8
0
  6
CONTINUOUS
 62
     2
 10
142.269688228
 20
130.308135589
 30
0.0
 11
142.2779122
 21
130.401384715
 31
0.0
  0
LINE
  8
0
  6
CONTINUOUS
 62
     2
 10
142.2779122
 20
130.401384715
 30
0.0
 11
142.281066794
 21
130.495134525
 31
0.0
  0
LINE
  8
0
  6
CONTINUOUS
 62
     2
 10
142.281066794
 20
130.495134525
 30
0.0
 11
142.278974667
 21
130.591905511
 31
0.0
  0
LINE
  8
0
  6
CONTINUOUS
 62
     2
 10
142.278974667
 20
130.591905511
 30
0.0
 11
142.272143434
 21
130.681831554
 31
0.0
  0
LINE
  8
0
  6
CONTINUOUS
 62
     2
 10
142.272143434
 20
130.681831554
 30
0.0
 11
142.260015557
 21
130.775147119
 31
0.0
  0
LINE
  8
0
  6
CONTINUOUS
 62
     2
 10
142.260015557
 20
130.775147119
 30
0.0
 11
142.243406976
 21
130.86489881
 31
0.0
  0
LINE
  8
0
  6
CONTINUOUS
 62
     2
 10
142.243406976
 20
130.86489881
 30
0.0
 11
142.220915076
 21
130.956671568
 31
0.0
  0
LINE
  8
0
  6
CONTINUOUS
 62
     2
 10
142.220915076
 20
130.956671568
 30
0.0
 11
142.188325439
 21
131.005220502
 31
0.0
  0
LINE
  8
0
  6
CONTINUOUS
 62
     2
 10
142.188325439
 20
131.005220502
 30
0.0
 11
142.134507425
 21
131.044664342
 31
0.0
  0
LINE
  8
0
  6
CONTINUOUS
 62
     2
 10
142.134507425
 20
131.044664342
 30
0.0
 11
142.062708659
 21
131.062379574
 31
0.0
  0
LINE
  8
0
  6
CONTINUOUS
 62
     2
 10
142.062708659
 20
131.062379574
 30
0.0
 11
141.979020677
 21
131.04529249
 31
0.0
  0
LINE
  8
0
  6
CONTINUOUS
 62
     2
 10
141.979020677
 20
131.04529249
 30
0.0
 11
141.923089588
 21
131.004372293
 31
0.0
  0
LINE
  8
0
  6
CONTINUOUS
 62
     2
 10
141.923089588
 20
131.004372293
 30
0.0
 11
141.890433112
 21
130.954769934
 31
0.0
  0
LINE
  8
0
  6
CONTINUOUS
 62
     2
 10
141.684375
 20
136.625
 30
0.0
 11
141.690002028
 21
136.67500499
 31
0.0
  0
LINE
  8
0
  6
CONTINUOUS
 62
     2
 10
141.690002028
 20
136.67500499
 30
0.0
 11
141.706176114
 21
136.721618906
 31
0.0
  0
LINE
  8
0
  6
CONTINUOUS
 62
     2
 10
141.706176114
 20
136.721618906
 30
0.0
 11
141.728825739
 21
136.759264531
 31
0.0
  0
LINE
  8
0
  6
CONTINUOUS
 62
     2
 10
141.728825739
 20
136.759264531
 30
0.0
 11
141.758670545
 21
136.792072341
 31
0.0
  0
LINE
  8
0
  6
CONTINUOUS
 62
     2
 10
141.758670545
 20
136.792072341
 30
0.0
 11
141.793284162
 21
136.81773795
 31
0.0
  0
LINE
  8
0
  6
CONTINUOUS
 62
     2
 10
141.793284162
 20
136.81773795
 30
0.0
 11
141.838443741
 21
136.838526946
 31
0.0
  0
LINE
  8
0
  6
CONTINUOUS
 62
     2
 10
141.838443741
 20
136.838526946
 30
0.0
 11
141.901102102
 21
136.849847858
 31
0.0
  0
LINE
  8
0
  6
CONTINUOUS
 62
     2
 10
141.901102102
 20
136.849847858
 30
0.0
 11
141.965826014
 21
136.842803313
 31
0.0
  0
LINE
  8
0
  6
CONTINUOUS
 62
     2
 10
141.965826014
 20
136.842803313
 30
0.0
 11
142.011767471
 21
136.825351646
 31
0.0
  0
LINE
  8
0
  6
CONTINUOUS
 62
     2
 10
142.011767471
 20
136.825351646
 30
0.0
 11
142.048885733
 21
136.801526925
 31
0.0
  0
LINE
  8
0
  6
CONTINUOUS
 62
     2
 10
142.048885733
 20
136.801526925
 30
0.0
 11
142.080746799
 21
136.770796798
 31
0.0
  0
LINE
  8
0
  6
CONTINUOUS
 62
     2
 10
142.080746799
 20
136.770796798
 30
0.0
 11
142.105242763
 21
136.735728585
 31
0.0
  0
LINE
  8
0
  6
CONTINUOUS
 62
     2
 10
142.105242763
 20
136.735728585
 30
0.0
 11
142.124771843
 21
136.690032299
 31
0.0
  0
LINE
  8
0
  6
CONTINUOUS
 62
     2
 10
142.124771843
 20
136.690032299
 30
0.0
 11
142.133683261
 21
136.642629641
 31
0.0
  0
LINE
  8
0
  6
CONTINUOUS
 62
     2
 10
142.133683261
 20
136.642629641
 30
0.0
 11
142.132486654
 21
136.595910655
 31
0.0
  0
LINE
  8
0
  6
CONTINUOUS
 62
     2
 10
142.132486654
 20
136.595910655
 30
0.0
 11
142.120659698
 21
136.547645127
 31
0.0
  0
LINE
  8
0
  6
CONTINUOUS
 62
     2
 10
142.120659698
 20
136.547645127
 30
0.0
 11
142.09933642
 21
136.504083903
 31
0.0
  0
LINE
  8
0
  6
CONTINUOUS
 62
     2
 10
142.09933642
 20
136.504083903
 30
0.0
 11
142.072282283
 21
136.457562343
 31
0.0
  0
LINE
  8
0
  6
CONTINUOUS
 62
     2
 10
142.072282283
 20
136.457562343
 30
0.0
 11
142.031541121
 21
136.38750495
 31
0.0
  0
LINE
  8
0
  6
CONTINUOUS
 62
     2
 10
142.031541121
 20
136.38750495
 30
0.0
 11
141.990799959
 21
136.317447557
 31
0.0
  0
LINE
  8
0
  6
CONTINUOUS
 62
     2
 10
141.990799959
 20
136.317447557
 30
0.0
 11
141.950058797
 21
136.247390164
 31
0.0
  0
LINE
  8
0
  6
CONTINUOUS
 62
     2
 10
141.950058797
 20
136.247390164
 30
0.0
 11
141.909317635
 21
136.17733277
 31
0.0
  0
LINE
  8
0
  6
CONTINUOUS
 62
     2
 10
141.909317635
 20
136.17733277
 30
0.0
 11
141.868576473
 21
136.107275377
 31
0.0
  0
LINE
  8
0
  6
CONTINUOUS
 62
     2
 10
141.868576473
 20
136.107275377
 30
0.0
 11
141.827835312
 21
136.037217984
 31
0.0
  0
LINE
  8
0
  6
CONTINUOUS
 62
     2
 10
141.827835312
 20
136.037217984
 30
0.0
 11
141.78709415
 21
135.967160591
 31
0.0
  0
LINE
  8
0
  6
CONTINUOUS
 62
     2
 10
141.78709415
 20
135.967160591
 30
0.0
 11
141.746352988
 21
135.897103197
 31
0.0
  0
LINE
  8
0
  6
CONTINUOUS
 62
     2
 10
141.746352988
 20
135.897103197
 30
0.0
 11
141.705611826
 21
135.827045804
 31
0.0
  0
LINE
  8
0
  6
CONTINUOUS
 62
     2
 10
141.705611826
 20
135.827045804
 30
0.0
 11
141.660806625
 21
135.75
 31
0.0
  0
LINE
  8
0
  6
CONTINUOUS
 62
     2
 10
141.660806625
 20
135.75
 30
0.0
 11
141.754556625
 21
135.75
 31
0.0
  0
LINE
  8
0
  6
CONTINUOUS
 62
     2
 10
141.754556625
 20
135.75
 30
0.0
 11
141.848306625
 21
135.75
 31
0.0
  0
LINE
  8
0
  6
CONTINUOUS
 62
     2
 10
141.848306625
 20
135.75
 30
0.0
 11
141.942056625
 21
135.75
 31
0.0
  0
LINE
  8
0
  6
CONTINUOUS
 62
     2
 10
141.942056625
 20
135.75
 30
0.0
 11
142.035806625
 21
135.75
 31
0.0
  0
LINE
  8
0
  6
CONTINUOUS
 62
     2
 10
142.035806625
 20
135.75
 30
0.0
 11
142.134375006
 21
135.75
 31
0.0
  0
LINE
  8
0
  6
CONTINUOUS
 62
     2
 10
142.531058112
 20
136.754769934
 30
0.0
 11
142.509571651
 21
136.665596322
 31
0.0
  0
LINE
  8
0
  6
CONTINUOUS
 62
     2
 10
142.509571651
 20
136.665596322
 30
0.0
 11
142.492712708
 21
136.574500299
 31
0.0
  0
LINE
  8
0
  6
CONTINUOUS
 62
     2
 10
142.492712708
 20
136.574500299
 30
0.0
 11
142.480702003
 21
136.48198026
 31
0.0
  0
LINE
  8
0
  6
CONTINUOUS
 62
     2
 10
142.480702003
 20
136.48198026
 30
0.0
 11
142.473692721
 21
136.388565117
 31
0.0
  0
LINE
  8
0
  6
CONTINUOUS
 62
     2
 10
142.473692721
 20
136.388565117
 30
0.0
 11
142.471765593
 21
136.294802328
 31
0.0
  0
LINE
  8
0
  6
CONTINUOUS
 62
     2
 10
142.471765593
 20
136.294802328
 30
0.0
 11
142.474926524
 21
136.201245099
 31
0.0
  0
LINE
  8
0
  6
CONTINUOUS
 62
     2
 10
142.474926524
 20
136.201245099
 30
0.0
 11
142.48310689
 21
136.108439394
 31
0.0
  0
LINE
  8
0
  6
CONTINUOUS
 62
     2
 10
142.48310689
 20
136.108439394
 30
0.0
 11
142.496166474
 21
136.016911391
 31
0.0
  0
LINE
  8
0
  6
CONTINUOUS
 62
     2
 10
142.496166474
 20
136.016911391
 30
0.0
 11
142.513898819
 21
135.927155989
 31
0.0
  0
LINE
  8
0
  6
CONTINUOUS
 62
     2
 10
142.513898819
 20
135.927155989
 30
0.0
 11
142.536038637
 21
135.839626872
 31
0.0
  0
LINE
  8
0
  6
CONTINUOUS
 62
     2
 10
142.536038637
 20
135.839626872
 30
0.0
 11
142.572968514
 21
135.798829272
 31
0.0
  0
LINE
  8
0
  6
CONTINUOUS
 62
     2
 10
142.572968514
 20
135.798829272
 30
0.0
 11
142.619664685
 21
135.76719858
 31
0.0
  0
LINE
  8
0
  6
CONTINUOUS
 62
     2
 10
142.619664685
 20
135.76719858
 30
0.0
 11
142.697798968
 21
135.750003166
 31
0.0
  0
LINE
  8
0
  6
CONTINUOUS
 62
     2
 10
142.697798968
 20
135.750003166
 30
0.0
 11
142.76167743
 21
135.762036871
 31
0.0
  0
LINE
  8
0
  6
CONTINUOUS
 62
     2
 10
142.76167743
 20
135.762036871
 30
0.0
 11
142.819717576
 21
135.798114617
 31
0.0
  0
LINE
  8
0
  6
CONTINUOUS
 62
     2
 10
142.819717576
 20
135.798114617
 30
0.0
 11
142.850769517
 21
135.835737422
 31
0.0
  0
LINE
  8
0
  6
CONTINUOUS
 62
     2
 10
142.850769517
 20
135.835737422
 30
0.0
 11
142.879505283
 21
135.926929165
 31
0.0
  0
LINE
  8
0
  6
CONTINUOUS
 62
     2
 10
142.879505283
 20
135.926929165
 30
0.0
 11
142.896814837
 21
136.014139724
 31
0.0
  0
LINE
  8
0
  6
CONTINUOUS
 62
     2
 10
142.896814837
 20
136.014139724
 30
0.0
 11
142.910313228
 21
136.108135589
 31
0.0
  0
LINE
  8
0
  6
CONTINUOUS
 62
     2
 10
142.910313228
 20
136.108135589
 30
0.0
 11
142.9185372
 21
136.201384715
 31
0.0
  0
LINE
  8
0
  6
CONTINUOUS
 62
     2
 10
142.9185372
 20
136.201384715
 30
0.0
 11
142.921691794
 21
136.295134525
 31
0.0
  0
LINE
  8
0
  6
CONTINUOUS
 62
     2
 10
142.921691794
 20
136.295134525
 30
0.0
 11
142.919599667
 21
136.391905511
 31
0.0
  0
LINE
  8
0
  6
CONTINUOUS
 62
     2
 10
142.919599667
 20
136.391905511
 30
0.0
 11
142.912768434
 21
136.481831554
 31
0.0
  0
LINE
  8
0
  6
CONTINUOUS
 62
     2
 10
142.912768434
 20
136.481831554
 30
0.0
 11
142.900640557
 21
136.575147119
 31
0.0
  0
LINE
  8
0
  6
CONTINUOUS
 62
     2
 10
142.900640557
 20
136.575147119
 30
0.0
 11
142.884031976
 21
136.66489881
 31
0.0
  0
LINE
  8
0
  6
CONTINUOUS
 62
     2
 10
142.884031976
 20
136.66489881
 30
0.0
 11
142.861540076
 21
136.756671568
 31
0.0
  0
LINE
  8
0
  6
CONTINUOUS
 62
     2
 10
142.861540076
 20
136.756671568
 30
0.0
 11
142.828950439
 21
136.805220502
 31
0.0
  0
LINE
  8
0
  6
CONTINUOUS
 62
     2
 10
142.828950439
 20
136.805220502
 30
0.0
 11
142.775132425
 21
136.844664342
 31
0.0
  0
LINE
  8
0
  6
CONTINUOUS
 62
     2
 10
142.775132425
 20
136.844664342
 30
0.0
 11
142.703333659
 21
136.862379574
 31
0.0
  0
LINE
  8
0
  6
CONTINUOUS
 62
     2
 10
142.703333659
 20
136.862379574
 30
0.0
 11
142.619645677
 21
136.84529249
 31
0.0
  0
LINE
  8
0
  6
CONTINUOUS
 62
     2
 10
142.619645677
 20
136.84529249
 30
0.0
 11
142.563714588
 21
136.804372293
 31
0.0
  0
LINE
  8
0
  6
CONTINUOUS
 62
     2
 10
142.563714588
 20
136.804372293
 30
0.0
 11
142.531058112
 21
136.754769934
 31
0.0
  0
LINE
  8
0
  6
CONTINUOUS
 62
     2
 10
142.531058112
 20
142.554769934
 30
0.0
 11
142.509571651
 21
142.465596322
 31
0.0
  0
LINE
  8
0
  6
CONTINUOUS
 62
     2
 10
142.509571651
 20
142.465596322
 30
0.0
 11
142.492712708
 21
142.374500299
 31
0.0
  0
LINE
  8
0
  6
CONTINUOUS
 62
     2
 10
142.492712708
 20
142.374500299
 30
0.0
 11
142.480702003
 21
142.28198026
 31
0.0
  0
LINE
  8
0
  6
CONTINUOUS
 62
     2
 10
142.480702003
 20
142.28198026
 30
0.0
 11
142.473692721
 21
142.188565117
 31
0.0
  0
LINE
  8
0
  6
CONTINUOUS
 62
     2
 10
142.473692721
 20
142.188565117
 30
0.0
 11
142.471765593
 21
142.094802328
 31
0.0
  0
LINE
  8
0
  6
CONTINUOUS
 62
     2
 10
142.471765593
 20
142.094802328
 30
0.0
 11
142.474926524
 21
142.001245099
 31
0.0
  0
LINE
  8
0
  6
CONTINUOUS
 62
     2
 10
142.474926524
 20
142.001245099
 30
0.0
 11
142.48310689
 21
141.908439394
 31
0.0
  0
LINE
  8
0
  6
CONTINUOUS
 62
     2
 10
142.48310689
 20
141.908439394
 30
0.0
 11
142.496166474
 21
141.816911391
 31
0.0
  0
LINE
  8
0
  6
CONTINUOUS
 62
     2
 10
142.496166474
 20
141.816911391
 30
0.0
 11
142.513898819
 21
141.727155989
 31
0.0
  0
LINE
  8
0
  6
CONTINUOUS
 62
     2
 10
142.513898819
 20
141.727155989
 30
0.0
 11
142.536038637
 21
141.639626872
 31
0.0
  0
LINE
  8
0
  6
CONTINUOUS
 62
     2
 10
142.536038637
 20
141.639626872
 30
0.0
 11
142.572968514
 21
141.598829272
 31
0.0
  0
LINE
  8
0
  6
CONTINUOUS
 62
     2
 10
142.572968514
 20
141.598829272
 30
0.0
 11
142.619664685
 21
141.56719858
 31
0.0
  0
LINE
  8
0
  6
CONTINUOUS
 62
     2
 10
142.619664685
 20
141.56719858
 30
0.0
 11
142.697798968
 21
141.550003166
 31
0.0
  0
LINE
  8
0
  6
CONTINUOUS
 62
     2
 10
142.697798968
 20
141.550003166
 30
0.0
 11
142.76167743
 21
141.562036871
 31
0.0
  0
LINE
  8
0
  6
CONTINUOUS
 62
     2
 10
142.76167743
 20
141.562036871
 30
0.0
 11
142.819717576
 21
141.598114617
 31
0.0
  0
LINE
  8
0
  6
CONTINUOUS
 62
     2
 10
142.819717576
 20
141.598114617
 30
0.0
 11
142.850769517
 21
141.635737422
 31
0.0
  0
LINE
  8
0
  6
CONTINUOUS
 62
     2
 10
142.850769517
 20
141.635737422
 30
0.0
 11
142.879505283
 21
141.726929165
 31
0.0
  0
LINE
  8
0
  6
CONTINUOUS
 62
     2
 10
142.879505283
 20
141.726929165
 30
0.0
 11
142.896814837
 21
141.814139724
 31
0.0
  0
LINE
  8
0
  6
CONTINUOUS
 62
     2
 10
142.896814837
 20
141.814139724
 30
0.0
 11
142.910313228
 21
141.908135589
 31
0.0
  0
LINE
  8
0
  6
CONTINUOUS
 62
     2
 10
142.910313228
 20
141.908135589
 30
0.0
 11
142.9185372
 21
142.001384715
 31
0.0
  0
LINE
  8
0
  6
CONTINUOUS
 62
     2
 10
142.9185372
 20
142.001384715
 30
0.0
 11
142.921691794
 21
142.095134525
 31
0.0
  0
LINE
  8
0
  6
CONTINUOUS
 62
     2
 10
142.921691794
 20
142.095134525
 30
0.0
 11
142.919599667
 21
142.191905511
 31
0.0
  0
LINE
  8
0
  6
CONTINUOUS
 62
     2
 10
142.919599667
 20
142.191905511
 30
0.0
 11
142.912768434
 21
142.281831554
 31
0.0
  0
LINE
  8
0
  6
CONTINUOUS
 62
     2
 10
142.912768434
 20
142.281831554
 30
0.0
 11
142.900640557
 21
142.375147119
 31
0.0
  0
LINE
  8
0
  6
CONTINUOUS
 62
     2
 10
142.900640557
 20
142.375147119
 30
0.0
 11
142.884031976
 21
142.46489881
 31
0.0
  0
LINE
  8
0
  6
CONTINUOUS
 62
     2
 10
142.884031976
 20
142.46489881
 30
0.0
 11
142.861540076
 21
142.556671568
 31
0.0
  0
LINE
  8
0
  6
CONTINUOUS
 62
     2
 10
142.861540076
 20
142.556671568
 30
0.0
 11
142.828950439
 21
142.605220502
 31
0.0
  0
LINE
  8
0
  6
CONTINUOUS
 62
     2
 10
142.828950439
 20
142.605220502
 30
0.0
 11
142.775132425
 21
142.644664342
 31
0.0
  0
LINE
  8
0
  6
CONTINUOUS
 62
     2
 10
142.775132425
 20
142.644664342
 30
0.0
 11
142.703333659
 21
142.662379574
 31
0.0
  0
LINE
  8
0
  6
CONTINUOUS
 62
     2
 10
142.703333659
 20
142.662379574
 30
0.0
 11
142.619645677
 21
142.64529249
 31
0.0
  0
LINE
  8
0
  6
CONTINUOUS
 62
     2
 10
142.619645677
 20
142.64529249
 30
0.0
 11
142.563714588
 21
142.604372293
 31
0.0
  0
LINE
  8
0
  6
CONTINUOUS
 62
     2
 10
142.563714588
 20
142.604372293
 30
0.0
 11
142.531058112
 21
142.554769934
 31
0.0
  0
LINE
  8
0
  6
CONTINUOUS
 62
     2
 10
142.009375
 20
141.55
 30
0.0
 11
142.009375
 21
141.64375
 31
0.0
  0
LINE
  8
0
  6
CONTINUOUS
 62
     2
 10
142.009375
 20
141.64375
 30
0.0
 11
142.009375
 21
141.7375
 31
0.0
  0
LINE
  8
0
  6
CONTINUOUS
 62
     2
 10
142.009375
 20
141.7375
 30
0.0
 11
142.009375
 21
141.83125
 31
0.0
  0
LINE
  8
0
  6
CONTINUOUS
 62
     2
 10
142.009375
 20
141.83125
 30
0.0
 11
142.009375
 21
141.925
 31
0.0
  0
LINE
  8
0
  6
CONTINUOUS
 62
     2
 10
142.009375
 20
141.925
 30
0.0
 11
142.009375
 21
142.01875
 31
0.0
  0
LINE
  8
0
  6
CONTINUOUS
 62
     2
 10
142.009375
 20
142.01875
 30
0.0
 11
142.009375
 21
142.1125
 31
0.0
  0
LINE
  8
0
  6
CONTINUOUS
 62
     2
 10
142.009375
 20
142.1125
 30
0.0
 11
142.009375
 21
142.2375
 31
0.0
  0
LINE
  8
0
  6
CONTINUOUS
 62
     2
 10
142.009375
 20
142.2375
 30
0.0
 11
142.009375
 21
142.14375
 31
0.0
  0
LINE
  8
0
  6
CONTINUOUS
 62
     2
 10
142.009375
 20
142.14375
 30
0.0
 11
142.009375
 21
142.05
 31
0.0
  0
LINE
  8
0
  6
CONTINUOUS
 62
     2
 10
142.009375
 20
142.05
 30
0.0
 11
142.009375
 21
141.95625
 31
0.0
  0
LINE
  8
0
  6
CONTINUOUS
 62
     2
 10
142.009375
 20
141.95625
 30
0.0
 11
142.009375
 21
141.8625
 31
0.0
  0
LINE
  8
0
  6
CONTINUOUS
 62
     2
 10
142.009375
 20
141.8625
 30
0.0
 11
142.009375
 21
141.8
 31
0.0
  0
LINE
  8
0
  6
CONTINUOUS
 62
     2
 10
142.009375
 20
141.8
 30
0.0
 11
142.134375
 21
141.8
 31
0.0
  0
LINE
  8
0
  6
CONTINUOUS
 62
     2
 10
142.134375
 20
141.8
 30
0.0
 11
142.040625
 21
141.8
 31
0.0
  0
LINE
  8
0
  6
CONTINUOUS
 62
     2
 10
142.040625
 20
141.8
 30
0.0
 11
141.946875
 21
141.8
 31
0.0
  0
LINE
  8
0
  6
CONTINUOUS
 62
     2
 10
141.946875
 20
141.8
 30
0.0
 11
141.853125
 21
141.8
 31
0.0
  0
LINE
  8
0
  6
CONTINUOUS
 62
     2
 10
141.853125
 20
141.8
 30
0.0
 11
141.759375
 21
141.8
 31
0.0
  0
LINE
  8
0
  6
CONTINUOUS
 62
     2
 10
141.759375
 20
141.8
 30
0.0
 11
141.684375
 21
141.8
 31
0.0
  0
LINE
  8
0
  6
CONTINUOUS
 62
     2
 10
141.684375
 20
141.8
 30
0.0
 11
141.705905172
 21
141.888512931
 31
0.0
  0
LINE
  8
0
  6
CONTINUOUS
 62
     2
 10
141.705905172
 20
141.888512931
 30
0.0
 11
141.727435345
 21
141.977025862
 31
0.0
  0
LINE
  8
0
  6
CONTINUOUS
 62
     2
 10
141.727435345
 20
141.977025862
 30
0.0
 11
141.748965517
 21
142.065538793
 31
0.0
  0
LINE
  8
0
  6
CONTINUOUS
 62
     2
 10
141.748965517
 20
142.065538793
 30
0.0
 11
141.77049569
 21
142.154051724
 31
0.0
  0
LINE
  8
0
  6
CONTINUOUS
 62
     2
 10
141.77049569
 20
142.154051724
 30
0.0
 11
141.792025862
 21
142.242564655
 31
0.0
  0
LINE
  8
0
  6
CONTINUOUS
 62
     2
 10
141.792025862
 20
142.242564655
 30
0.0
 11
141.813556034
 21
142.331077586
 31
0.0
  0
LINE
  8
0
  6
CONTINUOUS
 62
     2
 10
141.813556034
 20
142.331077586
 30
0.0
 11
141.835086207
 21
142.419590517
 31
0.0
  0
LINE
  8
0
  6
CONTINUOUS
 62
     2
 10
141.835086207
 20
142.419590517
 30
0.0
 11
141.856616379
 21
142.508103448
 31
0.0
  0
LINE
  8
0
  6
CONTINUOUS
 62
     2
 10
141.856616379
 20
142.508103448
 30
0.0
 11
141.878146552
 21
142.596616379
 31
0.0
  0
LINE
  8
0
  6
CONTINUOUS
 62
     2
 10
141.878146552
 20
142.596616379
 30
0.0
 11
141.891648632
 21
142.65212493
 31
0.0
  0
LINE
  8
0
  6
CONTINUOUS
 62
     2
 10
142.531058112
 20
148.354769934
 30
0.0
 11
142.509571651
 21
148.265596322
 31
0.0
  0
LINE
  8
0
  6
CONTINUOUS
 62
     2
 10
142.509571651
 20
148.265596322
 30
0.0
 11
142.492712708
 21
148.174500299
 31
0.0
  0
LINE
  8
0
  6
CONTINUOUS
 62
     2
 10
142.492712708
 20
148.174500299
 30
0.0
 11
142.480702003
 21
148.08198026
 31
0.0
  0
LINE
  8
0
  6
CONTINUOUS
 62
     2
 10
142.480702003
 20
148.08198026
 30
0.0
 11
142.473692721
 21
147.988565117
 31
0.0
  0
LINE
  8
0
  6
CONTINUOUS
 62
     2
 10
142.473692721
 20
147.988565117
 30
0.0
 11
142.471765593
 21
147.894802328
 31
0.0
  0
LINE
  8
0
  6
CONTINUOUS
 62
     2
 10
142.471765593
 20
147.894802328
 30
0.0
 11
142.474926524
 21
147.801245099
 31
0.0
  0
LINE
  8
0
  6
CONTINUOUS
 62
     2
 10
142.474926524
 20
147.801245099
 30
0.0
 11
142.48310689
 21
147.708439394
 31
0.0
  0
LINE
  8
0
  6
CONTINUOUS
 62
     2
 10
142.48310689
 20
147.708439394
 30
0.0
 11
142.496166474
 21
147.616911391
 31
0.0
  0
LINE
  8
0
  6
CONTINUOUS
 62
     2
 10
142.496166474
 20
147.616911391
 30
0.0
 11
142.513898819
 21
147.527155989
 31
0.0
  0
LINE
  8
0
  6
CONTINUOUS
 62
     2
 10
142.513898819
 20
147.527155989
 30
0.0
 11
142.536038637
 21
147.439626872
 31
0.0
  0
LINE
  8
0
  6
CONTINUOUS
 62
     2
 10
142.536038637
 20
147.439626872
 30
0.0
 11
142.572968514
 21
147.398829272
 31
0.0
  0
LINE
  8
0
  6
CONTINUOUS
 62
     2
 10
142.572968514
 20
147.398829272
 30
0.0
 11
142.619664685
 21
147.36719858
 31
0.0
  0
LINE
  8
0
  6
CONTINUOUS
 62
     2
 10
142.619664685
 20
147.36719858
 30
0.0
 11
142.697798968
 21
147.350003166
 31
0.0
  0
LINE
  8
0
  6
CONTINUOUS
 62
     2
 10
142.697798968
 20
147.350003166
 30
0.0
 11
142.76167743
 21
147.362036871
 31
0.0
  0
LINE
  8
0
  6
CONTINUOUS
 62
     2
 10
142.76167743
 20
147.362036871
 30
0.0
 11
142.819717576
 21
147.398114617
 31
0.0
  0
LINE
  8
0
  6
CONTINUOUS
 62
     2
 10
142.819717576
 20
147.398114617
 30
0.0
 11
142.850769517
 21
147.435737422
 31
0.0
  0
LINE
  8
0
  6
CONTINUOUS
 62
     2
 10
142.850769517
 20
147.435737422
 30
0.0
 11
142.879505283
 21
147.526929165
 31
0.0
  0
LINE
  8
0
  6
CONTINUOUS
 62
     2
 10
142.879505283
 20
147.526929165
 30
0.0
 11
142.896814837
 21
147.614139724
 31
0.0
  0
LINE
  8
0
  6
CONTINUOUS
 62
     2
 10
142.896814837
 20
147.614139724
 30
0.0
 11
142.910313228
 21
147.708135589
 31
0.0
  0
LINE
  8
0
  6
CONTINUOUS
 62
     2
 10
142.910313228
 20
147.708135589
 30
0.0
 11
142.9185372
 21
147.801384715
 31
0.0
  0
LINE
  8
0
  6
CONTINUOUS
 62
     2
 10
142.9185372
 20
147.801384715
 30
0.0
 11
142.921691794
 21
147.895134525
 31
0.0
  0
LINE
  8
0
  6
CONTINUOUS
 62
     2
 10
142.921691794
 20
147.895134525
 30
0.0
 11
142.919599667
 21
147.991905511
 31
0.0
  0
LINE
  8
0
  6
CONTINUOUS
 62
     2
 10
142.919599667
 20
147.991905511
 30
0.0
 11
142.912768434
 21
148.081831554
 31
0.0
  0
LINE
  8
0
  6
CONTINUOUS
 62
     2
 10
142.912768434
 20
148.081831554
 30
0.0
 11
142.900640557
 21
148.175147119
 31
0.0
  0
LINE
  8
0
  6
CONTINUOUS
 62
     2
 10
142.900640557
 20
148.175147119
 30
0.0
 11
142.884031976
 21
148.26489881
 31
0.0
  0
LINE
  8
0
  6
CONTINUOUS
 62
     2
 10
142.884031976
 20
148.26489881
 30
0.0
 11
142.861540076
 21
148.356671568
 31
0.0
  0
LINE
  8
0
  6
CONTINUOUS
 62
     2
 10
142.861540076
 20
148.356671568
 30
0.0
 11
142.828950439
 21
148.405220502
 31
0.0
  0
LINE
  8
0
  6
CONTINUOUS
 62
     2
 10
142.828950439
 20
148.405220502
 30
0.0
 11
142.775132425
 21
148.444664342
 31
0.0
  0
LINE
  8
0
  6
CONTINUOUS
 62
     2
 10
142.775132425
 20
148.444664342
 30
0.0
 11
142.703333659
 21
148.462379574
 31
0.0
  0
LINE
  8
0
  6
CONTINUOUS
 62
     2
 10
142.703333659
 20
148.462379574
 30
0.0
 11
142.619645677
 21
148.44529249
 31
0.0
  0
LINE
  8
0
  6
CONTINUOUS
 62
     2
 10
142.619645677
 20
148.44529249
 30
0.0
 11
142.563714588
 21
148.404372293
 31
0.0
  0
LINE
  8
0
  6
CONTINUOUS
 62
     2
 10
142.563714588
 20
148.404372293
 30
0.0
 11
142.531058112
 21
148.354769934
 31
0.0
  0
LINE
  8
0
  6
CONTINUOUS
 62
     2
 10
141.671875
 20
147.65
 30
0.0
 11
141.683256484
 21
147.741756635
 31
0.0
  0
LINE
  8
0
  6
CONTINUOUS
 62
     2
 10
141.683256484
 20
147.741756635
 30
0.0
 11
141.713907705
 21
147.820403636
 31
0.0
  0
LINE
  8
0
  6
CONTINUOUS
 62
     2
 10
141.713907705
 20
147.820403636
 30
0.0
 11
141.760346336
 21
147.883587601
 31
0.0
  0
LINE
  8
0
  6
CONTINUOUS
 62
     2
 10
141.760346336
 20
147.883587601
 30
0.0
 11
141.823136006
 21
147.929523702
 31
0.0
  0
LINE
  8
0
  6
CONTINUOUS
 62
     2
 10
141.823136006
 20
147.929523702
 30
0.0
 11
141.901132606
 21
147.949819282
 31
0.0
  0
LINE
  8
0
  6
CONTINUOUS
 62
     2
 10
141.901132606
 20
147.949819282
 30
0.0
 11
142.00253238
 21
147.92595867
 31
0.0
  0
LINE
  8
0
  6
CONTINUOUS
 62
     2
 10
142.00253238
 20
147.92595867
 30
0.0
 11
142.056045142
 21
147.885957487
 31
0.0
  0
LINE
  8
0
  6
CONTINUOUS
 62
     2
 10
142.056045142
 20
147.885957487
 30
0.0
 11
142.105254129
 21
147.819647405
 31
0.0
  0
LINE
  8
0
  6
CONTINUOUS
 62
     2
 10
142.105254129
 20
147.819647405
 30
0.0
 11
142.13504367
 21
147.743506976
 31
0.0
  0
LINE
  8
0
  6
CONTINUOUS
 62
     2
 10
142.13504367
 20
147.743506976
 30
0.0
 11
142.14687492
 21
147.649754436
 31
0.0
  0
LINE
  8
0
  6
CONTINUOUS
 62
     2
 10
142.14687492
 20
147.649754436
 30
0.0
 11
142.139768576
 21
147.577162212
 31
0.0
  0
LINE
  8
0
  6
CONTINUOUS
 62
     2
 10
142.139768576
 20
147.577162212
 30
0.0
 11
142.113017811
 21
147.495626521
 31
0.0
  0
LINE
  8
0
  6
CONTINUOUS
 62
     2
 10
142.113017811
 20
147.495626521
 30
0.0
 11
142.057828355
 21
147.415828612
 31
0.0
  0
LINE
  8
0
  6
CONTINUOUS
 62
     2
 10
142.057828355
 20
147.415828612
 30
0.0
 11
142.006547213
 21
147.376259342
 31
0.0
  0
LINE
  8
0
  6
CONTINUOUS
 62
     2
 10
142.006547213
 20
147.376259342
 30
0.0
 11
141.903460838
 21
147.350093029
 31
0.0
  0
LINE
  8
0
  6
CONTINUOUS
 62
     2
 10
141.903460838
 20
147.350093029
 30
0.0
 11
141.827525269
 21
147.368378468
 31
0.0
  0
LINE
  8
0
  6
CONTINUOUS
 62
     2
 10
141.827525269
 20
147.368378468
 30
0.0
 11
141.759303532
 21
147.417480097
 31
0.0
  0
LINE
  8
0
  6
CONTINUOUS
 62
     2
 10
141.759303532
 20
147.417480097
 30
0.0
 11
141.711000972
 21
147.485043017
 31
0.0
  0
LINE
  8
0
  6
CONTINUOUS
 62
     2
 10
141.711000972
 20
147.485043017
 30
0.0
 11
141.68100575
 21
147.567615995
 31
0.0
  0
LINE
  8
0
  6
CONTINUOUS
 62
     2
 10
141.68100575
 20
147.567615995
 30
0.0
 11
141.675489357
 21
147.741598667
 31
0.0
  0
LINE
  8
0
  6
CONTINUOUS
 62
     2
 10
141.675489357
 20
147.741598667
 30
0.0
 11
141.684342834
 21
147.81980067
 31
0.0
  0
LINE
  8
0
  6
CONTINUOUS
 62
     2
 10
141.684342834
 20
147.81980067
 30
0.0
 11
141.701837963
 21
147.912232929
 31
0.0
  0
LINE
  8
0
  6
CONTINUOUS
 62
     2
 10
141.701837963
 20
147.912232929
 30
0.0
 11
141.728227881
 21
148.007553914
 31
0.0
  0
LINE
  8
0
  6
CONTINUOUS
 62
     2
 10
141.728227881
 20
148.007553914
 30
0.0
 11
141.758014242
 21
148.08915119
 31
0.0
  0
LINE
  8
0
  6
CONTINUOUS
 62
     2
 10
141.758014242
 20
148.08915119
 30
0.0
 11
141.792567539
 21
148.165794013
 31
0.0
  0
LINE
  8
0
  6
CONTINUOUS
 62
     2
 10
141.792567539
 20
148.165794013
 30
0.0
 11
141.830997042
 21
148.237059558
 31
0.0
  0
LINE
  8
0
  6
CONTINUOUS
 62
     2
 10
141.830997042
 20
148.237059558
 30
0.0
 11
141.872410333
 21
148.302709913
 31
0.0
  0
LINE
  8
0
  6
CONTINUOUS
 62
     2
 10
141.872410333
 20
148.302709913
 30
0.0
 11
141.915950956
 21
148.362673506
 31
0.0
  0
LINE
  8
0
  6
CONTINUOUS
 62
     2
 10
141.915950956
 20
148.362673506
 30
0.0
 11
141.992484827
 21
148.45164031
 31
0.0
  0
LINE
  8
0
  6
CONTINUOUS
 62
     2
 10
142.531058112
 20
154.154769934
 30
0.0
 11
142.509571651
 21
154.065596322
 31
0.0
  0
LINE
  8
0
  6
CONTINUOUS
 62
     2
 10
142.509571651
 20
154.065596322
 30
0.0
 11
142.492712708
 21
153.974500299
 31
0.0
  0
LINE
  8
0
  6
CONTINUOUS
 62
     2
 10
142.492712708
 20
153.974500299
 30
0.0
 11
142.480702003
 21
153.88198026
 31
0.0
  0
LINE
  8
0
  6
CONTINUOUS
 62
     2
 10
142.480702003
 20
153.88198026
 30
0.0
 11
142.473692721
 21
153.788565117
 31
0.0
  0
LINE
  8
0
  6
CONTINUOUS
 62
     2
 10
142.473692721
 20
153.788565117
 30
0.0
 11
142.471765593
 21
153.694802328
 31
0.0
  0
LINE
  8
0
  6
CONTINUOUS
 62
     2
 10
142.471765593
 20
153.694802328
 30
0.0
 11
142.474926524
 21
153.601245099
 31
0.0
  0
LINE
  8
0
  6
CONTINUOUS
 62
     2
 10
142.474926524
 20
153.601245099
 30
0.0
 11
142.48310689
 21
153.508439394
 31
0.0
  0
LINE
  8
0
  6
CONTINUOUS
 62
     2
 10
142.48310689
 20
153.508439394
 30
0.0
 11
142.496166474
 21
153.416911391
 31
0.0
  0
LINE
  8
0
  6
CONTINUOUS
 62
     2
 10
142.496166474
 20
153.416911391
 30
0.0
 11
142.513898819
 21
153.327155989
 31
0.0
  0
LINE
  8
0
  6
CONTINUOUS
 62
     2
 10
142.513898819
 20
153.327155989
 30
0.0
 11
142.536038637
 21
153.239626872
 31
0.0
  0
LINE
  8
0
  6
CONTINUOUS
 62
     2
 10
142.536038637
 20
153.239626872
 30
0.0
 11
142.572968514
 21
153.198829272
 31
0.0
  0
LINE
  8
0
  6
CONTINUOUS
 62
     2
 10
142.572968514
 20
153.198829272
 30
0.0
 11
142.619664685
 21
153.16719858
 31
0.0
  0
LINE
  8
0
  6
CONTINUOUS
 62
     2
 10
142.619664685
 20
153.16719858
 30
0.0
 11
142.697798968
 21
153.150003166
 31
0.0
  0
LINE
  8
0
  6
CONTINUOUS
 62
     2
 10
142.697798968
 20
153.150003166
 30
0.0
 11
142.76167743
 21
153.162036871
 31
0.0
  0
LINE
  8
0
  6
CONTINUOUS
 62
     2
 10
142.76167743
 20
153.162036871
 30
0.0
 11
142.819717576
 21
153.198114617
 31
0.0
  0
LINE
  8
0
  6
CONTINUOUS
 62
     2
 10
142.819717576
 20
153.198114617
 30
0.0
 11
142.850769517
 21
153.235737422
 31
0.0
  0
LINE
  8
0
  6
CONTINUOUS
 62
     2
 10
142.850769517
 20
153.235737422
 30
0.0
 11
142.879505283
 21
153.326929165
 31
0.0
  0
LINE
  8
0
  6
CONTINUOUS
 62
     2
 10
142.879505283
 20
153.326929165
 30
0.0
 11
142.896814837
 21
153.414139724
 31
0.0
  0
LINE
  8
0
  6
CONTINUOUS
 62
     2
 10
142.896814837
 20
153.414139724
 30
0.0
 11
142.910313228
 21
153.508135589
 31
0.0
  0
LINE
  8
0
  6
CONTINUOUS
 62
     2
 10
142.910313228
 20
153.508135589
 30
0.0
 11
142.9185372
 21
153.601384715
 31
0.0
  0
LINE
  8
0
  6
CONTINUOUS
 62
     2
 10
142.9185372
 20
153.601384715
 30
0.0
 11
142.921691794
 21
153.695134525
 31
0.0
  0
LINE
  8
0
  6
CONTINUOUS
 62
     2
 10
142.921691794
 20
153.695134525
 30
0.0
 11
142.919599667
 21
153.791905511
 31
0.0
  0
LINE
  8
0
  6
CONTINUOUS
 62
     2
 10
142.919599667
 20
153.791905511
 30
0.0
 11
142.912768434
 21
153.881831554
 31
0.0
  0
LINE
  8
0
  6
CONTINUOUS
 62
     2
 10
142.912768434
 20
153.881831554
 30
0.0
 11
142.900640557
 21
153.975147119
 31
0.0
  0
LINE
  8
0
  6
CONTINUOUS
 62
     2
 10
142.900640557
 20
153.975147119
 30
0.0
 11
142.884031976
 21
154.06489881
 31
0.0
  0
LINE
  8
0
  6
CONTINUOUS
 62
     2
 10
142.884031976
 20
154.06489881
 30
0.0
 11
142.861540076
 21
154.156671568
 31
0.0
  0
LINE
  8
0
  6
CONTINUOUS
 62
     2
 10
142.861540076
 20
154.156671568
 30
0.0
 11
142.828950439
 21
154.205220502
 31
0.0
  0
LINE
  8
0
  6
CONTINUOUS
 62
     2
 10
142.828950439
 20
154.205220502
 30
0.0
 11
142.775132425
 21
154.244664342
 31
0.0
  0
LINE
  8
0
  6
CONTINUOUS
 62
     2
 10
142.775132425
 20
154.244664342
 30
0.0
 11
142.703333659
 21
154.262379574
 31
0.0
  0
LINE
  8
0
  6
CONTINUOUS
 62
     2
 10
142.703333659
 20
154.262379574
 30
0.0
 11
142.619645677
 21
154.24529249
 31
0.0
  0
LINE
  8
0
  6
CONTINUOUS
 62
     2
 10
142.619645677
 20
154.24529249
 30
0.0
 11
142.563714588
 21
154.204372293
 31
0.0
  0
LINE
  8
0
  6
CONTINUOUS
 62
     2
 10
142.563714588
 20
154.204372293
 30
0.0
 11
142.531058112
 21
154.154769934
 31
0.0
  0
LINE
  8
0
  6
CONTINUOUS
 62
     2
 10
141.909375031
 20
153.75
 30
0.0
 11
141.969817187
 21
153.740122352
 31
0.0
  0
LINE
  8
0
  6
CONTINUOUS
 62
     2
 10
141.969817187
 20
153.740122352
 30
0.0
 11
142.019550352
 21
153.715766866
 31
0.0
  0
LINE
  8
0
  6
CONTINUOUS
 62
     2
 10
142.019550352
 20
153.715766866
 30
0.0
 11
142.068864676
 21
153.67229172
 31
0.0
  0
LINE
  8
0
  6
CONTINUOUS
 62
     2
 10
142.068864676
 20
153.67229172
 30
0.0
 11
142.111858965
 21
153.606786819
 31
0.0
  0
LINE
  8
0
  6
CONTINUOUS
 62
     2
 10
142.111858965
 20
153.606786819
 30
0.0
 11
142.138869266
 21
153.527234973
 31
0.0
  0
LINE
  8
0
  6
CONTINUOUS
 62
     2
 10
142.138869266
 20
153.527234973
 30
0.0
 11
142.146873881
 21
153.449078929
 31
0.0
  0
LINE
  8
0
  6
CONTINUOUS
 62
     2
 10
142.146873881
 20
153.449078929
 30
0.0
 11
142.138001158
 21
153.368760877
 31
0.0
  0
LINE
  8
0
  6
CONTINUOUS
 62
     2
 10
142.138001158
 20
153.368760877
 30
0.0
 11
142.114540263
 21
153.298877187
 31
0.0
  0
LINE
  8
0
  6
CONTINUOUS
 62
     2
 10
142.114540263
 20
153.298877187
 30
0.0
 11
142.070410284
 21
153.229493412
 31
0.0
  0
LINE
  8
0
  6
CONTINUOUS
 62
     2
 10
142.070410284
 20
153.229493412
 30
0.0
 11
142.021753622
 21
153.185709165
 31
0.0
  0
LINE
  8
0
  6
CONTINUOUS
 62
     2
 10
142.021753622
 20
153.185709165
 30
0.0
 11
141.968863333
 21
153.15956325
 31
0.0
  0
LINE
  8
0
  6
CONTINUOUS
 62
     2
 10
141.968863333
 20
153.15956325
 30
0.0
 11
141.909488404
 21
153.150000034
 31
0.0
  0
LINE
  8
0
  6
CONTINUOUS
 62
     2
 10
141.909488404
 20
153.150000034
 30
0.0
 11
141.841481012
 21
153.162519426
 31
0.0
  0
LINE
  8
0
  6
CONTINUOUS
 62
     2
 10
141.841481012
 20
153.162519426
 30
0.0
 11
141.794550337
 21
153.187392096
 31
0.0
  0
LINE
  8
0
  6
CONTINUOUS
 62
     2
 10
141.794550337
 20
153.187392096
 30
0.0
 11
141.75077036
 21
153.226700198
 31
0.0
  0
LINE
  8
0
  6
CONTINUOUS
 62
     2
 10
141.75077036
 20
153.226700198
 30
0.0
 11
141.705873889
 21
153.29532866
 31
0.0
  0
LINE
  8
0
  6
CONTINUOUS
 62
     2
 10
141.705873889
 20
153.29532866
 30
0.0
 11
141.681082089
 21
153.3672791
 31
0.0
  0
LINE
  8
0
  6
CONTINUOUS
 62
     2
 10
141.681082089
 20
153.3672791
 30
0.0
 11
141.671877927
 21
153.448510574
 31
0.0
  0
LINE
  8
0
  6
CONTINUOUS
 62
     2
 10
141.671877927
 20
153.448510574
 30
0.0
 11
141.679853492
 21
153.527105701
 31
0.0
  0
LINE
  8
0
  6
CONTINUOUS
 62
     2
 10
141.679853492
 20
153.527105701
 30
0.0
 11
141.707506076
 21
153.60804719
 31
0.0
  0
LINE
  8
0
  6
CONTINUOUS
 62
     2
 10
141.707506076
 20
153.60804719
 30
0.0
 11
141.748243108
 21
153.670393954
 31
0.0
  0
LINE
  8
0
  6
CONTINUOUS
 62
     2
 10
141.748243108
 20
153.670393954
 30
0.0
 11
141.802897972
 21
153.718161288
 31
0.0
  0
LINE
  8
0
  6
CONTINUOUS
 62
     2
 10
141.802897972
 20
153.718161288
 30
0.0
 11
141.86469925
 21
153.744644481
 31
0.0
  0
LINE
  8
0
  6
CONTINUOUS
 62
     2
 10
141.86469925
 20
153.744644481
 30
0.0
 11
141.971870146
 21
153.762518564
 31
0.0
  0
LINE
  8
0
  6
CONTINUOUS
 62
     2
 10
141.971870146
 20
153.762518564
 30
0.0
 11
142.024414174
 21
153.795496071
 31
0.0
  0
LINE
  8
0
  6
CONTINUOUS
 62
     2
 10
142.024414174
 20
153.795496071
 30
0.0
 11
142.065954935
 21
153.844463008
 31
0.0
  0
LINE
  8
0
  6
CONTINUOUS
 62
     2
 10
142.065954935
 20
153.844463008
 30
0.0
 11
142.096969293
 21
153.913321886
 31
0.0
  0
LINE
  8
0
  6
CONTINUOUS
 62
     2
 10
142.096969293
 20
153.913321886
 30
0.0
 11
142.10937392
 21
154.000821495
 31
0.0
  0
LINE
  8
0
  6
CONTINUOUS
 62
     2
 10
142.10937392
 20
154.000821495
 30
0.0
 11
142.097341485
 21
154.085408948
 31
0.0
  0
LINE
  8
0
  6
CONTINUOUS
 62
     2
 10
142.097341485
 20
154.085408948
 30
0.0
 11
142.065328148
 21
154.156517848
 31
0.0
  0
LINE
  8
0
  6
CONTINUOUS
 62
     2
 10
142.065328148
 20
154.156517848
 30
0.0
 11
142.02173936
 21
154.20681457
 31
0.0
  0
LINE
  8
0
  6
CONTINUOUS
 62
     2
 10
142.02173936
 20
154.20681457
 30
0.0
 11
141.972360356
 21
154.237278992
 31
0.0
  0
LINE
  8
0
  6
CONTINUOUS
 62
     2
 10
141.972360356
 20
154.237278992
 30
0.0
 11
141.909879728
 21
154.249999204
 31
0.0
  0
LINE
  8
0
  6
CONTINUOUS
 62
     2
 10
141.909879728
 20
154.249999204
 30
0.0
 11
141.847335643
 21
154.237668092
 31
0.0
  0
LINE
  8
0
  6
CONTINUOUS
 62
     2
 10
141.847335643
 20
154.237668092
 30
0.0
 11
141.797085819
 21
154.20687836
 31
0.0
  0
LINE
  8
0
  6
CONTINUOUS
 62
     2
 10
141.797085819
 20
154.20687836
 30
0.0
 11
141.753528853
 21
154.156684289
 31
0.0
  0
LINE
  8
0
  6
CONTINUOUS
 62
     2
 10
141.753528853
 20
154.156684289
 30
0.0
 11
141.72172908
 21
154.086503331
 31
0.0
  0
LINE
  8
0
  6
CONTINUOUS
 62
     2
 10
141.72172908
 20
154.086503331
 30
0.0
 11
141.709376587
 21
153.999004065
 31
0.0
  0
LINE
  8
0
  6
CONTINUOUS
 62
     2
 10
141.709376587
 20
153.999004065
 30
0.0
 11
141.72182866
 21
153.913159896
 31
0.0
  0
LINE
  8
0
  6
CONTINUOUS
 62
     2
 10
141.72182866
 20
153.913159896
 30
0.0
 11
141.752925745
 21
153.844257672
 31
0.0
  0
LINE
  8
0
  6
CONTINUOUS
 62
     2
 10
141.752925745
 20
153.844257672
 30
0.0
 11
141.800762617
 21
153.790076836
 31
0.0
  0
LINE
  8
0
  6
CONTINUOUS
 62
     2
 10
141.800762617
 20
153.790076836
 30
0.0
 11
141.856351436
 21
153.758945994
 31
0.0
  0
LINE
  8
0
  6
CONTINUOUS
 62
     2
 10
141.856351436
 20
153.758945994
 30
0.0
 11
141.909375031
 21
153.75
 31
0.0
  0
LINE
  8
0
  6
CONTINUOUS
 62
     2
 10
141.76875
 20
160.05
 30
0.0
 11
141.76875
 21
159.95625
 31
0.0
  0
LINE
  8
0
  6
CONTINUOUS
 62
     2
 10
141.76875
 20
159.95625
 30
0.0
 11
141.76875
 21
159.8625
 31
0.0
  0
LINE
  8
0
  6
CONTINUOUS
 62
     2
 10
141.76875
 20
159.8625
 30
0.0
 11
141.76875
 21
159.76875
 31
0.0
  0
LINE
  8
0
  6
CONTINUOUS
 62
     2
 10
141.76875
 20
159.76875
 30
0.0
 11
141.76875
 21
159.675
 31
0.0
  0
LINE
  8
0
  6
CONTINUOUS
 62
     2
 10
141.76875
 20
159.675
 30
0.0
 11
141.76875
 21
159.58125
 31
0.0
  0
LINE
  8
0
  6
CONTINUOUS
 62
     2
 10
141.76875
 20
159.58125
 30
0.0
 11
141.76875
 21
159.4875
 31
0.0
  0
LINE
  8
0
  6
CONTINUOUS
 62
     2
 10
141.76875
 20
159.4875
 30
0.0
 11
141.76875
 21
159.39375
 31
0.0
  0
LINE
  8
0
  6
CONTINUOUS
 62
     2
 10
141.76875
 20
159.39375
 30
0.0
 11
141.76875
 21
159.3
 31
0.0
  0
LINE
  8
0
  6
CONTINUOUS
 62
     2
 10
141.76875
 20
159.3
 30
0.0
 11
141.76875
 21
159.20625
 31
0.0
  0
LINE
  8
0
  6
CONTINUOUS
 62
     2
 10
141.76875
 20
159.20625
 30
0.0
 11
141.76875
 21
159.1125
 31
0.0
  0
LINE
  8
0
  6
CONTINUOUS
 62
     2
 10
141.76875
 20
159.1125
 30
0.0
 11
141.76875
 21
159.01875
 31
0.0
  0
LINE
  8
0
  6
CONTINUOUS
 62
     2
 10
141.76875
 20
159.01875
 30
0.0
 11
141.76875
 21
158.95
 31
0.0
  0
LINE
  8
0
  6
CONTINUOUS
 62
     2
 10
142.390433112
 20
159.954769934
 30
0.0
 11
142.368946651
 21
159.865596322
 31
0.0
  0
LINE
  8
0
  6
CONTINUOUS
 62
     2
 10
142.368946651
 20
159.865596322
 30
0.0
 11
142.352087708
 21
159.774500299
 31
0.0
  0
LINE
  8
0
  6
CONTINUOUS
 62
     2
 10
142.352087708
 20
159.774500299
 30
0.0
 11
142.340077003
 21
159.68198026
 31
0.0
  0
LINE
  8
0
  6
CONTINUOUS
 62
     2
 10
142.340077003
 20
159.68198026
 30
0.0
 11
142.333067721
 21
159.588565117
 31
0.0
  0
LINE
  8
0
  6
CONTINUOUS
 62
     2
 10
142.333067721
 20
159.588565117
 30
0.0
 11
142.331140593
 21
159.494802328
 31
0.0
  0
LINE
  8
0
  6
CONTINUOUS
 62
     2
 10
142.331140593
 20
159.494802328
 30
0.0
 11
142.334301524
 21
159.401245099
 31
0.0
  0
LINE
  8
0
  6
CONTINUOUS
 62
     2
 10
142.334301524
 20
159.401245099
 30
0.0
 11
142.34248189
 21
159.308439394
 31
0.0
  0
LINE
  8
0
  6
CONTINUOUS
 62
     2
 10
142.34248189
 20
159.308439394
 30
0.0
 11
142.355541474
 21
159.216911391
 31
0.0
  0
LINE
  8
0
  6
CONTINUOUS
 62
     2
 10
142.355541474
 20
159.216911391
 30
0.0
 11
142.373273819
 21
159.127155989
 31
0.0
  0
LINE
  8
0
  6
CONTINUOUS
 62
     2
 10
142.373273819
 20
159.127155989
 30
0.0
 11
142.395413637
 21
159.039626872
 31
0.0
  0
LINE
  8
0
  6
CONTINUOUS
 62
     2
 10
142.395413637
 20
159.039626872
 30
0.0
 11
142.432343514
 21
158.998829272
 31
0.0
  0
LINE
  8
0
  6
CONTINUOUS
 62
     2
 10
142.432343514
 20
158.998829272
 30
0.0
 11
142.479039685
 21
158.96719858
 31
0.0
  0
LINE
  8
0
  6
CONTINUOUS
 62
     2
 10
142.479039685
 20
158.96719858
 30
0.0
 11
142.557173968
 21
158.950003166
 31
0.0
  0
LINE
  8
0
  6
CONTINUOUS
 62
     2
 10
142.557173968
 20
158.950003166
 30
0.0
 11
142.62105243
 21
158.962036871
 31
0.0
  0
LINE
  8
0
  6
CONTINUOUS
 62
     2
 10
142.62105243
 20
158.962036871
 30
0.0
 11
142.679092576
 21
158.998114617
 31
0.0
  0
LINE
  8
0
  6
CONTINUOUS
 62
     2
 10
142.679092576
 20
158.998114617
 30
0.0
 11
142.710144517
 21
159.035737422
 31
0.0
  0
LINE
  8
0
  6
CONTINUOUS
 62
     2
 10
142.710144517
 20
159.035737422
 30
0.0
 11
142.738880283
 21
159.126929165
 31
0.0
  0
LINE
  8
0
  6
CONTINUOUS
 62
     2
 10
142.738880283
 20
159.126929165
 30
0.0
 11
142.756189837
 21
159.214139724
 31
0.0
  0
LINE
  8
0
  6
CONTINUOUS
 62
     2
 10
142.756189837
 20
159.214139724
 30
0.0
 11
142.769688228
 21
159.308135589
 31
0.0
  0
LINE
  8
0
  6
CONTINUOUS
 62
     2
 10
142.769688228
 20
159.308135589
 30
0.0
 11
142.7779122
 21
159.401384715
 31
0.0
  0
LINE
  8
0
  6
CONTINUOUS
 62
     2
 10
142.7779122
 20
159.401384715
 30
0.0
 11
142.781066794
 21
159.495134525
 31
0.0
  0
LINE
  8
0
  6
CONTINUOUS
 62
     2
 10
142.781066794
 20
159.495134525
 30
0.0
 11
142.778974667
 21
159.591905511
 31
0.0
  0
LINE
  8
0
  6
CONTINUOUS
 62
     2
 10
142.778974667
 20
159.591905511
 30
0.0
 11
142.772143434
 21
159.681831554
 31
0.0
  0
LINE
  8
0
  6
CONTINUOUS
 62
     2
 10
142.772143434
 20
159.681831554
 30
0.0
 11
142.760015557
 21
159.775147119
 31
0.0
  0
LINE
  8
0
  6
CONTINUOUS
 62
     2
 10
142.760015557
 20
159.775147119
 30
0.0
 11
142.743406976
 21
159.86489881
 31
0.0
  0
LINE
  8
0
  6
CONTINUOUS
 62
     2
 10
142.743406976
 20
159.86489881
 30
0.0
 11
142.720915076
 21
159.956671568
 31
0.0
  0
LINE
  8
0
  6
CONTINUOUS
 62
     2
 10
142.720915076
 20
159.956671568
 30
0.0
 11
142.688325439
 21
160.005220502
 31
0.0
  0
LINE
  8
0
  6
CONTINUOUS
 62
     2
 10
142.688325439
 20
160.005220502
 30
0.0
 11
142.634507425
 21
160.044664342
 31
0.0
  0
LINE
  8
0
  6
CONTINUOUS
 62
     2
 10
142.634507425
 20
160.044664342
 30
0.0
 11
142.562708659
 21
160.062379574
 31
0.0
  0
LINE
  8
0
  6
CONTINUOUS
 62
     2
 10
142.562708659
 20
160.062379574
 30
0.0
 11
142.479020677
 21
160.04529249
 31
0.0
  0
LINE
  8
0
  6
CONTINUOUS
 62
     2
 10
142.479020677
 20
160.04529249
 30
0.0
 11
142.423089588
 21
160.004372293
 31
0.0
  0
LINE
  8
0
  6
CONTINUOUS
 62
     2
 10
142.423089588
 20
160.004372293
 30
0.0
 11
142.390433112
 21
159.954769934
 31
0.0
  0
LINE
  8
0
  6
CONTINUOUS
 62
     2
 10
143.171683112
 20
159.954769934
 30
0.0
 11
143.150196651
 21
159.865596322
 31
0.0
  0
LINE
  8
0
  6
CONTINUOUS
 62
     2
 10
143.150196651
 20
159.865596322
 30
0.0
 11
143.133337708
 21
159.774500299
 31
0.0
  0
LINE
  8
0
  6
CONTINUOUS
 62
     2
 10
143.133337708
 20
159.774500299
 30
0.0
 11
143.121327003
 21
159.68198026
 31
0.0
  0
LINE
  8
0
  6
CONTINUOUS
 62
     2
 10
143.121327003
 20
159.68198026
 30
0.0
 11
143.114317721
 21
159.588565117
 31
0.0
  0
LINE
  8
0
  6
CONTINUOUS
 62
     2
 10
143.114317721
 20
159.588565117
 30
0.0
 11
143.112390593
 21
159.494802328
 31
0.0
  0
LINE
  8
0
  6
CONTINUOUS
 62
     2
 10
143.112390593
 20
159.494802328
 30
0.0
 11
143.115551524
 21
159.401245099
 31
0.0
  0
LINE
  8
0
  6
CONTINUOUS
 62
     2
 10
143.115551524
 20
159.401245099
 30
0.0
 11
143.12373189
 21
159.308439394
 31
0.0
  0
LINE
  8
0
  6
CONTINUOUS
 62
     2
 10
143.12373189
 20
159.308439394
 30
0.0
 11
143.136791474
 21
159.216911391
 31
0.0
  0
LINE
  8
0
  6
CONTINUOUS
 62
     2
 10
143.136791474
 20
159.216911391
 30
0.0
 11
143.154523819
 21
159.127155989
 31
0.0
  0
LINE
  8
0
  6
CONTINUOUS
 62
     2
 10
143.154523819
 20
159.127155989
 30
0.0
 11
143.176663637
 21
159.039626872
 31
0.0
  0
LINE
  8
0
  6
CONTINUOUS
 62
     2
 10
143.176663637
 20
159.039626872
 30
0.0
 11
143.213593514
 21
158.998829272
 31
0.0
  0
LINE
  8
0
  6
CONTINUOUS
 62
     2
 10
143.213593514
 20
158.998829272
 30
0.0
 11
143.260289685
 21
158.96719858
 31
0.0
  0
LINE
  8
0
  6
CONTINUOUS
 62
     2
 10
143.260289685
 20
158.96719858
 30
0.0
 11
143.338423968
 21
158.950003166
 31
0.0
  0
LINE
  8
0
  6
CONTINUOUS
 62
     2
 10
143.338423968
 20
158.950003166
 30
0.0
 11
143.40230243
 21
158.962036871
 31
0.0
  0
LINE
  8
0
  6
CONTINUOUS
 62
     2
 10
143.40230243
 20
158.962036871
 30
0.0
 11
143.460342576
 21
158.998114617
 31
0.0
  0
LINE
  8
0
  6
CONTINUOUS
 62
     2
 10
143.460342576
 20
158.998114617
 30
0.0
 11
143.491394517
 21
159.035737422
 31
0.0
  0
LINE
  8
0
  6
CONTINUOUS
 62
     2
 10
143.491394517
 20
159.035737422
 30
0.0
 11
143.520130283
 21
159.126929165
 31
0.0
  0
LINE
  8
0
  6
CONTINUOUS
 62
     2
 10
143.520130283
 20
159.126929165
 30
0.0
 11
143.537439837
 21
159.214139724
 31
0.0
  0
LINE
  8
0
  6
CONTINUOUS
 62
     2
 10
143.537439837
 20
159.214139724
 30
0.0
 11
143.550938228
 21
159.308135589
 31
0.0
  0
LINE
  8
0
  6
CONTINUOUS
 62
     2
 10
143.550938228
 20
159.308135589
 30
0.0
 11
143.5591622
 21
159.401384715
 31
0.0
  0
LINE
  8
0
  6
CONTINUOUS
 62
     2
 10
143.5591622
 20
159.401384715
 30
0.0
 11
143.562316794
 21
159.495134525
 31
0.0
  0
LINE
  8
0
  6
CONTINUOUS
 62
     2
 10
143.562316794
 20
159.495134525
 30
0.0
 11
143.560224667
 21
159.591905511
 31
0.0
  0
LINE
  8
0
  6
CONTINUOUS
 62
     2
 10
143.560224667
 20
159.591905511
 30
0.0
 11
143.553393434
 21
159.681831554
 31
0.0
  0
LINE
  8
0
  6
CONTINUOUS
 62
     2
 10
143.553393434
 20
159.681831554
 30
0.0
 11
143.541265557
 21
159.775147119
 31
0.0
  0
LINE
  8
0
  6
CONTINUOUS
 62
     2
 10
143.541265557
 20
159.775147119
 30
0.0
 11
143.524656976
 21
159.86489881
 31
0.0
  0
LINE
  8
0
  6
CONTINUOUS
 62
     2
 10
143.524656976
 20
159.86489881
 30
0.0
 11
143.502165076
 21
159.956671568
 31
0.0
  0
LINE
  8
0
  6
CONTINUOUS
 62
     2
 10
143.502165076
 20
159.956671568
 30
0.0
 11
143.469575439
 21
160.005220502
 31
0.0
  0
LINE
  8
0
  6
CONTINUOUS
 62
     2
 10
143.469575439
 20
160.005220502
 30
0.0
 11
143.415757425
 21
160.044664342
 31
0.0
  0
LINE
  8
0
  6
CONTINUOUS
 62
     2
 10
143.415757425
 20
160.044664342
 30
0.0
 11
143.343958659
 21
160.062379574
 31
0.0
  0
LINE
  8
0
  6
CONTINUOUS
 62
     2
 10
143.343958659
 20
160.062379574
 30
0.0
 11
143.260270677
 21
160.04529249
 31
0.0
  0
LINE
  8
0
  6
CONTINUOUS
 62
     2
 10
143.260270677
 20
160.04529249
 30
0.0
 11
143.204339588
 21
160.004372293
 31
0.0
  0
LINE
  8
0
  6
CONTINUOUS
 62
     2
 10
143.204339588
 20
160.004372293
 30
0.0
 11
143.171683112
 21
159.954769934
 31
0.0
  0
LINE
  8
0
  6
LTYPE1
 62
     2
 10
188.5
 20
169.0
 30
0.0
 11
191.5
 21
169.0
 31
0.0
  0
LINE
  8
0
  6
LTYPE1
 62
     2
 10
191.5
 20
121.0
 30
0.0
 11
188.5
 21
121.0
 31
0.0
  0
LINE
  8
0
  6
LTYPE1
 62
     2
 10
190.0
 20
117.5
 30
0.0
 11
190.0
 21
148.0
 31
0.0
  0
LINE
  8
0
  6
CONTINUOUS
 62
     2
 10
173.0
 20
110.0
 30
0.0
 11
207.0
 21
110.0
 31
0.0
  0
TEXT
  8
0
  6
CONTINUOUS
 62
     2
 10
174.0
 20
111.0
 30
0.3
 40
3.0
  1
縦形計器パネルカット図
 50
0.0
 41
0.9
 51
0.0
  7
KANJI5
  0
LINE
  8
0
  6
CONTINUOUS
 62
     2
 10
187.0
 20
123.0
 30
0.0
 11
187.647047613
 21
125.414814566
 31
0.0
  0
LINE
  8
0
  6
CONTINUOUS
 62
     2
 10
187.0
 20
123.0
 30
0.0
 11
186.352952387
 21
125.414814566
 31
0.0
  0
LINE
  8
0
  6
CONTINUOUS
 62
     2
 10
187.0
 20
123.0
 30
0.0
 11
187.0
 21
167.0
 31
0.0
  0
LINE
  8
0
  6
CONTINUOUS
 62
     2
 10
187.0
 20
167.0
 30
0.0
 11
186.352952387
 21
164.585185434
 31
0.0
  0
LINE
  8
0
  6
CONTINUOUS
 62
     2
 10
187.0
 20
167.0
 30
0.0
 11
187.647047613
 21
164.585185434
 31
0.0
  0
TEXT
  8
0
  6
CONTINUOUS
 62
     2
 10
186.0
 20
145.78
 30
0.18
 40
1.8
  1
－０
 50
90.0
 41
0.6
 51
0.0
  7
KANJI3
  0
TEXT
  8
0
  6
CONTINUOUS
 62
     2
 10
184.2
 20
145.78
 30
0.18
 40
1.8
  1
＋１
 50
90.0
 41
0.6
 51
0.0
  7
KANJI3
  0
LINE
  8
0
  6
CONTINUOUS
 62
     2
 10
188.5
 20
169.0
 30
0.0
 11
174.25
 21
169.0
 31
0.0
  0
LINE
  8
0
  6
CONTINUOUS
 62
     2
 10
176.25
 20
169.0
 30
0.0
 11
175.602952387
 21
166.585185434
 31
0.0
  0
LINE
  8
0
  6
CONTINUOUS
 62
     2
 10
176.25
 20
169.0
 30
0.0
 11
176.897047613
 21
166.585185434
 31
0.0
  0
LINE
  8
0
  6
CONTINUOUS
 62
     2
 10
176.25
 20
169.0
 30
0.0
 11
176.25
 21
121.0
 31
0.0
  0
LINE
  8
0
  6
CONTINUOUS
 62
     2
 10
176.25
 20
121.0
 30
0.0
 11
176.897047613
 21
123.414814566
 31
0.0
  0
LINE
  8
0
  6
CONTINUOUS
 62
     2
 10
176.25
 20
121.0
 30
0.0
 11
175.602952387
 21
123.414814566
 31
0.0
  0
LINE
  8
0
  6
CONTINUOUS
 62
     2
 10
188.5
 20
121.0
 30
0.0
 11
174.25
 21
121.0
 31
0.0
  0
TEXT
  8
0
  6
CONTINUOUS
 62
     2
 10
175.25
 20
144.52
 30
0.18
 40
1.8
  1
±０．２
 50
90.0
 41
0.6
 51
0.0
  7
KANJI3
  0
TEXT
  8
0
  6
CONTINUOUS
 62
     2
 10
175.25
 20
140.62
 30
0.3
 40
3.0
  1
９６
 50
90.0
 41
0.6
 51
0.0
  7
KANJI4
  0
TEXT
  8
0
  6
CONTINUOUS
 62
     2
 10
186.0
 20
141.88
 30
0.3
 40
3.0
  1
８８
 50
90.0
 41
0.6
 51
0.0
  7
KANJI4
  0
LINE
  8
0
  6
CONTINUOUS
 62
     2
 10
181.25
 20
150.0
 30
0.0
 11
183.664814566
 21
149.352952387
 31
0.0
  0
LINE
  8
0
  6
CONTINUOUS
 62
     2
 10
181.25
 20
150.0
 30
0.0
 11
183.664814566
 21
150.647047613
 31
0.0
  0
LINE
  8
0
  6
CONTINUOUS
 62
     2
 10
181.25
 20
150.0
 30
0.0
 11
198.75
 21
150.0
 31
0.0
  0
LINE
  8
0
  6
CONTINUOUS
 62
     2
 10
198.75
 20
150.0
 30
0.0
 11
196.335185434
 21
150.647047613
 31
0.0
  0
LINE
  8
0
  6
CONTINUOUS
 62
     2
 10
198.75
 20
150.0
 30
0.0
 11
196.335185434
 21
149.352952387
 31
0.0
  0
TEXT
  8
0
  6
CONTINUOUS
 62
     2
 10
186.78
 20
151.0
 30
0.3
 40
3.0
  1
３５
 50
0.0
 41
0.6
 51
0.0
  7
KANJI4
  0
TEXT
  8
0
  6
CONTINUOUS
 62
     2
 10
190.88
 20
151.0
 30
0.18
 40
1.8
  1
－０
 50
0.0
 41
0.6
 51
0.0
  7
KANJI3
  0
TEXT
  8
0
  6
CONTINUOUS
 62
     2
 10
190.88
 20
152.8
 30
0.18
 40
1.8
  1
＋１
 50
0.0
 41
0.6
 51
0.0
  7
KANJI3
  0
LINE
  8
0
  6
CONTINUOUS
 62
     2
 10
190.5
 20
169.866025404
 30
0.0
 11
192.267766953
 21
171.633792357
 31
0.0
  0
LINE
  8
0
  6
CONTINUOUS
 62
     2
 10
190.5
 20
169.866025404
 30
0.0
 11
191.147047613
 21
172.28083997
 31
0.0
  0
LINE
  8
0
  6
CONTINUOUS
 62
     2
 10
190.5
 20
169.866025404
 30
0.0
 11
192.886751346
 21
174.0
 31
0.0
  0
LINE
  8
0
  6
CONTINUOUS
 62
     2
 10
192.886751346
 20
174.0
 30
0.0
 11
228.286751346
 21
174.0
 31
0.0
  0
TEXT
  8
0
  6
CONTINUOUS
 62
     2
 10
192.886751346
 20
175.0
 30
0.3
 40
3.0
  1
２－Ｍ４タップまたはφ４．５貫通穴
 50
0.0
 41
0.6
 51
0.0
  7
KANJI4
  0
LINE
  8
0
  6
LTYPE1
 62
     2
 10
188.0
 20
83.3
 30
0.0
 11
181.0
 21
83.3
 31
0.0
  0
CIRCLE
  8
0
  6
CONTINUOUS
 62
     2
 10
153.0
 20
76.5
 30
0.0
 40
1.375
  0
LINE
  8
0
  6
CONTINUOUS
 62
     2
 10
152.8
 20
77.375
 30
0.0
 11
153.2
 21
77.375
 31
0.0
  0
LINE
  8
0
  6
CONTINUOUS
 62
     2
 10
153.875
 20
76.7
 30
0.0
 11
153.875
 21
76.3
 31
0.0
  0
LINE
  8
0
  6
CONTINUOUS
 62
     2
 10
153.2
 20
75.625
 30
0.0
 11
152.8
 21
75.625
 31
0.0
  0
LINE
  8
0
  6
CONTINUOUS
 62
     2
 10
152.125
 20
76.3
 30
0.0
 11
152.125
 21
76.7
 31
0.0
  0
LINE
  8
0
  6
CONTINUOUS
 62
     2
 10
152.125
 20
76.7
 30
0.0
 11
152.65
 21
76.7
 31
0.0
  0
LINE
  8
0
  6
CONTINUOUS
 62
     2
 10
152.8
 20
76.85
 30
0.0
 11
152.8
 21
77.375
 31
0.0
  0
ARC
  8
0
  6
CONTINUOUS
 62
     2
 10
152.65
 20
76.85
 30
0.0
 40
0.15
 50
270.0
 51
0.0
  0
LINE
  8
0
  6
CONTINUOUS
 62
     2
 10
153.2
 20
77.375
 30
0.0
 11
153.2
 21
76.85
 31
0.0
  0
LINE
  8
0
  6
CONTINUOUS
 62
     2
 10
153.35
 20
76.7
 30
0.0
 11
153.875
 21
76.7
 31
0.0
  0
ARC
  8
0
  6
CONTINUOUS
 62
     2
 10
153.35
 20
76.85
 30
0.0
 40
0.15
 50
180.0
 51
270.0
  0
LINE
  8
0
  6
CONTINUOUS
 62
     2
 10
153.875
 20
76.3
 30
0.0
 11
153.35
 21
76.3
 31
0.0
  0
LINE
  8
0
  6
CONTINUOUS
 62
     2
 10
153.2
 20
76.15
 30
0.0
 11
153.2
 21
75.625
 31
0.0
  0
ARC
  8
0
  6
CONTINUOUS
 62
     2
 10
153.35
 20
76.15
 30
0.0
 40
0.15
 50
90.0
 51
180.0
  0
LINE
  8
0
  6
CONTINUOUS
 62
     2
 10
152.8
 20
75.625
 30
0.0
 11
152.8
 21
76.15
 31
0.0
  0
LINE
  8
0
  6
CONTINUOUS
 62
     2
 10
152.65
 20
76.3
 30
0.0
 11
152.125
 21
76.3
 31
0.0
  0
ARC
  8
0
  6
CONTINUOUS
 62
     2
 10
152.65
 20
76.15
 30
0.0
 40
0.15
 50
0.0
 51
90.0
  0
LINE
  8
0
  6
LTYPE1
 62
     2
 10
151.5
 20
76.5
 30
0.0
 11
154.5
 21
76.5
 31
0.0
  0
LINE
  8
0
  6
LTYPE1
 62
     2
 10
153.0
 20
78.0
 30
0.0
 11
153.0
 21
75.0
 31
0.0
  0
CIRCLE
  8
0
  6
CONTINUOUS
 62
     2
 10
153.0
 20
83.5
 30
0.0
 40
1.375
  0
LINE
  8
0
  6
CONTINUOUS
 62
     2
 10
152.8
 20
84.375
 30
0.0
 11
153.2
 21
84.375
 31
0.0
  0
LINE
  8
0
  6
CONTINUOUS
 62
     2
 10
153.875
 20
83.7
 30
0.0
 11
153.875
 21
83.3
 31
0.0
  0
LINE
  8
0
  6
CONTINUOUS
 62
     2
 10
153.2
 20
82.625
 30
0.0
 11
152.8
 21
82.625
 31
0.0
  0
LINE
  8
0
  6
CONTINUOUS
 62
     2
 10
152.125
 20
83.3
 30
0.0
 11
152.125
 21
83.7
 31
0.0
  0
LINE
  8
0
  6
CONTINUOUS
 62
     2
 10
152.125
 20
83.7
 30
0.0
 11
152.65
 21
83.7
 31
0.0
  0
LINE
  8
0
  6
CONTINUOUS
 62
     2
 10
152.8
 20
83.85
 30
0.0
 11
152.8
 21
84.375
 31
0.0
  0
ARC
  8
0
  6
CONTINUOUS
 62
     2
 10
152.65
 20
83.85
 30
0.0
 40
0.15
 50
270.0
 51
0.0
  0
LINE
  8
0
  6
CONTINUOUS
 62
     2
 10
153.2
 20
84.375
 30
0.0
 11
153.2
 21
83.85
 31
0.0
  0
LINE
  8
0
  6
CONTINUOUS
 62
     2
 10
153.35
 20
83.7
 30
0.0
 11
153.875
 21
83.7
 31
0.0
  0
ARC
  8
0
  6
CONTINUOUS
 62
     2
 10
153.35
 20
83.85
 30
0.0
 40
0.15
 50
180.0
 51
270.0
  0
LINE
  8
0
  6
CONTINUOUS
 62
     2
 10
153.875
 20
83.3
 30
0.0
 11
153.35
 21
83.3
 31
0.0
  0
LINE
  8
0
  6
CONTINUOUS
 62
     2
 10
153.2
 20
83.15
 30
0.0
 11
153.2
 21
82.625
 31
0.0
  0
ARC
  8
0
  6
CONTINUOUS
 62
     2
 10
153.35
 20
83.15
 30
0.0
 40
0.15
 50
90.0
 51
180.0
  0
LINE
  8
0
  6
CONTINUOUS
 62
     2
 10
152.8
 20
82.625
 30
0.0
 11
152.8
 21
83.15
 31
0.0
  0
LINE
  8
0
  6
CONTINUOUS
 62
     2
 10
152.65
 20
83.3
 30
0.0
 11
152.125
 21
83.3
 31
0.0
  0
ARC
  8
0
  6
CONTINUOUS
 62
     2
 10
152.65
 20
83.15
 30
0.0
 40
0.15
 50
0.0
 51
90.0
  0
LINE
  8
0
  6
LTYPE1
 62
     2
 10
151.5
 20
83.5
 30
0.0
 11
154.5
 21
83.5
 31
0.0
  0
LINE
  8
0
  6
LTYPE1
 62
     2
 10
153.0
 20
85.0
 30
0.0
 11
153.0
 21
82.0
 31
0.0
  0
LINE
  8
0
  6
CONTINUOUS
 62
     2
 10
137.5
 20
86.95
 30
0.0
 11
131.0
 21
86.95
 31
0.0
  0
LINE
  8
0
  6
CONTINUOUS
 62
     2
 10
133.0
 20
86.95
 30
0.0
 11
132.352952387
 21
84.535185434
 31
0.0
  0
LINE
  8
0
  6
CONTINUOUS
 62
     2
 10
133.0
 20
86.95
 30
0.0
 11
133.647047613
 21
84.535185434
 31
0.0
  0
LINE
  8
0
  6
CONTINUOUS
 62
     2
 10
133.0
 20
86.95
 30
0.0
 11
133.0
 21
73.05
 31
0.0
  0
LINE
  8
0
  6
CONTINUOUS
 62
     2
 10
133.0
 20
73.05
 30
0.0
 11
133.647047613
 21
75.464814566
 31
0.0
  0
LINE
  8
0
  6
CONTINUOUS
 62
     2
 10
133.0
 20
73.05
 30
0.0
 11
132.352952387
 21
75.464814566
 31
0.0
  0
LINE
  8
0
  6
CONTINUOUS
 62
     2
 10
137.5
 20
73.05
 30
0.0
 11
131.0
 21
73.05
 31
0.0
  0
TEXT
  8
0
  6
CONTINUOUS
 62
     2
 10
132.0
 20
78.05
 30
0.3
 40
3.0
  1
２８
 50
90.0
 41
0.6
 51
0.0
  7
KANJI4
  0
LINE
  8
0
  6
CONTINUOUS
 62
     2
 10
160.0
 20
83.5
 30
0.0
 11
159.352952387
 21
81.085185434
 31
0.0
  0
LINE
  8
0
  6
CONTINUOUS
 62
     2
 10
160.0
 20
83.5
 30
0.0
 11
160.647047613
 21
81.085185434
 31
0.0
  0
LINE
  8
0
  6
CONTINUOUS
 62
     2
 10
160.0
 20
83.5
 30
0.0
 11
160.0
 21
76.5
 31
0.0
  0
LINE
  8
0
  6
CONTINUOUS
 62
     2
 10
160.0
 20
76.5
 30
0.0
 11
160.647047613
 21
78.914814566
 31
0.0
  0
LINE
  8
0
  6
CONTINUOUS
 62
     2
 10
160.0
 20
76.5
 30
0.0
 11
159.352952387
 21
78.914814566
 31
0.0
  0
LINE
  8
0
  6
CONTINUOUS
 62
     2
 10
154.5
 20
76.5
 30
0.0
 11
162.0
 21
76.5
 31
0.0
  0
LINE
  8
0
  6
CONTINUOUS
 62
     2
 10
153.0
 20
85.0
 30
0.0
 11
153.0
 21
96.75
 31
0.0
  0
LINE
  8
0
  6
CONTINUOUS
 62
     2
 10
153.0
 20
94.75
 30
0.0
 11
150.585185434
 21
95.397047613
 31
0.0
  0
LINE
  8
0
  6
CONTINUOUS
 62
     2
 10
153.0
 20
94.75
 30
0.0
 11
150.585185434
 21
94.102952387
 31
0.0
  0
LINE
  8
0
  6
CONTINUOUS
 62
     2
 10
153.0
 20
94.75
 30
0.0
 11
138.0
 21
94.75
 31
0.0
  0
LINE
  8
0
  6
CONTINUOUS
 62
     2
 10
138.0
 20
94.75
 30
0.0
 11
140.414814566
 21
94.102952387
 31
0.0
  0
LINE
  8
0
  6
CONTINUOUS
 62
     2
 10
138.0
 20
94.75
 30
0.0
 11
140.414814566
 21
95.397047613
 31
0.0
  0
LINE
  8
0
  6
CONTINUOUS
 62
     2
 10
138.0
 20
87.45
 30
0.0
 11
138.0
 21
96.75
 31
0.0
  0
TEXT
  8
0
  6
CONTINUOUS
 62
     2
 10
143.55
 20
95.75
 30
0.3
 40
3.0
  1
３０
 50
0.0
 41
0.6
 51
0.0
  7
KANJI4
  0
LINE
  8
0
  6
CONTINUOUS
 62
     2
 10
153.0
 20
94.75
 30
0.0
 11
155.414814566
 21
94.102952387
 31
0.0
  0
LINE
  8
0
  6
CONTINUOUS
 62
     2
 10
153.0
 20
94.75
 30
0.0
 11
155.414814566
 21
95.397047613
 31
0.0
  0
LINE
  8
0
  6
CONTINUOUS
 62
     2
 10
153.0
 20
94.75
 30
0.0
 11
181.0
 21
94.75
 31
0.0
  0
LINE
  8
0
  6
CONTINUOUS
 62
     2
 10
181.0
 20
94.75
 30
0.0
 11
178.585185434
 21
95.397047613
 31
0.0
  0
LINE
  8
0
  6
CONTINUOUS
 62
     2
 10
181.0
 20
94.75
 30
0.0
 11
178.585185434
 21
94.102952387
 31
0.0
  0
LINE
  8
0
  6
CONTINUOUS
 62
     2
 10
181.0
 20
89.3
 30
0.0
 11
181.0
 21
96.75
 31
0.0
  0
TEXT
  8
0
  6
CONTINUOUS
 62
     2
 10
165.05
 20
95.75
 30
0.3
 40
3.0
  1
５６
 50
0.0
 41
0.6
 51
0.0
  7
KANJI4
  0
LINE
  8
0
  6
CONTINUOUS
 62
     2
 10
182.0
 20
88.3
 30
0.0
 11
193.0
 21
88.3
 31
0.0
  0
LINE
  8
0
  6
CONTINUOUS
 62
     2
 10
191.0
 20
88.3
 30
0.0
 11
190.352952387
 21
85.885185434
 31
0.0
  0
LINE
  8
0
  6
CONTINUOUS
 62
     2
 10
191.0
 20
88.3
 30
0.0
 11
191.647047613
 21
85.885185434
 31
0.0
  0
LINE
  8
0
  6
CONTINUOUS
 62
     2
 10
191.0
 20
71.8
 30
0.0
 11
191.647047613
 21
74.214814566
 31
0.0
  0
LINE
  8
0
  6
CONTINUOUS
 62
     2
 10
191.0
 20
71.8
 30
0.0
 11
190.352952387
 21
74.214814566
 31
0.0
  0
LINE
  8
0
  6
CONTINUOUS
 62
     2
 10
182.0
 20
71.8
 30
0.0
 11
193.0
 21
71.8
 31
0.0
  0
TEXT
  8
0
  6
CONTINUOUS
 62
     2
 10
190.0
 20
76.83
 30
0.3
 40
3.0
  1
３３
 50
90.0
 41
0.6
 51
0.0
  7
KANJI4
  0
TEXT
  8
0
  6
CONTINUOUS
 62
     2
 10
190.0
 20
80.93
 30
0.18
 40
1.8
  1
±１
 50
90.0
 41
0.6
 51
0.0
  7
KANJI3
  0
LINE
  8
0
  6
CONTINUOUS
 62
     2
 10
191.0
 20
88.8
 30
0.0
 11
191.647047613
 21
91.214814566
 31
0.0
  0
LINE
  8
0
  6
CONTINUOUS
 62
     2
 10
191.0
 20
88.8
 30
0.0
 11
190.352952387
 21
91.214814566
 31
0.0
  0
LINE
  8
0
  6
CONTINUOUS
 62
     2
 10
175.0
 20
88.8
 30
0.0
 11
193.0
 21
88.8
 31
0.0
  0
TEXT
  8
0
  6
CONTINUOUS
 62
     2
 10
190.0
 20
93.8
 30
0.3
 40
3.0
  1
１
 50
90.0
 41
0.6
 51
0.0
  7
KANJI4
  0
LINE
  8
0
  6
CONTINUOUS
 62
     2
 10
191.0
 20
95.6
 30
0.0
 11
191.0
 21
71.8
 31
0.0
  0
LINE
  8
0
  6
CONTINUOUS
 62
     2
 10
153.6875
 20
75.30921507
 30
0.0
 11
154.334547613
 21
72.894400504
 31
0.0
  0
LINE
  8
0
  6
CONTINUOUS
 62
     2
 10
153.6875
 20
75.30921507
 30
0.0
 11
155.455266953
 21
73.541448117
 31
0.0
  0
LINE
  8
0
  6
CONTINUOUS
 62
     2
 10
153.6875
 20
75.30921507
 30
0.0
 11
158.600297611
 21
66.8
 31
0.0
  0
LINE
  8
0
  6
CONTINUOUS
 62
     2
 10
158.600297611
 20
66.8
 30
0.0
 11
175.100297611
 21
66.8
 31
0.0
  0
TEXT
  8
0
  6
CONTINUOUS
 62
     2
 10
158.600297611
 20
67.8
 30
0.3
 40
3.0
  1
４－Ｍ３取付ネジ
 50
0.0
 41
0.6
 51
0.0
  7
KANJI4
  0
TEXT
  8
0
  6
CONTINUOUS
 62
     3
 10
235.0
 20
17.0
 30
0.6
 40
6.0
  1
ＭＳ－１１５２３
 50
0.0
 41
0.9
 51
0.0
  7
KANJI6
  0
TEXT
  8
0
  6
CONTINUOUS
 62
     2
 10
236.2
 20
28.3
 30
0.4
 40
4.0
  1
エッジワイズ形計器外形図
 50
0.0
 41
0.9
 51
0.0
  7
KANJI7
  0
TEXT
  8
0
  6
CONTINUOUS
 62
     2
 10
232.8
 20
37.8
 30
0.4
 40
4.0
  1
□Ｅｆ－８０
 50
0.0
 41
0.9
 51
0.0
  7
KANJI7
  0
LINE
  8
0
  6
LTYPE1
 62
     2
 10
70.0
 20
163.0
 30
0.0
 11
70.0
 21
144.7
 31
0.0
  0
LINE
  8
0
  6
LTYPE1
 62
     2
 10
140.0
 20
116.5
 30
0.0
 11
140.0
 21
175.3
 31
0.0
  0
LINE
  8
0
  6
LTYPE1
 62
     2
 10
127.2
 20
145.0
 30
0.0
 11
152.3
 21
145.0
 31
0.0
  0
LINE
  8
0
  6
LTYPE1
 62
     2
 10
186.0
 20
145.0
 30
0.0
 11
200.1
 21
145.0
 31
0.0
  0
LINE
  8
0
  6
LTYPE1
 62
     2
 10
190.0
 20
155.3
 30
0.0
 11
190.0
 21
172.5
 31
0.0
  0
LINE
  8
0
  6
LTYPE1
 62
     2
 10
179.3
 20
145.0
 30
0.0
 11
181.6
 21
145.0
 31
0.0
  0
LINE
  8
0
  6
LTYPE1
 62
     2
 10
190.0
 20
148.7
 30
0.0
 11
190.0
 21
117.5
 31
0.0
  0
LINE
  8
0
  6
LTYPE1
 62
     2
 10
190.0
 20
172.5
 30
0.0
 11
190.0
 21
155.1
 31
0.0
  0
LINE
  8
0
  6
LTYPE1
 62
     2
 10
70.0
 20
91.2
 30
0.0
 11
70.0
 21
68.5
 31
0.0
  0
LINE
  8
0
  6
LTYPE1
 62
     2
 10
70.0
 20
55.0
 30
0.0
 11
70.0
 21
52.0
 31
0.0
  0
LINE
  8
0
  6
LTYPE1
 62
     2
 10
70.0
 20
49.0
 30
0.0
 11
70.0
 21
34.2
 31
0.0
  0
LINE
  8
0
  6
LTYPE1
 62
     2
 10
42.5
 20
45.0
 30
0.0
 11
59.4
 21
45.0
 31
0.0
  0
LINE
  8
0
  6
LTYPE1
 62
     2
 10
65.4
 20
45.0
 30
0.0
 11
97.5
 21
45.0
 31
0.0
  0
TEXT
  8
0
  6
CONTINUOUS
 62
     2
 10
64.1
 20
43.48
 30
0.18
 40
1.8
  1
－０
 50
90.0
 41
0.6
 51
0.0
  7
KANJI3
  0
TEXT
  8
0
  6
CONTINUOUS
 62
     2
 10
62.3
 20
43.48
 30
0.18
 40
1.8
  1
＋１
 50
90.0
 41
0.6
 51
0.0
  7
KANJI3
  0
TEXT
  8
0
  6
CONTINUOUS
 62
     2
 10
64.1
 20
39.38
 30
0.3
 40
3.0
  1
３５
 50
90.0
 41
0.6
 51
0.0
  7
KANJI4
  0
TEXT
  8
0
  6
CONTINUOUS
 62
     2
 10
158.7
 20
77.77
 30
0.3
 40
3.0
  1
１４
 50
90.0
 41
0.6
 51
0.0
  7
KANJI4
  0
TEXT
  8
0
  6
CONTINUOUS
 62
     2
 10
158.7
 20
81.57
 30
0.18
 40
1.8
  1
±０．１
 50
90.0
 41
0.6
 51
0.0
  7
KANJI3
  0
LINE
  8
0
  6
LTYPE1
 62
     2
 10
160.8
 20
80.0
 30
0.0
 11
187.0
 21
80.0
 31
0.0
  0
LINE
  8
0
  6
LTYPE1
 62
     2
 10
135.2
 20
80.0
 30
0.0
 11
155.4
 21
80.0
 31
0.0
  0
LINE
  8
0
  6
CONTINUOUS
 62
     2
 10
159.1
 20
83.5
 30
0.0
 11
162.0
 21
83.5
 31
0.0
  0
LINE
  8
0
  6
CONTINUOUS
 62
     2
 10
154.5
 20
83.5
 30
0.0
 11
155.8
 21
83.5
 31
0.0
  0
ENDSEC
  0
EOF
