  0
SECTION
  2
HEADER
  9
$ACADVER
  1
AC1009
  9
$DWGCODEPAGE
  3
dos932
  9
$EXTMIN
 10
0.0
 20
0.0
 30
0.0
  9
$EXTMAX
 10
297.0
 20
210.0
 30
0.0
  9
$LIMMIN
 10
0.0
 20
0.0
  9
$LIMMAX
 10
297.0
 20
210.0
  9
$LTSCALE
 40
1.0
  9
$PDMODE
 70
     0
  0
ENDSEC
  0
SECTION
  2
TABLES
  0
TABLE
  2
VPORT
 70
     1
  0
VPORT
  2
*ACTIVE
 70
     0
 10
0.0
 20
0.0
 11
1.0
 21
1.0
 12
148.5
 22
105.0
 13
0.0
 23
0.0
 14
10.0
 24
10.0
 15
10.0
 25
10.0
 16
0.0
 26
0.0
 36
1.0
 17
0.0
 27
0.0
 37
0.0
 40
297.0
 41
1.414285714
 42
50.0
 43
0.0
 44
0.0
 50
0.0
 51
0.0
 71
     0
 72
  1000
 73
     1
 74
     3
 75
     0
 76
     0
 77
     0
 78
     0
  0
ENDTAB
  0
TABLE
  2
LTYPE
 70
     4
  0
LTYPE
  2
CONTINUOUS
 70
    64
  3
Solid line
 72
    65
 73
     0
 40
0.0
  0
LTYPE
  2
LTYPE1
 70
    64
  3
CENTER
 72
    65
 73
     4
 40
5.0
 49
3.5
 49
-0.5
 49
0.5
 49
-0.5
  0
LTYPE
  2
LTYPE2
 70
    64
  3
CENTER
 72
    65
 73
     4
 40
3.0
 49
2.1
 49
-0.3
 49
0.3
 49
-0.3
  0
LTYPE
  2
LTYPE3
 70
    64
  3
CENTER
 72
    65
 73
     4
 40
6.0
 49
4.2
 49
-0.6
 49
0.6
 49
-0.6
  0
ENDTAB
  0
TABLE
  2
LAYER
 70
   128
  0
LAYER
  2
0
 70
     0
 62
     7
  6
CONTINUOUS
  0
LAYER
  2
2
 70
     0
 62
     7
  6
CONTINUOUS
  0
LAYER
  2
3
 70
     0
 62
     7
  6
CONTINUOUS
  0
LAYER
  2
4
 70
     0
 62
     7
  6
CONTINUOUS
  0
LAYER
  2
5
 70
     0
 62
     7
  6
CONTINUOUS
  0
LAYER
  2
6
 70
     0
 62
     7
  6
CONTINUOUS
  0
LAYER
  2
7
 70
     0
 62
     7
  6
CONTINUOUS
  0
LAYER
  2
8
 70
     0
 62
     7
  6
CONTINUOUS
  0
LAYER
  2
9
 70
     0
 62
     7
  6
CONTINUOUS
  0
LAYER
  2
10
 70
     0
 62
     7
  6
CONTINUOUS
  0
LAYER
  2
11
 70
     0
 62
     7
  6
CONTINUOUS
  0
LAYER
  2
12
 70
     0
 62
     7
  6
CONTINUOUS
  0
LAYER
  2
13
 70
     0
 62
     7
  6
CONTINUOUS
  0
LAYER
  2
14
 70
     0
 62
     7
  6
CONTINUOUS
  0
LAYER
  2
15
 70
     0
 62
     7
  6
CONTINUOUS
  0
LAYER
  2
16
 70
     0
 62
     7
  6
CONTINUOUS
  0
LAYER
  2
17
 70
     0
 62
     7
  6
CONTINUOUS
  0
LAYER
  2
18
 70
     0
 62
     7
  6
CONTINUOUS
  0
LAYER
  2
19
 70
     0
 62
     7
  6
CONTINUOUS
  0
LAYER
  2
20
 70
     0
 62
     7
  6
CONTINUOUS
  0
LAYER
  2
21
 70
     0
 62
     7
  6
CONTINUOUS
  0
LAYER
  2
22
 70
     0
 62
     7
  6
CONTINUOUS
  0
LAYER
  2
23
 70
     0
 62
     7
  6
CONTINUOUS
  0
LAYER
  2
24
 70
     0
 62
     7
  6
CONTINUOUS
  0
LAYER
  2
25
 70
     0
 62
     7
  6
CONTINUOUS
  0
LAYER
  2
26
 70
     0
 62
     7
  6
CONTINUOUS
  0
LAYER
  2
27
 70
     0
 62
     7
  6
CONTINUOUS
  0
LAYER
  2
28
 70
     0
 62
     7
  6
CONTINUOUS
  0
LAYER
  2
29
 70
     0
 62
     7
  6
CONTINUOUS
  0
LAYER
  2
30
 70
     0
 62
     7
  6
CONTINUOUS
  0
LAYER
  2
31
 70
     0
 62
     7
  6
CONTINUOUS
  0
LAYER
  2
32
 70
     0
 62
     7
  6
CONTINUOUS
  0
LAYER
  2
33
 70
     0
 62
     7
  6
CONTINUOUS
  0
LAYER
  2
34
 70
     0
 62
     7
  6
CONTINUOUS
  0
LAYER
  2
35
 70
     0
 62
     7
  6
CONTINUOUS
  0
LAYER
  2
36
 70
     0
 62
     7
  6
CONTINUOUS
  0
LAYER
  2
37
 70
     0
 62
     7
  6
CONTINUOUS
  0
LAYER
  2
38
 70
     0
 62
     7
  6
CONTINUOUS
  0
LAYER
  2
39
 70
     0
 62
     7
  6
CONTINUOUS
  0
LAYER
  2
40
 70
     0
 62
     7
  6
CONTINUOUS
  0
LAYER
  2
41
 70
     0
 62
     7
  6
CONTINUOUS
  0
LAYER
  2
42
 70
     0
 62
     7
  6
CONTINUOUS
  0
LAYER
  2
43
 70
     0
 62
     7
  6
CONTINUOUS
  0
LAYER
  2
44
 70
     0
 62
     7
  6
CONTINUOUS
  0
LAYER
  2
45
 70
     0
 62
     7
  6
CONTINUOUS
  0
LAYER
  2
46
 70
     0
 62
     7
  6
CONTINUOUS
  0
LAYER
  2
47
 70
     0
 62
     7
  6
CONTINUOUS
  0
LAYER
  2
48
 70
     0
 62
     7
  6
CONTINUOUS
  0
LAYER
  2
49
 70
     0
 62
     7
  6
CONTINUOUS
  0
LAYER
  2
50
 70
     0
 62
     7
  6
CONTINUOUS
  0
LAYER
  2
51
 70
     0
 62
     7
  6
CONTINUOUS
  0
LAYER
  2
52
 70
     0
 62
     7
  6
CONTINUOUS
  0
LAYER
  2
53
 70
     0
 62
     7
  6
CONTINUOUS
  0
LAYER
  2
54
 70
     0
 62
     7
  6
CONTINUOUS
  0
LAYER
  2
55
 70
     0
 62
     7
  6
CONTINUOUS
  0
LAYER
  2
56
 70
     0
 62
     7
  6
CONTINUOUS
  0
LAYER
  2
57
 70
     0
 62
     7
  6
CONTINUOUS
  0
LAYER
  2
58
 70
     0
 62
     7
  6
CONTINUOUS
  0
LAYER
  2
59
 70
     0
 62
     7
  6
CONTINUOUS
  0
LAYER
  2
60
 70
     0
 62
     7
  6
CONTINUOUS
  0
LAYER
  2
61
 70
     0
 62
     7
  6
CONTINUOUS
  0
LAYER
  2
62
 70
     0
 62
     7
  6
CONTINUOUS
  0
LAYER
  2
63
 70
     0
 62
     7
  6
CONTINUOUS
  0
LAYER
  2
64
 70
     0
 62
     7
  6
CONTINUOUS
  0
LAYER
  2
65
 70
     0
 62
     7
  6
CONTINUOUS
  0
LAYER
  2
66
 70
     0
 62
     7
  6
CONTINUOUS
  0
LAYER
  2
67
 70
     0
 62
     7
  6
CONTINUOUS
  0
LAYER
  2
68
 70
     0
 62
     7
  6
CONTINUOUS
  0
LAYER
  2
69
 70
     0
 62
     7
  6
CONTINUOUS
  0
LAYER
  2
70
 70
     0
 62
     7
  6
CONTINUOUS
  0
LAYER
  2
71
 70
     0
 62
     7
  6
CONTINUOUS
  0
LAYER
  2
72
 70
     0
 62
     7
  6
CONTINUOUS
  0
LAYER
  2
73
 70
     0
 62
     7
  6
CONTINUOUS
  0
LAYER
  2
74
 70
     0
 62
     7
  6
CONTINUOUS
  0
LAYER
  2
75
 70
     0
 62
     7
  6
CONTINUOUS
  0
LAYER
  2
76
 70
     0
 62
     7
  6
CONTINUOUS
  0
LAYER
  2
77
 70
     0
 62
     7
  6
CONTINUOUS
  0
LAYER
  2
78
 70
     0
 62
     7
  6
CONTINUOUS
  0
LAYER
  2
79
 70
     0
 62
     7
  6
CONTINUOUS
  0
LAYER
  2
80
 70
     0
 62
     7
  6
CONTINUOUS
  0
LAYER
  2
81
 70
     0
 62
     7
  6
CONTINUOUS
  0
LAYER
  2
82
 70
     0
 62
     7
  6
CONTINUOUS
  0
LAYER
  2
83
 70
     0
 62
     7
  6
CONTINUOUS
  0
LAYER
  2
84
 70
     0
 62
     7
  6
CONTINUOUS
  0
LAYER
  2
85
 70
     0
 62
     7
  6
CONTINUOUS
  0
LAYER
  2
86
 70
     0
 62
     7
  6
CONTINUOUS
  0
LAYER
  2
87
 70
     0
 62
     7
  6
CONTINUOUS
  0
LAYER
  2
88
 70
     0
 62
     7
  6
CONTINUOUS
  0
LAYER
  2
89
 70
     0
 62
     7
  6
CONTINUOUS
  0
LAYER
  2
90
 70
     0
 62
     7
  6
CONTINUOUS
  0
LAYER
  2
91
 70
     0
 62
     7
  6
CONTINUOUS
  0
LAYER
  2
92
 70
     0
 62
     7
  6
CONTINUOUS
  0
LAYER
  2
93
 70
     0
 62
     7
  6
CONTINUOUS
  0
LAYER
  2
94
 70
     0
 62
     7
  6
CONTINUOUS
  0
LAYER
  2
95
 70
     0
 62
     7
  6
CONTINUOUS
  0
LAYER
  2
96
 70
     0
 62
     7
  6
CONTINUOUS
  0
LAYER
  2
97
 70
     0
 62
     7
  6
CONTINUOUS
  0
LAYER
  2
98
 70
     0
 62
     7
  6
CONTINUOUS
  0
LAYER
  2
99
 70
     0
 62
     7
  6
CONTINUOUS
  0
LAYER
  2
100
 70
     0
 62
     7
  6
CONTINUOUS
  0
LAYER
  2
101
 70
     0
 62
     7
  6
CONTINUOUS
  0
LAYER
  2
102
 70
     0
 62
     7
  6
CONTINUOUS
  0
LAYER
  2
103
 70
     0
 62
     7
  6
CONTINUOUS
  0
LAYER
  2
104
 70
     0
 62
     7
  6
CONTINUOUS
  0
LAYER
  2
105
 70
     0
 62
     7
  6
CONTINUOUS
  0
LAYER
  2
106
 70
     0
 62
     7
  6
CONTINUOUS
  0
LAYER
  2
107
 70
     0
 62
     7
  6
CONTINUOUS
  0
LAYER
  2
108
 70
     0
 62
     7
  6
CONTINUOUS
  0
LAYER
  2
109
 70
     0
 62
     7
  6
CONTINUOUS
  0
LAYER
  2
110
 70
     0
 62
     7
  6
CONTINUOUS
  0
LAYER
  2
111
 70
     0
 62
     7
  6
CONTINUOUS
  0
LAYER
  2
112
 70
     0
 62
     7
  6
CONTINUOUS
  0
LAYER
  2
113
 70
     0
 62
     7
  6
CONTINUOUS
  0
LAYER
  2
114
 70
     0
 62
     7
  6
CONTINUOUS
  0
LAYER
  2
115
 70
     0
 62
     7
  6
CONTINUOUS
  0
LAYER
  2
116
 70
     0
 62
     7
  6
CONTINUOUS
  0
LAYER
  2
117
 70
     0
 62
     7
  6
CONTINUOUS
  0
LAYER
  2
118
 70
     0
 62
     7
  6
CONTINUOUS
  0
LAYER
  2
119
 70
     0
 62
     7
  6
CONTINUOUS
  0
LAYER
  2
120
 70
     0
 62
     7
  6
CONTINUOUS
  0
LAYER
  2
121
 70
     0
 62
     7
  6
CONTINUOUS
  0
LAYER
  2
122
 70
     0
 62
     7
  6
CONTINUOUS
  0
LAYER
  2
123
 70
     0
 62
     7
  6
CONTINUOUS
  0
LAYER
  2
124
 70
     0
 62
     7
  6
CONTINUOUS
  0
LAYER
  2
125
 70
     0
 62
     7
  6
CONTINUOUS
  0
LAYER
  2
126
 70
     0
 62
     7
  6
CONTINUOUS
  0
LAYER
  2
127
 70
     0
 62
     7
  6
CONTINUOUS
  0
LAYER
  2
128
 70
     0
 62
     7
  6
CONTINUOUS
  0
ENDTAB
  0
TABLE
  2
STYLE
 70
    21
  0
STYLE
  2
STANDARD
 70
     0
 40
0.0
 41
1.0
 50
0.0
 71
     0
 42
0.2
  3
txt.shx
  4
extfont.shx
  0
STYLE
  2
KANJI0
 70
     0
 40
2.0
 41
0.9
 50
0.0
 71
     0
 42
2.0
  3
txt.shx
  4
extfont.shx
  0
STYLE
  2
KANJI1
 70
     0
 40
3.0
 41
0.6
 50
0.0
 71
     0
 42
3.0
  3
txt.shx
  4
extfont.shx
  0
STYLE
  2
KANJI2
 70
     0
 40
1.5
 41
0.9
 50
0.0
 71
     0
 42
1.5
  3
txt.shx
  4
extfont.shx
  0
STYLE
  2
KANJI3
 70
     0
 40
1.8
 41
0.6
 50
0.0
 71
     0
 42
1.8
  3
txt.shx
  4
extfont.shx
  0
STYLE
  2
KANJI4
 70
     0
 40
3.0
 41
0.9
 50
0.0
 71
     0
 42
3.0
  3
txt.shx
  4
extfont.shx
  0
STYLE
  2
KANJI5
 70
     0
 40
3.0
 41
0.6
 50
0.0
 71
     0
 42
3.0
  3
txt.shx
  4
extfont.shx
  0
STYLE
  2
KANJI6
 70
     0
 40
3.0
 41
0.75
 50
0.0
 71
     0
 42
3.0
  3
txt.shx
  4
extfont.shx
  0
STYLE
  2
KANJI7
 70
     0
 40
3.0
 41
0.6
 50
0.0
 71
     0
 42
3.0
  3
txt.shx
  4
extfont.shx
  0
STYLE
  2
KANJI8
 70
     0
 40
3.0
 41
0.766666667
 50
0.0
 71
     0
 42
3.0
  3
txt.shx
  4
extfont.shx
  0
STYLE
  2
KANJI9
 70
     0
 40
3.0
 41
0.666666667
 50
0.0
 71
     0
 42
3.0
  3
txt.shx
  4
extfont.shx
  0
STYLE
  2
KANJI10
 70
     0
 40
3.0
 41
0.45
 50
0.0
 71
     0
 42
3.0
  3
txt.shx
  4
extfont.shx
  0
STYLE
  2
KANJI11
 70
     0
 40
2.8
 41
0.714285714
 50
0.0
 71
     0
 42
2.8
  3
txt.shx
  4
extfont.shx
  0
STYLE
  2
KANJI12
 70
     0
 40
1.44
 41
0.6
 50
0.0
 71
     0
 42
1.44
  3
txt.shx
  4
extfont.shx
  0
STYLE
  2
KANJI13
 70
     0
 40
2.8
 41
1.0
 50
0.0
 71
     0
 42
2.8
  3
txt.shx
  4
extfont.shx
  0
STYLE
  2
KANJI14
 70
     0
 40
4.0
 41
0.75
 50
0.0
 71
     0
 42
4.0
  3
txt.shx
  4
extfont.shx
  0
STYLE
  2
KANJI15
 70
     0
 40
6.0
 41
0.9
 50
0.0
 71
     0
 42
6.0
  3
txt.shx
  4
extfont.shx
  0
STYLE
  2
KANJI16
 70
     0
 40
4.0
 41
0.9
 50
0.0
 71
     0
 42
4.0
  3
txt.shx
  4
extfont.shx
  0
STYLE
  2
KANJI17
 70
     0
 40
5.0
 41
0.9
 50
0.0
 71
     0
 42
5.0
  3
txt.shx
  4
extfont.shx
  0
STYLE
  2
KANJI18
 70
     0
 40
3.0
 41
0.666666667
 50
0.0
 71
     0
 42
3.0
  3
txt.shx
  4
extfont.shx
  0
STYLE
  2
KANJI19
 70
     0
 40
3.6
 41
0.9
 50
0.0
 71
     0
 42
3.6
  3
txt.shx
  4
extfont.shx
  0
ENDTAB
  0
TABLE
  2
VIEW
 70
     0
  0
ENDTAB
  0
ENDSEC
  0
SECTION
  2
BLOCKS
  0
ENDSEC
  0
SECTION
  2
ENTITIES
  0
POLYLINE
  8
0
  6
CONTINUOUS
 62
     1
 66
     1
  0
VERTEX
  8
0
  6
CONTINUOUS
 62
     1
 10
97.0
 20
105.0
 30
0.0
  0
VERTEX
  8
0
  6
CONTINUOUS
 62
     1
 10
100.0
 20
105.0
 30
0.0
  0
VERTEX
  8
0
  6
CONTINUOUS
 62
     1
 10
100.0
 20
155.0
 30
0.0
  0
VERTEX
  8
0
  6
CONTINUOUS
 62
     1
 10
97.0
 20
155.0
 30
0.0
  0
SEQEND
  0
LINE
  8
0
  6
CONTINUOUS
 62
     1
 10
100.25
 20
105.0
 30
0.0
 11
100.25
 21
154.95
 31
0.0
  0
LINE
  8
0
  6
CONTINUOUS
 62
     1
 10
100.25
 20
153.95
 30
0.0
 11
116.55
 21
153.95
 31
0.0
  0
LINE
  8
0
  6
CONTINUOUS
 62
     1
 10
116.5
 20
106.0
 30
0.0
 11
100.3
 21
106.0
 31
0.0
  0
LINE
  8
0
  6
CONTINUOUS
 62
     1
 10
152.5
 20
127.5
 30
0.0
 11
152.5
 21
117.5
 31
0.0
  0
LINE
  8
0
  6
CONTINUOUS
 62
     1
 10
152.5
 20
132.5
 30
0.0
 11
152.5
 21
142.5
 31
0.0
  0
LINE
  8
0
  6
CONTINUOUS
 62
     1
 10
152.5
 20
132.5
 30
0.0
 11
151.5
 21
132.5
 31
0.0
  0
LINE
  8
0
  6
CONTINUOUS
 62
     1
 10
151.5
 20
132.5
 30
0.0
 11
151.5
 21
127.6
 31
0.0
  0
LINE
  8
0
  6
CONTINUOUS
 62
     1
 10
151.5
 20
127.6
 30
0.0
 11
152.5
 21
127.6
 31
0.0
  0
ARC
  8
0
  6
CONTINUOUS
 62
     1
 10
165.0
 20
130.0
 30
0.0
 40
72.5
 50
160.0
 51
200.0
  0
POINT
  8
0
  6
CONTINUOUS
 62
     1
 10
165.0
 20
130.0
 30
0.0
  0
LINE
  8
0
  6
CONTINUOUS
 62
     1
 10
95.271639
 20
110.5
 30
0.0
 11
97.0
 21
111.25
 31
0.0
  0
LINE
  8
0
  6
CONTINUOUS
 62
     1
 10
97.0
 20
111.25
 30
0.0
 11
97.0
 21
148.75
 31
0.0
  0
LINE
  8
0
  6
CONTINUOUS
 62
     1
 10
97.0
 20
148.75
 30
0.0
 11
95.171639
 21
149.5
 31
0.0
  0
LINE
  8
0
  6
CONTINUOUS
 62
     1
 10
112.5
 20
153.95
 30
0.0
 11
112.5
 21
106.05
 31
0.0
  0
LINE
  8
0
  6
CONTINUOUS
 62
     1
 10
100.35
 20
131.6
 30
0.0
 11
112.45
 21
131.6
 31
0.0
  0
LINE
  8
0
  6
CONTINUOUS
 62
     1
 10
112.45
 20
128.6
 30
0.0
 11
100.35
 21
128.6
 31
0.0
  0
LINE
  8
0
  6
CONTINUOUS
 62
     1
 10
103.5
 20
128.8
 30
0.0
 11
103.5
 21
131.5
 31
0.0
  0
LINE
  8
0
  6
CONTINUOUS
 62
     1
 10
116.5
 20
112.67
 30
0.0
 11
115.0
 21
112.67
 31
0.0
  0
LINE
  8
0
  6
CONTINUOUS
 62
     1
 10
115.0
 20
112.67
 30
0.0
 11
115.0
 21
107.43
 31
0.0
  0
LINE
  8
0
  6
CONTINUOUS
 62
     1
 10
115.0
 20
107.43
 30
0.0
 11
116.5
 21
107.43
 31
0.0
  0
LINE
  8
0
  6
CONTINUOUS
 62
     1
 10
116.55
 20
152.62
 30
0.0
 11
115.05
 21
152.62
 31
0.0
  0
LINE
  8
0
  6
CONTINUOUS
 62
     1
 10
115.05
 20
152.62
 30
0.0
 11
115.05
 21
147.37
 31
0.0
  0
LINE
  8
0
  6
CONTINUOUS
 62
     1
 10
115.05
 20
147.37
 30
0.0
 11
116.46
 21
147.37
 31
0.0
  0
ARC
  8
0
  6
CONTINUOUS
 62
     1
 10
117.1
 20
151.0
 30
0.0
 40
0.75
 50
0.0
 51
90.0
  0
ARC
  8
0
  6
CONTINUOUS
 62
     1
 10
117.1
 20
149.05
 30
0.0
 40
0.75
 50
270.0
 51
0.0
  0
LINE
  8
0
  6
CONTINUOUS
 62
     1
 10
117.85
 20
149.05
 30
0.0
 11
117.85
 21
151.0
 31
0.0
  0
LINE
  8
0
  6
CONTINUOUS
 62
     1
 10
117.1
 20
151.75
 30
0.0
 11
116.55
 21
151.75
 31
0.0
  0
LINE
  8
0
  6
CONTINUOUS
 62
     1
 10
116.55
 20
151.75
 30
0.0
 11
116.55
 21
148.3
 31
0.0
  0
LINE
  8
0
  6
CONTINUOUS
 62
     1
 10
116.55
 20
148.3
 30
0.0
 11
117.1
 21
148.3
 31
0.0
  0
LINE
  8
0
  6
CONTINUOUS
 62
     1
 10
117.85
 20
150.2
 30
0.0
 11
117.45
 21
150.2
 31
0.0
  0
LINE
  8
0
  6
CONTINUOUS
 62
     1
 10
117.45
 20
150.2
 30
0.0
 11
117.45
 21
149.85
 31
0.0
  0
LINE
  8
0
  6
CONTINUOUS
 62
     1
 10
117.45
 20
149.85
 30
0.0
 11
117.85
 21
149.85
 31
0.0
  0
ARC
  8
0
  6
CONTINUOUS
 62
     1
 10
117.05
 20
111.0
 30
0.0
 40
0.75
 50
0.0
 51
90.0
  0
ARC
  8
0
  6
CONTINUOUS
 62
     1
 10
117.05
 20
109.05
 30
0.0
 40
0.75
 50
270.0
 51
0.0
  0
LINE
  8
0
  6
CONTINUOUS
 62
     1
 10
117.8
 20
109.05
 30
0.0
 11
117.8
 21
111.0
 31
0.0
  0
LINE
  8
0
  6
CONTINUOUS
 62
     1
 10
117.05
 20
111.75
 30
0.0
 11
116.5
 21
111.75
 31
0.0
  0
LINE
  8
0
  6
CONTINUOUS
 62
     1
 10
116.5
 20
111.75
 30
0.0
 11
116.5
 21
108.3
 31
0.0
  0
LINE
  8
0
  6
CONTINUOUS
 62
     1
 10
116.5
 20
108.3
 30
0.0
 11
117.05
 21
108.3
 31
0.0
  0
LINE
  8
0
  6
CONTINUOUS
 62
     1
 10
117.8
 20
110.2
 30
0.0
 11
117.4
 21
110.2
 31
0.0
  0
LINE
  8
0
  6
CONTINUOUS
 62
     1
 10
117.4
 20
110.2
 30
0.0
 11
117.4
 21
109.85
 31
0.0
  0
LINE
  8
0
  6
CONTINUOUS
 62
     1
 10
117.4
 20
109.85
 30
0.0
 11
117.8
 21
109.85
 31
0.0
  0
ARC
  8
0
  6
CONTINUOUS
 62
     1
 10
156.7
 20
137.25
 30
0.0
 40
0.75
 50
0.0
 51
90.0
  0
ARC
  8
0
  6
CONTINUOUS
 62
     1
 10
156.7
 20
135.3
 30
0.0
 40
0.75
 50
270.0
 51
0.0
  0
LINE
  8
0
  6
CONTINUOUS
 62
     1
 10
157.45
 20
135.3
 30
0.0
 11
157.45
 21
137.25
 31
0.0
  0
LINE
  8
0
  6
CONTINUOUS
 62
     1
 10
156.7
 20
138.0
 30
0.0
 11
156.15
 21
138.0
 31
0.0
  0
LINE
  8
0
  6
CONTINUOUS
 62
     1
 10
156.15
 20
138.0
 30
0.0
 11
156.15
 21
134.55
 31
0.0
  0
LINE
  8
0
  6
CONTINUOUS
 62
     1
 10
156.15
 20
134.55
 30
0.0
 11
156.7
 21
134.55
 31
0.0
  0
LINE
  8
0
  6
CONTINUOUS
 62
     1
 10
157.45
 20
136.45
 30
0.0
 11
157.05
 21
136.45
 31
0.0
  0
LINE
  8
0
  6
CONTINUOUS
 62
     1
 10
157.05
 20
136.45
 30
0.0
 11
157.05
 21
136.1
 31
0.0
  0
LINE
  8
0
  6
CONTINUOUS
 62
     1
 10
157.05
 20
136.1
 30
0.0
 11
157.45
 21
136.1
 31
0.0
  0
ARC
  8
0
  6
CONTINUOUS
 62
     1
 10
156.8
 20
124.7
 30
0.0
 40
0.75
 50
0.0
 51
90.0
  0
ARC
  8
0
  6
CONTINUOUS
 62
     1
 10
156.8
 20
122.75
 30
0.0
 40
0.75
 50
270.0
 51
0.0
  0
LINE
  8
0
  6
CONTINUOUS
 62
     1
 10
157.55
 20
122.75
 30
0.0
 11
157.55
 21
124.7
 31
0.0
  0
LINE
  8
0
  6
CONTINUOUS
 62
     1
 10
156.8
 20
125.45
 30
0.0
 11
156.25
 21
125.45
 31
0.0
  0
LINE
  8
0
  6
CONTINUOUS
 62
     1
 10
156.25
 20
125.45
 30
0.0
 11
156.25
 21
122.0
 31
0.0
  0
LINE
  8
0
  6
CONTINUOUS
 62
     1
 10
156.25
 20
122.0
 30
0.0
 11
156.8
 21
122.0
 31
0.0
  0
LINE
  8
0
  6
CONTINUOUS
 62
     1
 10
157.55
 20
123.9
 30
0.0
 11
157.15
 21
123.9
 31
0.0
  0
LINE
  8
0
  6
CONTINUOUS
 62
     1
 10
157.15
 20
123.9
 30
0.0
 11
157.15
 21
123.55
 31
0.0
  0
LINE
  8
0
  6
CONTINUOUS
 62
     1
 10
157.15
 20
123.55
 30
0.0
 11
157.55
 21
123.55
 31
0.0
  0
POINT
  8
0
  6
CONTINUOUS
 62
     1
 10
156.2
 20
125.45
 30
0.0
  0
LINE
  8
0
  6
CONTINUOUS
 62
     1
 10
156.2
 20
125.45
 30
0.0
 11
155.8
 21
125.45
 31
0.0
  0
LINE
  8
0
  6
CONTINUOUS
 62
     1
 10
155.8
 20
125.45
 30
0.0
 11
155.8
 21
122.0
 31
0.0
  0
POINT
  8
0
  6
CONTINUOUS
 62
     1
 10
155.8
 20
122.0
 30
0.0
  0
LINE
  8
0
  6
CONTINUOUS
 62
     1
 10
155.8
 20
122.0
 30
0.0
 11
156.15
 21
122.0
 31
0.0
  0
LINE
  8
0
  6
CONTINUOUS
 62
     1
 10
155.75
 20
125.5
 30
0.0
 11
152.5
 21
125.5
 31
0.0
  0
LINE
  8
0
  6
CONTINUOUS
 62
     1
 10
152.5
 20
122.0
 30
0.0
 11
155.7
 21
122.0
 31
0.0
  0
LINE
  8
0
  6
CONTINUOUS
 62
     1
 10
156.1
 20
138.0
 30
0.0
 11
152.5
 21
138.0
 31
0.0
  0
LINE
  8
0
  6
CONTINUOUS
 62
     1
 10
152.5
 20
134.5
 30
0.0
 11
156.15
 21
134.5
 31
0.0
  0
LINE
  8
0
  6
CONTINUOUS
 62
     1
 10
155.75
 20
134.5
 30
0.0
 11
155.75
 21
138.0
 31
0.0
  0
LINE
  8
0
  6
CONTINUOUS
 62
     1
 10
46.5
 20
105.0
 30
0.0
 11
61.5
 21
105.0
 31
0.0
  0
LINE
  8
0
  6
CONTINUOUS
 62
     1
 10
61.5
 20
105.0
 30
0.0
 11
61.5
 21
155.0
 31
0.0
  0
LINE
  8
0
  6
CONTINUOUS
 62
     1
 10
61.5
 20
155.0
 30
0.0
 11
46.5
 21
155.0
 31
0.0
  0
LINE
  8
0
  6
CONTINUOUS
 62
     1
 10
46.5
 20
155.0
 30
0.0
 11
46.5
 21
105.0
 31
0.0
  0
POINT
  8
0
  6
CONTINUOUS
 62
     1
 10
51.5
 20
155.025
 30
0.0
  0
LINE
  8
0
  6
CONTINUOUS
 62
     1
 10
54.0
 20
147.0
 30
0.0
 11
52.0
 21
147.0
 31
0.0
  0
LINE
  8
0
  6
CONTINUOUS
 62
     1
 10
52.0
 20
143.6
 30
0.0
 11
54.0
 21
143.6
 31
0.0
  0
LINE
  8
0
  6
CONTINUOUS
 62
     1
 10
54.0
 20
140.2
 30
0.0
 11
52.0
 21
140.2
 31
0.0
  0
LINE
  8
0
  6
CONTINUOUS
 62
     1
 10
54.0
 20
136.8
 30
0.0
 11
52.0
 21
136.8
 31
0.0
  0
LINE
  8
0
  6
CONTINUOUS
 62
     1
 10
52.0
 20
133.4
 30
0.0
 11
54.0
 21
133.4
 31
0.0
  0
LINE
  8
0
  6
CONTINUOUS
 62
     1
 10
54.0
 20
130.0
 30
0.0
 11
52.0
 21
130.0
 31
0.0
  0
LINE
  8
0
  6
CONTINUOUS
 62
     1
 10
52.0
 20
126.6
 30
0.0
 11
54.0
 21
126.6
 31
0.0
  0
LINE
  8
0
  6
CONTINUOUS
 62
     1
 10
54.0
 20
123.2
 30
0.0
 11
52.0
 21
123.2
 31
0.0
  0
LINE
  8
0
  6
CONTINUOUS
 62
     1
 10
54.0
 20
119.8
 30
0.0
 11
51.95
 21
119.8
 31
0.0
  0
LINE
  8
0
  6
CONTINUOUS
 62
     1
 10
51.95
 20
116.4
 30
0.0
 11
54.0
 21
116.4
 31
0.0
  0
TEXT
  8
0
  6
CONTINUOUS
 62
     1
 10
50.05
 20
129.0
 30
0.2
 40
2.0
  1
Ｖ
 50
0.0
 41
0.9
 51
0.0
  7
KANJI0
  0
LINE
  8
0
  6
CONTINUOUS
 62
     1
 10
28.29
 20
51.53
 30
0.0
 11
28.29
 21
36.53
 31
0.0
  0
LINE
  8
0
  6
CONTINUOUS
 62
     1
 10
28.29
 20
36.53
 30
0.0
 11
78.29
 21
36.53
 31
0.0
  0
LINE
  8
0
  6
CONTINUOUS
 62
     1
 10
78.29
 20
36.53
 30
0.0
 11
78.29
 21
51.53
 31
0.0
  0
LINE
  8
0
  6
CONTINUOUS
 62
     1
 10
78.29
 20
51.53
 30
0.0
 11
28.29
 21
51.53
 31
0.0
  0
POINT
  8
0
  6
CONTINUOUS
 62
     1
 10
78.315
 20
46.53
 30
0.0
  0
LINE
  8
0
  6
CONTINUOUS
 62
     1
 10
70.29
 20
44.03
 30
0.0
 11
70.29
 21
46.03
 31
0.0
  0
LINE
  8
0
  6
CONTINUOUS
 62
     1
 10
66.89
 20
46.03
 30
0.0
 11
66.89
 21
44.03
 31
0.0
  0
LINE
  8
0
  6
CONTINUOUS
 62
     1
 10
63.49
 20
44.03
 30
0.0
 11
63.49
 21
46.03
 31
0.0
  0
LINE
  8
0
  6
CONTINUOUS
 62
     1
 10
60.09
 20
44.03
 30
0.0
 11
60.09
 21
46.03
 31
0.0
  0
LINE
  8
0
  6
CONTINUOUS
 62
     1
 10
56.69
 20
46.03
 30
0.0
 11
56.69
 21
44.03
 31
0.0
  0
LINE
  8
0
  6
CONTINUOUS
 62
     1
 10
53.29
 20
44.03
 30
0.0
 11
53.29
 21
46.03
 31
0.0
  0
LINE
  8
0
  6
CONTINUOUS
 62
     1
 10
49.89
 20
46.03
 30
0.0
 11
49.89
 21
44.03
 31
0.0
  0
LINE
  8
0
  6
CONTINUOUS
 62
     1
 10
46.49
 20
44.03
 30
0.0
 11
46.49
 21
46.03
 31
0.0
  0
LINE
  8
0
  6
CONTINUOUS
 62
     1
 10
43.09
 20
44.03
 30
0.0
 11
43.09
 21
46.08
 31
0.0
  0
LINE
  8
0
  6
CONTINUOUS
 62
     1
 10
39.69
 20
46.08
 30
0.0
 11
39.69
 21
44.03
 31
0.0
  0
TEXT
  8
0
  6
CONTINUOUS
 62
     1
 10
52.45
 20
46.4
 30
0.2
 40
2.0
  1
Ｖ
 50
0.0
 41
0.9
 51
0.0
  7
KANJI0
  0
LINE
  8
0
  6
CONTINUOUS
 62
     1
 10
36.29
 20
44.03
 30
0.0
 11
36.29
 21
44.875
 31
0.0
  0
LINE
  8
0
  6
CONTINUOUS
 62
     1
 10
54.0
 20
113.0
 30
0.0
 11
53.1
 21
113.0
 31
0.0
  0
LINE
  8
0
  6
CONTINUOUS
 62
     2
 10
92.5
 20
130.500008741
 30
0.0
 11
92.5
 21
172.000008741
 31
0.0
  0
LINE
  8
0
  6
CONTINUOUS
 62
     2
 10
92.5
 20
170.000008741
 30
0.0
 11
94.914814566
 21
169.352961128
 31
0.0
  0
LINE
  8
0
  6
CONTINUOUS
 62
     2
 10
92.5
 20
170.000008741
 30
0.0
 11
94.914814566
 21
170.647056353
 31
0.0
  0
LINE
  8
0
  6
CONTINUOUS
 62
     2
 10
152.5
 20
170.045
 30
0.0
 11
150.085185434
 21
170.692047613
 31
0.0
  0
LINE
  8
0
  6
CONTINUOUS
 62
     2
 10
152.5
 20
170.045
 30
0.0
 11
150.085185434
 21
169.397952387
 31
0.0
  0
TEXT
  8
0
  6
CONTINUOUS
 62
     2
 10
153.025
 20
171.045
 30
0.3
 40
3.0
  1
１０
 50
0.0
 41
0.6
 51
0.0
  7
KANJI1
  0
LINE
  8
0
  6
CONTINUOUS
 62
     2
 10
153.0
 20
142.5
 30
0.0
 11
167.0
 21
142.5
 31
0.0
  0
LINE
  8
0
  6
CONTINUOUS
 62
     2
 10
165.0
 20
142.5
 30
0.0
 11
164.352952387
 21
140.085185434
 31
0.0
  0
LINE
  8
0
  6
CONTINUOUS
 62
     2
 10
165.0
 20
142.5
 30
0.0
 11
165.647047613
 21
140.085185434
 31
0.0
  0
LINE
  8
0
  6
CONTINUOUS
 62
     2
 10
165.0
 20
142.5
 30
0.0
 11
165.0
 21
117.5
 31
0.0
  0
LINE
  8
0
  6
CONTINUOUS
 62
     2
 10
165.0
 20
117.5
 30
0.0
 11
165.647047613
 21
119.914814566
 31
0.0
  0
LINE
  8
0
  6
CONTINUOUS
 62
     2
 10
165.0
 20
117.5
 30
0.0
 11
164.352952387
 21
119.914814566
 31
0.0
  0
LINE
  8
0
  6
CONTINUOUS
 62
     2
 10
153.0
 20
117.5
 30
0.0
 11
167.0
 21
117.5
 31
0.0
  0
TEXT
  8
0
  6
CONTINUOUS
 62
     2
 10
164.0
 20
128.05
 30
0.3
 40
3.0
  1
５０
 50
90.0
 41
0.6
 51
0.0
  7
KANJI1
  0
LINE
  8
0
  6
CONTINUOUS
 62
     2
 10
117.76
 20
109.4
 30
0.0
 11
118.281938491
 21
106.955090961
 31
0.0
  0
LINE
  8
0
  6
CONTINUOUS
 62
     2
 10
117.76
 20
109.4
 30
0.0
 11
119.434466512
 21
107.543615907
 31
0.0
  0
LINE
  8
0
  6
CONTINUOUS
 62
     2
 10
117.76
 20
109.4
 30
0.0
 11
124.96
 21
95.3
 31
0.0
  0
LINE
  8
0
  6
CONTINUOUS
 62
     2
 10
124.96
 20
95.3
 30
0.0
 11
137.26
 21
95.3
 31
0.0
  0
TEXT
  8
0
  6
CONTINUOUS
 62
     2
 10
124.96
 20
96.3
 30
0.3
 40
3.0
  1
Ｍ４取付ネジ
 50
0.0
 41
0.6
 51
0.0
  7
KANJI1
  0
ARC
  8
0
  6
CONTINUOUS
 62
     2
 10
45.75
 20
105.5
 30
0.0
 40
0.5
 50
180.0
 51
270.0
  0
ARC
  8
0
  6
CONTINUOUS
 62
     2
 10
45.75
 20
154.5
 30
0.0
 40
0.5
 50
90.0
 51
180.0
  0
ARC
  8
0
  6
CONTINUOUS
 62
     2
 10
62.25
 20
154.5
 30
0.0
 40
0.5
 50
0.0
 51
90.0
  0
ARC
  8
0
  6
CONTINUOUS
 62
     2
 10
62.25
 20
105.5
 30
0.0
 40
0.5
 50
270.0
 51
0.0
  0
LINE
  8
0
  6
CONTINUOUS
 62
     2
 10
62.25
 20
105.0
 30
0.0
 11
61.5
 21
105.0
 31
0.0
  0
LINE
  8
0
  6
CONTINUOUS
 62
     2
 10
46.5
 20
105.0
 30
0.0
 11
45.75
 21
105.0
 31
0.0
  0
LINE
  8
0
  6
CONTINUOUS
 62
     2
 10
45.25
 20
105.5
 30
0.0
 11
45.25
 21
154.5
 31
0.0
  0
LINE
  8
0
  6
CONTINUOUS
 62
     2
 10
45.75
 20
155.0
 30
0.0
 11
46.5
 21
155.0
 31
0.0
  0
LINE
  8
0
  6
CONTINUOUS
 62
     2
 10
61.5
 20
155.0
 30
0.0
 11
62.25
 21
155.0
 31
0.0
  0
LINE
  8
0
  6
CONTINUOUS
 62
     2
 10
62.75
 20
154.5
 30
0.0
 11
62.75
 21
105.5
 31
0.0
  0
LINE
  8
0
  6
CONTINUOUS
 62
     2
 10
61.55
 20
110.525
 30
0.0
 11
46.5
 21
110.525
 31
0.0
  0
LINE
  8
0
  6
CONTINUOUS
 62
     2
 10
61.4875
 20
149.475
 30
0.0
 11
46.5375
 21
149.475
 31
0.0
  0
LINE
  8
0
  6
CONTINUOUS
 62
     2
 10
46.5
 20
150.275
 30
0.0
 11
61.5
 21
150.275
 31
0.0
  0
LINE
  8
0
  6
CONTINUOUS
 62
     2
 10
61.5
 20
151.075
 30
0.0
 11
46.5
 21
151.075
 31
0.0
  0
LINE
  8
0
  6
CONTINUOUS
 62
     2
 10
46.5
 20
151.875
 30
0.0
 11
61.5
 21
151.875
 31
0.0
  0
LINE
  8
0
  6
CONTINUOUS
 62
     2
 10
61.5
 20
152.675
 30
0.0
 11
46.5
 21
152.675
 31
0.0
  0
LINE
  8
0
  6
CONTINUOUS
 62
     2
 10
46.5
 20
153.475
 30
0.0
 11
61.5
 21
153.475
 31
0.0
  0
LINE
  8
0
  6
CONTINUOUS
 62
     2
 10
61.5
 20
154.275
 30
0.0
 11
46.5
 21
154.275
 31
0.0
  0
LINE
  8
0
  6
CONTINUOUS
 62
     2
 10
46.5
 20
109.775
 30
0.0
 11
61.5
 21
109.775
 31
0.0
  0
LINE
  8
0
  6
CONTINUOUS
 62
     2
 10
46.4875
 20
106.575
 30
0.0
 11
61.5
 21
106.575
 31
0.0
  0
LINE
  8
0
  6
CONTINUOUS
 62
     2
 10
61.5
 20
105.775
 30
0.0
 11
46.5
 21
105.775
 31
0.0
  0
CIRCLE
  8
0
  6
CONTINUOUS
 62
     2
 10
54.0
 20
108.175
 30
0.0
 40
1.325
  0
LINE
  8
0
  6
CONTINUOUS
 62
     2
 10
55.3
 20
108.175
 30
0.0
 11
61.5
 21
108.175
 31
0.0
  0
LINE
  8
0
  6
CONTINUOUS
 62
     2
 10
46.5
 20
108.175
 30
0.0
 11
52.7
 21
108.175
 31
0.0
  0
LINE
  8
0
  6
CONTINUOUS
 62
     2
 10
52.95
 20
107.375
 30
0.0
 11
46.4875
 21
107.375
 31
0.0
  0
LINE
  8
0
  6
CONTINUOUS
 62
     2
 10
61.5
 20
107.375
 30
0.0
 11
55.0
 21
107.375
 31
0.0
  0
LINE
  8
0
  6
CONTINUOUS
 62
     2
 10
52.95
 20
108.975
 30
0.0
 11
46.5
 21
108.975
 31
0.0
  0
LINE
  8
0
  6
CONTINUOUS
 62
     2
 10
61.5
 20
108.975
 30
0.0
 11
55.05
 21
108.975
 31
0.0
  0
LINE
  8
0
  6
CONTINUOUS
 62
     2
 10
53.85
 20
109.475
 30
0.0
 11
53.85
 21
106.925
 31
0.0
  0
LINE
  8
0
  6
CONTINUOUS
 62
     2
 10
54.15
 20
106.925
 30
0.0
 11
54.15
 21
109.475
 31
0.0
  0
LINE
  8
0
  6
CONTINUOUS
 62
     2
 10
59.7125
 20
110.575
 30
0.0
 11
59.7125
 21
149.475
 31
0.0
  0
LINE
  8
0
  6
CONTINUOUS
 62
     2
 10
48.0
 20
149.475
 30
0.0
 11
48.0
 21
110.575
 31
0.0
  0
LINE
  8
0
  6
CONTINUOUS
 62
     2
 10
49.53
 20
148.97
 30
0.0
 11
59.71
 21
148.97
 31
0.0
  0
LINE
  8
0
  6
CONTINUOUS
 62
     2
 10
49.5
 20
148.97
 30
0.0
 11
48.02
 21
148.97
 31
0.0
  0
LINE
  8
0
  6
CONTINUOUS
 62
     2
 10
48.0
 20
111.025
 30
0.0
 11
59.7
 21
111.025
 31
0.0
  0
LINE
  8
0
  6
CONTINUOUS
 62
     2
 10
53.5
 20
114.7
 30
0.0
 11
52.0
 21
114.7
 31
0.0
  0
LINE
  8
0
  6
CONTINUOUS
 62
     2
 10
52.0
 20
118.1
 30
0.0
 11
53.5
 21
118.1
 31
0.0
  0
LINE
  8
0
  6
CONTINUOUS
 62
     2
 10
53.5
 20
121.5
 30
0.0
 11
52.0
 21
121.5
 31
0.0
  0
LINE
  8
0
  6
CONTINUOUS
 62
     2
 10
52.0
 20
124.9
 30
0.0
 11
53.5
 21
124.9
 31
0.0
  0
LINE
  8
0
  6
CONTINUOUS
 62
     2
 10
53.5
 20
128.3
 30
0.0
 11
52.0
 21
128.3
 31
0.0
  0
LINE
  8
0
  6
CONTINUOUS
 62
     2
 10
52.0
 20
131.7
 30
0.0
 11
53.5
 21
131.7
 31
0.0
  0
LINE
  8
0
  6
CONTINUOUS
 62
     2
 10
53.5
 20
135.1
 30
0.0
 11
52.0
 21
135.1
 31
0.0
  0
LINE
  8
0
  6
CONTINUOUS
 62
     2
 10
52.0
 20
138.5
 30
0.0
 11
53.5
 21
138.5
 31
0.0
  0
LINE
  8
0
  6
CONTINUOUS
 62
     2
 10
53.5
 20
141.9
 30
0.0
 11
52.0
 21
141.9
 31
0.0
  0
LINE
  8
0
  6
CONTINUOUS
 62
     2
 10
52.0
 20
145.3
 30
0.0
 11
53.5
 21
145.3
 31
0.0
  0
TEXT
  8
0
  6
CONTINUOUS
 62
     2
 10
54.0
 20
146.25
 30
0.15
 40
1.5
  1
１００
 50
0.0
 41
0.9
 51
0.0
  7
KANJI2
  0
TEXT
  8
0
  6
CONTINUOUS
 62
     2
 10
54.25
 20
139.45
 30
0.15
 40
1.5
  1
８０
 50
0.0
 41
0.9
 51
0.0
  7
KANJI2
  0
TEXT
  8
0
  6
CONTINUOUS
 62
     2
 10
54.25
 20
132.65
 30
0.15
 40
1.5
  1
６０
 50
0.0
 41
0.9
 51
0.0
  7
KANJI2
  0
TEXT
  8
0
  6
CONTINUOUS
 62
     2
 10
54.25
 20
125.85
 30
0.15
 40
1.5
  1
４０
 50
0.0
 41
0.9
 51
0.0
  7
KANJI2
  0
TEXT
  8
0
  6
CONTINUOUS
 62
     2
 10
54.25
 20
119.05
 30
0.15
 40
1.5
  1
２０
 50
0.0
 41
0.9
 51
0.0
  7
KANJI2
  0
TEXT
  8
0
  6
CONTINUOUS
 62
     2
 10
54.25
 20
112.25
 30
0.15
 40
1.5
  1
０
 50
0.0
 41
0.9
 51
0.0
  7
KANJI2
  0
LINE
  8
0
  6
CONTINUOUS
 62
     2
 10
62.75
 20
154.95
 30
0.0
 11
62.75
 21
172.000008741
 31
0.0
  0
LINE
  8
0
  6
CONTINUOUS
 62
     2
 10
62.75
 20
170.000008741
 30
0.0
 11
60.335185434
 21
170.647056353
 31
0.0
  0
LINE
  8
0
  6
CONTINUOUS
 62
     2
 10
62.75
 20
170.000008741
 30
0.0
 11
60.335185434
 21
169.352961128
 31
0.0
  0
LINE
  8
0
  6
CONTINUOUS
 62
     2
 10
62.75
 20
170.000008741
 30
0.0
 11
45.25
 21
170.000008741
 31
0.0
  0
LINE
  8
0
  6
CONTINUOUS
 62
     2
 10
45.25
 20
170.000008741
 30
0.0
 11
47.664814566
 21
169.352961128
 31
0.0
  0
LINE
  8
0
  6
CONTINUOUS
 62
     2
 10
45.25
 20
170.000008741
 30
0.0
 11
47.664814566
 21
170.647056353
 31
0.0
  0
LINE
  8
0
  6
CONTINUOUS
 62
     2
 10
45.25
 20
154.95
 30
0.0
 11
45.25
 21
172.000008741
 31
0.0
  0
TEXT
  8
0
  6
CONTINUOUS
 62
     2
 10
52.05
 20
171.000008741
 30
0.3
 40
3.0
  1
３５
 50
0.0
 41
0.6
 51
0.0
  7
KANJI1
  0
LINE
  8
0
  6
CONTINUOUS
 62
     2
 10
46.5
 20
165.8
 30
0.0
 11
48.914814566
 21
165.152952387
 31
0.0
  0
LINE
  8
0
  6
CONTINUOUS
 62
     2
 10
46.5
 20
165.8
 30
0.0
 11
48.914814566
 21
166.447047613
 31
0.0
  0
LINE
  8
0
  6
CONTINUOUS
 62
     2
 10
46.5
 20
165.8
 30
0.0
 11
61.5
 21
165.8
 31
0.0
  0
LINE
  8
0
  6
CONTINUOUS
 62
     2
 10
61.5
 20
165.8
 30
0.0
 11
59.085185434
 21
166.447047613
 31
0.0
  0
LINE
  8
0
  6
CONTINUOUS
 62
     2
 10
61.5
 20
165.8
 30
0.0
 11
59.085185434
 21
165.152952387
 31
0.0
  0
TEXT
  8
0
  6
CONTINUOUS
 62
     2
 10
53.52
 20
166.8
 30
0.18
 40
1.8
  1
±０．５
 50
0.0
 41
0.6
 51
0.0
  7
KANJI3
  0
TEXT
  8
0
  6
CONTINUOUS
 62
     2
 10
49.62
 20
166.8
 30
0.3
 40
3.0
  1
３０
 50
0.0
 41
0.6
 51
0.0
  7
KANJI1
  0
TEXT
  8
0
  6
CONTINUOUS
 62
     2
 10
56.07
 20
170.9
 30
0.18
 40
1.8
  1
±０．５
 50
0.0
 41
0.6
 51
0.0
  7
KANJI3
  0
LINE
  8
0
  6
CONTINUOUS
 62
     2
 10
45.4
 20
155.025
 30
0.0
 11
31.55
 21
155.025
 31
0.0
  0
LINE
  8
0
  6
CONTINUOUS
 62
     2
 10
33.55
 20
155.025
 30
0.0
 11
32.902952387
 21
152.610185434
 31
0.0
  0
LINE
  8
0
  6
CONTINUOUS
 62
     2
 10
33.55
 20
155.025
 30
0.0
 11
34.197047613
 21
152.610185434
 31
0.0
  0
LINE
  8
0
  6
CONTINUOUS
 62
     2
 10
33.55
 20
155.025
 30
0.0
 11
33.55
 21
105.025
 31
0.0
  0
LINE
  8
0
  6
CONTINUOUS
 62
     2
 10
33.55
 20
105.025
 30
0.0
 11
34.197047613
 21
107.439814566
 31
0.0
  0
LINE
  8
0
  6
CONTINUOUS
 62
     2
 10
33.55
 20
105.025
 30
0.0
 11
32.902952387
 21
107.439814566
 31
0.0
  0
TEXT
  8
0
  6
CONTINUOUS
 62
     2
 10
32.55
 20
127.025
 30
0.3
 40
3.0
  1
１００
 50
90.0
 41
0.6
 51
0.0
  7
KANJI1
  0
LINE
  8
0
  6
CONTINUOUS
 62
     2
 10
45.875
 20
105.325
 30
0.0
 11
43.69301792
 21
104.104772888
 31
0.0
  0
LINE
  8
0
  6
CONTINUOUS
 62
     2
 10
45.875
 20
105.325
 30
0.0
 11
44.595461644
 21
103.177261283
 31
0.0
  0
LINE
  8
0
  6
CONTINUOUS
 62
     2
 10
45.875
 20
105.325
 30
0.0
 11
36.625
 21
96.325
 31
0.0
  0
LINE
  8
0
  6
CONTINUOUS
 62
     2
 10
42.425
 20
91.275
 30
0.0
 11
66.075
 21
91.275
 31
0.0
  0
CIRCLE
  8
0
  6
CONTINUOUS
 62
     2
 10
106.4
 20
150.55
 30
0.0
 40
1.5
  0
LINE
  8
0
  6
CONTINUOUS
 62
     2
 10
105.525
 20
150.75
 30
0.0
 11
106.0
 21
150.75
 31
0.0
  0
ARC
  8
0
  6
CONTINUOUS
 62
     2
 10
106.0
 20
150.95
 30
0.0
 40
0.2
 50
270.0
 51
0.0
  0
LINE
  8
0
  6
CONTINUOUS
 62
     2
 10
106.2
 20
150.95
 30
0.0
 11
106.2
 21
151.425
 31
0.0
  0
LINE
  8
0
  6
CONTINUOUS
 62
     2
 10
106.2
 20
151.425
 30
0.0
 11
106.6
 21
151.425
 31
0.0
  0
LINE
  8
0
  6
CONTINUOUS
 62
     2
 10
106.6
 20
151.425
 30
0.0
 11
106.6
 21
150.95
 31
0.0
  0
ARC
  8
0
  6
CONTINUOUS
 62
     2
 10
106.8
 20
150.95
 30
0.0
 40
0.2
 50
180.0
 51
270.0
  0
LINE
  8
0
  6
CONTINUOUS
 62
     2
 10
106.8
 20
150.75
 30
0.0
 11
107.275
 21
150.75
 31
0.0
  0
LINE
  8
0
  6
CONTINUOUS
 62
     2
 10
107.275
 20
150.75
 30
0.0
 11
107.275
 21
150.35
 31
0.0
  0
LINE
  8
0
  6
CONTINUOUS
 62
     2
 10
107.275
 20
150.35
 30
0.0
 11
106.8
 21
150.35
 31
0.0
  0
ARC
  8
0
  6
CONTINUOUS
 62
     2
 10
106.8
 20
150.15
 30
0.0
 40
0.2
 50
90.0
 51
180.0
  0
LINE
  8
0
  6
CONTINUOUS
 62
     2
 10
106.6
 20
150.15
 30
0.0
 11
106.6
 21
149.675
 31
0.0
  0
LINE
  8
0
  6
CONTINUOUS
 62
     2
 10
106.6
 20
149.675
 30
0.0
 11
106.2
 21
149.675
 31
0.0
  0
LINE
  8
0
  6
CONTINUOUS
 62
     2
 10
106.2
 20
149.675
 30
0.0
 11
106.2
 21
150.15
 31
0.0
  0
ARC
  8
0
  6
CONTINUOUS
 62
     2
 10
106.0
 20
150.15
 30
0.0
 40
0.2
 50
0.0
 51
90.0
  0
LINE
  8
0
  6
CONTINUOUS
 62
     2
 10
106.0
 20
150.35
 30
0.0
 11
105.525
 21
150.35
 31
0.0
  0
LINE
  8
0
  6
CONTINUOUS
 62
     2
 10
105.525
 20
150.35
 30
0.0
 11
105.525
 21
150.75
 31
0.0
  0
LINE
  8
0
  6
LTYPE1
 62
     2
 10
104.4
 20
150.55
 30
0.0
 11
108.4
 21
150.55
 31
0.0
  0
LINE
  8
0
  6
LTYPE1
 62
     2
 10
106.4
 20
152.55
 30
0.0
 11
106.4
 21
148.55
 31
0.0
  0
CIRCLE
  8
0
  6
CONTINUOUS
 62
     2
 10
106.4
 20
109.575
 30
0.0
 40
1.5
  0
LINE
  8
0
  6
CONTINUOUS
 62
     2
 10
105.525
 20
109.775
 30
0.0
 11
106.0
 21
109.775
 31
0.0
  0
ARC
  8
0
  6
CONTINUOUS
 62
     2
 10
106.0
 20
109.975
 30
0.0
 40
0.2
 50
270.0
 51
0.0
  0
LINE
  8
0
  6
CONTINUOUS
 62
     2
 10
106.2
 20
109.975
 30
0.0
 11
106.2
 21
110.45
 31
0.0
  0
LINE
  8
0
  6
CONTINUOUS
 62
     2
 10
106.2
 20
110.45
 30
0.0
 11
106.6
 21
110.45
 31
0.0
  0
LINE
  8
0
  6
CONTINUOUS
 62
     2
 10
106.6
 20
110.45
 30
0.0
 11
106.6
 21
109.975
 31
0.0
  0
ARC
  8
0
  6
CONTINUOUS
 62
     2
 10
106.8
 20
109.975
 30
0.0
 40
0.2
 50
180.0
 51
270.0
  0
LINE
  8
0
  6
CONTINUOUS
 62
     2
 10
106.8
 20
109.775
 30
0.0
 11
107.275
 21
109.775
 31
0.0
  0
LINE
  8
0
  6
CONTINUOUS
 62
     2
 10
107.275
 20
109.775
 30
0.0
 11
107.275
 21
109.375
 31
0.0
  0
LINE
  8
0
  6
CONTINUOUS
 62
     2
 10
107.275
 20
109.375
 30
0.0
 11
106.8
 21
109.375
 31
0.0
  0
ARC
  8
0
  6
CONTINUOUS
 62
     2
 10
106.8
 20
109.175
 30
0.0
 40
0.2
 50
90.0
 51
180.0
  0
LINE
  8
0
  6
CONTINUOUS
 62
     2
 10
106.6
 20
109.175
 30
0.0
 11
106.6
 21
108.7
 31
0.0
  0
LINE
  8
0
  6
CONTINUOUS
 62
     2
 10
106.6
 20
108.7
 30
0.0
 11
106.2
 21
108.7
 31
0.0
  0
LINE
  8
0
  6
CONTINUOUS
 62
     2
 10
106.2
 20
108.7
 30
0.0
 11
106.2
 21
109.175
 31
0.0
  0
ARC
  8
0
  6
CONTINUOUS
 62
     2
 10
106.0
 20
109.175
 30
0.0
 40
0.2
 50
0.0
 51
90.0
  0
LINE
  8
0
  6
CONTINUOUS
 62
     2
 10
106.0
 20
109.375
 30
0.0
 11
105.525
 21
109.375
 31
0.0
  0
LINE
  8
0
  6
CONTINUOUS
 62
     2
 10
105.525
 20
109.375
 30
0.0
 11
105.525
 21
109.775
 31
0.0
  0
LINE
  8
0
  6
LTYPE1
 62
     2
 10
104.4
 20
109.575
 30
0.0
 11
108.4
 21
109.575
 31
0.0
  0
LINE
  8
0
  6
LTYPE1
 62
     2
 10
106.4
 20
111.575
 30
0.0
 11
106.4
 21
107.575
 31
0.0
  0
TEXT
  8
0
  6
CONTINUOUS
 62
     2
 10
99.0
 20
56.965
 30
0.18
 40
1.8
  1
－０
 50
90.0
 41
0.6
 51
0.0
  7
KANJI3
  0
TEXT
  8
0
  6
CONTINUOUS
 62
     2
 10
97.2
 20
56.965
 30
0.18
 40
1.8
  1
＋０．５
 50
90.0
 41
0.6
 51
0.0
  7
KANJI3
  0
TEXT
  8
0
  6
CONTINUOUS
 62
     2
 10
99.0
 20
48.865
 30
0.3
 40
3.0
  1
９６．５
 50
90.0
 41
0.6
 51
0.0
  7
KANJI1
  0
LINE
  8
0
  6
LTYPE1
 62
     2
 10
148.99
 20
136.295
 30
0.0
 11
159.59
 21
136.295
 31
0.0
  0
LINE
  8
0
  6
LTYPE1
 62
     2
 10
149.19
 20
123.745
 30
0.0
 11
159.54
 21
123.745
 31
0.0
  0
LINE
  8
0
  6
LTYPE1
 62
     2
 10
107.36
 20
55.365
 30
0.0
 11
131.36
 21
55.365
 31
0.0
  0
LINE
  8
0
  6
LTYPE1
 62
     2
 10
119.1
 20
82.815
 30
0.0
 11
119.1
 21
27.765
 31
0.0
  0
LINE
  8
0
  6
CONTINUOUS
 62
     2
 10
55.0
 20
108.0
 30
0.0
 11
56.316331322
 21
105.874612541
 31
0.0
  0
LINE
  8
0
  6
CONTINUOUS
 62
     2
 10
55.0
 20
108.0
 30
0.0
 11
57.202670094
 21
106.817526128
 31
0.0
  0
LINE
  8
0
  6
CONTINUOUS
 62
     2
 10
55.0
 20
108.0
 30
0.0
 11
67.5
 21
96.25
 31
0.0
  0
LINE
  8
0
  6
CONTINUOUS
 62
     2
 10
49.0
 20
112.75
 30
0.0
 11
46.98776059
 21
114.233540548
 31
0.0
  0
LINE
  8
0
  6
CONTINUOUS
 62
     2
 10
49.0
 20
112.75
 30
0.0
 11
46.515579279
 21
113.028664098
 31
0.0
  0
LINE
  8
0
  6
CONTINUOUS
 62
     2
 10
49.0
 20
112.75
 30
0.0
 11
30.5
 21
120.0
 31
0.0
  0
LINE
  8
0
  6
CONTINUOUS
 62
     2
 10
36.625
 20
96.325
 30
0.0
 11
30.225
 21
96.325
 31
0.0
  0
TEXT
  8
0
  6
CONTINUOUS
 62
     2
 10
30.225
 20
97.325
 30
0.3
 40
3.0
  1
化粧枠
 50
0.0
 41
0.6
 51
0.0
  7
KANJI1
  0
LINE
  8
0
  6
CONTINUOUS
 62
     2
 10
44.9
 20
105.025
 30
0.0
 11
31.55
 21
105.025
 31
0.0
  0
LINE
  8
0
  6
CONTINUOUS
 62
     2
 10
46.5
 20
155.5
 30
0.0
 11
46.5
 21
167.8
 31
0.0
  0
LINE
  8
0
  6
CONTINUOUS
 62
     2
 10
61.5
 20
155.5
 30
0.0
 11
61.5
 21
167.8
 31
0.0
  0
TEXT
  8
0
  6
CONTINUOUS
 62
     2
 10
110.6
 20
22.825
 30
0.3
 40
3.0
  1
パネルカット
 50
0.0
 41
0.9
 51
0.0
  7
KANJI4
  0
LINE
  8
0
  6
CONTINUOUS
 62
     2
 10
109.1
 20
21.525
 30
0.0
 11
128.5
 21
21.525
 31
0.0
  0
LINE
  8
0
  6
CONTINUOUS
 62
     2
 10
157.5
 20
137.550002697
 30
0.0
 11
157.5
 21
172.045
 31
0.0
  0
LINE
  8
0
  6
CONTINUOUS
 62
     2
 10
152.5
 20
143.0
 30
0.0
 11
152.5
 21
172.045
 31
0.0
  0
TEXT
  8
0
  6
CONTINUOUS
 62
     2
 10
43.325
 20
91.925
 30
0.4
 40
3.0
  1
縦形　□Ｅｆ－１００Ｔ
 50
0.0
 41
0.6
 51
0.0
  7
KANJI5
  0
LINE
  8
0
  6
CONTINUOUS
 62
     2
 10
110.66
 20
163.8
 30
0.0
 11
102.56
 21
163.8
 31
0.0
  0
TEXT
  8
0
  6
CONTINUOUS
 62
     2
 10
102.56
 20
164.8
 30
0.3
 40
3.0
  1
取付金具
 50
0.0
 41
0.6
 51
0.0
  7
KANJI1
  0
LINE
  8
0
  6
CONTINUOUS
 62
     2
 10
114.96
 20
158.3
 30
0.0
 11
113.98241141
 21
160.600939058
 31
0.0
  0
LINE
  8
0
  6
CONTINUOUS
 62
     2
 10
114.96
 20
158.3
 30
0.0
 11
112.962913918
 21
159.803877382
 31
0.0
  0
LINE
  8
0
  6
CONTINUOUS
 62
     2
 10
114.96
 20
158.3
 30
0.0
 11
110.66
 21
163.8
 31
0.0
  0
LINE
  8
0
  6
CONTINUOUS
 62
     2
 10
157.5
 20
170.045
 30
0.0
 11
159.914814566
 21
169.397952387
 31
0.0
  0
LINE
  8
0
  6
CONTINUOUS
 62
     2
 10
157.5
 20
170.045
 30
0.0
 11
159.914814566
 21
170.692047613
 31
0.0
  0
TEXT
  8
0
  6
CONTINUOUS
 62
     2
 10
131.53
 20
171.045
 30
0.3
 40
3.0
  1
７２
 50
0.0
 41
0.6
 51
0.0
  7
KANJI1
  0
ARC
  8
0
  6
CONTINUOUS
 62
     2
 10
28.79
 20
52.28
 30
0.0
 40
0.5
 50
90.0
 51
180.0
  0
ARC
  8
0
  6
CONTINUOUS
 62
     2
 10
77.79
 20
52.28
 30
0.0
 40
0.5
 50
0.0
 51
90.0
  0
ARC
  8
0
  6
CONTINUOUS
 62
     2
 10
77.79
 20
35.78
 30
0.0
 40
0.5
 50
270.0
 51
0.0
  0
ARC
  8
0
  6
CONTINUOUS
 62
     2
 10
28.79
 20
35.78
 30
0.0
 40
0.5
 50
180.0
 51
270.0
  0
LINE
  8
0
  6
CONTINUOUS
 62
     2
 10
28.29
 20
35.78
 30
0.0
 11
28.29
 21
36.53
 31
0.0
  0
LINE
  8
0
  6
CONTINUOUS
 62
     2
 10
28.29
 20
51.53
 30
0.0
 11
28.29
 21
52.28
 31
0.0
  0
LINE
  8
0
  6
CONTINUOUS
 62
     2
 10
28.79
 20
52.78
 30
0.0
 11
77.79
 21
52.78
 31
0.0
  0
LINE
  8
0
  6
CONTINUOUS
 62
     2
 10
78.29
 20
52.28
 30
0.0
 11
78.29
 21
51.53
 31
0.0
  0
LINE
  8
0
  6
CONTINUOUS
 62
     2
 10
78.29
 20
36.53
 30
0.0
 11
78.29
 21
35.78
 31
0.0
  0
LINE
  8
0
  6
CONTINUOUS
 62
     2
 10
77.79
 20
35.28
 30
0.0
 11
28.79
 21
35.28
 31
0.0
  0
LINE
  8
0
  6
CONTINUOUS
 62
     2
 10
33.815
 20
36.48
 30
0.0
 11
33.815
 21
51.53
 31
0.0
  0
LINE
  8
0
  6
CONTINUOUS
 62
     2
 10
72.765
 20
36.5425
 30
0.0
 11
72.765
 21
51.4925
 31
0.0
  0
LINE
  8
0
  6
CONTINUOUS
 62
     2
 10
73.565
 20
51.53
 30
0.0
 11
73.565
 21
36.53
 31
0.0
  0
LINE
  8
0
  6
CONTINUOUS
 62
     2
 10
74.365
 20
36.53
 30
0.0
 11
74.365
 21
51.53
 31
0.0
  0
LINE
  8
0
  6
CONTINUOUS
 62
     2
 10
75.165
 20
51.53
 30
0.0
 11
75.165
 21
36.53
 31
0.0
  0
LINE
  8
0
  6
CONTINUOUS
 62
     2
 10
75.965
 20
36.53
 30
0.0
 11
75.965
 21
51.53
 31
0.0
  0
LINE
  8
0
  6
CONTINUOUS
 62
     2
 10
76.765
 20
51.53
 30
0.0
 11
76.765
 21
36.53
 31
0.0
  0
LINE
  8
0
  6
CONTINUOUS
 62
     2
 10
77.565
 20
36.53
 30
0.0
 11
77.565
 21
51.53
 31
0.0
  0
LINE
  8
0
  6
CONTINUOUS
 62
     2
 10
33.065
 20
51.53
 30
0.0
 11
33.065
 21
36.53
 31
0.0
  0
LINE
  8
0
  6
CONTINUOUS
 62
     2
 10
29.865
 20
51.5425
 30
0.0
 11
29.865
 21
36.53
 31
0.0
  0
LINE
  8
0
  6
CONTINUOUS
 62
     2
 10
29.065
 20
36.53
 30
0.0
 11
29.065
 21
51.53
 31
0.0
  0
CIRCLE
  8
0
  6
CONTINUOUS
 62
     2
 10
31.465
 20
44.03
 30
0.0
 40
1.325
  0
LINE
  8
0
  6
CONTINUOUS
 62
     2
 10
31.465
 20
42.73
 30
0.0
 11
31.465
 21
36.53
 31
0.0
  0
LINE
  8
0
  6
CONTINUOUS
 62
     2
 10
31.465
 20
51.53
 30
0.0
 11
31.465
 21
45.33
 31
0.0
  0
LINE
  8
0
  6
CONTINUOUS
 62
     2
 10
30.665
 20
45.08
 30
0.0
 11
30.665
 21
51.5425
 31
0.0
  0
LINE
  8
0
  6
CONTINUOUS
 62
     2
 10
30.665
 20
36.53
 30
0.0
 11
30.665
 21
43.03
 31
0.0
  0
LINE
  8
0
  6
CONTINUOUS
 62
     2
 10
32.265
 20
45.08
 30
0.0
 11
32.265
 21
51.53
 31
0.0
  0
LINE
  8
0
  6
CONTINUOUS
 62
     2
 10
32.265
 20
36.53
 30
0.0
 11
32.265
 21
42.98
 31
0.0
  0
LINE
  8
0
  6
CONTINUOUS
 62
     2
 10
32.765
 20
44.18
 30
0.0
 11
30.215
 21
44.18
 31
0.0
  0
LINE
  8
0
  6
CONTINUOUS
 62
     2
 10
30.215
 20
43.88
 30
0.0
 11
32.765
 21
43.88
 31
0.0
  0
LINE
  8
0
  6
CONTINUOUS
 62
     2
 10
33.865
 20
38.3175
 30
0.0
 11
72.765
 21
38.3175
 31
0.0
  0
LINE
  8
0
  6
CONTINUOUS
 62
     2
 10
72.765
 20
50.03
 30
0.0
 11
33.865
 21
50.03
 31
0.0
  0
LINE
  8
0
  6
CONTINUOUS
 62
     2
 10
72.26
 20
48.5
 30
0.0
 11
72.26
 21
38.32
 31
0.0
  0
LINE
  8
0
  6
CONTINUOUS
 62
     2
 10
72.26
 20
48.53
 30
0.0
 11
72.26
 21
50.01
 31
0.0
  0
LINE
  8
0
  6
CONTINUOUS
 62
     2
 10
34.315
 20
50.03
 30
0.0
 11
34.315
 21
38.33
 31
0.0
  0
LINE
  8
0
  6
CONTINUOUS
 62
     2
 10
37.99
 20
44.53
 30
0.0
 11
37.99
 21
46.03
 31
0.0
  0
LINE
  8
0
  6
CONTINUOUS
 62
     2
 10
41.39
 20
46.03
 30
0.0
 11
41.39
 21
44.53
 31
0.0
  0
LINE
  8
0
  6
CONTINUOUS
 62
     2
 10
44.79
 20
44.53
 30
0.0
 11
44.79
 21
46.03
 31
0.0
  0
LINE
  8
0
  6
CONTINUOUS
 62
     2
 10
48.19
 20
46.03
 30
0.0
 11
48.19
 21
44.53
 31
0.0
  0
LINE
  8
0
  6
CONTINUOUS
 62
     2
 10
51.59
 20
44.53
 30
0.0
 11
51.59
 21
46.03
 31
0.0
  0
LINE
  8
0
  6
CONTINUOUS
 62
     2
 10
54.99
 20
46.03
 30
0.0
 11
54.99
 21
44.53
 31
0.0
  0
LINE
  8
0
  6
CONTINUOUS
 62
     2
 10
58.39
 20
44.53
 30
0.0
 11
58.39
 21
46.03
 31
0.0
  0
LINE
  8
0
  6
CONTINUOUS
 62
     2
 10
61.79
 20
46.03
 30
0.0
 11
61.79
 21
44.53
 31
0.0
  0
LINE
  8
0
  6
CONTINUOUS
 62
     2
 10
65.19
 20
44.53
 30
0.0
 11
65.19
 21
46.03
 31
0.0
  0
LINE
  8
0
  6
CONTINUOUS
 62
     2
 10
68.59
 20
46.03
 30
0.0
 11
68.59
 21
44.53
 31
0.0
  0
TEXT
  8
0
  6
CONTINUOUS
 62
     2
 10
35.65
 20
42.05
 30
0.15
 40
1.5
  1
０
 50
0.0
 41
0.9
 51
0.0
  7
KANJI2
  0
TEXT
  8
0
  6
CONTINUOUS
 62
     2
 10
41.65
 20
42.15
 30
0.15
 40
1.5
  1
２０
 50
0.0
 41
0.9
 51
0.0
  7
KANJI2
  0
TEXT
  8
0
  6
CONTINUOUS
 62
     2
 10
48.55
 20
42.15
 30
0.15
 40
1.5
  1
４０
 50
0.0
 41
0.9
 51
0.0
  7
KANJI2
  0
TEXT
  8
0
  6
CONTINUOUS
 62
     2
 10
55.35
 20
42.05
 30
0.15
 40
1.5
  1
６０
 50
0.0
 41
0.9
 51
0.0
  7
KANJI2
  0
TEXT
  8
0
  6
CONTINUOUS
 62
     2
 10
62.15
 20
42.15
 30
0.15
 40
1.5
  1
８０
 50
0.0
 41
0.9
 51
0.0
  7
KANJI2
  0
TEXT
  8
0
  6
CONTINUOUS
 62
     2
 10
67.9
 20
42.05
 30
0.15
 40
1.5
  1
１００
 50
0.0
 41
0.9
 51
0.0
  7
KANJI2
  0
LINE
  8
0
  6
CONTINUOUS
 62
     2
 10
35.91
 20
49.27
 30
0.0
 11
37.359689109
 21
51.306762501
 31
0.0
  0
LINE
  8
0
  6
CONTINUOUS
 62
     2
 10
35.91
 20
49.27
 30
0.0
 11
36.147086346
 21
51.758732622
 31
0.0
  0
LINE
  8
0
  6
CONTINUOUS
 62
     2
 10
35.91
 20
49.27
 30
0.0
 11
40.01
 21
60.27
 31
0.0
  0
TEXT
  8
0
  6
CONTINUOUS
 62
     2
 10
40.01
 20
21.37
 30
0.2
 40
3.0
  1
横形　　Ｅｆ－１００Ｙ
 50
0.0
 41
0.75
 51
0.0
  7
KANJI6
  0
LINE
  8
0
  6
CONTINUOUS
 62
     2
 10
47.91
 20
21.47
 30
0.0
 11
49.21
 21
21.47
 31
0.0
  0
LINE
  8
0
  6
CONTINUOUS
 62
     2
 10
49.21
 20
21.47
 30
0.0
 11
49.21
 21
23.97
 31
0.0
  0
LINE
  8
0
  6
CONTINUOUS
 62
     2
 10
49.21
 20
23.97
 30
0.0
 11
47.91
 21
23.97
 31
0.0
  0
LINE
  8
0
  6
CONTINUOUS
 62
     2
 10
47.91
 20
23.97
 30
0.0
 11
47.91
 21
21.47
 31
0.0
  0
LINE
  8
0
  6
CONTINUOUS
 62
     2
 10
39.01
 20
20.77
 30
0.0
 11
67.01
 21
20.77
 31
0.0
  0
LINE
  8
0
  6
CONTINUOUS
 62
     2
 10
36.3
 20
44.9
 30
0.0
 11
36.9
 21
46.4
 31
0.0
  0
LINE
  8
0
  6
CONTINUOUS
 62
     2
 10
36.9
 20
46.4
 30
0.0
 11
36.9
 21
49.3
 31
0.0
  0
LINE
  8
0
  6
CONTINUOUS
 62
     2
 10
36.9
 20
49.3
 30
0.0
 11
35.7
 21
49.3
 31
0.0
  0
POINT
  8
0
  6
CONTINUOUS
 62
     2
 10
35.7
 20
49.3
 30
0.0
  0
LINE
  8
0
  6
CONTINUOUS
 62
     2
 10
35.7
 20
49.3
 30
0.0
 11
35.7
 21
46.4
 31
0.0
  0
LINE
  8
0
  6
CONTINUOUS
 62
     2
 10
35.7
 20
46.4
 30
0.0
 11
36.3
 21
44.9
 31
0.0
  0
LINE
  8
0
  6
CONTINUOUS
 62
     2
 10
33.865
 20
48.53
 30
0.0
 11
35.69
 21
48.53
 31
0.0
  0
LINE
  8
0
  6
CONTINUOUS
 62
     2
 10
36.89
 20
48.53
 30
0.0
 11
72.765
 21
48.53
 31
0.0
  0
LINE
  8
0
  6
CONTINUOUS
 62
     2
 10
53.1
 20
113.0
 30
0.0
 11
51.6
 21
113.6
 31
0.0
  0
LINE
  8
0
  6
CONTINUOUS
 62
     2
 10
51.6
 20
113.6
 30
0.0
 11
48.7
 21
113.6
 31
0.0
  0
LINE
  8
0
  6
CONTINUOUS
 62
     2
 10
48.7
 20
113.6
 30
0.0
 11
48.7
 21
112.4
 31
0.0
  0
POINT
  8
0
  6
CONTINUOUS
 62
     2
 10
48.7
 20
112.4
 30
0.0
  0
LINE
  8
0
  6
CONTINUOUS
 62
     2
 10
48.7
 20
112.4
 30
0.0
 11
51.6
 21
112.4
 31
0.0
  0
LINE
  8
0
  6
CONTINUOUS
 62
     2
 10
51.6
 20
112.4
 30
0.0
 11
53.1
 21
113.0
 31
0.0
  0
LINE
  8
0
  6
CONTINUOUS
 62
     2
 10
49.5
 20
110.575
 30
0.0
 11
49.5
 21
112.4
 31
0.0
  0
LINE
  8
0
  6
CONTINUOUS
 62
     2
 10
49.5
 20
113.7
 30
0.0
 11
49.5
 21
149.475
 31
0.0
  0
TEXT
  8
0
  6
CONTINUOUS
 62
     2
 10
16.9
 20
121.0
 30
0.6
 40
3.0
  1
平板用指針
 50
0.0
 41
0.6
 51
0.0
  7
KANJI7
  0
LINE
  8
0
  6
CONTINUOUS
 62
     2
 10
30.5
 20
120.0
 30
0.0
 11
16.2
 21
120.0
 31
0.0
  0
LINE
  8
0
  6
CONTINUOUS
 62
     2
 10
40.01
 20
60.27
 30
0.0
 11
54.01
 21
60.27
 31
0.0
  0
TEXT
  8
0
  6
CONTINUOUS
 62
     2
 10
40.7
 20
60.9
 30
0.2
 40
3.0
  1
平板用指針
 50
0.0
 41
0.766666667
 51
0.0
  7
KANJI8
  0
TEXT
  8
0
  6
CONTINUOUS
 62
     2
 10
140.46
 20
88.97
 30
0.1
 40
3.0
  1
注）１，（　）内寸法は，ＡＥｆ－１００形シールドケース付の場合を示します。
 50
0.0
 41
0.666666667
 51
0.0
  7
KANJI9
  0
TEXT
  8
0
  6
CONTINUOUS
 62
     2
 10
144.46
 20
83.27
 30
0.1
 40
3.0
  1
２，連結の場合は下記による。
 50
0.0
 41
0.666666667
 51
0.0
  7
KANJI9
  0
TEXT
  8
0
  6
CONTINUOUS
 62
     2
 10
150.46
 20
71.97
 30
0.3
 40
3.0
  1
２連結
 50
0.0
 41
0.9
 51
0.0
  7
KANJI4
  0
TEXT
  8
0
  6
CONTINUOUS
 62
     2
 10
150.46
 20
66.97
 30
0.3
 40
3.0
  1
３連結
 50
0.0
 41
0.9
 51
0.0
  7
KANJI4
  0
TEXT
  8
0
  6
CONTINUOUS
 62
     2
 10
150.46
 20
61.97
 30
0.3
 40
3.0
  1
Ｎ連結
 50
0.0
 41
0.9
 51
0.0
  7
KANJI4
  0
LINE
  8
0
  6
CONTINUOUS
 62
     2
 10
160.46
 20
80.97
 30
0.0
 11
160.46
 21
60.97
 31
0.0
  0
TEXT
  8
0
  6
CONTINUOUS
 62
     2
 10
161.46
 20
61.97
 30
0.3
 40
3.0
  1
（３０．１５×Ｎ）＋１．５
 50
0.0
 41
0.9
 51
0.0
  7
KANJI4
  0
LINE
  8
0
  6
CONTINUOUS
 62
     2
 10
186.46
 20
80.97
 30
0.0
 11
186.46
 21
60.97
 31
0.0
  0
TEXT
  8
0
  6
CONTINUOUS
 62
     2
 10
187.46
 20
76.97
 30
0.3
 40
3.0
  1
ＡＥｆ－１００Ｙ
 50
0.0
 41
0.9
 51
0.0
  7
KANJI4
  0
LINE
  8
0
  6
CONTINUOUS
 62
     2
 10
149.46
 20
80.97
 30
0.0
 11
212.46
 21
80.97
 31
0.0
  0
LINE
  8
0
  6
CONTINUOUS
 62
     2
 10
149.46
 20
75.97
 30
0.0
 11
212.46
 21
75.97
 31
0.0
  0
LINE
  8
0
  6
CONTINUOUS
 62
     2
 10
149.46
 20
70.97
 30
0.0
 11
212.46
 21
70.97
 31
0.0
  0
LINE
  8
0
  6
CONTINUOUS
 62
     2
 10
149.46
 20
65.97
 30
0.0
 11
212.46
 21
65.97
 31
0.0
  0
LINE
  8
0
  6
CONTINUOUS
 62
     2
 10
149.46
 20
60.97
 30
0.0
 11
212.46
 21
60.97
 31
0.0
  0
TEXT
  8
0
  6
CONTINUOUS
 62
     2
 10
163.46
 20
76.97
 30
0.3
 40
3.0
  1
右記以外の計器
 50
0.0
 41
0.9
 51
0.0
  7
KANJI4
  0
TEXT
  8
0
  6
CONTINUOUS
 62
     2
 10
167.46
 20
71.97
 30
0.3
 40
3.0
  1
６１．５
 50
0.0
 41
0.45
 51
0.0
  7
KANJI10
  0
TEXT
  8
0
  6
CONTINUOUS
 62
     2
 10
174.81
 20
71.97
 30
0.18
 40
1.8
  1
－０
 50
0.0
 41
0.6
 51
0.0
  7
KANJI3
  0
TEXT
  8
0
  6
CONTINUOUS
 62
     2
 10
174.81
 20
73.77
 30
0.18
 40
1.8
  1
＋０．５
 50
0.0
 41
0.6
 51
0.0
  7
KANJI3
  0
TEXT
  8
0
  6
CONTINUOUS
 62
     2
 10
169.46
 20
66.97
 30
0.3
 40
3.0
  1
９２
 50
0.0
 41
0.45
 51
0.0
  7
KANJI10
  0
TEXT
  8
0
  6
CONTINUOUS
 62
     2
 10
173.31
 20
66.97
 30
0.18
 40
1.8
  1
－０
 50
0.0
 41
0.6
 51
0.0
  7
KANJI3
  0
TEXT
  8
0
  6
CONTINUOUS
 62
     2
 10
173.31
 20
68.77
 30
0.18
 40
1.8
  1
＋０．５
 50
0.0
 41
0.6
 51
0.0
  7
KANJI3
  0
TEXT
  8
0
  6
CONTINUOUS
 62
     2
 10
199.31
 20
71.97
 30
0.18
 40
1.8
  1
－０
 50
0.0
 41
0.6
 51
0.0
  7
KANJI3
  0
TEXT
  8
0
  6
CONTINUOUS
 62
     2
 10
199.31
 20
73.77
 30
0.18
 40
1.8
  1
＋０．５
 50
0.0
 41
0.6
 51
0.0
  7
KANJI3
  0
TEXT
  8
0
  6
CONTINUOUS
 62
     2
 10
200.81
 20
66.97
 30
0.18
 40
1.8
  1
－０
 50
0.0
 41
0.6
 51
0.0
  7
KANJI3
  0
TEXT
  8
0
  6
CONTINUOUS
 62
     2
 10
200.81
 20
68.77
 30
0.18
 40
1.8
  1
＋０．５
 50
0.0
 41
0.6
 51
0.0
  7
KANJI3
  0
TEXT
  8
0
  6
CONTINUOUS
 62
     2
 10
195.46
 20
71.97
 30
0.3
 40
3.0
  1
６５
 50
0.0
 41
0.45
 51
0.0
  7
KANJI10
  0
TEXT
  8
0
  6
CONTINUOUS
 62
     2
 10
193.46
 20
66.97
 30
0.3
 40
3.0
  1
９７．５
 50
0.0
 41
0.45
 51
0.0
  7
KANJI10
  0
TEXT
  8
0
  6
CONTINUOUS
 62
     2
 10
194.46
 20
61.97
 30
0.3
 40
3.0
  1
３２．５×Ｎ
 50
0.0
 41
0.9
 51
0.0
  7
KANJI4
  0
TEXT
  8
0
  6
CONTINUOUS
 62
     2
 10
111.76
 20
84.47
 30
0.1
 40
2.8
  1
（３１．８　　）
 50
0.0
 41
0.714285714
 51
0.0
  7
KANJI11
  0
TEXT
  8
0
  6
CONTINUOUS
 62
     2
 10
121.424
 20
85.95
 30
0.144
 40
1.44
  1
＋０．５
 50
0.0
 41
0.6
 51
0.0
  7
KANJI12
  0
TEXT
  8
0
  6
CONTINUOUS
 62
     2
 10
121.424
 20
84.51
 30
0.144
 40
1.44
  1
－０
 50
0.0
 41
0.6
 51
0.0
  7
KANJI12
  0
TEXT
  8
0
  6
CONTINUOUS
 62
     2
 10
114.715
 20
89.495
 30
0.3
 40
3.0
  1
３１
 50
0.0
 41
0.6
 51
0.0
  7
KANJI1
  0
TEXT
  8
0
  6
CONTINUOUS
 62
     2
 10
119.065
 20
89.495
 30
0.18
 40
1.8
  1
－０
 50
0.0
 41
0.6
 51
0.0
  7
KANJI3
  0
TEXT
  8
0
  6
CONTINUOUS
 62
     2
 10
119.065
 20
91.295
 30
0.18
 40
1.8
  1
＋０．５
 50
0.0
 41
0.6
 51
0.0
  7
KANJI3
  0
TEXT
  8
0
  6
CONTINUOUS
 62
     2
 10
114.715
 20
93.495
 30
0.3
 40
3.0
  1
注２
 50
0.0
 41
0.6
 51
0.0
  7
KANJI1
  0
TEXT
  8
0
  6
CONTINUOUS
 62
     2
 10
113.715
 20
80.495
 30
0.3
 40
3.0
  1
注１
 50
0.0
 41
0.6
 51
0.0
  7
KANJI1
  0
LINE
  8
0
  6
CONTINUOUS
 62
     1
 10
183.86
 20
130.0
 30
0.0
 11
183.86
 21
154.0
 31
0.0
  0
LINE
  8
0
  6
CONTINUOUS
 62
     1
 10
183.86
 20
154.0
 30
0.0
 11
188.86
 21
154.0
 31
0.0
  0
LINE
  8
0
  6
CONTINUOUS
 62
     1
 10
198.86
 20
154.0
 30
0.0
 11
198.86
 21
130.0
 31
0.0
  0
LINE
  8
0
  6
CONTINUOUS
 62
     1
 10
198.86
 20
154.0
 30
0.0
 11
193.86
 21
154.0
 31
0.0
  0
ARC
  8
0
  6
CONTINUOUS
 62
     1
 10
183.86
 20
154.025
 30
0.0
 40
1.0
 50
90.0
 51
180.0
  0
ARC
  8
0
  6
CONTINUOUS
 62
     1
 10
198.86
 20
154.0
 30
0.0
 40
1.0
 50
0.0
 51
90.0
  0
LINE
  8
0
  6
CONTINUOUS
 62
     1
 10
198.86
 20
155.0
 30
0.0
 11
193.86
 21
155.0
 31
0.0
  0
LINE
  8
0
  6
CONTINUOUS
 62
     1
 10
188.86
 20
155.0
 30
0.0
 11
183.86
 21
155.025
 31
0.0
  0
LINE
  8
0
  6
CONTINUOUS
 62
     1
 10
182.91
 20
154.0372499
 30
0.0
 11
182.91
 21
129.9872499
 31
0.0
  0
LINE
  8
0
  6
CONTINUOUS
 62
     1
 10
199.86
 20
154.0
 30
0.0
 11
199.86
 21
130.0122499
 31
0.0
  0
POINT
  8
0
  6
CONTINUOUS
 62
     1
 10
183.8625
 20
145.95
 30
0.0
  0
LINE
  8
0
  6
CONTINUOUS
 62
     1
 10
183.8625
 20
142.5
 30
0.0
 11
198.8625
 21
142.5
 31
0.0
  0
LINE
  8
0
  6
CONTINUOUS
 62
     1
 10
198.8625
 20
132.65
 30
0.0
 11
183.8625
 21
132.65
 31
0.0
  0
CIRCLE
  8
0
  6
CONTINUOUS
 62
     1
 10
191.36
 20
136.25
 30
0.0
 40
1.675
  0
LINE
  8
0
  6
CONTINUOUS
 62
     1
 10
183.86
 20
130.0
 30
0.0
 11
183.86
 21
106.0
 31
0.0
  0
LINE
  8
0
  6
CONTINUOUS
 62
     1
 10
183.86
 20
106.0
 30
0.0
 11
188.86
 21
106.0
 31
0.0
  0
LINE
  8
0
  6
CONTINUOUS
 62
     1
 10
198.86
 20
106.0
 30
0.0
 11
198.86
 21
130.0
 31
0.0
  0
LINE
  8
0
  6
CONTINUOUS
 62
     1
 10
198.86
 20
106.0
 30
0.0
 11
193.86
 21
106.0
 31
0.0
  0
ARC
  8
0
  6
CONTINUOUS
 62
     1
 10
183.86
 20
105.975
 30
0.0
 40
1.0
 50
180.0
 51
270.0
  0
ARC
  8
0
  6
CONTINUOUS
 62
     1
 10
198.86
 20
106.0
 30
0.0
 40
1.0
 50
270.0
 51
0.0
  0
LINE
  8
0
  6
CONTINUOUS
 62
     1
 10
198.86
 20
105.0
 30
0.0
 11
193.86
 21
105.0
 31
0.0
  0
LINE
  8
0
  6
CONTINUOUS
 62
     1
 10
188.86
 20
105.0
 30
0.0
 11
183.86
 21
104.975
 31
0.0
  0
LINE
  8
0
  6
CONTINUOUS
 62
     1
 10
182.91
 20
105.9627501
 30
0.0
 11
182.91
 21
130.0127501
 31
0.0
  0
LINE
  8
0
  6
CONTINUOUS
 62
     1
 10
199.86
 20
106.0
 30
0.0
 11
199.86
 21
129.9877501
 31
0.0
  0
POINT
  8
0
  6
CONTINUOUS
 62
     1
 10
183.8625
 20
114.05
 30
0.0
  0
LINE
  8
0
  6
CONTINUOUS
 62
     1
 10
183.8625
 20
114.05
 30
0.0
 11
198.8625
 21
114.05
 31
0.0
  0
LINE
  8
0
  6
CONTINUOUS
 62
     1
 10
183.8625
 20
117.5
 30
0.0
 11
198.8625
 21
117.5
 31
0.0
  0
LINE
  8
0
  6
CONTINUOUS
 62
     1
 10
198.8625
 20
127.35
 30
0.0
 11
183.8625
 21
127.35
 31
0.0
  0
CIRCLE
  8
0
  6
CONTINUOUS
 62
     1
 10
191.36
 20
123.75
 30
0.0
 40
1.675
  0
CIRCLE
  8
0
  6
CONTINUOUS
 62
     2
 10
196.3625
 20
150.0
 30
0.0
 40
1.25
  0
CIRCLE
  8
0
  6
CONTINUOUS
 62
     2
 10
196.3625
 20
150.0
 30
0.0
 40
0.625
  0
CIRCLE
  8
0
  6
CONTINUOUS
 62
     2
 10
186.3625
 20
150.0
 30
0.0
 40
0.625
  0
CIRCLE
  8
0
  6
CONTINUOUS
 62
     2
 10
186.3625
 20
150.0
 30
0.0
 40
1.25
  0
LINE
  8
0
  6
CONTINUOUS
 62
     2
 10
188.8125
 20
152.5
 30
0.0
 11
183.8625
 21
152.5
 31
0.0
  0
LINE
  8
0
  6
CONTINUOUS
 62
     2
 10
193.8625
 20
152.5
 30
0.0
 11
198.8625
 21
152.5
 31
0.0
  0
ARC
  8
0
  6
CONTINUOUS
 62
     2
 10
191.89
 20
136.87
 30
0.0
 40
0.35
 50
180.0
 51
270.0
  0
ARC
  8
0
  6
CONTINUOUS
 62
     2
 10
191.89
 20
135.67
 30
0.0
 40
0.35
 50
90.0
 51
180.0
  0
ARC
  8
0
  6
CONTINUOUS
 62
     2
 10
190.83
 20
135.67
 30
0.0
 40
0.35
 50
0.0
 51
90.0
  0
ARC
  8
0
  6
CONTINUOUS
 62
     2
 10
190.83
 20
136.89
 30
0.0
 40
0.35
 50
270.0
 51
0.0
  0
LINE
  8
0
  6
CONTINUOUS
 62
     2
 10
190.83
 20
136.54
 30
0.0
 11
189.706904419
 21
136.52
 31
0.0
  0
LINE
  8
0
  6
CONTINUOUS
 62
     2
 10
189.706904419
 20
136.0
 30
0.0
 11
190.83
 21
136.02
 31
0.0
  0
LINE
  8
0
  6
CONTINUOUS
 62
     2
 10
191.18
 20
135.67
 30
0.0
 11
191.18
 21
135.3
 31
0.0
  0
LINE
  8
0
  6
CONTINUOUS
 62
     2
 10
191.18
 20
135.3
 30
0.0
 11
191.55
 21
135.3
 31
0.0
  0
LINE
  8
0
  6
CONTINUOUS
 62
     2
 10
191.55
 20
135.31
 30
0.0
 11
191.54
 21
135.67
 31
0.0
  0
LINE
  8
0
  6
CONTINUOUS
 62
     2
 10
191.89
 20
136.02
 30
0.0
 11
192.98
 21
136.02
 31
0.0
  0
LINE
  8
0
  6
CONTINUOUS
 62
     2
 10
192.98
 20
136.54
 30
0.0
 11
191.89
 21
136.54
 31
0.0
  0
LINE
  8
0
  6
CONTINUOUS
 62
     2
 10
191.54
 20
136.87
 30
0.0
 11
191.54
 21
137.21
 31
0.0
  0
LINE
  8
0
  6
CONTINUOUS
 62
     2
 10
191.54
 20
137.21
 30
0.0
 11
191.18
 21
137.21
 31
0.0
  0
LINE
  8
0
  6
CONTINUOUS
 62
     2
 10
191.18
 20
137.21
 30
0.0
 11
191.18
 21
136.89
 31
0.0
  0
CIRCLE
  8
0
  6
CONTINUOUS
 62
     2
 10
196.3625
 20
110.0
 30
0.0
 40
1.25
  0
CIRCLE
  8
0
  6
CONTINUOUS
 62
     2
 10
196.3625
 20
110.0
 30
0.0
 40
0.625
  0
CIRCLE
  8
0
  6
CONTINUOUS
 62
     2
 10
186.3625
 20
110.0
 30
0.0
 40
0.625
  0
CIRCLE
  8
0
  6
CONTINUOUS
 62
     2
 10
186.3625
 20
110.0
 30
0.0
 40
1.25
  0
LINE
  8
0
  6
CONTINUOUS
 62
     2
 10
188.8125
 20
107.5
 30
0.0
 11
183.8625
 21
107.5
 31
0.0
  0
LINE
  8
0
  6
CONTINUOUS
 62
     2
 10
193.8625
 20
107.5
 30
0.0
 11
198.8625
 21
107.5
 31
0.0
  0
ARC
  8
0
  6
CONTINUOUS
 62
     2
 10
191.89
 20
123.13
 30
0.0
 40
0.35
 50
90.0
 51
180.0
  0
ARC
  8
0
  6
CONTINUOUS
 62
     2
 10
191.89
 20
124.33
 30
0.0
 40
0.35
 50
180.0
 51
270.0
  0
ARC
  8
0
  6
CONTINUOUS
 62
     2
 10
190.83
 20
124.33
 30
0.0
 40
0.35
 50
270.0
 51
0.0
  0
ARC
  8
0
  6
CONTINUOUS
 62
     2
 10
190.83
 20
123.11
 30
0.0
 40
0.35
 50
0.0
 51
90.0
  0
LINE
  8
0
  6
CONTINUOUS
 62
     2
 10
190.83
 20
123.46
 30
0.0
 11
189.706904419
 21
123.48
 31
0.0
  0
LINE
  8
0
  6
CONTINUOUS
 62
     2
 10
189.706904419
 20
124.0
 30
0.0
 11
190.83
 21
123.98
 31
0.0
  0
LINE
  8
0
  6
CONTINUOUS
 62
     2
 10
191.18
 20
124.33
 30
0.0
 11
191.18
 21
124.7
 31
0.0
  0
LINE
  8
0
  6
CONTINUOUS
 62
     2
 10
191.18
 20
124.7
 30
0.0
 11
191.55
 21
124.7
 31
0.0
  0
LINE
  8
0
  6
CONTINUOUS
 62
     2
 10
191.55
 20
124.69
 30
0.0
 11
191.54
 21
124.33
 31
0.0
  0
LINE
  8
0
  6
CONTINUOUS
 62
     2
 10
191.89
 20
123.98
 30
0.0
 11
192.98
 21
123.98
 31
0.0
  0
LINE
  8
0
  6
CONTINUOUS
 62
     2
 10
192.98
 20
123.46
 30
0.0
 11
191.89
 21
123.46
 31
0.0
  0
LINE
  8
0
  6
CONTINUOUS
 62
     2
 10
191.54
 20
123.13
 30
0.0
 11
191.54
 21
122.79
 31
0.0
  0
LINE
  8
0
  6
CONTINUOUS
 62
     2
 10
191.54
 20
122.79
 30
0.0
 11
191.18
 21
122.79
 31
0.0
  0
LINE
  8
0
  6
CONTINUOUS
 62
     2
 10
191.18
 20
122.79
 30
0.0
 11
191.18
 21
123.11
 31
0.0
  0
TEXT
  8
0
  6
CONTINUOUS
 62
     2
 10
194.2
 20
134.78
 30
0.3
 40
3.0
  1
＋
 50
0.0
 41
0.9
 51
0.0
  7
KANJI4
  0
CIRCLE
  8
0
  6
CONTINUOUS
 62
     2
 10
195.46
 20
136.27
 30
0.0
 40
1.675
  0
LINE
  8
0
  6
CONTINUOUS
 62
     2
 10
189.5225
 20
136.25
 30
0.0
 11
176.7225
 21
136.25
 31
0.0
  0
LINE
  8
0
  6
CONTINUOUS
 62
     2
 10
178.7225
 20
136.25
 30
0.0
 11
178.075452387
 21
133.835185434
 31
0.0
  0
LINE
  8
0
  6
CONTINUOUS
 62
     2
 10
178.7225
 20
136.25
 30
0.0
 11
179.369547613
 21
133.835185434
 31
0.0
  0
LINE
  8
0
  6
CONTINUOUS
 62
     2
 10
178.7225
 20
136.25
 30
0.0
 11
178.7225
 21
123.75
 31
0.0
  0
LINE
  8
0
  6
CONTINUOUS
 62
     2
 10
178.7225
 20
123.75
 30
0.0
 11
179.369547613
 21
126.164814566
 31
0.0
  0
LINE
  8
0
  6
CONTINUOUS
 62
     2
 10
178.7225
 20
123.75
 30
0.0
 11
178.075452387
 21
126.164814566
 31
0.0
  0
LINE
  8
0
  6
CONTINUOUS
 62
     2
 10
189.5225
 20
123.75
 30
0.0
 11
176.7225
 21
123.75
 31
0.0
  0
TEXT
  8
0
  6
CONTINUOUS
 62
     2
 10
177.7225
 20
128.05
 30
0.3
 40
3.0
  1
２５
 50
90.0
 41
0.6
 51
0.0
  7
KANJI1
  0
LINE
  8
0
  6
CONTINUOUS
 62
     2
 10
200.185
 20
106.0
 30
0.0
 11
215.485
 21
106.0
 31
0.0
  0
LINE
  8
0
  6
CONTINUOUS
 62
     2
 10
213.485
 20
106.0
 30
0.0
 11
214.132047613
 21
108.414814566
 31
0.0
  0
LINE
  8
0
  6
CONTINUOUS
 62
     2
 10
213.485
 20
106.0
 30
0.0
 11
212.837952387
 21
108.414814566
 31
0.0
  0
LINE
  8
0
  6
CONTINUOUS
 62
     2
 10
213.485
 20
106.0
 30
0.0
 11
213.485
 21
154.0
 31
0.0
  0
LINE
  8
0
  6
CONTINUOUS
 62
     2
 10
213.485
 20
154.0
 30
0.0
 11
212.837952387
 21
151.585185434
 31
0.0
  0
LINE
  8
0
  6
CONTINUOUS
 62
     2
 10
213.485
 20
154.0
 30
0.0
 11
214.132047613
 21
151.585185434
 31
0.0
  0
LINE
  8
0
  6
CONTINUOUS
 62
     2
 10
200.06
 20
154.0
 30
0.0
 11
215.485
 21
154.0
 31
0.0
  0
TEXT
  8
0
  6
CONTINUOUS
 62
     2
 10
212.485
 20
126.25
 30
0.3
 40
3.0
  1
９６
 50
90.0
 41
0.6
 51
0.0
  7
KANJI1
  0
TEXT
  8
0
  6
CONTINUOUS
 62
     2
 10
210.685
 20
130.15
 30
0.18
 40
1.8
  1
＋０．５
 50
90.0
 41
0.6
 51
0.0
  7
KANJI3
  0
TEXT
  8
0
  6
CONTINUOUS
 62
     2
 10
212.485
 20
130.15
 30
0.18
 40
1.8
  1
－０
 50
90.0
 41
0.6
 51
0.0
  7
KANJI3
  0
LINE
  8
0
  6
CONTINUOUS
 62
     2
 10
183.86
 20
155.35
 30
0.0
 11
183.86
 21
172.05
 31
0.0
  0
LINE
  8
0
  6
CONTINUOUS
 62
     2
 10
183.86
 20
170.05
 30
0.0
 11
186.274814566
 21
169.402952387
 31
0.0
  0
LINE
  8
0
  6
CONTINUOUS
 62
     2
 10
183.86
 20
170.05
 30
0.0
 11
186.274814566
 21
170.697047613
 31
0.0
  0
LINE
  8
0
  6
CONTINUOUS
 62
     2
 10
183.86
 20
170.05
 30
0.0
 11
198.86
 21
170.05
 31
0.0
  0
LINE
  8
0
  6
CONTINUOUS
 62
     2
 10
198.86
 20
170.05
 30
0.0
 11
196.445185434
 21
170.697047613
 31
0.0
  0
LINE
  8
0
  6
CONTINUOUS
 62
     2
 10
198.86
 20
170.05
 30
0.0
 11
196.445185434
 21
169.402952387
 31
0.0
  0
LINE
  8
0
  6
CONTINUOUS
 62
     2
 10
198.86
 20
155.35
 30
0.0
 11
198.86
 21
172.05
 31
0.0
  0
TEXT
  8
0
  6
CONTINUOUS
 62
     2
 10
189.41
 20
171.05
 30
0.3
 40
3.0
  1
３０
 50
0.0
 41
0.6
 51
0.0
  7
KANJI1
  0
LINE
  8
0
  6
CONTINUOUS
 62
     2
 10
183.9275
 20
147.37
 30
0.0
 11
188.8275
 21
147.37
 31
0.0
  0
LINE
  8
0
  6
CONTINUOUS
 62
     2
 10
193.9275
 20
147.37
 30
0.0
 11
198.6275
 21
147.37
 31
0.0
  0
LINE
  8
0
  6
CONTINUOUS
 62
     2
 10
183.9275
 20
112.67
 30
0.0
 11
188.7275
 21
112.67
 31
0.0
  0
LINE
  8
0
  6
CONTINUOUS
 62
     2
 10
193.8275
 20
112.67
 30
0.0
 11
198.6275
 21
112.67
 31
0.0
  0
LINE
  8
0
  6
CONTINUOUS
 62
     2
 10
197.16
 20
137.52
 30
0.0
 11
198.679335893
 21
139.505350962
 31
0.0
  0
LINE
  8
0
  6
CONTINUOUS
 62
     2
 10
197.16
 20
137.52
 30
0.0
 11
197.483107999
 21
139.999032315
 31
0.0
  0
LINE
  8
0
  6
CONTINUOUS
 62
     1
 10
193.008005446
 20
145.95
 30
0.0
 11
198.8625
 21
145.95
 31
0.0
  0
TEXT
  8
0
  6
CONTINUOUS
 62
     2
 10
212.16
 20
170.02
 30
0.3
 40
3.0
  1
ＤＥｆ－１００□Ｅ形のみ　　表示します
 50
0.0
 41
0.9
 51
0.0
  7
KANJI4
  0
LINE
  8
0
  6
CONTINUOUS
 62
     2
 10
210.16
 20
169.02
 30
0.0
 11
267.46
 21
169.02
 31
0.0
  0
LINE
  8
0
  6
CONTINUOUS
 62
     2
 10
197.16
 20
137.52
 30
0.0
 11
210.16
 21
169.02
 31
0.0
  0
LINE
  8
0
  6
CONTINUOUS
 62
     1
 10
188.85
 20
146.495
 30
0.0
 11
193.85
 21
146.495
 31
0.0
  0
CIRCLE
  8
0
  6
CONTINUOUS
 62
     2
 10
191.35
 20
149.995
 30
0.0
 40
1.5
  0
LINE
  8
0
  6
CONTINUOUS
 62
     2
 10
190.475
 20
149.795
 30
0.0
 11
190.95
 21
149.795
 31
0.0
  0
ARC
  8
0
  6
CONTINUOUS
 62
     2
 10
190.95
 20
149.595
 30
0.0
 40
0.2
 50
0.0
 51
90.0
  0
LINE
  8
0
  6
CONTINUOUS
 62
     2
 10
191.15
 20
149.595
 30
0.0
 11
191.15
 21
149.12
 31
0.0
  0
LINE
  8
0
  6
CONTINUOUS
 62
     2
 10
191.15
 20
149.12
 30
0.0
 11
191.55
 21
149.12
 31
0.0
  0
LINE
  8
0
  6
CONTINUOUS
 62
     2
 10
191.55
 20
149.12
 30
0.0
 11
191.55
 21
149.595
 31
0.0
  0
ARC
  8
0
  6
CONTINUOUS
 62
     2
 10
191.75
 20
149.595
 30
0.0
 40
0.2
 50
90.0
 51
180.0
  0
LINE
  8
0
  6
CONTINUOUS
 62
     2
 10
191.75
 20
149.795
 30
0.0
 11
192.225
 21
149.795
 31
0.0
  0
LINE
  8
0
  6
CONTINUOUS
 62
     2
 10
192.225
 20
149.795
 30
0.0
 11
192.225
 21
150.195
 31
0.0
  0
LINE
  8
0
  6
CONTINUOUS
 62
     2
 10
192.225
 20
150.195
 30
0.0
 11
191.75
 21
150.195
 31
0.0
  0
ARC
  8
0
  6
CONTINUOUS
 62
     2
 10
191.75
 20
150.395
 30
0.0
 40
0.2
 50
180.0
 51
270.0
  0
LINE
  8
0
  6
CONTINUOUS
 62
     2
 10
191.55
 20
150.395
 30
0.0
 11
191.55
 21
150.87
 31
0.0
  0
LINE
  8
0
  6
CONTINUOUS
 62
     2
 10
191.55
 20
150.87
 30
0.0
 11
191.15
 21
150.87
 31
0.0
  0
LINE
  8
0
  6
CONTINUOUS
 62
     2
 10
191.15
 20
150.87
 30
0.0
 11
191.15
 21
150.395
 31
0.0
  0
ARC
  8
0
  6
CONTINUOUS
 62
     2
 10
190.95
 20
150.395
 30
0.0
 40
0.2
 50
270.0
 51
0.0
  0
LINE
  8
0
  6
CONTINUOUS
 62
     2
 10
190.95
 20
150.195
 30
0.0
 11
190.475
 21
150.195
 31
0.0
  0
LINE
  8
0
  6
CONTINUOUS
 62
     2
 10
190.475
 20
150.195
 30
0.0
 11
190.475
 21
149.795
 31
0.0
  0
LINE
  8
0
  6
LTYPE1
 62
     2
 10
191.35
 20
147.995
 30
0.0
 11
191.35
 21
151.995
 31
0.0
  0
CIRCLE
  8
0
  6
CONTINUOUS
 62
     2
 10
191.35
 20
155.495
 30
0.0
 40
1.5
  0
LINE
  8
0
  6
CONTINUOUS
 62
     2
 10
190.475
 20
155.295
 30
0.0
 11
190.95
 21
155.295
 31
0.0
  0
ARC
  8
0
  6
CONTINUOUS
 62
     2
 10
190.95
 20
155.095
 30
0.0
 40
0.2
 50
0.0
 51
90.0
  0
LINE
  8
0
  6
CONTINUOUS
 62
     2
 10
191.15
 20
155.095
 30
0.0
 11
191.15
 21
154.62
 31
0.0
  0
LINE
  8
0
  6
CONTINUOUS
 62
     2
 10
191.15
 20
154.62
 30
0.0
 11
191.55
 21
154.62
 31
0.0
  0
LINE
  8
0
  6
CONTINUOUS
 62
     2
 10
191.55
 20
154.62
 30
0.0
 11
191.55
 21
155.095
 31
0.0
  0
ARC
  8
0
  6
CONTINUOUS
 62
     2
 10
191.75
 20
155.095
 30
0.0
 40
0.2
 50
90.0
 51
180.0
  0
LINE
  8
0
  6
CONTINUOUS
 62
     2
 10
191.75
 20
155.295
 30
0.0
 11
192.225
 21
155.295
 31
0.0
  0
LINE
  8
0
  6
CONTINUOUS
 62
     2
 10
192.225
 20
155.295
 30
0.0
 11
192.225
 21
155.695
 31
0.0
  0
LINE
  8
0
  6
CONTINUOUS
 62
     2
 10
192.225
 20
155.695
 30
0.0
 11
191.75
 21
155.695
 31
0.0
  0
ARC
  8
0
  6
CONTINUOUS
 62
     2
 10
191.75
 20
155.895
 30
0.0
 40
0.2
 50
180.0
 51
270.0
  0
LINE
  8
0
  6
CONTINUOUS
 62
     2
 10
191.55
 20
155.895
 30
0.0
 11
191.55
 21
156.37
 31
0.0
  0
LINE
  8
0
  6
CONTINUOUS
 62
     2
 10
191.55
 20
156.37
 30
0.0
 11
191.15
 21
156.37
 31
0.0
  0
LINE
  8
0
  6
CONTINUOUS
 62
     2
 10
191.15
 20
156.37
 30
0.0
 11
191.15
 21
155.895
 31
0.0
  0
ARC
  8
0
  6
CONTINUOUS
 62
     2
 10
190.95
 20
155.895
 30
0.0
 40
0.2
 50
270.0
 51
0.0
  0
LINE
  8
0
  6
CONTINUOUS
 62
     2
 10
190.95
 20
155.695
 30
0.0
 11
190.475
 21
155.695
 31
0.0
  0
LINE
  8
0
  6
CONTINUOUS
 62
     2
 10
190.475
 20
155.695
 30
0.0
 11
190.475
 21
155.295
 31
0.0
  0
LINE
  8
0
  6
LTYPE1
 62
     2
 10
189.35
 20
155.495
 30
0.0
 11
193.35
 21
155.495
 31
0.0
  0
LINE
  8
0
  6
LTYPE1
 62
     2
 10
191.35
 20
153.495
 30
0.0
 11
191.35
 21
157.495
 31
0.0
  0
LINE
  8
0
  6
CONTINUOUS
 62
     1
 10
193.85
 20
113.5
 30
0.0
 11
188.85
 21
113.5
 31
0.0
  0
LINE
  8
0
  6
CONTINUOUS
 62
     1
 10
188.85
 20
113.5
 30
0.0
 11
188.85
 21
102.0
 31
0.0
  0
LINE
  8
0
  6
CONTINUOUS
 62
     1
 10
193.85
 20
102.0
 30
0.0
 11
193.85
 21
113.5
 31
0.0
  0
CIRCLE
  8
0
  6
CONTINUOUS
 62
     2
 10
191.35
 20
110.0
 30
0.0
 40
1.5
  0
LINE
  8
0
  6
CONTINUOUS
 62
     2
 10
192.225
 20
110.2
 30
0.0
 11
191.75
 21
110.2
 31
0.0
  0
ARC
  8
0
  6
CONTINUOUS
 62
     2
 10
191.75
 20
110.4
 30
0.0
 40
0.2
 50
180.0
 51
270.0
  0
LINE
  8
0
  6
CONTINUOUS
 62
     2
 10
191.55
 20
110.4
 30
0.0
 11
191.55
 21
110.875
 31
0.0
  0
LINE
  8
0
  6
CONTINUOUS
 62
     2
 10
191.55
 20
110.875
 30
0.0
 11
191.15
 21
110.875
 31
0.0
  0
LINE
  8
0
  6
CONTINUOUS
 62
     2
 10
191.15
 20
110.875
 30
0.0
 11
191.15
 21
110.4
 31
0.0
  0
ARC
  8
0
  6
CONTINUOUS
 62
     2
 10
190.95
 20
110.4
 30
0.0
 40
0.2
 50
270.0
 51
0.0
  0
LINE
  8
0
  6
CONTINUOUS
 62
     2
 10
190.95
 20
110.2
 30
0.0
 11
190.475
 21
110.2
 31
0.0
  0
LINE
  8
0
  6
CONTINUOUS
 62
     2
 10
190.475
 20
110.2
 30
0.0
 11
190.475
 21
109.8
 31
0.0
  0
LINE
  8
0
  6
CONTINUOUS
 62
     2
 10
190.475
 20
109.8
 30
0.0
 11
190.95
 21
109.8
 31
0.0
  0
ARC
  8
0
  6
CONTINUOUS
 62
     2
 10
190.95
 20
109.6
 30
0.0
 40
0.2
 50
0.0
 51
90.0
  0
LINE
  8
0
  6
CONTINUOUS
 62
     2
 10
191.15
 20
109.6
 30
0.0
 11
191.15
 21
109.125
 31
0.0
  0
LINE
  8
0
  6
CONTINUOUS
 62
     2
 10
191.15
 20
109.125
 30
0.0
 11
191.55
 21
109.125
 31
0.0
  0
LINE
  8
0
  6
CONTINUOUS
 62
     2
 10
191.55
 20
109.125
 30
0.0
 11
191.55
 21
109.6
 31
0.0
  0
ARC
  8
0
  6
CONTINUOUS
 62
     2
 10
191.75
 20
109.6
 30
0.0
 40
0.2
 50
90.0
 51
180.0
  0
LINE
  8
0
  6
CONTINUOUS
 62
     2
 10
191.75
 20
109.8
 30
0.0
 11
192.225
 21
109.8
 31
0.0
  0
LINE
  8
0
  6
CONTINUOUS
 62
     2
 10
192.225
 20
109.8
 30
0.0
 11
192.225
 21
110.2
 31
0.0
  0
LINE
  8
0
  6
LTYPE1
 62
     2
 10
191.35
 20
112.0
 30
0.0
 11
191.35
 21
108.0
 31
0.0
  0
CIRCLE
  8
0
  6
CONTINUOUS
 62
     2
 10
191.35
 20
104.5
 30
0.0
 40
1.5
  0
LINE
  8
0
  6
CONTINUOUS
 62
     2
 10
192.225
 20
104.7
 30
0.0
 11
191.75
 21
104.7
 31
0.0
  0
ARC
  8
0
  6
CONTINUOUS
 62
     2
 10
191.75
 20
104.9
 30
0.0
 40
0.2
 50
180.0
 51
270.0
  0
LINE
  8
0
  6
CONTINUOUS
 62
     2
 10
191.55
 20
104.9
 30
0.0
 11
191.55
 21
105.375
 31
0.0
  0
LINE
  8
0
  6
CONTINUOUS
 62
     2
 10
191.55
 20
105.375
 30
0.0
 11
191.15
 21
105.375
 31
0.0
  0
LINE
  8
0
  6
CONTINUOUS
 62
     2
 10
191.15
 20
105.375
 30
0.0
 11
191.15
 21
104.9
 31
0.0
  0
ARC
  8
0
  6
CONTINUOUS
 62
     2
 10
190.95
 20
104.9
 30
0.0
 40
0.2
 50
270.0
 51
0.0
  0
LINE
  8
0
  6
CONTINUOUS
 62
     2
 10
190.95
 20
104.7
 30
0.0
 11
190.475
 21
104.7
 31
0.0
  0
LINE
  8
0
  6
CONTINUOUS
 62
     2
 10
190.475
 20
104.7
 30
0.0
 11
190.475
 21
104.3
 31
0.0
  0
LINE
  8
0
  6
CONTINUOUS
 62
     2
 10
190.475
 20
104.3
 30
0.0
 11
190.95
 21
104.3
 31
0.0
  0
ARC
  8
0
  6
CONTINUOUS
 62
     2
 10
190.95
 20
104.1
 30
0.0
 40
0.2
 50
0.0
 51
90.0
  0
LINE
  8
0
  6
CONTINUOUS
 62
     2
 10
191.15
 20
104.1
 30
0.0
 11
191.15
 21
103.625
 31
0.0
  0
LINE
  8
0
  6
CONTINUOUS
 62
     2
 10
191.15
 20
103.625
 30
0.0
 11
191.55
 21
103.625
 31
0.0
  0
LINE
  8
0
  6
CONTINUOUS
 62
     2
 10
191.55
 20
103.625
 30
0.0
 11
191.55
 21
104.1
 31
0.0
  0
ARC
  8
0
  6
CONTINUOUS
 62
     2
 10
191.75
 20
104.1
 30
0.0
 40
0.2
 50
90.0
 51
180.0
  0
LINE
  8
0
  6
CONTINUOUS
 62
     2
 10
191.75
 20
104.3
 30
0.0
 11
192.225
 21
104.3
 31
0.0
  0
LINE
  8
0
  6
CONTINUOUS
 62
     2
 10
192.225
 20
104.3
 30
0.0
 11
192.225
 21
104.7
 31
0.0
  0
LINE
  8
0
  6
LTYPE1
 62
     2
 10
193.35
 20
104.5
 30
0.0
 11
189.35
 21
104.5
 31
0.0
  0
LINE
  8
0
  6
LTYPE1
 62
     2
 10
191.35
 20
106.5
 30
0.0
 11
191.35
 21
102.5
 31
0.0
  0
LINE
  8
0
  6
CONTINUOUS
 62
     2
 10
194.35
 20
155.495
 30
0.0
 11
223.6
 21
155.495
 31
0.0
  0
LINE
  8
0
  6
CONTINUOUS
 62
     2
 10
221.6
 20
155.495
 30
0.0
 11
221.6
 21
104.5
 31
0.0
  0
LINE
  8
0
  6
CONTINUOUS
 62
     2
 10
194.35
 20
104.5
 30
0.0
 11
223.6
 21
104.5
 31
0.0
  0
LINE
  8
0
  6
CONTINUOUS
 62
     2
 10
221.6
 20
104.5
 30
0.0
 11
222.247047613
 21
106.914814566
 31
0.0
  0
LINE
  8
0
  6
CONTINUOUS
 62
     2
 10
221.6
 20
104.5
 30
0.0
 11
220.952952387
 21
106.914814566
 31
0.0
  0
LINE
  8
0
  6
CONTINUOUS
 62
     2
 10
221.6
 20
155.495
 30
0.0
 11
220.952952387
 21
153.080185434
 31
0.0
  0
LINE
  8
0
  6
CONTINUOUS
 62
     2
 10
221.6
 20
155.495
 30
0.0
 11
222.247047613
 21
153.080185434
 31
0.0
  0
LINE
  8
0
  6
CONTINUOUS
 62
     1
 10
193.85
 20
102.0
 30
0.0
 11
188.85
 21
102.0
 31
0.0
  0
LINE
  8
0
  6
LTYPE2
 62
     2
 10
186.3625
 20
151.8
 30
0.0
 11
186.3625
 21
151.541
 31
0.0
  0
LINE
  8
0
  6
LTYPE3
 62
     2
 10
186.3625
 20
151.541
 30
0.0
 11
186.3625
 21
147.882
 31
0.0
  0
LINE
  8
0
  6
LTYPE2
 62
     2
 10
186.3625
 20
112.284
 30
0.0
 11
186.3625
 21
111.812
 31
0.0
  0
LINE
  8
0
  6
LTYPE3
 62
     2
 10
186.3625
 20
111.812
 30
0.0
 11
186.3625
 21
107.751
 31
0.0
  0
LINE
  8
0
  6
LTYPE3
 62
     2
 10
196.3625
 20
111.623
 30
0.0
 11
196.3625
 21
107.869
 31
0.0
  0
LINE
  8
0
  6
LTYPE2
 62
     2
 10
196.3625
 20
151.517
 30
0.0
 11
196.3625
 21
148.19
 31
0.0
  0
LINE
  8
0
  6
LTYPE1
 62
     2
 10
188.076
 20
110.0
 30
0.0
 11
184.417
 21
110.0
 31
0.0
  0
LINE
  8
0
  6
LTYPE1
 62
     2
 10
193.293
 20
110.0
 30
0.0
 11
189.398
 21
110.0
 31
0.0
  0
LINE
  8
0
  6
LTYPE1
 62
     2
 10
198.321
 20
110.0
 30
0.0
 11
194.638
 21
110.0
 31
0.0
  0
LINE
  8
0
  6
LTYPE1
 62
     2
 10
184.275
 20
149.995
 30
0.0
 11
188.146
 21
149.995
 31
0.0
  0
LINE
  8
0
  6
LTYPE1
 62
     2
 10
194.497
 20
149.995
 30
0.0
 11
198.3685
 21
149.995
 31
0.0
  0
LINE
  8
0
  6
LTYPE1
 62
     2
 10
189.374
 20
149.995
 30
0.0
 11
193.222
 21
149.995
 31
0.0
  0
LINE
  8
0
  6
CONTINUOUS
 62
     1
 10
188.85
 20
158.0
 30
0.0
 11
193.85
 21
158.0
 31
0.0
  0
LINE
  8
0
  6
CONTINUOUS
 62
     1
 10
193.85
 20
146.495
 30
0.0
 11
193.85
 21
158.0
 31
0.0
  0
LINE
  8
0
  6
CONTINUOUS
 62
     1
 10
188.85
 20
158.0
 30
0.0
 11
188.85
 21
146.495
 31
0.0
  0
CIRCLE
  8
0
  6
CONTINUOUS
 62
     2
 10
186.36
 20
130.01
 30
0.0
 40
1.0
  0
CIRCLE
  8
0
  6
CONTINUOUS
 62
     2
 10
186.36
 20
130.01
 30
0.0
 40
0.5
  0
CIRCLE
  8
0
  6
CONTINUOUS
 62
     2
 10
196.36
 20
130.01
 30
0.0
 40
0.5
  0
CIRCLE
  8
0
  6
CONTINUOUS
 62
     2
 10
196.36
 20
130.01
 30
0.0
 40
1.0
  0
LINE
  8
0
  6
LTYPE2
 62
     2
 10
186.3625
 20
131.631
 30
0.0
 11
186.3625
 21
131.442
 31
0.0
  0
LINE
  8
0
  6
LTYPE3
 62
     2
 10
196.3625
 20
132.174
 30
0.0
 11
196.3625
 21
127.901
 31
0.0
  0
LINE
  8
0
  6
LTYPE3
 62
     2
 10
186.3625
 20
131.442
 30
0.0
 11
186.3625
 21
127.948
 31
0.0
  0
LINE
  8
0
  6
LTYPE1
 62
     2
 10
181.324
 20
130.0
 30
0.0
 11
194.756
 21
130.0
 31
0.0
  0
LINE
  8
0
  6
LTYPE1
 62
     2
 10
194.756
 20
130.0
 30
0.0
 11
202.57
 21
130.0
 31
0.0
  0
LINE
  8
0
  6
CONTINUOUS
 62
     2
 10
173.2865
 20
158.0
 30
0.0
 11
172.639452387
 21
155.585185434
 31
0.0
  0
LINE
  8
0
  6
CONTINUOUS
 62
     2
 10
173.2865
 20
158.0
 30
0.0
 11
173.933547613
 21
155.585185434
 31
0.0
  0
LINE
  8
0
  6
CONTINUOUS
 62
     2
 10
187.214
 20
158.0
 30
0.0
 11
171.2865
 21
158.0
 31
0.0
  0
LINE
  8
0
  6
CONTINUOUS
 62
     2
 10
173.2865
 20
102.0
 30
0.0
 11
173.933547613
 21
104.414814566
 31
0.0
  0
LINE
  8
0
  6
CONTINUOUS
 62
     2
 10
173.2865
 20
102.0
 30
0.0
 11
172.639452387
 21
104.414814566
 31
0.0
  0
LINE
  8
0
  6
CONTINUOUS
 62
     2
 10
187.167
 20
102.0
 30
0.0
 11
171.2865
 21
102.0
 31
0.0
  0
LINE
  8
0
  6
CONTINUOUS
 62
     2
 10
173.2865
 20
158.0
 30
0.0
 11
173.2865
 21
102.0
 31
0.0
  0
CIRCLE
  8
0
  6
CONTINUOUS
 62
     2
 10
249.76
 20
171.37
 30
0.0
 40
1.5
  0
TEXT
  8
0
  6
CONTINUOUS
 62
     2
 10
248.36
 20
170.07
 30
0.093333333
 40
2.8
  1
＋
 50
0.0
 41
1.0
 51
0.0
  7
KANJI13
  0
TEXT
  8
0
  6
CONTINUOUS
 62
     2
 10
94.425
 20
171.000008741
 30
0.3
 40
3.0
  1
１５
 50
0.0
 41
0.6
 51
0.0
  7
KANJI1
  0
TEXT
  8
0
  6
CONTINUOUS
 62
     2
 10
106.06
 20
171.02
 30
0.3
 40
3.0
  1
３３
 50
0.0
 41
0.6
 51
0.0
  7
KANJI1
  0
LINE
  8
0
  6
CONTINUOUS
 62
     2
 10
100.0
 20
170.000008741
 30
0.0
 11
97.585185434
 21
170.647056353
 31
0.0
  0
LINE
  8
0
  6
CONTINUOUS
 62
     2
 10
100.0
 20
170.000008741
 30
0.0
 11
97.585185434
 21
169.352961128
 31
0.0
  0
LINE
  8
0
  6
CONTINUOUS
 62
     2
 10
92.5
 20
170.000008741
 30
0.0
 11
100.0
 21
170.000008741
 31
0.0
  0
LINE
  8
0
  6
CONTINUOUS
 62
     2
 10
100.0
 20
170.000008741
 30
0.0
 11
102.414814566
 21
169.352961128
 31
0.0
  0
LINE
  8
0
  6
CONTINUOUS
 62
     2
 10
100.0
 20
170.000008741
 30
0.0
 11
102.414814566
 21
170.647056353
 31
0.0
  0
LINE
  8
0
  6
CONTINUOUS
 62
     2
 10
100.0
 20
170.000008741
 30
0.0
 11
163.25
 21
170.000008741
 31
0.0
  0
LINE
  8
0
  6
CONTINUOUS
 62
     2
 10
100.0
 20
155.15
 30
0.0
 11
100.0
 21
172.000008741
 31
0.0
  0
LINE
  8
0
  6
CONTINUOUS
 62
     2
 10
116.448387097
 20
169.983879708
 30
0.0
 11
118.048387097
 21
170.483879708
 31
0.0
  0
LINE
  8
0
  6
CONTINUOUS
 62
     2
 10
118.048387097
 20
169.483879708
 30
0.0
 11
115.048387097
 21
170.483879708
 31
0.0
  0
LINE
  8
0
  6
CONTINUOUS
 62
     2
 10
116.448387097
 20
169.983879708
 30
0.0
 11
115.048387097
 21
169.483879708
 31
0.0
  0
LINE
  8
0
  6
CONTINUOUS
 62
     2
 10
117.9
 20
163.12
 30
0.0
 11
116.5
 21
162.52
 31
0.0
  0
LINE
  8
0
  6
CONTINUOUS
 62
     2
 10
116.5
 20
162.52
 30
0.0
 11
118.0
 21
161.92
 31
0.0
  0
POLYLINE
  8
0
  6
CONTINUOUS
 62
     2
 66
     1
  0
VERTEX
  8
0
  6
CONTINUOUS
 62
     2
 10
113.6
 20
163.02
 30
0.0
  0
VERTEX
  8
0
  6
CONTINUOUS
 62
     2
 10
115.0
 20
162.52
 30
0.0
  0
VERTEX
  8
0
  6
CONTINUOUS
 62
     2
 10
113.6
 20
162.02
 30
0.0
  0
SEQEND
  0
TEXT
  8
0
  6
CONTINUOUS
 62
     2
 10
67.5
 20
97.25
 30
0.3
 40
3.0
  1
機械的零位調整器
 50
0.0
 41
0.9
 51
0.0
  7
KANJI4
  0
LINE
  8
0
  6
CONTINUOUS
 62
     2
 10
67.5
 20
96.25
 30
0.0
 11
92.624562641
 21
96.25
 31
0.0
  0
LINE
  8
0
  6
CONTINUOUS
 62
     1
 10
116.5
 20
114.0
 30
0.0
 11
152.5
 21
117.5
 31
0.0
  0
LINE
  8
0
  6
CONTINUOUS
 62
     1
 10
152.5
 20
142.5
 30
0.0
 11
116.55
 21
146.0
 31
0.0
  0
LINE
  8
0
  6
CONTINUOUS
 62
     1
 10
116.55
 20
153.95
 30
0.0
 11
116.55
 21
146.0
 31
0.0
  0
LINE
  8
0
  6
CONTINUOUS
 62
     2
 10
122.925
 20
146.0
 30
0.0
 11
122.277952387
 21
143.585185434
 31
0.0
  0
LINE
  8
0
  6
CONTINUOUS
 62
     2
 10
122.925
 20
146.0
 30
0.0
 11
123.572047613
 21
143.585185434
 31
0.0
  0
LINE
  8
0
  6
CONTINUOUS
 62
     2
 10
117.55
 20
146.0
 30
0.0
 11
124.925
 21
146.0
 31
0.0
  0
LINE
  8
0
  6
CONTINUOUS
 62
     2
 10
122.925
 20
114.486173184
 30
0.0
 11
122.925
 21
146.0
 31
0.0
  0
LINE
  8
0
  6
CONTINUOUS
 62
     1
 10
116.5
 20
114.0
 30
0.0
 11
116.5
 21
106.0
 31
0.0
  0
LINE
  8
0
  6
CONTINUOUS
 62
     2
 10
117.525
 20
114.0
 30
0.0
 11
124.925
 21
114.0
 31
0.0
  0
LINE
  8
0
  6
CONTINUOUS
 62
     2
 10
122.925
 20
114.0
 30
0.0
 11
123.572047613
 21
116.414814566
 31
0.0
  0
LINE
  8
0
  6
CONTINUOUS
 62
     2
 10
122.925
 20
114.0
 30
0.0
 11
122.277952387
 21
116.414814566
 31
0.0
  0
TEXT
  8
0
  6
CONTINUOUS
 62
     2
 10
121.925
 20
127.671653631
 30
0.3
 40
3.0
  1
６４（６６）
 50
90.0
 41
0.6
 51
0.0
  7
KANJI1
  0
LINE
  8
0
  6
CONTINUOUS
 62
     2
 10
138.36
 20
49.27
 30
0.0
 11
163.36
 21
49.27
 31
0.0
  0
TEXT
  8
0
  6
CONTINUOUS
 62
     6
 10
139.16
 20
50.37
 30
0.3
 40
4.0
  1
計器の取付け方
 50
0.0
 41
0.75
 51
0.0
  7
KANJI14
  0
TEXT
  8
0
  6
CONTINUOUS
 62
     2
 10
139.16
 20
42.57
 30
0.2
 40
3.0
  1
１，計器本体から取り付け金具を取り外す。（上下２箇所）
 50
0.0
 41
0.75
 51
0.0
  7
KANJI6
  0
TEXT
  8
0
  6
CONTINUOUS
 62
     2
 10
139.16
 20
37.471
 30
0.2
 40
3.0
  1
２，パネルカット後，パネル前面から計器をはめ込む。
 50
0.0
 41
0.75
 51
0.0
  7
KANJI6
  0
TEXT
  8
0
  6
CONTINUOUS
 62
     2
 10
139.46
 20
27.319
 30
0.2
 40
3.0
  1
４，Ｍ４×４５押ネジでパネル面を押しつけて固定する。
 50
0.0
 41
0.75
 51
0.0
  7
KANJI6
  0
TEXT
  8
0
  6
CONTINUOUS
 62
     2
 10
139.46
 20
22.071
 30
0.2
 40
3.0
  1
５，Ｍ４ナットでロックする。
 50
0.0
 41
0.75
 51
0.0
  7
KANJI6
  0
TEXT
  8
0
  6
CONTINUOUS
 62
     2
 10
139.46
 20
32.366
 30
0.2
 40
3.0
  1
３，計器本体に取外した取付金具をＭ４ネジで止める。
 50
0.0
 41
0.75
 51
0.0
  7
KANJI6
  0
TEXT
  8
0
  6
CONTINUOUS
 62
     3
 10
231.698
 20
12.811
 30
0.3
 40
6.0
  1
ＭＳ－１１６７８　Ａ
 50
0.0
 41
0.9
 51
0.0
  7
KANJI15
  0
LINE
  8
0
  6
CONTINUOUS
 62
     1
 10
111.35
 20
79.49
 30
0.0
 11
111.35
 21
31.24
 31
0.0
  0
LINE
  8
0
  6
CONTINUOUS
 62
     1
 10
126.85
 20
79.49
 30
0.0
 11
111.35
 21
79.49
 31
0.0
  0
LINE
  8
0
  6
CONTINUOUS
 62
     1
 10
126.85
 20
31.24
 30
0.0
 11
126.85
 21
79.49
 31
0.0
  0
LINE
  8
0
  6
CONTINUOUS
 62
     1
 10
111.35
 20
31.24
 30
0.0
 11
126.85
 21
31.24
 31
0.0
  0
LINE
  8
0
  6
CONTINUOUS
 62
     2
 10
100.0
 20
31.24
 30
0.0
 11
100.647047613
 21
33.654814566
 31
0.0
  0
LINE
  8
0
  6
CONTINUOUS
 62
     2
 10
100.0
 20
31.24
 30
0.0
 11
99.352952387
 21
33.654814566
 31
0.0
  0
LINE
  8
0
  6
CONTINUOUS
 62
     2
 10
110.315
 20
31.24
 30
0.0
 11
98.0
 21
31.24
 31
0.0
  0
LINE
  8
0
  6
CONTINUOUS
 62
     2
 10
110.315
 20
79.49
 30
0.0
 11
98.0
 21
79.49
 31
0.0
  0
LINE
  8
0
  6
CONTINUOUS
 62
     2
 10
100.0
 20
79.49
 30
0.0
 11
99.352952387
 21
77.075185434
 31
0.0
  0
LINE
  8
0
  6
CONTINUOUS
 62
     2
 10
100.0
 20
79.49
 30
0.0
 11
100.647047613
 21
77.075185434
 31
0.0
  0
LINE
  8
0
  6
CONTINUOUS
 62
     2
 10
100.0
 20
79.49
 30
0.0
 11
100.0
 21
31.24
 31
0.0
  0
LINE
  8
0
  6
CONTINUOUS
 62
     2
 10
111.35
 20
80.495
 30
0.0
 11
111.35
 21
90.495
 31
0.0
  0
LINE
  8
0
  6
CONTINUOUS
 62
     2
 10
111.35
 20
88.495
 30
0.0
 11
113.764814566
 21
87.847952387
 31
0.0
  0
LINE
  8
0
  6
CONTINUOUS
 62
     2
 10
111.35
 20
88.495
 30
0.0
 11
113.764814566
 21
89.142047613
 31
0.0
  0
LINE
  8
0
  6
CONTINUOUS
 62
     2
 10
126.85
 20
88.495
 30
0.0
 11
124.435185434
 21
89.142047613
 31
0.0
  0
LINE
  8
0
  6
CONTINUOUS
 62
     2
 10
126.85
 20
88.495
 30
0.0
 11
124.435185434
 21
87.847952387
 31
0.0
  0
LINE
  8
0
  6
CONTINUOUS
 62
     2
 10
126.85
 20
80.495
 30
0.0
 11
126.85
 21
90.495
 31
0.0
  0
LINE
  8
0
  6
CONTINUOUS
 62
     2
 10
111.35
 20
88.495
 30
0.0
 11
126.85
 21
88.495
 31
0.0
  0
TEXT
  8
0
  6
CONTINUOUS
 62
     2
 10
118.96
 20
163.22
 30
0.3
 40
3.0
  1
３
 50
0.0
 41
0.6
 51
0.0
  7
KANJI1
  0
LINE
  8
0
  6
CONTINUOUS
 62
     1
 10
102.7
 20
102.98
 30
0.0
 11
102.7
 21
105.98
 31
0.0
  0
LINE
  8
0
  6
CONTINUOUS
 62
     1
 10
106.7
 20
105.98
 30
0.0
 11
106.7
 21
102.98
 31
0.0
  0
LINE
  8
0
  6
CONTINUOUS
 62
     1
 10
106.7
 20
102.98
 30
0.0
 11
102.7
 21
102.98
 31
0.0
  0
LINE
  8
0
  6
CONTINUOUS
 62
     1
 10
106.7
 20
105.48
 30
0.0
 11
114.95
 21
105.48
 31
0.0
  0
LINE
  8
0
  6
CONTINUOUS
 62
     1
 10
114.95
 20
103.48
 30
0.0
 11
106.7
 21
103.48
 31
0.0
  0
LINE
  8
0
  6
CONTINUOUS
 62
     1
 10
126.2
 20
102.73
 30
0.0
 11
126.2
 21
106.23
 31
0.0
  0
ARC
  8
0
  6
CONTINUOUS
 62
     1
 10
126.85
 20
105.58
 30
0.0
 40
0.65
 50
0.0
 51
90.0
  0
ARC
  8
0
  6
CONTINUOUS
 62
     1
 10
126.85
 20
103.38
 30
0.0
 40
0.65
 50
270.0
 51
0.0
  0
LINE
  8
0
  6
CONTINUOUS
 62
     1
 10
126.85
 20
102.73
 30
0.0
 11
126.2
 21
102.73
 31
0.0
  0
LINE
  8
0
  6
CONTINUOUS
 62
     1
 10
126.2
 20
106.23
 30
0.0
 11
126.85
 21
106.23
 31
0.0
  0
LINE
  8
0
  6
CONTINUOUS
 62
     1
 10
127.5
 20
105.58
 30
0.0
 11
127.5
 21
103.38
 31
0.0
  0
LINE
  8
0
  6
CONTINUOUS
 62
     1
 10
127.5
 20
104.28
 30
0.0
 11
127.2
 21
104.28
 31
0.0
  0
LINE
  8
0
  6
CONTINUOUS
 62
     1
 10
127.2
 20
104.28
 30
0.0
 11
127.2
 21
104.68
 31
0.0
  0
LINE
  8
0
  6
CONTINUOUS
 62
     1
 10
127.2
 20
104.68
 30
0.0
 11
127.5
 21
104.68
 31
0.0
  0
LINE
  8
0
  6
CONTINUOUS
 62
     1
 10
116.86
 20
102.48
 30
0.0
 11
116.86
 21
106.48
 31
0.0
  0
ARC
  8
0
  6
CONTINUOUS
 62
     1
 10
118.21
 20
106.23
 30
0.0
 40
0.25
 50
0.0
 51
90.0
  0
ARC
  8
0
  6
CONTINUOUS
 62
     1
 10
118.21
 20
102.73
 30
0.0
 40
0.25
 50
270.0
 51
0.0
  0
LINE
  8
0
  6
CONTINUOUS
 62
     1
 10
118.46
 20
102.73
 30
0.0
 11
118.46
 21
106.23
 31
0.0
  0
ARC
  8
0
  6
CONTINUOUS
 62
     1
 10
118.21
 20
105.73
 30
0.0
 40
0.25
 50
270.0
 51
0.0
  0
ARC
  8
0
  6
CONTINUOUS
 62
     1
 10
118.21
 20
105.23
 30
0.0
 40
0.25
 50
0.0
 51
90.0
  0
ARC
  8
0
  6
CONTINUOUS
 62
     1
 10
118.21
 20
103.23
 30
0.0
 40
0.25
 50
0.0
 51
90.0
  0
ARC
  8
0
  6
CONTINUOUS
 62
     1
 10
118.21
 20
103.73
 30
0.0
 40
0.25
 50
270.0
 51
0.0
  0
LINE
  8
0
  6
CONTINUOUS
 62
     1
 10
126.2
 20
103.48
 30
0.0
 11
116.5
 21
103.48
 31
0.0
  0
LINE
  8
0
  6
CONTINUOUS
 62
     1
 10
116.5
 20
105.48
 30
0.0
 11
126.2
 21
105.48
 31
0.0
  0
LINE
  8
0
  6
CONTINUOUS
 62
     1
 10
118.21
 20
102.48
 30
0.0
 11
116.5
 21
102.48
 31
0.0
  0
LINE
  8
0
  6
CONTINUOUS
 62
     1
 10
118.21
 20
106.48
 30
0.0
 11
116.5
 21
106.48
 31
0.0
  0
LINE
  8
0
  6
CONTINUOUS
 62
     1
 10
116.86
 20
106.38
 30
0.0
 11
116.5
 21
106.38
 31
0.0
  0
LINE
  8
0
  6
CONTINUOUS
 62
     1
 10
116.5
 20
102.58
 30
0.0
 11
116.86
 21
102.58
 31
0.0
  0
LINE
  8
0
  6
CONTINUOUS
 62
     1
 10
116.86
 20
104.23
 30
0.0
 11
116.5
 21
104.68
 31
0.0
  0
LINE
  8
0
  6
CONTINUOUS
 62
     1
 10
116.5
 20
104.83
 30
0.0
 11
116.86
 21
104.38
 31
0.0
  0
LINE
  8
0
  6
LTYPE1
 62
     2
 10
129.39
 20
104.5
 30
0.0
 11
100.19
 21
104.5
 31
0.0
  0
LINE
  8
0
  6
CONTINUOUS
 62
     1
 10
116.5
 20
102.0
 30
0.0
 11
115.0
 21
102.0
 31
0.0
  0
LINE
  8
0
  6
CONTINUOUS
 62
     1
 10
116.5
 20
106.0
 30
0.0
 11
116.5
 21
102.0
 31
0.0
  0
LINE
  8
0
  6
CONTINUOUS
 62
     1
 10
115.0
 20
102.0
 30
0.0
 11
115.0
 21
106.0
 31
0.0
  0
LINE
  8
0
  6
CONTINUOUS
 62
     1
 10
102.7
 20
156.975
 30
0.0
 11
102.7
 21
153.975
 31
0.0
  0
LINE
  8
0
  6
CONTINUOUS
 62
     1
 10
106.7
 20
153.975
 30
0.0
 11
106.7
 21
156.975
 31
0.0
  0
LINE
  8
0
  6
CONTINUOUS
 62
     1
 10
106.7
 20
156.975
 30
0.0
 11
102.7
 21
156.975
 31
0.0
  0
LINE
  8
0
  6
CONTINUOUS
 62
     1
 10
106.7
 20
154.475
 30
0.0
 11
114.95
 21
154.475
 31
0.0
  0
LINE
  8
0
  6
CONTINUOUS
 62
     1
 10
114.95
 20
156.475
 30
0.0
 11
106.7
 21
156.475
 31
0.0
  0
LINE
  8
0
  6
CONTINUOUS
 62
     1
 10
126.24
 20
157.225
 30
0.0
 11
126.24
 21
153.725
 31
0.0
  0
ARC
  8
0
  6
CONTINUOUS
 62
     1
 10
126.89
 20
154.375
 30
0.0
 40
0.65
 50
270.0
 51
0.0
  0
ARC
  8
0
  6
CONTINUOUS
 62
     1
 10
126.89
 20
156.575
 30
0.0
 40
0.65
 50
0.0
 51
90.0
  0
LINE
  8
0
  6
CONTINUOUS
 62
     1
 10
126.89
 20
157.225
 30
0.0
 11
126.24
 21
157.225
 31
0.0
  0
LINE
  8
0
  6
CONTINUOUS
 62
     1
 10
126.24
 20
153.725
 30
0.0
 11
126.89
 21
153.725
 31
0.0
  0
LINE
  8
0
  6
CONTINUOUS
 62
     1
 10
127.54
 20
154.375
 30
0.0
 11
127.54
 21
156.575
 31
0.0
  0
LINE
  8
0
  6
CONTINUOUS
 62
     1
 10
127.54
 20
155.675
 30
0.0
 11
127.24
 21
155.675
 31
0.0
  0
LINE
  8
0
  6
CONTINUOUS
 62
     1
 10
127.24
 20
155.675
 30
0.0
 11
127.24
 21
155.275
 31
0.0
  0
LINE
  8
0
  6
CONTINUOUS
 62
     1
 10
127.24
 20
155.275
 30
0.0
 11
127.54
 21
155.275
 31
0.0
  0
LINE
  8
0
  6
CONTINUOUS
 62
     1
 10
116.9
 20
157.475
 30
0.0
 11
116.9
 21
153.475
 31
0.0
  0
ARC
  8
0
  6
CONTINUOUS
 62
     1
 10
118.25
 20
153.725
 30
0.0
 40
0.25
 50
270.0
 51
0.0
  0
ARC
  8
0
  6
CONTINUOUS
 62
     1
 10
118.25
 20
157.225
 30
0.0
 40
0.25
 50
0.0
 51
90.0
  0
LINE
  8
0
  6
CONTINUOUS
 62
     1
 10
118.25
 20
157.475
 30
0.0
 11
116.9
 21
157.475
 31
0.0
  0
LINE
  8
0
  6
CONTINUOUS
 62
     1
 10
118.5
 20
157.225
 30
0.0
 11
118.5
 21
153.725
 31
0.0
  0
ARC
  8
0
  6
CONTINUOUS
 62
     1
 10
118.25
 20
154.225
 30
0.0
 40
0.25
 50
0.0
 51
90.0
  0
ARC
  8
0
  6
CONTINUOUS
 62
     1
 10
118.25
 20
154.725
 30
0.0
 40
0.25
 50
270.0
 51
0.0
  0
ARC
  8
0
  6
CONTINUOUS
 62
     1
 10
118.25
 20
156.725
 30
0.0
 40
0.25
 50
270.0
 51
0.0
  0
ARC
  8
0
  6
CONTINUOUS
 62
     1
 10
118.25
 20
156.225
 30
0.0
 40
0.25
 50
0.0
 51
90.0
  0
LINE
  8
0
  6
CONTINUOUS
 62
     1
 10
118.25
 20
153.475
 30
0.0
 11
116.9
 21
153.475
 31
0.0
  0
LINE
  8
0
  6
CONTINUOUS
 62
     1
 10
115.0
 20
158.0
 30
0.0
 11
116.5
 21
158.0
 31
0.0
  0
LINE
  8
0
  6
CONTINUOUS
 62
     1
 10
115.0
 20
154.07
 30
0.0
 11
115.0
 21
158.0
 31
0.0
  0
LINE
  8
0
  6
CONTINUOUS
 62
     1
 10
116.5
 20
158.0
 30
0.0
 11
116.5
 21
154.1
 31
0.0
  0
LINE
  8
0
  6
CONTINUOUS
 62
     1
 10
116.9
 20
153.575
 30
0.0
 11
116.55
 21
153.575
 31
0.0
  0
LINE
  8
0
  6
CONTINUOUS
 62
     1
 10
126.24
 20
156.475
 30
0.0
 11
116.5
 21
156.475
 31
0.0
  0
LINE
  8
0
  6
CONTINUOUS
 62
     1
 10
116.5
 20
154.475
 30
0.0
 11
126.24
 21
154.475
 31
0.0
  0
LINE
  8
0
  6
CONTINUOUS
 62
     1
 10
116.5
 20
157.375
 30
0.0
 11
116.9
 21
157.375
 31
0.0
  0
LINE
  8
0
  6
CONTINUOUS
 62
     1
 10
116.9
 20
155.725
 30
0.0
 11
116.5
 21
155.225
 31
0.0
  0
LINE
  8
0
  6
CONTINUOUS
 62
     1
 10
116.5
 20
155.075
 30
0.0
 11
116.9
 21
155.575
 31
0.0
  0
LINE
  8
0
  6
LTYPE1
 62
     2
 10
130.64
 20
155.495
 30
0.0
 11
100.19
 21
155.495
 31
0.0
  0
LINE
  8
0
  6
CONTINUOUS
 62
     2
 10
156.66
 20
122.0
 30
0.0
 11
157.604594377
 21
119.68532044
 31
0.0
  0
LINE
  8
0
  6
CONTINUOUS
 62
     2
 10
156.66
 20
122.0
 30
0.0
 11
158.635382506
 21
120.467725888
 31
0.0
  0
LINE
  8
0
  6
CONTINUOUS
 62
     2
 10
156.66
 20
122.0
 30
0.0
 11
169.26
 21
105.4
 31
0.0
  0
TEXT
  8
0
  6
CONTINUOUS
 62
     2
 10
128.02
 20
109.8
 30
0.3
 40
3.0
  1
２－Ｍ４ターミナルネジ
 50
0.0
 41
0.6
 51
0.0
  7
KANJI1
  0
TEXT
  8
0
  6
CONTINUOUS
 62
     2
 10
133.46
 20
106.0
 30
0.3
 40
3.0
  1
スプリングワッシャー付
 50
0.0
 41
0.9
 51
0.0
  7
KANJI4
  0
LINE
  8
0
  6
CONTINUOUS
 62
     2
 10
169.26
 20
105.4
 30
0.0
 11
131.76
 21
105.4
 31
0.0
  0
LINE
  8
0
  6
CONTINUOUS
 62
     2
 10
116.5
 20
158.86588346
 30
0.0
 11
116.5
 21
172.52
 31
0.0
  0
LINE
  8
0
  6
CONTINUOUS
 62
     2
 10
115.0
 20
158.86588346
 30
0.0
 11
115.0
 21
164.32
 31
0.0
  0
LINE
  8
0
  6
CONTINUOUS
 62
     2
 10
127.359
 20
157.225
 30
0.0
 11
129.620391707
 21
158.29088346
 31
0.0
  0
LINE
  8
0
  6
CONTINUOUS
 62
     2
 10
127.359
 20
157.225
 30
0.0
 11
128.784480936
 21
159.278778007
 31
0.0
  0
LINE
  8
0
  6
CONTINUOUS
 62
     2
 10
127.359
 20
157.225
 30
0.0
 11
131.259
 21
160.525
 31
0.0
  0
LINE
  8
0
  6
CONTINUOUS
 62
     2
 10
131.259
 20
160.525
 30
0.0
 11
147.759
 21
160.525
 31
0.0
  0
TEXT
  8
0
  6
CONTINUOUS
 62
     2
 10
131.259
 20
161.525
 30
0.3
 40
3.0
  1
Ｍ４×４５押ネジ
 50
0.0
 41
0.6
 51
0.0
  7
KANJI1
  0
LINE
  8
0
  6
CONTINUOUS
 62
     2
 10
118.25
 20
157.475
 30
0.0
 11
119.888634309
 21
159.363088346
 31
0.0
  0
LINE
  8
0
  6
CONTINUOUS
 62
     2
 10
118.25
 20
157.475
 30
0.0
 11
129.35
 21
164.975
 31
0.0
  0
LINE
  8
0
  6
CONTINUOUS
 62
     2
 10
118.29
 20
157.475
 30
0.0
 11
120.653143112
 21
158.290815317
 31
0.0
  0
LINE
  8
0
  6
CONTINUOUS
 62
     2
 10
129.35
 20
164.975
 30
0.0
 11
143.75
 21
164.975
 31
0.0
  0
TEXT
  8
0
  6
CONTINUOUS
 62
     2
 10
129.35
 20
165.975
 30
0.3
 40
3.0
  1
Ｍ４ナットＳＷ
 50
0.0
 41
0.6
 51
0.0
  7
KANJI1
  0
LINE
  8
0
  6
CONTINUOUS
 62
     2
 10
103.044
 20
157.225
 30
0.0
 11
101.650075127
 21
159.300324902
 31
0.0
  0
LINE
  8
0
  6
CONTINUOUS
 62
     2
 10
103.044
 20
157.225
 30
0.0
 11
100.799163198
 21
158.32532165
 31
0.0
  0
LINE
  8
0
  6
LTYPE1
 62
     2
 10
78.785
 20
39.8425
 30
0.0
 11
78.785
 21
48.3925
 31
0.0
  0
LINE
  8
0
  6
CONTINUOUS
 62
     1
 10
81.29
 20
46.53
 30
0.0
 11
81.29
 21
41.53
 31
0.0
  0
LINE
  8
0
  6
CONTINUOUS
 62
     1
 10
78.29
 20
46.53
 30
0.0
 11
81.29
 21
46.53
 31
0.0
  0
LINE
  8
0
  6
CONTINUOUS
 62
     1
 10
81.29
 20
41.53
 30
0.0
 11
78.29
 21
41.53
 31
0.0
  0
ARC
  8
0
  6
CONTINUOUS
 62
     1
 10
78.785
 20
44.03
 30
0.0
 40
1.5
 50
250.731224508
 51
109.268775492
  0
LINE
  8
0
  6
LTYPE1
 62
     2
 10
27.795
 20
48.2175
 30
0.0
 11
27.795
 21
39.6675
 31
0.0
  0
LINE
  8
0
  6
CONTINUOUS
 62
     1
 10
25.29
 20
41.53
 30
0.0
 11
25.29
 21
46.53
 31
0.0
  0
LINE
  8
0
  6
CONTINUOUS
 62
     1
 10
28.29
 20
41.53
 30
0.0
 11
25.29
 21
41.53
 31
0.0
  0
LINE
  8
0
  6
CONTINUOUS
 62
     1
 10
25.29
 20
46.53
 30
0.0
 11
28.29
 21
46.53
 31
0.0
  0
ARC
  8
0
  6
CONTINUOUS
 62
     1
 10
27.795
 20
44.03
 30
0.0
 40
1.5
 50
70.731224508
 51
289.268775492
  0
LINE
  8
0
  6
CONTINUOUS
 62
     1
 10
51.5
 20
158.0
 30
0.0
 11
56.5
 21
158.0
 31
0.0
  0
LINE
  8
0
  6
CONTINUOUS
 62
     1
 10
51.5
 20
155.0
 30
0.0
 11
51.5
 21
158.0
 31
0.0
  0
LINE
  8
0
  6
CONTINUOUS
 62
     1
 10
56.5
 20
158.0
 30
0.0
 11
56.5
 21
155.0
 31
0.0
  0
ARC
  8
0
  6
CONTINUOUS
 62
     1
 10
54.0
 20
155.495
 30
0.0
 40
1.5
 50
340.731224508
 51
199.268775492
  0
LINE
  8
0
  6
CONTINUOUS
 62
     1
 10
56.5
 20
102.0
 30
0.0
 11
51.5
 21
102.0
 31
0.0
  0
LINE
  8
0
  6
CONTINUOUS
 62
     1
 10
51.5
 20
102.0
 30
0.0
 11
51.5
 21
105.0
 31
0.0
  0
LINE
  8
0
  6
CONTINUOUS
 62
     1
 10
56.5
 20
105.0
 30
0.0
 11
56.5
 21
102.0
 31
0.0
  0
ARC
  8
0
  6
CONTINUOUS
 62
     1
 10
54.0
 20
104.5
 30
0.0
 40
1.5
 50
160.528779366
 51
19.471220634
  0
LINE
  8
0
  6
CONTINUOUS
 62
     1
 10
183.8625
 20
145.95
 30
0.0
 11
193.008005446
 21
145.95
 31
0.0
  0
LINE
  8
0
  6
CONTINUOUS
 62
     2
 10
53.524
 20
48.117
 30
0.0
 11
54.973689109
 21
50.153762501
 31
0.0
  0
LINE
  8
0
  6
CONTINUOUS
 62
     2
 10
53.524
 20
48.117
 30
0.0
 11
53.761086346
 21
50.605732622
 31
0.0
  0
LINE
  8
0
  6
CONTINUOUS
 62
     2
 10
53.524
 20
48.117
 30
0.0
 11
57.624
 21
59.117
 31
0.0
  0
TEXT
  8
0
  6
CONTINUOUS
 62
     2
 10
58.314
 20
59.747
 30
0.2
 40
3.0
  1
単位
 50
0.0
 41
0.766666667
 51
0.0
  7
KANJI8
  0
LINE
  8
0
  6
CONTINUOUS
 62
     2
 10
57.624
 20
59.117
 30
0.0
 11
63.825
 21
59.117
 31
0.0
  0
LINE
  8
0
  6
CONTINUOUS
 62
     2
 10
50.193
 20
130.407
 30
0.0
 11
48.18076059
 21
131.890540548
 31
0.0
  0
LINE
  8
0
  6
CONTINUOUS
 62
     2
 10
50.193
 20
130.407
 30
0.0
 11
47.708579279
 21
130.685664098
 31
0.0
  0
LINE
  8
0
  6
CONTINUOUS
 62
     2
 10
50.193
 20
130.407
 30
0.0
 11
31.693
 21
137.657
 31
0.0
  0
TEXT
  8
0
  6
CONTINUOUS
 62
     2
 10
25.912
 20
138.657
 30
0.6
 40
3.0
  1
単位
 50
0.0
 41
0.6
 51
0.0
  7
KANJI7
  0
LINE
  8
0
  6
CONTINUOUS
 62
     2
 10
31.693
 20
137.657
 30
0.0
 11
25.116
 21
137.657
 31
0.0
  0
TEXT
  8
0
  6
CONTINUOUS
 62
     1
 10
239.2
 20
28.3
 30
0.4
 40
4.0
  1
エッジワイズ形計器外形図
 50
0.0
 41
0.9
 51
0.0
  7
KANJI16
  0
TEXT
  8
0
  6
CONTINUOUS
 62
     1
 10
232.3
 20
35.6
 30
0.5
 40
5.0
  1
□Ｅｆ－１００□
 50
0.0
 41
0.9
 51
0.0
  7
KANJI17
  0
LINE
  8
0
  6
LTYPE1
 62
     2
 10
89.0
 20
130.0
 30
0.0
 11
158.5
 21
130.0
 31
0.0
  0
LINE
  8
0
  6
LTYPE1
 62
     2
 10
42.7
 20
130.0
 30
0.0
 11
65.7
 21
130.0
 31
0.0
  0
LINE
  8
0
  6
CONTINUOUS
 62
     2
 10
112.5
 20
162.52
 30
0.0
 11
121.3
 21
162.52
 31
0.0
  0
TEXT
  8
0
  6
CONTINUOUS
 62
     2
 10
74.044
 20
168.825
 30
0.3
 40
3.0
  1
取付ネジキャップ
 50
0.0
 41
0.6
 51
0.0
  7
KANJI1
  0
LINE
  8
0
  6
CONTINUOUS
 62
     2
 10
90.898166667
 20
167.825
 30
0.0
 11
74.044
 21
167.825
 31
0.0
  0
LINE
  8
0
  6
CONTINUOUS
 62
     2
 10
103.044
 20
157.225
 30
0.0
 11
90.898166667
 21
167.825
 31
0.0
  0
TEXT
  8
0
  6
CONTINUOUS
 62
     2
 10
172.2865
 20
128.525
 30
0.3
 40
3.0
  1
１１２
 50
90.0
 41
0.6
 51
0.0
  7
KANJI1
  0
TEXT
  8
0
  6
CONTINUOUS
 62
     2
 10
221.0
 20
129.138
 30
0.0
 40
3.0
  1
１０２
 50
90.0
 41
0.666666667
 51
0.0
  7
KANJI18
  0
LINE
  8
0
  6
LTYPE1
 62
     2
 10
191.35
 20
159.8975
 30
0.0
 11
191.35
 21
99.1975
 31
0.0
  0
LINE
  8
0
  6
LTYPE1
 62
     2
 10
84.73
 20
44.03
 30
0.0
 11
76.0
 21
44.03
 31
0.0
  0
LINE
  8
0
  6
LTYPE1
 62
     2
 10
21.85
 20
44.03
 30
0.0
 11
29.7
 21
44.03
 31
0.0
  0
TEXT
  8
0
  6
CONTINUOUS
 62
     2
 10
254.88
 20
23.6005
 30
0.36
 40
3.6
  1
平板　白色目盛板
 50
0.0
 41
0.9
 51
0.0
  7
KANJI19
  0
LINE
  8
0
  6
LTYPE1
 62
     2
 10
54.0
 20
105.8975
 30
0.0
 11
54.0
 21
100.5975
 31
0.0
  0
LINE
  8
0
  6
LTYPE1
 62
     2
 10
58.1375
 20
104.5
 30
0.0
 11
49.8
 21
104.5
 31
0.0
  0
LINE
  8
0
  6
LTYPE1
 62
     2
 10
54.0
 20
159.5975
 30
0.0
 11
54.0
 21
151.7975
 31
0.0
  0
LINE
  8
0
  6
LTYPE1
 62
     2
 10
57.4
 20
155.495
 30
0.0
 11
50.7
 21
155.495
 31
0.0
  0
ENDSEC
  0
EOF
