  0
SECTION
  2
HEADER
  9
$ACADVER
  1
AC1009
  9
$DWGCODEPAGE
  3
dos932
  9
$EXTMIN
 10
0.0
 20
0.0
 30
0.0
  9
$EXTMAX
 10
297.0
 20
210.0
 30
0.0
  9
$LIMMIN
 10
0.0
 20
0.0
  9
$LIMMAX
 10
297.0
 20
210.0
  9
$LTSCALE
 40
1.0
  9
$PDMODE
 70
     0
  0
ENDSEC
  0
SECTION
  2
TABLES
  0
TABLE
  2
VPORT
 70
     1
  0
VPORT
  2
*ACTIVE
 70
     0
 10
0.0
 20
0.0
 11
1.0
 21
1.0
 12
148.5
 22
105.0
 13
0.0
 23
0.0
 14
10.0
 24
10.0
 15
10.0
 25
10.0
 16
0.0
 26
0.0
 36
1.0
 17
0.0
 27
0.0
 37
0.0
 40
297.0
 41
1.414285714
 42
50.0
 43
0.0
 44
0.0
 50
0.0
 51
0.0
 71
     0
 72
  1000
 73
     1
 74
     3
 75
     0
 76
     0
 77
     0
 78
     0
  0
ENDTAB
  0
TABLE
  2
LTYPE
 70
     4
  0
LTYPE
  2
CONTINUOUS
 70
    64
  3
Solid line
 72
    65
 73
     0
 40
0.0
  0
LTYPE
  2
LTYPE1
 70
    64
  3
PHANTOM
 72
    65
 73
     6
 40
8.0
 49
6.0
 49
-0.4
 49
0.4
 49
-0.4
 49
0.4
 49
-0.4
  0
LTYPE
  2
LTYPE2
 70
    64
  3
HIDDEN
 72
    65
 73
     2
 40
2.0
 49
1.2
 49
-0.8
  0
LTYPE
  2
LTYPE3
 70
    64
  3
CENTER
 72
    65
 73
     4
 40
8.0
 49
5.6
 49
-0.8
 49
0.8
 49
-0.8
  0
ENDTAB
  0
TABLE
  2
LAYER
 70
   128
  0
LAYER
  2
0
 70
     0
 62
     7
  6
CONTINUOUS
  0
LAYER
  2
2
 70
     0
 62
     7
  6
CONTINUOUS
  0
LAYER
  2
3
 70
     0
 62
     7
  6
CONTINUOUS
  0
LAYER
  2
4
 70
     0
 62
     7
  6
CONTINUOUS
  0
LAYER
  2
5
 70
     0
 62
     7
  6
CONTINUOUS
  0
LAYER
  2
6
 70
     0
 62
     7
  6
CONTINUOUS
  0
LAYER
  2
7
 70
     0
 62
     7
  6
CONTINUOUS
  0
LAYER
  2
8
 70
     0
 62
     7
  6
CONTINUOUS
  0
LAYER
  2
9
 70
     0
 62
     7
  6
CONTINUOUS
  0
LAYER
  2
10
 70
     0
 62
     7
  6
CONTINUOUS
  0
LAYER
  2
11
 70
     0
 62
     7
  6
CONTINUOUS
  0
LAYER
  2
12
 70
     0
 62
     7
  6
CONTINUOUS
  0
LAYER
  2
13
 70
     0
 62
     7
  6
CONTINUOUS
  0
LAYER
  2
14
 70
     0
 62
     7
  6
CONTINUOUS
  0
LAYER
  2
15
 70
     0
 62
     7
  6
CONTINUOUS
  0
LAYER
  2
16
 70
     0
 62
     7
  6
CONTINUOUS
  0
LAYER
  2
17
 70
     0
 62
     7
  6
CONTINUOUS
  0
LAYER
  2
18
 70
     0
 62
     7
  6
CONTINUOUS
  0
LAYER
  2
19
 70
     0
 62
     7
  6
CONTINUOUS
  0
LAYER
  2
20
 70
     0
 62
     7
  6
CONTINUOUS
  0
LAYER
  2
21
 70
     0
 62
     7
  6
CONTINUOUS
  0
LAYER
  2
22
 70
     0
 62
     7
  6
CONTINUOUS
  0
LAYER
  2
23
 70
     0
 62
     7
  6
CONTINUOUS
  0
LAYER
  2
24
 70
     0
 62
     7
  6
CONTINUOUS
  0
LAYER
  2
25
 70
     0
 62
     7
  6
CONTINUOUS
  0
LAYER
  2
26
 70
     0
 62
     7
  6
CONTINUOUS
  0
LAYER
  2
27
 70
     0
 62
     7
  6
CONTINUOUS
  0
LAYER
  2
28
 70
     0
 62
     7
  6
CONTINUOUS
  0
LAYER
  2
29
 70
     0
 62
     7
  6
CONTINUOUS
  0
LAYER
  2
30
 70
     0
 62
     7
  6
CONTINUOUS
  0
LAYER
  2
31
 70
     0
 62
     7
  6
CONTINUOUS
  0
LAYER
  2
32
 70
     0
 62
     7
  6
CONTINUOUS
  0
LAYER
  2
33
 70
     0
 62
     7
  6
CONTINUOUS
  0
LAYER
  2
34
 70
     0
 62
     7
  6
CONTINUOUS
  0
LAYER
  2
35
 70
     0
 62
     7
  6
CONTINUOUS
  0
LAYER
  2
36
 70
     0
 62
     7
  6
CONTINUOUS
  0
LAYER
  2
37
 70
     0
 62
     7
  6
CONTINUOUS
  0
LAYER
  2
38
 70
     0
 62
     7
  6
CONTINUOUS
  0
LAYER
  2
39
 70
     0
 62
     7
  6
CONTINUOUS
  0
LAYER
  2
40
 70
     0
 62
     7
  6
CONTINUOUS
  0
LAYER
  2
41
 70
     0
 62
     7
  6
CONTINUOUS
  0
LAYER
  2
42
 70
     0
 62
     7
  6
CONTINUOUS
  0
LAYER
  2
43
 70
     0
 62
     7
  6
CONTINUOUS
  0
LAYER
  2
44
 70
     0
 62
     7
  6
CONTINUOUS
  0
LAYER
  2
45
 70
     0
 62
     7
  6
CONTINUOUS
  0
LAYER
  2
46
 70
     0
 62
     7
  6
CONTINUOUS
  0
LAYER
  2
47
 70
     0
 62
     7
  6
CONTINUOUS
  0
LAYER
  2
48
 70
     0
 62
     7
  6
CONTINUOUS
  0
LAYER
  2
49
 70
     0
 62
     7
  6
CONTINUOUS
  0
LAYER
  2
50
 70
     0
 62
     7
  6
CONTINUOUS
  0
LAYER
  2
51
 70
     0
 62
     7
  6
CONTINUOUS
  0
LAYER
  2
52
 70
     0
 62
     7
  6
CONTINUOUS
  0
LAYER
  2
53
 70
     0
 62
     7
  6
CONTINUOUS
  0
LAYER
  2
54
 70
     0
 62
     7
  6
CONTINUOUS
  0
LAYER
  2
55
 70
     0
 62
     7
  6
CONTINUOUS
  0
LAYER
  2
56
 70
     0
 62
     7
  6
CONTINUOUS
  0
LAYER
  2
57
 70
     0
 62
     7
  6
CONTINUOUS
  0
LAYER
  2
58
 70
     0
 62
     7
  6
CONTINUOUS
  0
LAYER
  2
59
 70
     0
 62
     7
  6
CONTINUOUS
  0
LAYER
  2
60
 70
     0
 62
     7
  6
CONTINUOUS
  0
LAYER
  2
61
 70
     0
 62
     7
  6
CONTINUOUS
  0
LAYER
  2
62
 70
     0
 62
     7
  6
CONTINUOUS
  0
LAYER
  2
63
 70
     0
 62
     7
  6
CONTINUOUS
  0
LAYER
  2
64
 70
     0
 62
     7
  6
CONTINUOUS
  0
LAYER
  2
65
 70
     0
 62
     7
  6
CONTINUOUS
  0
LAYER
  2
66
 70
     0
 62
     7
  6
CONTINUOUS
  0
LAYER
  2
67
 70
     0
 62
     7
  6
CONTINUOUS
  0
LAYER
  2
68
 70
     0
 62
     7
  6
CONTINUOUS
  0
LAYER
  2
69
 70
     0
 62
     7
  6
CONTINUOUS
  0
LAYER
  2
70
 70
     0
 62
     7
  6
CONTINUOUS
  0
LAYER
  2
71
 70
     0
 62
     7
  6
CONTINUOUS
  0
LAYER
  2
72
 70
     0
 62
     7
  6
CONTINUOUS
  0
LAYER
  2
73
 70
     0
 62
     7
  6
CONTINUOUS
  0
LAYER
  2
74
 70
     0
 62
     7
  6
CONTINUOUS
  0
LAYER
  2
75
 70
     0
 62
     7
  6
CONTINUOUS
  0
LAYER
  2
76
 70
     0
 62
     7
  6
CONTINUOUS
  0
LAYER
  2
77
 70
     0
 62
     7
  6
CONTINUOUS
  0
LAYER
  2
78
 70
     0
 62
     7
  6
CONTINUOUS
  0
LAYER
  2
79
 70
     0
 62
     7
  6
CONTINUOUS
  0
LAYER
  2
80
 70
     0
 62
     7
  6
CONTINUOUS
  0
LAYER
  2
81
 70
     0
 62
     7
  6
CONTINUOUS
  0
LAYER
  2
82
 70
     0
 62
     7
  6
CONTINUOUS
  0
LAYER
  2
83
 70
     0
 62
     7
  6
CONTINUOUS
  0
LAYER
  2
84
 70
     0
 62
     7
  6
CONTINUOUS
  0
LAYER
  2
85
 70
     0
 62
     7
  6
CONTINUOUS
  0
LAYER
  2
86
 70
     0
 62
     7
  6
CONTINUOUS
  0
LAYER
  2
87
 70
     0
 62
     7
  6
CONTINUOUS
  0
LAYER
  2
88
 70
     0
 62
     7
  6
CONTINUOUS
  0
LAYER
  2
89
 70
     0
 62
     7
  6
CONTINUOUS
  0
LAYER
  2
90
 70
     0
 62
     7
  6
CONTINUOUS
  0
LAYER
  2
91
 70
     0
 62
     7
  6
CONTINUOUS
  0
LAYER
  2
92
 70
     0
 62
     7
  6
CONTINUOUS
  0
LAYER
  2
93
 70
     0
 62
     7
  6
CONTINUOUS
  0
LAYER
  2
94
 70
     0
 62
     7
  6
CONTINUOUS
  0
LAYER
  2
95
 70
     0
 62
     7
  6
CONTINUOUS
  0
LAYER
  2
96
 70
     0
 62
     7
  6
CONTINUOUS
  0
LAYER
  2
97
 70
     0
 62
     7
  6
CONTINUOUS
  0
LAYER
  2
98
 70
     0
 62
     7
  6
CONTINUOUS
  0
LAYER
  2
99
 70
     0
 62
     7
  6
CONTINUOUS
  0
LAYER
  2
100
 70
     0
 62
     7
  6
CONTINUOUS
  0
LAYER
  2
101
 70
     0
 62
     7
  6
CONTINUOUS
  0
LAYER
  2
102
 70
     0
 62
     7
  6
CONTINUOUS
  0
LAYER
  2
103
 70
     0
 62
     7
  6
CONTINUOUS
  0
LAYER
  2
104
 70
     0
 62
     7
  6
CONTINUOUS
  0
LAYER
  2
105
 70
     0
 62
     7
  6
CONTINUOUS
  0
LAYER
  2
106
 70
     0
 62
     7
  6
CONTINUOUS
  0
LAYER
  2
107
 70
     0
 62
     7
  6
CONTINUOUS
  0
LAYER
  2
108
 70
     0
 62
     7
  6
CONTINUOUS
  0
LAYER
  2
109
 70
     0
 62
     7
  6
CONTINUOUS
  0
LAYER
  2
110
 70
     0
 62
     7
  6
CONTINUOUS
  0
LAYER
  2
111
 70
     0
 62
     7
  6
CONTINUOUS
  0
LAYER
  2
112
 70
     0
 62
     7
  6
CONTINUOUS
  0
LAYER
  2
113
 70
     0
 62
     7
  6
CONTINUOUS
  0
LAYER
  2
114
 70
     0
 62
     7
  6
CONTINUOUS
  0
LAYER
  2
115
 70
     0
 62
     7
  6
CONTINUOUS
  0
LAYER
  2
116
 70
     0
 62
     7
  6
CONTINUOUS
  0
LAYER
  2
117
 70
     0
 62
     7
  6
CONTINUOUS
  0
LAYER
  2
118
 70
     0
 62
     7
  6
CONTINUOUS
  0
LAYER
  2
119
 70
     0
 62
     7
  6
CONTINUOUS
  0
LAYER
  2
120
 70
     0
 62
     7
  6
CONTINUOUS
  0
LAYER
  2
121
 70
     0
 62
     7
  6
CONTINUOUS
  0
LAYER
  2
122
 70
     0
 62
     7
  6
CONTINUOUS
  0
LAYER
  2
123
 70
     0
 62
     7
  6
CONTINUOUS
  0
LAYER
  2
124
 70
     0
 62
     7
  6
CONTINUOUS
  0
LAYER
  2
125
 70
     0
 62
     7
  6
CONTINUOUS
  0
LAYER
  2
126
 70
     0
 62
     7
  6
CONTINUOUS
  0
LAYER
  2
127
 70
     0
 62
     7
  6
CONTINUOUS
  0
LAYER
  2
128
 70
     0
 62
     7
  6
CONTINUOUS
  0
ENDTAB
  0
TABLE
  2
STYLE
 70
    15
  0
STYLE
  2
STANDARD
 70
     0
 40
0.0
 41
1.0
 50
0.0
 71
     0
 42
0.2
  3
txt.shx
  4
extfont.shx
  0
STYLE
  2
KANJI0
 70
     0
 40
2.5
 41
0.9
 50
0.0
 71
     0
 42
2.5
  3
txt.shx
  4
extfont.shx
  0
STYLE
  2
KANJI1
 70
     0
 40
2.0
 41
0.8
 50
0.0
 71
     0
 42
2.0
  3
txt.shx
  4
extfont.shx
  0
STYLE
  2
KANJI2
 70
     0
 40
3.0
 41
0.9
 50
0.0
 71
     0
 42
3.0
  3
txt.shx
  4
extfont.shx
  0
STYLE
  2
KANJI3
 70
     0
 40
3.0
 41
0.9
 50
0.0
 71
     0
 42
3.0
  3
txt.shx
  4
extfont.shx
  0
STYLE
  2
KANJI4
 70
     0
 40
3.0
 41
0.6
 50
0.0
 71
     0
 42
3.0
  3
txt.shx
  4
extfont.shx
  0
STYLE
  2
KANJI5
 70
     0
 40
1.8
 41
0.6
 50
0.0
 71
     0
 42
1.8
  3
txt.shx
  4
extfont.shx
  0
STYLE
  2
KANJI6
 70
     4
 40
3.0
 41
0.9
 50
0.0
 71
     0
 42
3.0
  3
txt.shx
  4
extfont.shx
  0
STYLE
  2
KANJI7
 70
     0
 40
3.0
 41
0.5
 50
0.0
 71
     0
 42
3.0
  3
txt.shx
  4
extfont.shx
  0
STYLE
  2
KANJI8
 70
     0
 40
3.0
 41
0.833333333
 50
0.0
 71
     0
 42
3.0
  3
txt.shx
  4
extfont.shx
  0
STYLE
  2
KANJI9
 70
     0
 40
1.5
 41
0.666666667
 50
0.0
 71
     0
 42
1.5
  3
txt.shx
  4
extfont.shx
  0
STYLE
  2
KANJI10
 70
     0
 40
1.0
 41
0.75
 50
0.0
 71
     0
 42
1.0
  3
txt.shx
  4
extfont.shx
  0
STYLE
  2
KANJI11
 70
     0
 40
5.8
 41
0.827586207
 50
0.0
 71
     0
 42
5.8
  3
txt.shx
  4
extfont.shx
  0
STYLE
  2
KANJI12
 70
     0
 40
4.0
 41
0.9
 50
0.0
 71
     0
 42
4.0
  3
txt.shx
  4
extfont.shx
  0
STYLE
  2
KANJI13
 70
     0
 40
6.0
 41
0.9
 50
0.0
 71
     0
 42
6.0
  3
txt.shx
  4
extfont.shx
  0
ENDTAB
  0
TABLE
  2
VIEW
 70
     0
  0
ENDTAB
  0
ENDSEC
  0
SECTION
  2
BLOCKS
  0
ENDSEC
  0
SECTION
  2
ENTITIES
  0
POLYLINE
  8
0
  6
CONTINUOUS
 62
     1
 66
     1
  0
VERTEX
  8
0
  6
CONTINUOUS
 62
     1
 10
189.65
 20
139.8
 30
0.0
  0
VERTEX
  8
0
  6
CONTINUOUS
 62
     1
 10
197.65
 20
139.8
 30
0.0
  0
VERTEX
  8
0
  6
CONTINUOUS
 62
     1
 10
197.65
 20
169.8
 30
0.0
  0
VERTEX
  8
0
  6
CONTINUOUS
 62
     1
 10
189.65
 20
169.8
 30
0.0
  0
VERTEX
  8
0
  6
CONTINUOUS
 62
     1
 10
189.65
 20
139.8
 30
0.0
  0
SEQEND
  0
LINE
  8
0
  6
CONTINUOUS
 62
     1
 10
25.25
 20
122.5
 30
0.0
 11
42.75
 21
122.5
 31
0.0
  0
LINE
  8
0
  6
CONTINUOUS
 62
     1
 10
42.75
 20
112.25
 30
0.0
 11
25.25
 21
112.25
 31
0.0
  0
LINE
  8
0
  6
CONTINUOUS
 62
     1
 10
42.75
 20
53.75
 30
0.0
 11
25.25
 21
53.75
 31
0.0
  0
LINE
  8
0
  6
CONTINUOUS
 62
     1
 10
42.75
 20
47.5
 30
0.0
 11
42.75
 21
122.5
 31
0.0
  0
LINE
  8
0
  6
CONTINUOUS
 62
     1
 10
42.75
 20
122.5
 30
0.0
 11
44.0
 21
122.5
 31
0.0
  0
LINE
  8
0
  6
CONTINUOUS
 62
     1
 10
24.0
 20
122.5
 30
0.0
 11
25.25
 21
122.5
 31
0.0
  0
LINE
  8
0
  6
CONTINUOUS
 62
     1
 10
25.25
 20
122.5
 30
0.0
 11
25.25
 21
47.5
 31
0.0
  0
LINE
  8
0
  6
CONTINUOUS
 62
     1
 10
24.0
 20
47.5
 30
0.0
 11
24.0
 21
122.5
 31
0.0
  0
LINE
  8
0
  6
CONTINUOUS
 62
     1
 10
26.0
 20
111.0
 30
0.0
 11
26.0
 21
55.25
 31
0.0
  0
LINE
  8
0
  6
CONTINUOUS
 62
     1
 10
42.0
 20
55.25
 30
0.0
 11
42.0
 21
111.0
 31
0.0
  0
LINE
  8
0
  6
CONTINUOUS
 62
     1
 10
26.0
 20
55.25
 30
0.0
 11
42.0
 21
55.25
 31
0.0
  0
LINE
  8
0
  6
CONTINUOUS
 62
     1
 10
42.0
 20
111.0
 30
0.0
 11
26.0
 21
111.0
 31
0.0
  0
LINE
  8
0
  6
CONTINUOUS
 62
     1
 10
36.25
 20
111.0
 30
0.0
 11
36.25
 21
55.25
 31
0.0
  0
LINE
  8
0
  6
CONTINUOUS
 62
     1
 10
31.75
 20
111.0
 30
0.0
 11
31.75
 21
55.25
 31
0.0
  0
LINE
  8
0
  6
CONTINUOUS
 62
     1
 10
24.0
 20
47.5
 30
0.0
 11
44.0
 21
47.5
 31
0.0
  0
LINE
  8
0
  6
CONTINUOUS
 62
     1
 10
26.5
 20
111.0
 30
0.0
 11
26.5
 21
55.25
 31
0.0
  0
LINE
  8
0
  6
CONTINUOUS
 62
     1
 10
41.5
 20
55.25
 30
0.0
 11
41.5
 21
111.0
 31
0.0
  0
LINE
  8
0
  6
CONTINUOUS
 62
     1
 10
23.5
 20
47.5
 30
0.0
 11
24.0
 21
47.5
 31
0.0
  0
ARC
  8
0
  6
CONTINUOUS
 62
     1
 10
23.5
 20
48.5
 30
0.0
 40
1.0
 50
180.0
 51
270.0
  0
LINE
  8
0
  6
CONTINUOUS
 62
     1
 10
24.0
 20
122.5
 30
0.0
 11
23.5
 21
122.5
 31
0.0
  0
LINE
  8
0
  6
CONTINUOUS
 62
     1
 10
22.5
 20
121.5
 30
0.0
 11
22.5
 21
48.5
 31
0.0
  0
ARC
  8
0
  6
CONTINUOUS
 62
     1
 10
23.5
 20
121.5
 30
0.0
 40
1.0
 50
90.0
 51
180.0
  0
LINE
  8
0
  6
CONTINUOUS
 62
     1
 10
44.0
 20
47.5
 30
0.0
 11
44.0
 21
122.5
 31
0.0
  0
LINE
  8
0
  6
CONTINUOUS
 62
     1
 10
44.5
 20
47.5
 30
0.0
 11
44.0
 21
47.5
 31
0.0
  0
ARC
  8
0
  6
CONTINUOUS
 62
     1
 10
44.5
 20
48.5
 30
0.0
 40
1.0
 50
270.0
 51
0.0
  0
LINE
  8
0
  6
CONTINUOUS
 62
     1
 10
44.0
 20
122.5
 30
0.0
 11
44.5
 21
122.5
 31
0.0
  0
LINE
  8
0
  6
CONTINUOUS
 62
     1
 10
45.5
 20
121.5
 30
0.0
 11
45.5
 21
48.5
 31
0.0
  0
ARC
  8
0
  6
CONTINUOUS
 62
     1
 10
44.5
 20
121.5
 30
0.0
 40
1.0
 50
0.0
 51
90.0
  0
ARC
  8
0
  6
CONTINUOUS
 62
     1
 10
61.75
 20
121.75
 30
0.0
 40
0.75
 50
90.0
 51
180.0
  0
LINE
  8
0
  6
CONTINUOUS
 62
     1
 10
65.75
 20
122.5
 30
0.0
 11
61.75
 21
122.5
 31
0.0
  0
LINE
  8
0
  6
CONTINUOUS
 62
     1
 10
160.0
 20
120.75
 30
0.0
 11
160.0
 21
121.25
 31
0.0
  0
LINE
  8
0
  6
CONTINUOUS
 62
     1
 10
66.0
 20
122.5
 30
0.0
 11
65.75
 21
122.5
 31
0.0
  0
ARC
  8
0
  6
CONTINUOUS
 62
     1
 10
61.75
 20
48.25
 30
0.0
 40
0.75
 50
180.0
 51
270.0
  0
LINE
  8
0
  6
CONTINUOUS
 62
     1
 10
65.75
 20
47.5
 30
0.0
 11
61.75
 21
47.5
 31
0.0
  0
LINE
  8
0
  6
CONTINUOUS
 62
     1
 10
160.0
 20
49.25
 30
0.0
 11
160.0
 21
48.75
 31
0.0
  0
LINE
  8
0
  6
CONTINUOUS
 62
     1
 10
151.0
 20
48.75
 30
0.0
 11
71.8
 21
48.75
 31
0.0
  0
LINE
  8
0
  6
CONTINUOUS
 62
     1
 10
66.0
 20
47.5
 30
0.0
 11
65.75
 21
47.5
 31
0.0
  0
LINE
  8
0
  6
CONTINUOUS
 62
     1
 10
161.5
 20
49.25
 30
0.0
 11
161.5
 21
120.75
 31
0.0
  0
LINE
  8
0
  6
CONTINUOUS
 62
     1
 10
72.7
 20
121.25
 30
0.0
 11
72.7
 21
126.25
 31
0.0
  0
LINE
  8
0
  6
CONTINUOUS
 62
     1
 10
72.7
 20
126.25
 30
0.0
 11
73.5
 21
126.25
 31
0.0
  0
LINE
  8
0
  6
CONTINUOUS
 62
     1
 10
73.5
 20
126.25
 30
0.0
 11
73.5
 21
121.25
 31
0.0
  0
LINE
  8
0
  6
CONTINUOUS
 62
     1
 10
73.5
 20
126.25
 30
0.0
 11
74.3
 21
126.25
 31
0.0
  0
LINE
  8
0
  6
CONTINUOUS
 62
     1
 10
74.3
 20
126.25
 30
0.0
 11
74.3
 21
122.05
 31
0.0
  0
LINE
  8
0
  6
CONTINUOUS
 62
     1
 10
74.3
 20
122.05
 30
0.0
 11
151.9
 21
122.05
 31
0.0
  0
LINE
  8
0
  6
CONTINUOUS
 62
     1
 10
152.7
 20
121.25
 30
0.0
 11
73.5
 21
121.25
 31
0.0
  0
LINE
  8
0
  6
CONTINUOUS
 62
     1
 10
68.5
 20
128.0
 30
0.0
 11
68.5
 21
121.75
 31
0.0
  0
LINE
  8
0
  6
CONTINUOUS
 62
     1
 10
68.5
 20
121.75
 30
0.0
 11
66.0
 21
121.75
 31
0.0
  0
LINE
  8
0
  6
CONTINUOUS
 62
     1
 10
66.0
 20
121.75
 30
0.0
 11
66.0
 21
128.5
 31
0.0
  0
LINE
  8
0
  6
CONTINUOUS
 62
     1
 10
68.5
 20
128.0
 30
0.0
 11
68.34375
 21
127.9
 31
0.0
  0
LINE
  8
0
  6
CONTINUOUS
 62
     1
 10
68.34375
 20
127.9
 30
0.0
 11
68.2
 21
127.8
 31
0.0
  0
LINE
  8
0
  6
CONTINUOUS
 62
     1
 10
68.2
 20
127.8
 30
0.0
 11
68.09375
 21
127.69375
 31
0.0
  0
LINE
  8
0
  6
CONTINUOUS
 62
     1
 10
68.09375
 20
127.69375
 30
0.0
 11
68.0
 21
127.6
 31
0.0
  0
LINE
  8
0
  6
CONTINUOUS
 62
     1
 10
68.0
 20
127.6
 30
0.0
 11
67.90625
 21
127.525
 31
0.0
  0
LINE
  8
0
  6
CONTINUOUS
 62
     1
 10
67.90625
 20
127.525
 30
0.0
 11
67.8
 21
127.5
 31
0.0
  0
LINE
  8
0
  6
CONTINUOUS
 62
     1
 10
67.8
 20
127.5
 30
0.0
 11
67.65625
 21
127.58125
 31
0.0
  0
LINE
  8
0
  6
CONTINUOUS
 62
     1
 10
67.65625
 20
127.58125
 30
0.0
 11
67.5
 21
127.7
 31
0.0
  0
LINE
  8
0
  6
CONTINUOUS
 62
     1
 10
67.5
 20
127.7
 30
0.0
 11
67.3375
 21
127.8
 31
0.0
  0
LINE
  8
0
  6
CONTINUOUS
 62
     1
 10
67.3375
 20
127.8
 30
0.0
 11
67.2
 21
127.9
 31
0.0
  0
LINE
  8
0
  6
CONTINUOUS
 62
     1
 10
67.2
 20
127.9
 30
0.0
 11
67.15625
 21
128.025
 31
0.0
  0
LINE
  8
0
  6
CONTINUOUS
 62
     1
 10
67.15625
 20
128.025
 30
0.0
 11
67.1
 21
128.1
 31
0.0
  0
LINE
  8
0
  6
CONTINUOUS
 62
     1
 10
67.1
 20
128.1
 30
0.0
 11
66.9
 21
128.01875
 31
0.0
  0
LINE
  8
0
  6
CONTINUOUS
 62
     1
 10
66.9
 20
128.01875
 30
0.0
 11
66.7
 21
127.9
 31
0.0
  0
LINE
  8
0
  6
CONTINUOUS
 62
     1
 10
66.7
 20
127.9
 30
0.0
 11
66.6375
 21
127.8375
 31
0.0
  0
LINE
  8
0
  6
CONTINUOUS
 62
     1
 10
66.6375
 20
127.8375
 30
0.0
 11
66.6
 21
127.8
 31
0.0
  0
LINE
  8
0
  6
CONTINUOUS
 62
     1
 10
66.6
 20
127.8
 30
0.0
 11
66.50625
 21
127.7625
 31
0.0
  0
LINE
  8
0
  6
CONTINUOUS
 62
     1
 10
66.50625
 20
127.7625
 30
0.0
 11
66.4
 21
127.8
 31
0.0
  0
LINE
  8
0
  6
CONTINUOUS
 62
     1
 10
66.4
 20
127.8
 30
0.0
 11
66.3
 21
128.0375
 31
0.0
  0
LINE
  8
0
  6
CONTINUOUS
 62
     1
 10
66.3
 20
128.0375
 30
0.0
 11
66.2
 21
128.3
 31
0.0
  0
LINE
  8
0
  6
CONTINUOUS
 62
     1
 10
66.2
 20
128.3
 30
0.0
 11
66.1
 21
128.41875
 31
0.0
  0
LINE
  8
0
  6
CONTINUOUS
 62
     1
 10
66.1
 20
128.41875
 30
0.0
 11
66.0
 21
128.5
 31
0.0
  0
LINE
  8
0
  6
CONTINUOUS
 62
     1
 10
68.5
 20
123.8
 30
0.0
 11
68.5
 21
124.9
 31
0.0
  0
POINT
  8
0
  6
CONTINUOUS
 62
     1
 10
68.5
 20
125.15
 30
0.0
  0
LINE
  8
0
  6
CONTINUOUS
 62
     1
 10
68.75
 20
125.4
 30
0.0
 11
68.5
 21
125.15
 31
0.0
  0
POINT
  8
0
  6
CONTINUOUS
 62
     1
 10
68.5
 20
123.15
 30
0.0
  0
LINE
  8
0
  6
CONTINUOUS
 62
     1
 10
68.5
 20
123.15
 30
0.0
 11
68.5
 21
125.15
 31
0.0
  0
LINE
  8
0
  6
CONTINUOUS
 62
     1
 10
68.75
 20
122.9
 30
0.0
 11
68.5
 21
123.15
 31
0.0
  0
LINE
  8
0
  6
CONTINUOUS
 62
     1
 10
158.25
 20
125.5
 30
0.0
 11
158.5
 21
125.25
 31
0.0
  0
LINE
  8
0
  6
CONTINUOUS
 62
     1
 10
158.5
 20
123.25
 30
0.0
 11
158.25
 21
123.0
 31
0.0
  0
LINE
  8
0
  6
CONTINUOUS
 62
     1
 10
158.5
 20
125.25
 30
0.0
 11
158.5
 21
123.25
 31
0.0
  0
LINE
  8
0
  6
CONTINUOUS
 62
     1
 10
74.3
 20
125.4
 30
0.0
 11
151.9
 21
125.4
 31
0.0
  0
LINE
  8
0
  6
CONTINUOUS
 62
     1
 10
74.3
 20
122.9
 30
0.0
 11
151.9
 21
122.9
 31
0.0
  0
LINE
  8
0
  6
CONTINUOUS
 62
     1
 10
68.75
 20
125.4
 30
0.0
 11
72.7
 21
125.4
 31
0.0
  0
LINE
  8
0
  6
CONTINUOUS
 62
     1
 10
68.75
 20
122.9
 30
0.0
 11
72.7
 21
122.9
 31
0.0
  0
LINE
  8
0
  6
CONTINUOUS
 62
     1
 10
160.0
 20
121.25
 30
0.0
 11
66.0
 21
121.25
 31
0.0
  0
LINE
  8
0
  6
CONTINUOUS
 62
     1
 10
65.75
 20
49.25
 30
0.0
 11
65.75
 21
49.25
 31
0.0
  0
LINE
  8
0
  6
CONTINUOUS
 62
     1
 10
161.5
 20
49.25
 30
0.0
 11
66.0
 21
49.25
 31
0.0
  0
LINE
  8
0
  6
CONTINUOUS
 62
     1
 10
160.0
 20
48.75
 30
0.0
 11
66.0
 21
48.75
 31
0.0
  0
LINE
  8
0
  6
CONTINUOUS
 62
     1
 10
65.75
 20
120.75
 30
0.0
 11
65.75
 21
120.75
 31
0.0
  0
LINE
  8
0
  6
CONTINUOUS
 62
     1
 10
161.5
 20
120.75
 30
0.0
 11
66.0
 21
120.75
 31
0.0
  0
LINE
  8
0
  6
CONTINUOUS
 62
     1
 10
61.0
 20
121.75
 30
0.0
 11
61.0
 21
48.25
 31
0.0
  0
ARC
  8
0
  6
CONTINUOUS
 62
     1
 10
176.0
 20
83.0
 30
0.0
 40
119.0
 50
165.102334344
 51
194.897665656
  0
LINE
  8
0
  6
CONTINUOUS
 62
     1
 10
151.9
 20
126.25
 30
0.0
 11
152.7
 21
126.25
 31
0.0
  0
LINE
  8
0
  6
CONTINUOUS
 62
     1
 10
151.9
 20
122.05
 30
0.0
 11
151.9
 21
126.25
 31
0.0
  0
LINE
  8
0
  6
CONTINUOUS
 62
     1
 10
154.7
 20
126.5
 30
0.0
 11
152.7
 21
126.5
 31
0.0
  0
LINE
  8
0
  6
CONTINUOUS
 62
     1
 10
154.7
 20
122.0
 30
0.0
 11
154.7
 21
126.5
 31
0.0
  0
LINE
  8
0
  6
CONTINUOUS
 62
     1
 10
152.7
 20
122.0
 30
0.0
 11
154.7
 21
122.0
 31
0.0
  0
LINE
  8
0
  6
CONTINUOUS
 62
     1
 10
152.7
 20
125.375
 30
0.0
 11
154.3
 21
125.375
 31
0.0
  0
LINE
  8
0
  6
CONTINUOUS
 62
     1
 10
154.3
 20
123.125
 30
0.0
 11
152.7
 21
123.125
 31
0.0
  0
LINE
  8
0
  6
CONTINUOUS
 62
     1
 10
154.7
 20
125.5
 30
0.0
 11
158.25
 21
125.5
 31
0.0
  0
LINE
  8
0
  6
CONTINUOUS
 62
     1
 10
158.25
 20
123.0
 30
0.0
 11
154.7
 21
123.0
 31
0.0
  0
LINE
  8
0
  6
CONTINUOUS
 62
     1
 10
152.7
 20
126.5
 30
0.0
 11
152.7
 21
121.25
 31
0.0
  0
LINE
  8
0
  6
CONTINUOUS
 62
     1
 10
66.0
 20
47.5
 30
0.0
 11
65.75
 21
47.5
 31
0.0
  0
LINE
  8
0
  6
CONTINUOUS
 62
     1
 10
72.7
 20
48.75
 30
0.0
 11
72.7
 21
43.75
 31
0.0
  0
LINE
  8
0
  6
CONTINUOUS
 62
     1
 10
72.7
 20
43.75
 30
0.0
 11
73.5
 21
43.75
 31
0.0
  0
LINE
  8
0
  6
CONTINUOUS
 62
     1
 10
73.5
 20
43.75
 30
0.0
 11
73.5
 21
48.75
 31
0.0
  0
LINE
  8
0
  6
CONTINUOUS
 62
     1
 10
73.5
 20
43.75
 30
0.0
 11
74.3
 21
43.75
 31
0.0
  0
LINE
  8
0
  6
CONTINUOUS
 62
     1
 10
74.3
 20
43.75
 30
0.0
 11
74.3
 21
47.95
 31
0.0
  0
LINE
  8
0
  6
CONTINUOUS
 62
     1
 10
74.3
 20
47.95
 30
0.0
 11
151.9
 21
47.95
 31
0.0
  0
LINE
  8
0
  6
CONTINUOUS
 62
     1
 10
152.7
 20
48.75
 30
0.0
 11
73.5
 21
48.75
 31
0.0
  0
LINE
  8
0
  6
CONTINUOUS
 62
     1
 10
68.5
 20
42.0
 30
0.0
 11
68.5
 21
48.25
 31
0.0
  0
LINE
  8
0
  6
CONTINUOUS
 62
     1
 10
68.5
 20
48.25
 30
0.0
 11
66.0
 21
48.25
 31
0.0
  0
LINE
  8
0
  6
CONTINUOUS
 62
     1
 10
66.0
 20
48.25
 30
0.0
 11
66.0
 21
41.5
 31
0.0
  0
LINE
  8
0
  6
CONTINUOUS
 62
     1
 10
68.5
 20
42.0
 30
0.0
 11
68.34375
 21
42.1
 31
0.0
  0
LINE
  8
0
  6
CONTINUOUS
 62
     1
 10
68.34375
 20
42.1
 30
0.0
 11
68.2
 21
42.2
 31
0.0
  0
LINE
  8
0
  6
CONTINUOUS
 62
     1
 10
68.2
 20
42.2
 30
0.0
 11
68.09375
 21
42.30625
 31
0.0
  0
LINE
  8
0
  6
CONTINUOUS
 62
     1
 10
68.09375
 20
42.30625
 30
0.0
 11
68.0
 21
42.4
 31
0.0
  0
LINE
  8
0
  6
CONTINUOUS
 62
     1
 10
68.0
 20
42.4
 30
0.0
 11
67.90625
 21
42.475
 31
0.0
  0
LINE
  8
0
  6
CONTINUOUS
 62
     1
 10
67.90625
 20
42.475
 30
0.0
 11
67.8
 21
42.5
 31
0.0
  0
LINE
  8
0
  6
CONTINUOUS
 62
     1
 10
67.8
 20
42.5
 30
0.0
 11
67.65625
 21
42.41875
 31
0.0
  0
LINE
  8
0
  6
CONTINUOUS
 62
     1
 10
67.65625
 20
42.41875
 30
0.0
 11
67.5
 21
42.3
 31
0.0
  0
LINE
  8
0
  6
CONTINUOUS
 62
     1
 10
67.5
 20
42.3
 30
0.0
 11
67.3375
 21
42.2
 31
0.0
  0
LINE
  8
0
  6
CONTINUOUS
 62
     1
 10
67.3375
 20
42.2
 30
0.0
 11
67.2
 21
42.1
 31
0.0
  0
LINE
  8
0
  6
CONTINUOUS
 62
     1
 10
67.2
 20
42.1
 30
0.0
 11
67.15625
 21
41.975
 31
0.0
  0
LINE
  8
0
  6
CONTINUOUS
 62
     1
 10
67.15625
 20
41.975
 30
0.0
 11
67.1
 21
41.9
 31
0.0
  0
LINE
  8
0
  6
CONTINUOUS
 62
     1
 10
67.1
 20
41.9
 30
0.0
 11
66.9
 21
41.98125
 31
0.0
  0
LINE
  8
0
  6
CONTINUOUS
 62
     1
 10
66.9
 20
41.98125
 30
0.0
 11
66.7
 21
42.1
 31
0.0
  0
LINE
  8
0
  6
CONTINUOUS
 62
     1
 10
66.7
 20
42.1
 30
0.0
 11
66.6375
 21
42.1625
 31
0.0
  0
LINE
  8
0
  6
CONTINUOUS
 62
     1
 10
66.6375
 20
42.1625
 30
0.0
 11
66.6
 21
42.2
 31
0.0
  0
LINE
  8
0
  6
CONTINUOUS
 62
     1
 10
66.6
 20
42.2
 30
0.0
 11
66.50625
 21
42.2375
 31
0.0
  0
LINE
  8
0
  6
CONTINUOUS
 62
     1
 10
66.50625
 20
42.2375
 30
0.0
 11
66.4
 21
42.2
 31
0.0
  0
LINE
  8
0
  6
CONTINUOUS
 62
     1
 10
66.4
 20
42.2
 30
0.0
 11
66.3
 21
41.9625
 31
0.0
  0
LINE
  8
0
  6
CONTINUOUS
 62
     1
 10
66.3
 20
41.9625
 30
0.0
 11
66.2
 21
41.7
 31
0.0
  0
LINE
  8
0
  6
CONTINUOUS
 62
     1
 10
66.2
 20
41.7
 30
0.0
 11
66.1
 21
41.58125
 31
0.0
  0
LINE
  8
0
  6
CONTINUOUS
 62
     1
 10
66.1
 20
41.58125
 30
0.0
 11
66.0
 21
41.5
 31
0.0
  0
LINE
  8
0
  6
CONTINUOUS
 62
     1
 10
68.5
 20
46.2
 30
0.0
 11
68.5
 21
45.1
 31
0.0
  0
POINT
  8
0
  6
CONTINUOUS
 62
     1
 10
68.5
 20
44.85
 30
0.0
  0
LINE
  8
0
  6
CONTINUOUS
 62
     1
 10
68.75
 20
44.6
 30
0.0
 11
68.5
 21
44.85
 31
0.0
  0
POINT
  8
0
  6
CONTINUOUS
 62
     1
 10
68.5
 20
46.85
 30
0.0
  0
LINE
  8
0
  6
CONTINUOUS
 62
     1
 10
68.5
 20
46.85
 30
0.0
 11
68.5
 21
44.85
 31
0.0
  0
LINE
  8
0
  6
CONTINUOUS
 62
     1
 10
68.75
 20
47.1
 30
0.0
 11
68.5
 21
46.85
 31
0.0
  0
LINE
  8
0
  6
CONTINUOUS
 62
     1
 10
158.25
 20
44.5
 30
0.0
 11
158.5
 21
44.75
 31
0.0
  0
LINE
  8
0
  6
CONTINUOUS
 62
     1
 10
158.5
 20
46.75
 30
0.0
 11
158.25
 21
47.0
 31
0.0
  0
LINE
  8
0
  6
CONTINUOUS
 62
     1
 10
158.5
 20
44.75
 30
0.0
 11
158.5
 21
46.75
 31
0.0
  0
LINE
  8
0
  6
CONTINUOUS
 62
     1
 10
74.3
 20
44.6
 30
0.0
 11
151.9
 21
44.6
 31
0.0
  0
LINE
  8
0
  6
CONTINUOUS
 62
     1
 10
74.3
 20
47.1
 30
0.0
 11
151.9
 21
47.1
 31
0.0
  0
LINE
  8
0
  6
CONTINUOUS
 62
     1
 10
68.75
 20
44.6
 30
0.0
 11
72.7
 21
44.6
 31
0.0
  0
LINE
  8
0
  6
CONTINUOUS
 62
     1
 10
68.75
 20
47.1
 30
0.0
 11
72.7
 21
47.1
 31
0.0
  0
LINE
  8
0
  6
CONTINUOUS
 62
     1
 10
160.0
 20
48.75
 30
0.0
 11
66.0
 21
48.75
 31
0.0
  0
LINE
  8
0
  6
CONTINUOUS
 62
     1
 10
151.9
 20
43.75
 30
0.0
 11
152.7
 21
43.75
 31
0.0
  0
LINE
  8
0
  6
CONTINUOUS
 62
     1
 10
151.9
 20
47.95
 30
0.0
 11
151.9
 21
43.75
 31
0.0
  0
LINE
  8
0
  6
CONTINUOUS
 62
     1
 10
154.7
 20
43.5
 30
0.0
 11
152.7
 21
43.5
 31
0.0
  0
LINE
  8
0
  6
CONTINUOUS
 62
     1
 10
154.7
 20
48.0
 30
0.0
 11
154.7
 21
43.5
 31
0.0
  0
LINE
  8
0
  6
CONTINUOUS
 62
     1
 10
152.7
 20
48.0
 30
0.0
 11
154.7
 21
48.0
 31
0.0
  0
LINE
  8
0
  6
CONTINUOUS
 62
     1
 10
152.7
 20
44.625
 30
0.0
 11
154.3
 21
44.625
 31
0.0
  0
LINE
  8
0
  6
CONTINUOUS
 62
     1
 10
154.3
 20
46.875
 30
0.0
 11
152.7
 21
46.875
 31
0.0
  0
LINE
  8
0
  6
CONTINUOUS
 62
     1
 10
154.7
 20
44.5
 30
0.0
 11
158.25
 21
44.5
 31
0.0
  0
LINE
  8
0
  6
CONTINUOUS
 62
     1
 10
158.25
 20
47.0
 30
0.0
 11
154.7
 21
47.0
 31
0.0
  0
LINE
  8
0
  6
CONTINUOUS
 62
     1
 10
152.7
 20
43.5
 30
0.0
 11
152.7
 21
48.75
 31
0.0
  0
LINE
  8
0
  6
CONTINUOUS
 62
     1
 10
161.5
 20
92.25
 30
0.0
 11
161.5
 21
53.15
 31
0.0
  0
LINE
  8
0
  6
CONTINUOUS
 62
     1
 10
161.5
 20
53.15
 30
0.0
 11
164.25
 21
53.15
 31
0.0
  0
LINE
  8
0
  6
CONTINUOUS
 62
     1
 10
164.25
 20
53.15
 30
0.0
 11
164.25
 21
57.25
 31
0.0
  0
LINE
  8
0
  6
CONTINUOUS
 62
     1
 10
164.25
 20
57.25
 30
0.0
 11
170.75
 21
57.25
 31
0.0
  0
LINE
  8
0
  6
CONTINUOUS
 62
     1
 10
170.75
 20
57.25
 30
0.0
 11
170.75
 21
58.15
 31
0.0
  0
LINE
  8
0
  6
CONTINUOUS
 62
     1
 10
170.75
 20
58.15
 30
0.0
 11
164.25
 21
58.15
 31
0.0
  0
LINE
  8
0
  6
CONTINUOUS
 62
     1
 10
164.25
 20
53.15
 30
0.0
 11
166.25
 21
53.15
 31
0.0
  0
LINE
  8
0
  6
CONTINUOUS
 62
     1
 10
164.25
 20
58.15
 30
0.0
 11
164.25
 21
62.25
 31
0.0
  0
LINE
  8
0
  6
CONTINUOUS
 62
     1
 10
164.25
 20
58.15
 30
0.0
 11
166.25
 21
58.15
 31
0.0
  0
LINE
  8
0
  6
CONTINUOUS
 62
     1
 10
164.25
 20
62.25
 30
0.0
 11
170.75
 21
62.25
 31
0.0
  0
LINE
  8
0
  6
CONTINUOUS
 62
     1
 10
170.75
 20
62.25
 30
0.0
 11
170.75
 21
63.15
 31
0.0
  0
LINE
  8
0
  6
CONTINUOUS
 62
     1
 10
170.75
 20
63.15
 30
0.0
 11
164.25
 21
63.15
 31
0.0
  0
LINE
  8
0
  6
CONTINUOUS
 62
     1
 10
164.25
 20
63.15
 30
0.0
 11
164.25
 21
67.25
 31
0.0
  0
LINE
  8
0
  6
CONTINUOUS
 62
     1
 10
164.25
 20
67.25
 30
0.0
 11
170.75
 21
67.25
 31
0.0
  0
LINE
  8
0
  6
CONTINUOUS
 62
     1
 10
170.75
 20
67.25
 30
0.0
 11
170.75
 21
68.15
 31
0.0
  0
LINE
  8
0
  6
CONTINUOUS
 62
     1
 10
170.75
 20
68.15
 30
0.0
 11
164.25
 21
68.15
 31
0.0
  0
LINE
  8
0
  6
CONTINUOUS
 62
     1
 10
164.25
 20
68.15
 30
0.0
 11
164.25
 21
72.25
 31
0.0
  0
LINE
  8
0
  6
CONTINUOUS
 62
     1
 10
164.25
 20
72.25
 30
0.0
 11
170.75
 21
72.25
 31
0.0
  0
LINE
  8
0
  6
CONTINUOUS
 62
     1
 10
170.75
 20
72.25
 30
0.0
 11
170.75
 21
73.15
 31
0.0
  0
LINE
  8
0
  6
CONTINUOUS
 62
     1
 10
170.75
 20
73.15
 30
0.0
 11
164.25
 21
73.15
 31
0.0
  0
LINE
  8
0
  6
CONTINUOUS
 62
     1
 10
164.25
 20
73.15
 30
0.0
 11
164.25
 21
77.25
 31
0.0
  0
LINE
  8
0
  6
CONTINUOUS
 62
     1
 10
164.25
 20
77.25
 30
0.0
 11
170.75
 21
77.25
 31
0.0
  0
LINE
  8
0
  6
CONTINUOUS
 62
     1
 10
170.75
 20
77.25
 30
0.0
 11
170.75
 21
78.15
 31
0.0
  0
LINE
  8
0
  6
CONTINUOUS
 62
     1
 10
170.75
 20
78.15
 30
0.0
 11
164.25
 21
78.15
 31
0.0
  0
LINE
  8
0
  6
CONTINUOUS
 62
     1
 10
164.25
 20
78.15
 30
0.0
 11
164.25
 21
82.25
 31
0.0
  0
LINE
  8
0
  6
CONTINUOUS
 62
     1
 10
164.25
 20
82.25
 30
0.0
 11
170.75
 21
82.25
 31
0.0
  0
LINE
  8
0
  6
CONTINUOUS
 62
     1
 10
170.75
 20
82.25
 30
0.0
 11
170.75
 21
83.15
 31
0.0
  0
LINE
  8
0
  6
CONTINUOUS
 62
     1
 10
170.75
 20
83.15
 30
0.0
 11
164.25
 21
83.15
 31
0.0
  0
LINE
  8
0
  6
CONTINUOUS
 62
     1
 10
164.25
 20
83.15
 30
0.0
 11
164.25
 21
87.25
 31
0.0
  0
LINE
  8
0
  6
CONTINUOUS
 62
     1
 10
164.25
 20
87.25
 30
0.0
 11
170.75
 21
87.25
 31
0.0
  0
LINE
  8
0
  6
CONTINUOUS
 62
     1
 10
170.75
 20
87.25
 30
0.0
 11
170.75
 21
88.15
 31
0.0
  0
LINE
  8
0
  6
CONTINUOUS
 62
     1
 10
170.75
 20
88.15
 30
0.0
 11
164.25
 21
88.15
 31
0.0
  0
LINE
  8
0
  6
CONTINUOUS
 62
     1
 10
161.5
 20
92.25
 30
0.0
 11
164.25
 21
92.25
 31
0.0
  0
LINE
  8
0
  6
CONTINUOUS
 62
     1
 10
164.25
 20
92.25
 30
0.0
 11
164.25
 21
88.15
 31
0.0
  0
LINE
  8
0
  6
CONTINUOUS
 62
     1
 10
164.25
 20
92.25
 30
0.0
 11
166.25
 21
92.25
 31
0.0
  0
LINE
  8
0
  6
CONTINUOUS
 62
     1
 10
160.0
 20
164.425
 30
0.0
 11
160.0
 21
146.575
 31
0.0
  0
LINE
  8
0
  6
CONTINUOUS
 62
     1
 10
61.0
 20
165.5
 30
0.0
 11
61.0
 21
145.5
 31
0.0
  0
ARC
  8
0
  6
CONTINUOUS
 62
     1
 10
161.0
 20
165.0
 30
0.0
 40
0.5
 50
0.0
 51
90.0
  0
ARC
  8
0
  6
CONTINUOUS
 62
     1
 10
161.0
 20
146.0
 30
0.0
 40
0.5
 50
270.0
 51
0.0
  0
LINE
  8
0
  6
CONTINUOUS
 62
     1
 10
160.5
 20
155.75
 30
0.0
 11
161.5
 21
155.75
 31
0.0
  0
LINE
  8
0
  6
CONTINUOUS
 62
     1
 10
161.5
 20
155.75
 30
0.0
 11
161.5
 21
165.0
 31
0.0
  0
LINE
  8
0
  6
CONTINUOUS
 62
     1
 10
161.5
 20
155.25
 30
0.0
 11
160.5
 21
155.25
 31
0.0
  0
LINE
  8
0
  6
CONTINUOUS
 62
     1
 10
161.5
 20
146.0
 30
0.0
 11
161.5
 21
155.25
 31
0.0
  0
LINE
  8
0
  6
CONTINUOUS
 62
     1
 10
160.5
 20
155.25
 30
0.0
 11
160.5
 21
146.5
 31
0.0
  0
LINE
  8
0
  6
CONTINUOUS
 62
     1
 10
160.5
 20
164.5
 30
0.0
 11
160.5
 21
155.75
 31
0.0
  0
LINE
  8
0
  6
CONTINUOUS
 62
     1
 10
63.5
 20
150.25
 30
0.0
 11
63.5
 21
160.75
 31
0.0
  0
LINE
  8
0
  6
CONTINUOUS
 62
     1
 10
66.0
 20
150.25
 30
0.0
 11
66.0
 21
160.75
 31
0.0
  0
LINE
  8
0
  6
CONTINUOUS
 62
     1
 10
65.75
 20
150.25
 30
0.0
 11
65.75
 21
146.75
 31
0.0
  0
LINE
  8
0
  6
CONTINUOUS
 62
     1
 10
65.75
 20
150.25
 30
0.0
 11
65.75
 21
146.75
 31
0.0
  0
LINE
  8
0
  6
CONTINUOUS
 62
     1
 10
65.75
 20
150.5
 30
0.0
 11
66.0
 21
150.5
 31
0.0
  0
LINE
  8
0
  6
CONTINUOUS
 62
     1
 10
63.5
 20
150.25
 30
0.0
 11
65.75
 21
150.25
 31
0.0
  0
LINE
  8
0
  6
CONTINUOUS
 62
     1
 10
65.75
 20
146.75
 30
0.0
 11
61.0
 21
146.75
 31
0.0
  0
LINE
  8
0
  6
CONTINUOUS
 62
     1
 10
61.0
 20
145.5
 30
0.0
 11
65.75
 21
145.5
 31
0.0
  0
LINE
  8
0
  6
CONTINUOUS
 62
     1
 10
61.0
 20
146.5
 30
0.0
 11
65.75
 21
146.5
 31
0.0
  0
LINE
  8
0
  6
CONTINUOUS
 62
     1
 10
65.75
 20
160.75
 30
0.0
 11
65.75
 21
164.25
 31
0.0
  0
LINE
  8
0
  6
CONTINUOUS
 62
     1
 10
65.75
 20
160.5
 30
0.0
 11
66.0
 21
160.5
 31
0.0
  0
LINE
  8
0
  6
CONTINUOUS
 62
     1
 10
63.5
 20
160.75
 30
0.0
 11
65.75
 21
160.75
 31
0.0
  0
LINE
  8
0
  6
CONTINUOUS
 62
     1
 10
65.75
 20
164.25
 30
0.0
 11
61.0
 21
164.25
 31
0.0
  0
LINE
  8
0
  6
CONTINUOUS
 62
     1
 10
65.75
 20
164.5
 30
0.0
 11
61.0
 21
164.5
 31
0.0
  0
LINE
  8
0
  6
CONTINUOUS
 62
     1
 10
65.75
 20
165.5
 30
0.0
 11
61.0
 21
165.5
 31
0.0
  0
LINE
  8
0
  6
CONTINUOUS
 62
     1
 10
160.5
 20
164.5
 30
0.0
 11
66.0
 21
164.5
 31
0.0
  0
LINE
  8
0
  6
CONTINUOUS
 62
     1
 10
161.0
 20
165.5
 30
0.0
 11
66.0
 21
165.5
 31
0.0
  0
LINE
  8
0
  6
CONTINUOUS
 62
     1
 10
70.75
 20
146.5
 30
0.0
 11
70.75
 21
150.5
 31
0.0
  0
LINE
  8
0
  6
CONTINUOUS
 62
     1
 10
70.75
 20
150.5
 30
0.0
 11
66.0
 21
150.5
 31
0.0
  0
LINE
  8
0
  6
CONTINUOUS
 62
     1
 10
74.3
 20
151.25
 30
0.0
 11
74.3
 21
159.75
 31
0.0
  0
LINE
  8
0
  6
CONTINUOUS
 62
     1
 10
152.7
 20
151.25
 30
0.0
 11
152.7
 21
151.25
 31
0.0
  0
LINE
  8
0
  6
CONTINUOUS
 62
     1
 10
73.5
 20
151.25
 30
0.0
 11
152.7
 21
151.25
 31
0.0
  0
LINE
  8
0
  6
CONTINUOUS
 62
     1
 10
152.7
 20
151.25
 30
0.0
 11
152.7
 21
159.75
 31
0.0
  0
LINE
  8
0
  6
CONTINUOUS
 62
     1
 10
152.7
 20
159.75
 30
0.0
 11
73.5
 21
159.75
 31
0.0
  0
LINE
  8
0
  6
CONTINUOUS
 62
     1
 10
151.9
 20
159.75
 30
0.0
 11
151.9
 21
151.25
 31
0.0
  0
LINE
  8
0
  6
CONTINUOUS
 62
     1
 10
71.0
 20
148.5
 30
0.0
 11
71.0
 21
152.0
 31
0.0
  0
LINE
  8
0
  6
CONTINUOUS
 62
     1
 10
71.0
 20
152.0
 30
0.0
 11
72.7
 21
152.0
 31
0.0
  0
LINE
  8
0
  6
CONTINUOUS
 62
     1
 10
71.0
 20
148.5
 30
0.0
 11
73.5
 21
148.5
 31
0.0
  0
LINE
  8
0
  6
CONTINUOUS
 62
     1
 10
73.5
 20
148.5
 30
0.0
 11
73.5
 21
149.25
 31
0.0
  0
LINE
  8
0
  6
CONTINUOUS
 62
     1
 10
73.5
 20
149.25
 30
0.0
 11
72.7
 21
149.25
 31
0.0
  0
LINE
  8
0
  6
CONTINUOUS
 62
     1
 10
72.7
 20
149.25
 30
0.0
 11
73.5
 21
149.25
 31
0.0
  0
LINE
  8
0
  6
CONTINUOUS
 62
     1
 10
72.7
 20
149.25
 30
0.0
 11
72.7
 21
161.75
 31
0.0
  0
LINE
  8
0
  6
CONTINUOUS
 62
     1
 10
73.5
 20
159.75
 30
0.0
 11
152.7
 21
159.75
 31
0.0
  0
LINE
  8
0
  6
CONTINUOUS
 62
     1
 10
71.0
 20
162.5
 30
0.0
 11
71.0
 21
159.0
 31
0.0
  0
LINE
  8
0
  6
CONTINUOUS
 62
     1
 10
71.0
 20
159.0
 30
0.0
 11
72.7
 21
159.0
 31
0.0
  0
LINE
  8
0
  6
CONTINUOUS
 62
     1
 10
71.0
 20
162.5
 30
0.0
 11
73.5
 21
162.5
 31
0.0
  0
LINE
  8
0
  6
CONTINUOUS
 62
     1
 10
73.5
 20
162.5
 30
0.0
 11
73.5
 21
161.75
 31
0.0
  0
LINE
  8
0
  6
CONTINUOUS
 62
     1
 10
73.5
 20
161.75
 30
0.0
 11
72.7
 21
161.75
 31
0.0
  0
LINE
  8
0
  6
CONTINUOUS
 62
     1
 10
72.7
 20
161.75
 30
0.0
 11
73.5
 21
161.75
 31
0.0
  0
LINE
  8
0
  6
CONTINUOUS
 62
     1
 10
72.7
 20
161.75
 30
0.0
 11
72.7
 21
149.25
 31
0.0
  0
LINE
  8
0
  6
CONTINUOUS
 62
     1
 10
73.5
 20
149.25
 30
0.0
 11
73.5
 21
161.75
 31
0.0
  0
LINE
  8
0
  6
CONTINUOUS
 62
     1
 10
70.75
 20
164.5
 30
0.0
 11
70.75
 21
160.5
 31
0.0
  0
LINE
  8
0
  6
CONTINUOUS
 62
     1
 10
70.75
 20
160.5
 30
0.0
 11
66.0
 21
160.5
 31
0.0
  0
POINT
  8
0
  6
CONTINUOUS
 62
     1
 10
68.5
 20
156.5
 30
0.0
  0
LINE
  8
0
  6
CONTINUOUS
 62
     1
 10
68.75
 20
156.75
 30
0.0
 11
68.5
 21
156.5
 31
0.0
  0
POINT
  8
0
  6
CONTINUOUS
 62
     1
 10
68.5
 20
154.5
 30
0.0
  0
LINE
  8
0
  6
CONTINUOUS
 62
     1
 10
68.5
 20
154.5
 30
0.0
 11
68.5
 21
156.5
 31
0.0
  0
LINE
  8
0
  6
CONTINUOUS
 62
     1
 10
68.75
 20
154.25
 30
0.0
 11
68.5
 21
154.5
 31
0.0
  0
POINT
  8
0
  6
CONTINUOUS
 62
     1
 10
158.0
 20
155.25
 30
0.0
  0
LINE
  8
0
  6
CONTINUOUS
 62
     1
 10
158.25
 20
156.75
 30
0.0
 11
158.5
 21
156.5
 31
0.0
  0
LINE
  8
0
  6
CONTINUOUS
 62
     1
 10
158.5
 20
154.5
 30
0.0
 11
158.25
 21
154.25
 31
0.0
  0
LINE
  8
0
  6
CONTINUOUS
 62
     1
 10
158.5
 20
156.5
 30
0.0
 11
158.5
 21
154.5
 31
0.0
  0
LINE
  8
0
  6
CONTINUOUS
 62
     1
 10
68.75
 20
156.75
 30
0.0
 11
72.7
 21
156.75
 31
0.0
  0
LINE
  8
0
  6
CONTINUOUS
 62
     1
 10
68.75
 20
154.25
 30
0.0
 11
72.7
 21
154.25
 31
0.0
  0
LINE
  8
0
  6
CONTINUOUS
 62
     1
 10
74.3
 20
156.75
 30
0.0
 11
151.9
 21
156.75
 31
0.0
  0
LINE
  8
0
  6
CONTINUOUS
 62
     1
 10
74.3
 20
154.25
 30
0.0
 11
151.9
 21
154.25
 31
0.0
  0
LINE
  8
0
  6
CONTINUOUS
 62
     1
 10
66.0
 20
145.5
 30
0.0
 11
161.0
 21
145.5
 31
0.0
  0
LINE
  8
0
  6
CONTINUOUS
 62
     1
 10
66.0
 20
146.5
 30
0.0
 11
160.5
 21
146.5
 31
0.0
  0
LINE
  8
0
  6
CONTINUOUS
 62
     1
 10
65.75
 20
146.5
 30
0.0
 11
65.75
 21
146.5
 31
0.0
  0
LINE
  8
0
  6
CONTINUOUS
 62
     1
 10
152.7
 20
157.448557159
 30
0.0
 11
154.7
 21
157.448557159
 31
0.0
  0
LINE
  8
0
  6
CONTINUOUS
 62
     1
 10
154.7
 20
157.448557159
 30
0.0
 11
154.7
 21
153.551442841
 31
0.0
  0
LINE
  8
0
  6
CONTINUOUS
 62
     1
 10
154.7
 20
153.551442841
 30
0.0
 11
152.7
 21
153.551442841
 31
0.0
  0
LINE
  8
0
  6
CONTINUOUS
 62
     1
 10
158.25
 20
154.25
 30
0.0
 11
154.7
 21
154.25
 31
0.0
  0
LINE
  8
0
  6
CONTINUOUS
 62
     1
 10
154.7
 20
156.75
 30
0.0
 11
158.25
 21
156.75
 31
0.0
  0
LINE
  8
0
  6
CONTINUOUS
 62
     1
 10
152.7
 20
155.5
 30
0.0
 11
154.3
 21
155.5
 31
0.0
  0
LINE
  8
0
  6
CONTINUOUS
 62
     1
 10
61.0
 20
164.25
 30
0.0
 11
57.0
 21
164.25
 31
0.0
  0
LINE
  8
0
  6
CONTINUOUS
 62
     1
 10
57.0
 20
164.25
 30
0.0
 11
57.0
 21
146.75
 31
0.0
  0
LINE
  8
0
  6
CONTINUOUS
 62
     1
 10
57.0
 20
146.75
 30
0.0
 11
61.0
 21
146.75
 31
0.0
  0
TEXT
  8
0
  6
CONTINUOUS
 62
     2
 10
165.9
 20
16.1
 30
0.25
 40
2.5
  1
４　　－
 50
0.0
 41
0.9
 51
0.0
  7
KANJI0
  0
TEXT
  8
0
  6
CONTINUOUS
 62
     2
 10
165.9
 20
23.1
 30
0.25
 40
2.5
  1
３　　＋
 50
0.0
 41
0.9
 51
0.0
  7
KANJI0
  0
TEXT
  8
0
  6
CONTINUOUS
 62
     2
 10
170.5
 20
18.6
 30
0.16
 40
2.0
  1
ＩＮＰＵＴ
 50
0.0
 41
0.8
 51
0.0
  7
KANJI1
  0
TEXT
  8
0
  6
CONTINUOUS
 62
     2
 10
170.5
 20
21.1
 30
0.16
 40
2.0
  1
ＲＩＧＨＴ
 50
0.0
 41
0.8
 51
0.0
  7
KANJI1
  0
ARC
  8
0
  6
CONTINUOUS
 62
     2
 10
179.9
 20
24.8
 30
0.0
 40
1.0
 50
0.0
 51
90.0
  0
ARC
  8
0
  6
CONTINUOUS
 62
     2
 10
179.9
 20
16.8
 30
0.0
 40
1.0
 50
270.0
 51
0.0
  0
ARC
  8
0
  6
CONTINUOUS
 62
     2
 10
181.9
 20
21.8
 30
0.0
 40
1.0
 50
180.0
 51
270.0
  0
ARC
  8
0
  6
CONTINUOUS
 62
     2
 10
181.9
 20
19.8
 30
0.0
 40
1.0
 50
90.0
 51
180.0
  0
LINE
  8
0
  6
CONTINUOUS
 62
     2
 10
180.9
 20
24.8
 30
0.0
 11
180.9
 21
21.8
 31
0.0
  0
LINE
  8
0
  6
CONTINUOUS
 62
     2
 10
180.9
 20
19.8
 30
0.0
 11
180.9
 21
16.8
 31
0.0
  0
TEXT
  8
0
  6
CONTINUOUS
 62
     2
 10
182.9
 20
19.3
 30
0.3
 40
3.0
  1
計器前面から見て右側指針
 50
0.0
 41
0.9
 51
0.0
  7
KANJI2
  0
TEXT
  8
0
  6
CONTINUOUS
 62
     2
 10
165.9
 20
35.1
 30
0.25
 40
2.5
  1
１　　＋
 50
0.0
 41
0.9
 51
0.0
  7
KANJI0
  0
TEXT
  8
0
  6
CONTINUOUS
 62
     2
 10
165.9
 20
28.1
 30
0.25
 40
2.5
  1
２　　－
 50
0.0
 41
0.9
 51
0.0
  7
KANJI0
  0
TEXT
  8
0
  6
CONTINUOUS
 62
     2
 10
171.5
 20
33.1
 30
0.16
 40
2.0
  1
ＬＥＦＴ
 50
0.0
 41
0.8
 51
0.0
  7
KANJI1
  0
TEXT
  8
0
  6
CONTINUOUS
 62
     2
 10
170.5
 20
30.6
 30
0.16
 40
2.0
  1
ＩＮＰＵＴ
 50
0.0
 41
0.8
 51
0.0
  7
KANJI1
  0
ARC
  8
0
  6
CONTINUOUS
 62
     2
 10
179.9
 20
28.8
 30
0.0
 40
1.0
 50
270.0
 51
0.0
  0
ARC
  8
0
  6
CONTINUOUS
 62
     2
 10
181.9
 20
33.8
 30
0.0
 40
1.0
 50
180.0
 51
270.0
  0
ARC
  8
0
  6
CONTINUOUS
 62
     2
 10
181.9
 20
31.8
 30
0.0
 40
1.0
 50
90.0
 51
180.0
  0
LINE
  8
0
  6
CONTINUOUS
 62
     2
 10
180.9
 20
36.8
 30
0.0
 11
180.9
 21
33.8
 31
0.0
  0
LINE
  8
0
  6
CONTINUOUS
 62
     2
 10
180.9
 20
31.8
 30
0.0
 11
180.9
 21
28.8
 31
0.0
  0
TEXT
  8
0
  6
CONTINUOUS
 62
     2
 10
182.9
 20
31.3
 30
0.3
 40
3.0
  1
計器前面から見て左側指針
 50
0.0
 41
0.9
 51
0.0
  7
KANJI2
  0
TEXT
  8
0
  6
CONTINUOUS
 62
     2
 10
152.5
 20
34.4
 30
0.3
 40
3.0
  1
端子記号
 50
0.0
 41
0.9
 51
0.0
  7
KANJI3
  0
TEXT
  8
0
  6
CONTINUOUS
 62
     2
 10
15.1
 20
33.15
 30
0.3
 40
3.0
  1
目盛長　１００ｍｍ
 50
0.0
 41
0.9
 51
0.0
  7
KANJI2
  0
TEXT
  8
0
  6
CONTINUOUS
 62
     2
 10
46.1
 20
33.15
 30
0.3
 40
3.0
  1
重量　約１．５ｋｇ
 50
0.0
 41
0.9
 51
0.0
  7
KANJI2
  0
LINE
  8
0
  6
CONTINUOUS
 62
     2
 10
188.65
 20
169.8
 30
0.0
 11
182.65
 21
169.8
 31
0.0
  0
LINE
  8
0
  6
CONTINUOUS
 62
     2
 10
184.65
 20
169.8
 30
0.0
 11
184.002952387
 21
167.385185434
 31
0.0
  0
LINE
  8
0
  6
CONTINUOUS
 62
     2
 10
184.65
 20
169.8
 30
0.0
 11
185.297047613
 21
167.385185434
 31
0.0
  0
LINE
  8
0
  6
CONTINUOUS
 62
     2
 10
184.65
 20
169.8
 30
0.0
 11
184.65
 21
139.8
 31
0.0
  0
TEXT
  8
0
  6
CONTINUOUS
 62
     2
 10
183.65
 20
150.63
 30
0.3
 40
3.0
  1
１４６
 50
90.0
 41
0.6
 51
0.0
  7
KANJI4
  0
TEXT
  8
0
  6
CONTINUOUS
 62
     2
 10
183.65
 20
157.08
 30
0.18
 40
1.8
  1
－０
 50
90.0
 41
0.6
 51
0.0
  7
KANJI5
  0
TEXT
  8
0
  6
CONTINUOUS
 62
     2
 10
181.85
 20
157.08
 30
0.18
 40
1.8
  1
＋１
 50
90.0
 41
0.6
 51
0.0
  7
KANJI5
  0
TEXT
  8
0
  6
CONTINUOUS
 62
     2
 10
193.5
 20
167.8
 30
0.3
 40
3.0
  1
パネルカット寸法
 50
0.0
 41
0.9
 51
0.0
  7
KANJI6
  0
LINE
  8
0
  6
LTYPE1
 62
     2
 10
184.65
 20
154.8
 30
0.0
 11
189.65
 21
154.8
 31
0.0
  0
LINE
  8
0
  6
LTYPE1
 62
     2
 10
197.65
 20
154.8
 30
0.0
 11
202.65
 21
154.8
 31
0.0
  0
LINE
  8
0
  6
CONTINUOUS
 62
     2
 10
189.65
 20
178.8
 30
0.0
 11
187.235185434
 21
179.447047613
 31
0.0
  0
LINE
  8
0
  6
CONTINUOUS
 62
     2
 10
189.65
 20
178.8
 30
0.0
 11
187.235185434
 21
178.152952387
 31
0.0
  0
LINE
  8
0
  6
CONTINUOUS
 62
     2
 10
185.9
 20
178.8
 30
0.0
 11
189.65
 21
178.8
 31
0.0
  0
LINE
  8
0
  6
CONTINUOUS
 62
     2
 10
189.65
 20
178.8
 30
0.0
 11
197.65
 21
178.8
 31
0.0
  0
LINE
  8
0
  6
CONTINUOUS
 62
     2
 10
197.65
 20
178.8
 30
0.0
 11
200.064814566
 21
178.152952387
 31
0.0
  0
LINE
  8
0
  6
CONTINUOUS
 62
     2
 10
197.65
 20
178.8
 30
0.0
 11
200.064814566
 21
179.447047613
 31
0.0
  0
LINE
  8
0
  6
CONTINUOUS
 62
     2
 10
197.65
 20
178.8
 30
0.0
 11
206.95
 21
178.8
 31
0.0
  0
LINE
  8
0
  6
LTYPE1
 62
     2
 10
193.65
 20
181.8
 30
0.0
 11
193.65
 21
169.8
 31
0.0
  0
LINE
  8
0
  6
CONTINUOUS
 62
     2
 10
203.0
 20
173.8
 30
0.0
 11
202.352952387
 21
171.385185434
 31
0.0
  0
LINE
  8
0
  6
CONTINUOUS
 62
     2
 10
203.0
 20
173.8
 30
0.0
 11
203.647047613
 21
171.385185434
 31
0.0
  0
LINE
  8
0
  6
CONTINUOUS
 62
     2
 10
203.0
 20
173.8
 30
0.0
 11
203.0
 21
135.8
 31
0.0
  0
LINE
  8
0
  6
CONTINUOUS
 62
     2
 10
203.0
 20
135.8
 30
0.0
 11
203.647047613
 21
138.214814566
 31
0.0
  0
LINE
  8
0
  6
CONTINUOUS
 62
     2
 10
203.0
 20
135.8
 30
0.0
 11
202.352952387
 21
138.214814566
 31
0.0
  0
LINE
  8
0
  6
CONTINUOUS
 62
     2
 10
198.0
 20
135.8
 30
0.0
 11
205.0
 21
135.8
 31
0.0
  0
LINE
  8
0
  6
CONTINUOUS
 62
     2
 10
197.65
 20
173.8
 30
0.0
 11
205.0
 21
173.8
 31
0.0
  0
LINE
  8
0
  6
LTYPE2
 62
     2
 10
197.65
 20
173.8
 30
0.0
 11
189.65
 21
173.8
 31
0.0
  0
LINE
  8
0
  6
CONTINUOUS
 62
     2
 10
189.65
 20
173.8
 30
0.0
 11
189.65
 21
180.8
 31
0.0
  0
LINE
  8
0
  6
CONTINUOUS
 62
     2
 10
197.65
 20
173.8
 30
0.0
 11
197.65
 21
180.8
 31
0.0
  0
LINE
  8
0
  6
LTYPE2
 62
     2
 10
189.65
 20
173.8
 30
0.0
 11
189.65
 21
169.8
 31
0.0
  0
LINE
  8
0
  6
LTYPE2
 62
     2
 10
197.65
 20
173.8
 30
0.0
 11
197.65
 21
169.8
 31
0.0
  0
LINE
  8
0
  6
LTYPE2
 62
     2
 10
189.65
 20
139.8
 30
0.0
 11
189.65
 21
135.8
 31
0.0
  0
LINE
  8
0
  6
LTYPE2
 62
     2
 10
189.65
 20
135.8
 30
0.0
 11
197.65
 21
135.8
 31
0.0
  0
LINE
  8
0
  6
LTYPE2
 62
     2
 10
197.65
 20
135.8
 30
0.0
 11
197.65
 21
139.8
 31
0.0
  0
TEXT
  8
0
  6
CONTINUOUS
 62
     2
 10
207.0
 20
144.7
 30
0.3
 40
3.0
  1
（裏側取付スペース）
 50
90.0
 41
0.6
 51
0.0
  7
KANJI4
  0
LINE
  8
0
  6
LTYPE3
 62
     2
 10
193.65
 20
139.8
 30
0.0
 11
193.65
 21
131.8
 31
0.0
  0
TEXT
  8
0
  6
CONTINUOUS
 62
     2
 10
216.2
 20
174.479491924
 30
0.3
 40
3.0
  1
Ｎは連結台数
 50
0.0
 41
0.9
 51
0.0
  7
KANJI2
  0
LINE
  8
0
  6
CONTINUOUS
 62
     2
 10
44.0
 20
123.5
 30
0.0
 11
44.0
 21
130.5
 31
0.0
  0
LINE
  8
0
  6
CONTINUOUS
 62
     2
 10
44.0
 20
128.5
 30
0.0
 11
41.585185434
 21
129.147047613
 31
0.0
  0
LINE
  8
0
  6
CONTINUOUS
 62
     2
 10
44.0
 20
128.5
 30
0.0
 11
41.585185434
 21
127.852952387
 31
0.0
  0
LINE
  8
0
  6
CONTINUOUS
 62
     2
 10
44.0
 20
128.5
 30
0.0
 11
24.0
 21
128.5
 31
0.0
  0
LINE
  8
0
  6
CONTINUOUS
 62
     2
 10
24.0
 20
128.5
 30
0.0
 11
26.414814566
 21
127.852952387
 31
0.0
  0
LINE
  8
0
  6
CONTINUOUS
 62
     2
 10
24.0
 20
128.5
 30
0.0
 11
26.414814566
 21
129.147047613
 31
0.0
  0
LINE
  8
0
  6
CONTINUOUS
 62
     2
 10
24.0
 20
123.5
 30
0.0
 11
24.0
 21
130.5
 31
0.0
  0
TEXT
  8
0
  6
CONTINUOUS
 62
     2
 10
32.05
 20
129.5
 30
0.3
 40
3.0
  1
４０
 50
0.0
 41
0.6
 51
0.0
  7
KANJI4
  0
TEXT
  8
0
  6
CONTINUOUS
 62
     2
 10
26.95
 20
115.25
 30
0.3
 40
3.0
  1
（名称板）
 50
0.0
 41
0.9
 51
0.0
  7
KANJI2
  0
TEXT
  8
0
  6
CONTINUOUS
 62
     2
 10
27.45
 20
49.25
 30
0.3
 40
3.0
  1
（ＴＡＧ板）
 50
0.0
 41
0.9
 51
0.0
  7
KANJI2
  0
LINE
  8
0
  6
CONTINUOUS
 62
     2
 10
27.75
 20
61.3
 30
0.0
 11
25.812942898
 21
62.880446071
 31
0.0
  0
LINE
  8
0
  6
CONTINUOUS
 62
     2
 10
27.75
 20
61.3
 30
0.0
 11
21.55
 21
69.9
 31
0.0
  0
LINE
  8
0
  6
CONTINUOUS
 62
     2
 10
21.55
 20
69.9
 30
0.0
 11
15.85
 21
69.9
 31
0.0
  0
TEXT
  8
0
  6
CONTINUOUS
 62
     2
 10
15.85
 20
70.9
 30
0.3
 40
3.0
  1
指針
 50
0.0
 41
0.9
 51
0.0
  7
KANJI2
  0
LINE
  8
0
  6
CONTINUOUS
 62
     2
 10
40.25
 20
61.3
 30
0.0
 11
42.187057102
 21
62.880446071
 31
0.0
  0
LINE
  8
0
  6
CONTINUOUS
 62
     2
 10
40.25
 20
61.3
 30
0.0
 11
46.45
 21
69.9
 31
0.0
  0
LINE
  8
0
  6
CONTINUOUS
 62
     2
 10
52.15
 20
69.9
 30
0.0
 11
46.45
 21
69.9
 31
0.0
  0
TEXT
  8
0
  6
CONTINUOUS
 62
     2
 10
46.45
 20
70.9
 30
0.3
 40
3.0
  1
指針
 50
0.0
 41
0.9
 51
0.0
  7
KANJI2
  0
LINE
  8
0
  6
CONTINUOUS
 62
     2
 10
31.875
 20
58.0
 30
0.0
 11
33.5375
 21
58.0
 31
0.0
  0
LINE
  8
0
  6
CONTINUOUS
 62
     2
 10
31.875
 20
63.0
 30
0.0
 11
33.5375
 21
63.0
 31
0.0
  0
LINE
  8
0
  6
CONTINUOUS
 62
     2
 10
31.875
 20
68.0
 30
0.0
 11
33.5375
 21
68.0
 31
0.0
  0
LINE
  8
0
  6
CONTINUOUS
 62
     2
 10
31.875
 20
73.0
 30
0.0
 11
33.5375
 21
73.0
 31
0.0
  0
LINE
  8
0
  6
CONTINUOUS
 62
     2
 10
31.875
 20
78.0
 30
0.0
 11
33.5375
 21
78.0
 31
0.0
  0
LINE
  8
0
  6
CONTINUOUS
 62
     2
 10
31.875
 20
83.0
 30
0.0
 11
33.5375
 21
83.0
 31
0.0
  0
LINE
  8
0
  6
CONTINUOUS
 62
     2
 10
31.875
 20
88.0
 30
0.0
 11
33.5375
 21
88.0
 31
0.0
  0
LINE
  8
0
  6
CONTINUOUS
 62
     2
 10
31.875
 20
93.0
 30
0.0
 11
33.5375
 21
93.0
 31
0.0
  0
LINE
  8
0
  6
CONTINUOUS
 62
     2
 10
31.875
 20
98.0
 30
0.0
 11
33.5375
 21
98.0
 31
0.0
  0
LINE
  8
0
  6
CONTINUOUS
 62
     2
 10
31.875
 20
103.0
 30
0.0
 11
33.5375
 21
103.0
 31
0.0
  0
LINE
  8
0
  6
CONTINUOUS
 62
     2
 10
31.875
 20
108.0
 30
0.0
 11
33.5375
 21
108.0
 31
0.0
  0
LINE
  8
0
  6
CONTINUOUS
 62
     2
 10
31.75
 20
57.925
 30
0.0
 11
31.75
 21
58.075
 31
0.0
  0
LINE
  8
0
  6
CONTINUOUS
 62
     2
 10
31.75
 20
58.075
 30
0.0
 11
33.6625
 21
58.075
 31
0.0
  0
LINE
  8
0
  6
CONTINUOUS
 62
     2
 10
33.6625
 20
58.075
 30
0.0
 11
33.6625
 21
57.925
 31
0.0
  0
LINE
  8
0
  6
CONTINUOUS
 62
     2
 10
33.6625
 20
57.925
 30
0.0
 11
31.75
 21
57.925
 31
0.0
  0
LINE
  8
0
  6
CONTINUOUS
 62
     2
 10
31.75
 20
59.0
 30
0.0
 11
32.9125
 21
59.0
 31
0.0
  0
LINE
  8
0
  6
CONTINUOUS
 62
     2
 10
32.9125
 20
59.0
 30
0.0
 11
31.75
 21
59.0
 31
0.0
  0
LINE
  8
0
  6
CONTINUOUS
 62
     2
 10
31.75
 20
62.925
 30
0.0
 11
31.75
 21
63.075
 31
0.0
  0
LINE
  8
0
  6
CONTINUOUS
 62
     2
 10
31.75
 20
63.075
 30
0.0
 11
33.6625
 21
63.075
 31
0.0
  0
LINE
  8
0
  6
CONTINUOUS
 62
     2
 10
33.6625
 20
63.075
 30
0.0
 11
33.6625
 21
62.925
 31
0.0
  0
LINE
  8
0
  6
CONTINUOUS
 62
     2
 10
33.6625
 20
62.925
 30
0.0
 11
31.75
 21
62.925
 31
0.0
  0
LINE
  8
0
  6
CONTINUOUS
 62
     2
 10
31.75
 20
60.0
 30
0.0
 11
32.9125
 21
60.0
 31
0.0
  0
LINE
  8
0
  6
CONTINUOUS
 62
     2
 10
32.9125
 20
60.0
 30
0.0
 11
31.75
 21
60.0
 31
0.0
  0
LINE
  8
0
  6
CONTINUOUS
 62
     2
 10
31.75
 20
61.0
 30
0.0
 11
32.9125
 21
61.0
 31
0.0
  0
LINE
  8
0
  6
CONTINUOUS
 62
     2
 10
32.9125
 20
61.0
 30
0.0
 11
31.75
 21
61.0
 31
0.0
  0
LINE
  8
0
  6
CONTINUOUS
 62
     2
 10
31.75
 20
62.0
 30
0.0
 11
32.9125
 21
62.0
 31
0.0
  0
LINE
  8
0
  6
CONTINUOUS
 62
     2
 10
32.9125
 20
62.0
 30
0.0
 11
31.75
 21
62.0
 31
0.0
  0
LINE
  8
0
  6
CONTINUOUS
 62
     2
 10
31.75
 20
64.0
 30
0.0
 11
32.9125
 21
64.0
 31
0.0
  0
LINE
  8
0
  6
CONTINUOUS
 62
     2
 10
32.9125
 20
64.0
 30
0.0
 11
31.75
 21
64.0
 31
0.0
  0
LINE
  8
0
  6
CONTINUOUS
 62
     2
 10
31.75
 20
67.925
 30
0.0
 11
31.75
 21
68.075
 31
0.0
  0
LINE
  8
0
  6
CONTINUOUS
 62
     2
 10
31.75
 20
68.075
 30
0.0
 11
33.6625
 21
68.075
 31
0.0
  0
LINE
  8
0
  6
CONTINUOUS
 62
     2
 10
33.6625
 20
68.075
 30
0.0
 11
33.6625
 21
67.925
 31
0.0
  0
LINE
  8
0
  6
CONTINUOUS
 62
     2
 10
33.6625
 20
67.925
 30
0.0
 11
31.75
 21
67.925
 31
0.0
  0
LINE
  8
0
  6
CONTINUOUS
 62
     2
 10
31.75
 20
65.0
 30
0.0
 11
32.9125
 21
65.0
 31
0.0
  0
LINE
  8
0
  6
CONTINUOUS
 62
     2
 10
32.9125
 20
65.0
 30
0.0
 11
31.75
 21
65.0
 31
0.0
  0
LINE
  8
0
  6
CONTINUOUS
 62
     2
 10
31.75
 20
66.0
 30
0.0
 11
32.9125
 21
66.0
 31
0.0
  0
LINE
  8
0
  6
CONTINUOUS
 62
     2
 10
32.9125
 20
66.0
 30
0.0
 11
31.75
 21
66.0
 31
0.0
  0
LINE
  8
0
  6
CONTINUOUS
 62
     2
 10
31.75
 20
67.0
 30
0.0
 11
32.9125
 21
67.0
 31
0.0
  0
LINE
  8
0
  6
CONTINUOUS
 62
     2
 10
32.9125
 20
67.0
 30
0.0
 11
31.75
 21
67.0
 31
0.0
  0
LINE
  8
0
  6
CONTINUOUS
 62
     2
 10
31.75
 20
69.0
 30
0.0
 11
32.9125
 21
69.0
 31
0.0
  0
LINE
  8
0
  6
CONTINUOUS
 62
     2
 10
32.9125
 20
69.0
 30
0.0
 11
31.75
 21
69.0
 31
0.0
  0
LINE
  8
0
  6
CONTINUOUS
 62
     2
 10
31.75
 20
72.925
 30
0.0
 11
31.75
 21
73.075
 31
0.0
  0
LINE
  8
0
  6
CONTINUOUS
 62
     2
 10
31.75
 20
73.075
 30
0.0
 11
33.6625
 21
73.075
 31
0.0
  0
LINE
  8
0
  6
CONTINUOUS
 62
     2
 10
33.6625
 20
73.075
 30
0.0
 11
33.6625
 21
72.925
 31
0.0
  0
LINE
  8
0
  6
CONTINUOUS
 62
     2
 10
33.6625
 20
72.925
 30
0.0
 11
31.75
 21
72.925
 31
0.0
  0
LINE
  8
0
  6
CONTINUOUS
 62
     2
 10
31.75
 20
70.0
 30
0.0
 11
32.9125
 21
70.0
 31
0.0
  0
LINE
  8
0
  6
CONTINUOUS
 62
     2
 10
32.9125
 20
70.0
 30
0.0
 11
31.75
 21
70.0
 31
0.0
  0
LINE
  8
0
  6
CONTINUOUS
 62
     2
 10
31.75
 20
71.0
 30
0.0
 11
32.9125
 21
71.0
 31
0.0
  0
LINE
  8
0
  6
CONTINUOUS
 62
     2
 10
32.9125
 20
71.0
 30
0.0
 11
31.75
 21
71.0
 31
0.0
  0
LINE
  8
0
  6
CONTINUOUS
 62
     2
 10
31.75
 20
72.0
 30
0.0
 11
32.9125
 21
72.0
 31
0.0
  0
LINE
  8
0
  6
CONTINUOUS
 62
     2
 10
32.9125
 20
72.0
 30
0.0
 11
31.75
 21
72.0
 31
0.0
  0
LINE
  8
0
  6
CONTINUOUS
 62
     2
 10
31.75
 20
74.0
 30
0.0
 11
32.9125
 21
74.0
 31
0.0
  0
LINE
  8
0
  6
CONTINUOUS
 62
     2
 10
32.9125
 20
74.0
 30
0.0
 11
31.75
 21
74.0
 31
0.0
  0
LINE
  8
0
  6
CONTINUOUS
 62
     2
 10
31.75
 20
77.925
 30
0.0
 11
31.75
 21
78.075
 31
0.0
  0
LINE
  8
0
  6
CONTINUOUS
 62
     2
 10
31.75
 20
78.075
 30
0.0
 11
33.6625
 21
78.075
 31
0.0
  0
LINE
  8
0
  6
CONTINUOUS
 62
     2
 10
33.6625
 20
78.075
 30
0.0
 11
33.6625
 21
77.925
 31
0.0
  0
LINE
  8
0
  6
CONTINUOUS
 62
     2
 10
33.6625
 20
77.925
 30
0.0
 11
31.75
 21
77.925
 31
0.0
  0
LINE
  8
0
  6
CONTINUOUS
 62
     2
 10
31.75
 20
75.0
 30
0.0
 11
32.9125
 21
75.0
 31
0.0
  0
LINE
  8
0
  6
CONTINUOUS
 62
     2
 10
32.9125
 20
75.0
 30
0.0
 11
31.75
 21
75.0
 31
0.0
  0
LINE
  8
0
  6
CONTINUOUS
 62
     2
 10
31.75
 20
76.0
 30
0.0
 11
32.9125
 21
76.0
 31
0.0
  0
LINE
  8
0
  6
CONTINUOUS
 62
     2
 10
32.9125
 20
76.0
 30
0.0
 11
31.75
 21
76.0
 31
0.0
  0
LINE
  8
0
  6
CONTINUOUS
 62
     2
 10
31.75
 20
77.0
 30
0.0
 11
32.9125
 21
77.0
 31
0.0
  0
LINE
  8
0
  6
CONTINUOUS
 62
     2
 10
32.9125
 20
77.0
 30
0.0
 11
31.75
 21
77.0
 31
0.0
  0
LINE
  8
0
  6
CONTINUOUS
 62
     2
 10
31.75
 20
79.0
 30
0.0
 11
32.9125
 21
79.0
 31
0.0
  0
LINE
  8
0
  6
CONTINUOUS
 62
     2
 10
32.9125
 20
79.0
 30
0.0
 11
31.75
 21
79.0
 31
0.0
  0
LINE
  8
0
  6
CONTINUOUS
 62
     2
 10
31.75
 20
82.925
 30
0.0
 11
31.75
 21
83.075
 31
0.0
  0
LINE
  8
0
  6
CONTINUOUS
 62
     2
 10
31.75
 20
83.075
 30
0.0
 11
33.6625
 21
83.075
 31
0.0
  0
LINE
  8
0
  6
CONTINUOUS
 62
     2
 10
33.6625
 20
83.075
 30
0.0
 11
33.6625
 21
82.925
 31
0.0
  0
LINE
  8
0
  6
CONTINUOUS
 62
     2
 10
33.6625
 20
82.925
 30
0.0
 11
31.75
 21
82.925
 31
0.0
  0
LINE
  8
0
  6
CONTINUOUS
 62
     2
 10
31.75
 20
80.0
 30
0.0
 11
32.9125
 21
80.0
 31
0.0
  0
LINE
  8
0
  6
CONTINUOUS
 62
     2
 10
32.9125
 20
80.0
 30
0.0
 11
31.75
 21
80.0
 31
0.0
  0
LINE
  8
0
  6
CONTINUOUS
 62
     2
 10
31.75
 20
81.0
 30
0.0
 11
32.9125
 21
81.0
 31
0.0
  0
LINE
  8
0
  6
CONTINUOUS
 62
     2
 10
32.9125
 20
81.0
 30
0.0
 11
31.75
 21
81.0
 31
0.0
  0
LINE
  8
0
  6
CONTINUOUS
 62
     2
 10
31.75
 20
82.0
 30
0.0
 11
32.9125
 21
82.0
 31
0.0
  0
LINE
  8
0
  6
CONTINUOUS
 62
     2
 10
32.9125
 20
82.0
 30
0.0
 11
31.75
 21
82.0
 31
0.0
  0
LINE
  8
0
  6
CONTINUOUS
 62
     2
 10
31.75
 20
84.0
 30
0.0
 11
32.9125
 21
84.0
 31
0.0
  0
LINE
  8
0
  6
CONTINUOUS
 62
     2
 10
32.9125
 20
84.0
 30
0.0
 11
31.75
 21
84.0
 31
0.0
  0
LINE
  8
0
  6
CONTINUOUS
 62
     2
 10
31.75
 20
87.925
 30
0.0
 11
31.75
 21
88.075
 31
0.0
  0
LINE
  8
0
  6
CONTINUOUS
 62
     2
 10
31.75
 20
88.075
 30
0.0
 11
33.6625
 21
88.075
 31
0.0
  0
LINE
  8
0
  6
CONTINUOUS
 62
     2
 10
33.6625
 20
88.075
 30
0.0
 11
33.6625
 21
87.925
 31
0.0
  0
LINE
  8
0
  6
CONTINUOUS
 62
     2
 10
33.6625
 20
87.925
 30
0.0
 11
31.75
 21
87.925
 31
0.0
  0
LINE
  8
0
  6
CONTINUOUS
 62
     2
 10
31.75
 20
85.0
 30
0.0
 11
32.9125
 21
85.0
 31
0.0
  0
LINE
  8
0
  6
CONTINUOUS
 62
     2
 10
32.9125
 20
85.0
 30
0.0
 11
31.75
 21
85.0
 31
0.0
  0
LINE
  8
0
  6
CONTINUOUS
 62
     2
 10
31.75
 20
86.0
 30
0.0
 11
32.9125
 21
86.0
 31
0.0
  0
LINE
  8
0
  6
CONTINUOUS
 62
     2
 10
32.9125
 20
86.0
 30
0.0
 11
31.75
 21
86.0
 31
0.0
  0
LINE
  8
0
  6
CONTINUOUS
 62
     2
 10
31.75
 20
87.0
 30
0.0
 11
32.9125
 21
87.0
 31
0.0
  0
LINE
  8
0
  6
CONTINUOUS
 62
     2
 10
32.9125
 20
87.0
 30
0.0
 11
31.75
 21
87.0
 31
0.0
  0
LINE
  8
0
  6
CONTINUOUS
 62
     2
 10
31.75
 20
89.0
 30
0.0
 11
32.9125
 21
89.0
 31
0.0
  0
LINE
  8
0
  6
CONTINUOUS
 62
     2
 10
32.9125
 20
89.0
 30
0.0
 11
31.75
 21
89.0
 31
0.0
  0
LINE
  8
0
  6
CONTINUOUS
 62
     2
 10
31.75
 20
92.925
 30
0.0
 11
31.75
 21
93.075
 31
0.0
  0
LINE
  8
0
  6
CONTINUOUS
 62
     2
 10
31.75
 20
93.075
 30
0.0
 11
33.6625
 21
93.075
 31
0.0
  0
LINE
  8
0
  6
CONTINUOUS
 62
     2
 10
33.6625
 20
93.075
 30
0.0
 11
33.6625
 21
92.925
 31
0.0
  0
LINE
  8
0
  6
CONTINUOUS
 62
     2
 10
33.6625
 20
92.925
 30
0.0
 11
31.75
 21
92.925
 31
0.0
  0
LINE
  8
0
  6
CONTINUOUS
 62
     2
 10
31.75
 20
90.0
 30
0.0
 11
32.9125
 21
90.0
 31
0.0
  0
LINE
  8
0
  6
CONTINUOUS
 62
     2
 10
32.9125
 20
90.0
 30
0.0
 11
31.75
 21
90.0
 31
0.0
  0
LINE
  8
0
  6
CONTINUOUS
 62
     2
 10
31.75
 20
91.0
 30
0.0
 11
32.9125
 21
91.0
 31
0.0
  0
LINE
  8
0
  6
CONTINUOUS
 62
     2
 10
32.9125
 20
91.0
 30
0.0
 11
31.75
 21
91.0
 31
0.0
  0
LINE
  8
0
  6
CONTINUOUS
 62
     2
 10
31.75
 20
92.0
 30
0.0
 11
32.9125
 21
92.0
 31
0.0
  0
LINE
  8
0
  6
CONTINUOUS
 62
     2
 10
32.9125
 20
92.0
 30
0.0
 11
31.75
 21
92.0
 31
0.0
  0
LINE
  8
0
  6
CONTINUOUS
 62
     2
 10
31.75
 20
94.0
 30
0.0
 11
32.9125
 21
94.0
 31
0.0
  0
LINE
  8
0
  6
CONTINUOUS
 62
     2
 10
32.9125
 20
94.0
 30
0.0
 11
31.75
 21
94.0
 31
0.0
  0
LINE
  8
0
  6
CONTINUOUS
 62
     2
 10
31.75
 20
97.925
 30
0.0
 11
31.75
 21
98.075
 31
0.0
  0
LINE
  8
0
  6
CONTINUOUS
 62
     2
 10
31.75
 20
98.075
 30
0.0
 11
33.6625
 21
98.075
 31
0.0
  0
LINE
  8
0
  6
CONTINUOUS
 62
     2
 10
33.6625
 20
98.075
 30
0.0
 11
33.6625
 21
97.925
 31
0.0
  0
LINE
  8
0
  6
CONTINUOUS
 62
     2
 10
33.6625
 20
97.925
 30
0.0
 11
31.75
 21
97.925
 31
0.0
  0
LINE
  8
0
  6
CONTINUOUS
 62
     2
 10
31.75
 20
95.0
 30
0.0
 11
32.9125
 21
95.0
 31
0.0
  0
LINE
  8
0
  6
CONTINUOUS
 62
     2
 10
32.9125
 20
95.0
 30
0.0
 11
31.75
 21
95.0
 31
0.0
  0
LINE
  8
0
  6
CONTINUOUS
 62
     2
 10
31.75
 20
96.0
 30
0.0
 11
32.9125
 21
96.0
 31
0.0
  0
LINE
  8
0
  6
CONTINUOUS
 62
     2
 10
32.9125
 20
96.0
 30
0.0
 11
31.75
 21
96.0
 31
0.0
  0
LINE
  8
0
  6
CONTINUOUS
 62
     2
 10
31.75
 20
97.0
 30
0.0
 11
32.9125
 21
97.0
 31
0.0
  0
LINE
  8
0
  6
CONTINUOUS
 62
     2
 10
32.9125
 20
97.0
 30
0.0
 11
31.75
 21
97.0
 31
0.0
  0
LINE
  8
0
  6
CONTINUOUS
 62
     2
 10
31.75
 20
99.0
 30
0.0
 11
32.9125
 21
99.0
 31
0.0
  0
LINE
  8
0
  6
CONTINUOUS
 62
     2
 10
32.9125
 20
99.0
 30
0.0
 11
31.75
 21
99.0
 31
0.0
  0
LINE
  8
0
  6
CONTINUOUS
 62
     2
 10
31.75
 20
102.925
 30
0.0
 11
31.75
 21
103.075
 31
0.0
  0
LINE
  8
0
  6
CONTINUOUS
 62
     2
 10
31.75
 20
103.075
 30
0.0
 11
33.6625
 21
103.075
 31
0.0
  0
LINE
  8
0
  6
CONTINUOUS
 62
     2
 10
33.6625
 20
103.075
 30
0.0
 11
33.6625
 21
102.925
 31
0.0
  0
LINE
  8
0
  6
CONTINUOUS
 62
     2
 10
33.6625
 20
102.925
 30
0.0
 11
31.75
 21
102.925
 31
0.0
  0
LINE
  8
0
  6
CONTINUOUS
 62
     2
 10
31.75
 20
100.0
 30
0.0
 11
32.9125
 21
100.0
 31
0.0
  0
LINE
  8
0
  6
CONTINUOUS
 62
     2
 10
32.9125
 20
100.0
 30
0.0
 11
31.75
 21
100.0
 31
0.0
  0
LINE
  8
0
  6
CONTINUOUS
 62
     2
 10
31.75
 20
101.0
 30
0.0
 11
32.9125
 21
101.0
 31
0.0
  0
LINE
  8
0
  6
CONTINUOUS
 62
     2
 10
32.9125
 20
101.0
 30
0.0
 11
31.75
 21
101.0
 31
0.0
  0
LINE
  8
0
  6
CONTINUOUS
 62
     2
 10
31.75
 20
102.0
 30
0.0
 11
32.9125
 21
102.0
 31
0.0
  0
LINE
  8
0
  6
CONTINUOUS
 62
     2
 10
32.9125
 20
102.0
 30
0.0
 11
31.75
 21
102.0
 31
0.0
  0
LINE
  8
0
  6
CONTINUOUS
 62
     2
 10
31.75
 20
104.0
 30
0.0
 11
32.9125
 21
104.0
 31
0.0
  0
LINE
  8
0
  6
CONTINUOUS
 62
     2
 10
32.9125
 20
104.0
 30
0.0
 11
31.75
 21
104.0
 31
0.0
  0
LINE
  8
0
  6
CONTINUOUS
 62
     2
 10
31.75
 20
107.925
 30
0.0
 11
31.75
 21
108.075
 31
0.0
  0
LINE
  8
0
  6
CONTINUOUS
 62
     2
 10
31.75
 20
108.075
 30
0.0
 11
33.6625
 21
108.075
 31
0.0
  0
LINE
  8
0
  6
CONTINUOUS
 62
     2
 10
33.6625
 20
108.075
 30
0.0
 11
33.6625
 21
107.925
 31
0.0
  0
LINE
  8
0
  6
CONTINUOUS
 62
     2
 10
33.6625
 20
107.925
 30
0.0
 11
31.75
 21
107.925
 31
0.0
  0
LINE
  8
0
  6
CONTINUOUS
 62
     2
 10
31.75
 20
105.0
 30
0.0
 11
32.9125
 21
105.0
 31
0.0
  0
LINE
  8
0
  6
CONTINUOUS
 62
     2
 10
32.9125
 20
105.0
 30
0.0
 11
31.75
 21
105.0
 31
0.0
  0
LINE
  8
0
  6
CONTINUOUS
 62
     2
 10
31.75
 20
106.0
 30
0.0
 11
32.9125
 21
106.0
 31
0.0
  0
LINE
  8
0
  6
CONTINUOUS
 62
     2
 10
32.9125
 20
106.0
 30
0.0
 11
31.75
 21
106.0
 31
0.0
  0
LINE
  8
0
  6
CONTINUOUS
 62
     2
 10
31.75
 20
107.0
 30
0.0
 11
32.9125
 21
107.0
 31
0.0
  0
LINE
  8
0
  6
CONTINUOUS
 62
     2
 10
32.9125
 20
107.0
 30
0.0
 11
31.75
 21
107.0
 31
0.0
  0
LINE
  8
0
  6
CONTINUOUS
 62
     2
 10
28.869692979
 20
58.727631895
 30
0.0
 11
28.835314642
 21
58.584954116
 31
0.0
  0
LINE
  8
0
  6
CONTINUOUS
 62
     2
 10
28.835314642
 20
58.584954116
 30
0.0
 11
28.808340333
 21
58.439200479
 31
0.0
  0
LINE
  8
0
  6
CONTINUOUS
 62
     2
 10
28.808340333
 20
58.439200479
 30
0.0
 11
28.789123205
 21
58.291168417
 31
0.0
  0
LINE
  8
0
  6
CONTINUOUS
 62
     2
 10
28.789123205
 20
58.291168417
 30
0.0
 11
28.777908353
 21
58.141704187
 31
0.0
  0
LINE
  8
0
  6
CONTINUOUS
 62
     2
 10
28.777908353
 20
58.141704187
 30
0.0
 11
28.774824949
 21
57.991683724
 31
0.0
  0
LINE
  8
0
  6
CONTINUOUS
 62
     2
 10
28.774824949
 20
57.991683724
 30
0.0
 11
28.779882439
 21
57.841992158
 31
0.0
  0
LINE
  8
0
  6
CONTINUOUS
 62
     2
 10
28.779882439
 20
57.841992158
 30
0.0
 11
28.792971024
 21
57.69350303
 31
0.0
  0
LINE
  8
0
  6
CONTINUOUS
 62
     2
 10
28.792971024
 20
57.69350303
 30
0.0
 11
28.813866358
 21
57.547058225
 31
0.0
  0
LINE
  8
0
  6
CONTINUOUS
 62
     2
 10
28.813866358
 20
57.547058225
 30
0.0
 11
28.84223811
 21
57.403449583
 31
0.0
  0
LINE
  8
0
  6
CONTINUOUS
 62
     2
 10
28.84223811
 20
57.403449583
 30
0.0
 11
28.877661819
 21
57.263402995
 31
0.0
  0
LINE
  8
0
  6
CONTINUOUS
 62
     2
 10
28.877661819
 20
57.263402995
 30
0.0
 11
28.936749623
 21
57.198126835
 31
0.0
  0
LINE
  8
0
  6
CONTINUOUS
 62
     2
 10
28.936749623
 20
57.198126835
 30
0.0
 11
29.011463496
 21
57.147517728
 31
0.0
  0
LINE
  8
0
  6
CONTINUOUS
 62
     2
 10
29.011463496
 20
57.147517728
 30
0.0
 11
29.136478348
 21
57.120005066
 31
0.0
  0
LINE
  8
0
  6
CONTINUOUS
 62
     2
 10
29.136478348
 20
57.120005066
 30
0.0
 11
29.238683888
 21
57.139258994
 31
0.0
  0
LINE
  8
0
  6
CONTINUOUS
 62
     2
 10
29.238683888
 20
57.139258994
 30
0.0
 11
29.331548122
 21
57.196983388
 31
0.0
  0
LINE
  8
0
  6
CONTINUOUS
 62
     2
 10
29.331548122
 20
57.196983388
 30
0.0
 11
29.381231228
 21
57.257179876
 31
0.0
  0
LINE
  8
0
  6
CONTINUOUS
 62
     2
 10
29.381231228
 20
57.257179876
 30
0.0
 11
29.427208452
 21
57.403086664
 31
0.0
  0
LINE
  8
0
  6
CONTINUOUS
 62
     2
 10
29.427208452
 20
57.403086664
 30
0.0
 11
29.454903738
 21
57.542623558
 31
0.0
  0
LINE
  8
0
  6
CONTINUOUS
 62
     2
 10
29.454903738
 20
57.542623558
 30
0.0
 11
29.476501165
 21
57.693016943
 31
0.0
  0
LINE
  8
0
  6
CONTINUOUS
 62
     2
 10
29.476501165
 20
57.693016943
 30
0.0
 11
29.48965952
 21
57.842215545
 31
0.0
  0
LINE
  8
0
  6
CONTINUOUS
 62
     2
 10
29.48965952
 20
57.842215545
 30
0.0
 11
29.494706871
 21
57.99221524
 31
0.0
  0
LINE
  8
0
  6
CONTINUOUS
 62
     2
 10
29.494706871
 20
57.99221524
 30
0.0
 11
29.491359467
 21
58.147048818
 31
0.0
  0
LINE
  8
0
  6
CONTINUOUS
 62
     2
 10
29.491359467
 20
58.147048818
 30
0.0
 11
29.480429494
 21
58.290930487
 31
0.0
  0
LINE
  8
0
  6
CONTINUOUS
 62
     2
 10
29.480429494
 20
58.290930487
 30
0.0
 11
29.461024891
 21
58.44023539
 31
0.0
  0
LINE
  8
0
  6
CONTINUOUS
 62
     2
 10
29.461024891
 20
58.44023539
 30
0.0
 11
29.434451161
 21
58.583838096
 31
0.0
  0
LINE
  8
0
  6
CONTINUOUS
 62
     2
 10
29.434451161
 20
58.583838096
 30
0.0
 11
29.398464121
 21
58.730674508
 31
0.0
  0
LINE
  8
0
  6
CONTINUOUS
 62
     2
 10
29.398464121
 20
58.730674508
 30
0.0
 11
29.346320702
 21
58.808352803
 31
0.0
  0
LINE
  8
0
  6
CONTINUOUS
 62
     2
 10
29.346320702
 20
58.808352803
 30
0.0
 11
29.26021188
 21
58.871462947
 31
0.0
  0
LINE
  8
0
  6
CONTINUOUS
 62
     2
 10
29.26021188
 20
58.871462947
 30
0.0
 11
29.145333854
 21
58.899807318
 31
0.0
  0
LINE
  8
0
  6
CONTINUOUS
 62
     2
 10
29.145333854
 20
58.899807318
 30
0.0
 11
29.011433084
 21
58.872467984
 31
0.0
  0
LINE
  8
0
  6
CONTINUOUS
 62
     2
 10
29.011433084
 20
58.872467984
 30
0.0
 11
28.921943341
 21
58.806995669
 31
0.0
  0
LINE
  8
0
  6
CONTINUOUS
 62
     2
 10
28.921943341
 20
58.806995669
 30
0.0
 11
28.869692979
 21
58.727631895
 31
0.0
  0
LINE
  8
0
  6
CONTINUOUS
 62
     2
 10
28.14
 20
68.52
 30
0.0
 11
28.149003244
 21
68.600007985
 31
0.0
  0
LINE
  8
0
  6
CONTINUOUS
 62
     2
 10
28.149003244
 20
68.600007985
 30
0.0
 11
28.174881783
 21
68.674590249
 31
0.0
  0
LINE
  8
0
  6
CONTINUOUS
 62
     2
 10
28.174881783
 20
68.674590249
 30
0.0
 11
28.211121182
 21
68.734823249
 31
0.0
  0
LINE
  8
0
  6
CONTINUOUS
 62
     2
 10
28.211121182
 20
68.734823249
 30
0.0
 11
28.258872872
 21
68.787315746
 31
0.0
  0
LINE
  8
0
  6
CONTINUOUS
 62
     2
 10
28.258872872
 20
68.787315746
 30
0.0
 11
28.314254659
 21
68.82838072
 31
0.0
  0
LINE
  8
0
  6
CONTINUOUS
 62
     2
 10
28.314254659
 20
68.82838072
 30
0.0
 11
28.386509985
 21
68.861643113
 31
0.0
  0
LINE
  8
0
  6
CONTINUOUS
 62
     2
 10
28.386509985
 20
68.861643113
 30
0.0
 11
28.486763364
 21
68.879756573
 31
0.0
  0
LINE
  8
0
  6
CONTINUOUS
 62
     2
 10
28.486763364
 20
68.879756573
 30
0.0
 11
28.590321623
 21
68.8684853
 31
0.0
  0
LINE
  8
0
  6
CONTINUOUS
 62
     2
 10
28.590321623
 20
68.8684853
 30
0.0
 11
28.663827953
 21
68.840562633
 31
0.0
  0
LINE
  8
0
  6
CONTINUOUS
 62
     2
 10
28.663827953
 20
68.840562633
 30
0.0
 11
28.723217173
 21
68.802443081
 31
0.0
  0
LINE
  8
0
  6
CONTINUOUS
 62
     2
 10
28.723217173
 20
68.802443081
 30
0.0
 11
28.774194879
 21
68.753274877
 31
0.0
  0
LINE
  8
0
  6
CONTINUOUS
 62
     2
 10
28.774194879
 20
68.753274877
 30
0.0
 11
28.81338842
 21
68.697165736
 31
0.0
  0
LINE
  8
0
  6
CONTINUOUS
 62
     2
 10
28.81338842
 20
68.697165736
 30
0.0
 11
28.844634949
 21
68.624051679
 31
0.0
  0
LINE
  8
0
  6
CONTINUOUS
 62
     2
 10
28.844634949
 20
68.624051679
 30
0.0
 11
28.858893217
 21
68.548207426
 31
0.0
  0
LINE
  8
0
  6
CONTINUOUS
 62
     2
 10
28.858893217
 20
68.548207426
 30
0.0
 11
28.856978646
 21
68.473457048
 31
0.0
  0
LINE
  8
0
  6
CONTINUOUS
 62
     2
 10
28.856978646
 20
68.473457048
 30
0.0
 11
28.838055517
 21
68.396232204
 31
0.0
  0
LINE
  8
0
  6
CONTINUOUS
 62
     2
 10
28.838055517
 20
68.396232204
 30
0.0
 11
28.803938272
 21
68.326534244
 31
0.0
  0
LINE
  8
0
  6
CONTINUOUS
 62
     2
 10
28.803938272
 20
68.326534244
 30
0.0
 11
28.760651652
 21
68.25209975
 31
0.0
  0
LINE
  8
0
  6
CONTINUOUS
 62
     2
 10
28.760651652
 20
68.25209975
 30
0.0
 11
28.695465793
 21
68.14000792
 31
0.0
  0
LINE
  8
0
  6
CONTINUOUS
 62
     2
 10
28.695465793
 20
68.14000792
 30
0.0
 11
28.630279934
 21
68.027916091
 31
0.0
  0
LINE
  8
0
  6
CONTINUOUS
 62
     2
 10
28.630279934
 20
68.027916091
 30
0.0
 11
28.565094075
 21
67.915824262
 31
0.0
  0
LINE
  8
0
  6
CONTINUOUS
 62
     2
 10
28.565094075
 20
67.915824262
 30
0.0
 11
28.499908216
 21
67.803732433
 31
0.0
  0
LINE
  8
0
  6
CONTINUOUS
 62
     2
 10
28.499908216
 20
67.803732433
 30
0.0
 11
28.434722357
 21
67.691640603
 31
0.0
  0
LINE
  8
0
  6
CONTINUOUS
 62
     2
 10
28.434722357
 20
67.691640603
 30
0.0
 11
28.369536499
 21
67.579548774
 31
0.0
  0
LINE
  8
0
  6
CONTINUOUS
 62
     2
 10
28.369536499
 20
67.579548774
 30
0.0
 11
28.30435064
 21
67.467456945
 31
0.0
  0
LINE
  8
0
  6
CONTINUOUS
 62
     2
 10
28.30435064
 20
67.467456945
 30
0.0
 11
28.239164781
 21
67.355365116
 31
0.0
  0
LINE
  8
0
  6
CONTINUOUS
 62
     2
 10
28.239164781
 20
67.355365116
 30
0.0
 11
28.173978922
 21
67.243273286
 31
0.0
  0
LINE
  8
0
  6
CONTINUOUS
 62
     2
 10
28.173978922
 20
67.243273286
 30
0.0
 11
28.102290601
 21
67.12
 31
0.0
  0
LINE
  8
0
  6
CONTINUOUS
 62
     2
 10
28.102290601
 20
67.12
 30
0.0
 11
28.252290601
 21
67.12
 31
0.0
  0
LINE
  8
0
  6
CONTINUOUS
 62
     2
 10
28.252290601
 20
67.12
 30
0.0
 11
28.402290601
 21
67.12
 31
0.0
  0
LINE
  8
0
  6
CONTINUOUS
 62
     2
 10
28.402290601
 20
67.12
 30
0.0
 11
28.552290601
 21
67.12
 31
0.0
  0
LINE
  8
0
  6
CONTINUOUS
 62
     2
 10
28.552290601
 20
67.12
 30
0.0
 11
28.702290601
 21
67.12
 31
0.0
  0
LINE
  8
0
  6
CONTINUOUS
 62
     2
 10
28.702290601
 20
67.12
 30
0.0
 11
28.86000001
 21
67.12
 31
0.0
  0
LINE
  8
0
  6
CONTINUOUS
 62
     2
 10
29.494692979
 20
68.727631895
 30
0.0
 11
29.460314642
 21
68.584954116
 31
0.0
  0
LINE
  8
0
  6
CONTINUOUS
 62
     2
 10
29.460314642
 20
68.584954116
 30
0.0
 11
29.433340333
 21
68.439200479
 31
0.0
  0
LINE
  8
0
  6
CONTINUOUS
 62
     2
 10
29.433340333
 20
68.439200479
 30
0.0
 11
29.414123205
 21
68.291168417
 31
0.0
  0
LINE
  8
0
  6
CONTINUOUS
 62
     2
 10
29.414123205
 20
68.291168417
 30
0.0
 11
29.402908353
 21
68.141704187
 31
0.0
  0
LINE
  8
0
  6
CONTINUOUS
 62
     2
 10
29.402908353
 20
68.141704187
 30
0.0
 11
29.399824949
 21
67.991683724
 31
0.0
  0
LINE
  8
0
  6
CONTINUOUS
 62
     2
 10
29.399824949
 20
67.991683724
 30
0.0
 11
29.404882439
 21
67.841992158
 31
0.0
  0
LINE
  8
0
  6
CONTINUOUS
 62
     2
 10
29.404882439
 20
67.841992158
 30
0.0
 11
29.417971024
 21
67.69350303
 31
0.0
  0
LINE
  8
0
  6
CONTINUOUS
 62
     2
 10
29.417971024
 20
67.69350303
 30
0.0
 11
29.438866358
 21
67.547058225
 31
0.0
  0
LINE
  8
0
  6
CONTINUOUS
 62
     2
 10
29.438866358
 20
67.547058225
 30
0.0
 11
29.46723811
 21
67.403449583
 31
0.0
  0
LINE
  8
0
  6
CONTINUOUS
 62
     2
 10
29.46723811
 20
67.403449583
 30
0.0
 11
29.502661819
 21
67.263402995
 31
0.0
  0
LINE
  8
0
  6
CONTINUOUS
 62
     2
 10
29.502661819
 20
67.263402995
 30
0.0
 11
29.561749623
 21
67.198126835
 31
0.0
  0
LINE
  8
0
  6
CONTINUOUS
 62
     2
 10
29.561749623
 20
67.198126835
 30
0.0
 11
29.636463496
 21
67.147517728
 31
0.0
  0
LINE
  8
0
  6
CONTINUOUS
 62
     2
 10
29.636463496
 20
67.147517728
 30
0.0
 11
29.761478348
 21
67.120005066
 31
0.0
  0
LINE
  8
0
  6
CONTINUOUS
 62
     2
 10
29.761478348
 20
67.120005066
 30
0.0
 11
29.863683888
 21
67.139258994
 31
0.0
  0
LINE
  8
0
  6
CONTINUOUS
 62
     2
 10
29.863683888
 20
67.139258994
 30
0.0
 11
29.956548122
 21
67.196983388
 31
0.0
  0
LINE
  8
0
  6
CONTINUOUS
 62
     2
 10
29.956548122
 20
67.196983388
 30
0.0
 11
30.006231228
 21
67.257179876
 31
0.0
  0
LINE
  8
0
  6
CONTINUOUS
 62
     2
 10
30.006231228
 20
67.257179876
 30
0.0
 11
30.052208452
 21
67.403086664
 31
0.0
  0
LINE
  8
0
  6
CONTINUOUS
 62
     2
 10
30.052208452
 20
67.403086664
 30
0.0
 11
30.079903738
 21
67.542623558
 31
0.0
  0
LINE
  8
0
  6
CONTINUOUS
 62
     2
 10
30.079903738
 20
67.542623558
 30
0.0
 11
30.101501165
 21
67.693016943
 31
0.0
  0
LINE
  8
0
  6
CONTINUOUS
 62
     2
 10
30.101501165
 20
67.693016943
 30
0.0
 11
30.11465952
 21
67.842215545
 31
0.0
  0
LINE
  8
0
  6
CONTINUOUS
 62
     2
 10
30.11465952
 20
67.842215545
 30
0.0
 11
30.119706871
 21
67.99221524
 31
0.0
  0
LINE
  8
0
  6
CONTINUOUS
 62
     2
 10
30.119706871
 20
67.99221524
 30
0.0
 11
30.116359467
 21
68.147048818
 31
0.0
  0
LINE
  8
0
  6
CONTINUOUS
 62
     2
 10
30.116359467
 20
68.147048818
 30
0.0
 11
30.105429494
 21
68.290930487
 31
0.0
  0
LINE
  8
0
  6
CONTINUOUS
 62
     2
 10
30.105429494
 20
68.290930487
 30
0.0
 11
30.086024891
 21
68.44023539
 31
0.0
  0
LINE
  8
0
  6
CONTINUOUS
 62
     2
 10
30.086024891
 20
68.44023539
 30
0.0
 11
30.059451161
 21
68.583838096
 31
0.0
  0
LINE
  8
0
  6
CONTINUOUS
 62
     2
 10
30.059451161
 20
68.583838096
 30
0.0
 11
30.023464121
 21
68.730674508
 31
0.0
  0
LINE
  8
0
  6
CONTINUOUS
 62
     2
 10
30.023464121
 20
68.730674508
 30
0.0
 11
29.971320702
 21
68.808352803
 31
0.0
  0
LINE
  8
0
  6
CONTINUOUS
 62
     2
 10
29.971320702
 20
68.808352803
 30
0.0
 11
29.88521188
 21
68.871462947
 31
0.0
  0
LINE
  8
0
  6
CONTINUOUS
 62
     2
 10
29.88521188
 20
68.871462947
 30
0.0
 11
29.770333854
 21
68.899807318
 31
0.0
  0
LINE
  8
0
  6
CONTINUOUS
 62
     2
 10
29.770333854
 20
68.899807318
 30
0.0
 11
29.636433084
 21
68.872467984
 31
0.0
  0
LINE
  8
0
  6
CONTINUOUS
 62
     2
 10
29.636433084
 20
68.872467984
 30
0.0
 11
29.546943341
 21
68.806995669
 31
0.0
  0
LINE
  8
0
  6
CONTINUOUS
 62
     2
 10
29.546943341
 20
68.806995669
 30
0.0
 11
29.494692979
 21
68.727631895
 31
0.0
  0
LINE
  8
0
  6
CONTINUOUS
 62
     2
 10
29.494692979
 20
78.727631895
 30
0.0
 11
29.460314642
 21
78.584954116
 31
0.0
  0
LINE
  8
0
  6
CONTINUOUS
 62
     2
 10
29.460314642
 20
78.584954116
 30
0.0
 11
29.433340333
 21
78.439200479
 31
0.0
  0
LINE
  8
0
  6
CONTINUOUS
 62
     2
 10
29.433340333
 20
78.439200479
 30
0.0
 11
29.414123205
 21
78.291168417
 31
0.0
  0
LINE
  8
0
  6
CONTINUOUS
 62
     2
 10
29.414123205
 20
78.291168417
 30
0.0
 11
29.402908353
 21
78.141704187
 31
0.0
  0
LINE
  8
0
  6
CONTINUOUS
 62
     2
 10
29.402908353
 20
78.141704187
 30
0.0
 11
29.399824949
 21
77.991683724
 31
0.0
  0
LINE
  8
0
  6
CONTINUOUS
 62
     2
 10
29.399824949
 20
77.991683724
 30
0.0
 11
29.404882439
 21
77.841992158
 31
0.0
  0
LINE
  8
0
  6
CONTINUOUS
 62
     2
 10
29.404882439
 20
77.841992158
 30
0.0
 11
29.417971024
 21
77.69350303
 31
0.0
  0
LINE
  8
0
  6
CONTINUOUS
 62
     2
 10
29.417971024
 20
77.69350303
 30
0.0
 11
29.438866358
 21
77.547058225
 31
0.0
  0
LINE
  8
0
  6
CONTINUOUS
 62
     2
 10
29.438866358
 20
77.547058225
 30
0.0
 11
29.46723811
 21
77.403449583
 31
0.0
  0
LINE
  8
0
  6
CONTINUOUS
 62
     2
 10
29.46723811
 20
77.403449583
 30
0.0
 11
29.502661819
 21
77.263402995
 31
0.0
  0
LINE
  8
0
  6
CONTINUOUS
 62
     2
 10
29.502661819
 20
77.263402995
 30
0.0
 11
29.561749623
 21
77.198126835
 31
0.0
  0
LINE
  8
0
  6
CONTINUOUS
 62
     2
 10
29.561749623
 20
77.198126835
 30
0.0
 11
29.636463496
 21
77.147517728
 31
0.0
  0
LINE
  8
0
  6
CONTINUOUS
 62
     2
 10
29.636463496
 20
77.147517728
 30
0.0
 11
29.761478348
 21
77.120005066
 31
0.0
  0
LINE
  8
0
  6
CONTINUOUS
 62
     2
 10
29.761478348
 20
77.120005066
 30
0.0
 11
29.863683888
 21
77.139258994
 31
0.0
  0
LINE
  8
0
  6
CONTINUOUS
 62
     2
 10
29.863683888
 20
77.139258994
 30
0.0
 11
29.956548122
 21
77.196983388
 31
0.0
  0
LINE
  8
0
  6
CONTINUOUS
 62
     2
 10
29.956548122
 20
77.196983388
 30
0.0
 11
30.006231228
 21
77.257179876
 31
0.0
  0
LINE
  8
0
  6
CONTINUOUS
 62
     2
 10
30.006231228
 20
77.257179876
 30
0.0
 11
30.052208452
 21
77.403086664
 31
0.0
  0
LINE
  8
0
  6
CONTINUOUS
 62
     2
 10
30.052208452
 20
77.403086664
 30
0.0
 11
30.079903738
 21
77.542623558
 31
0.0
  0
LINE
  8
0
  6
CONTINUOUS
 62
     2
 10
30.079903738
 20
77.542623558
 30
0.0
 11
30.101501165
 21
77.693016943
 31
0.0
  0
LINE
  8
0
  6
CONTINUOUS
 62
     2
 10
30.101501165
 20
77.693016943
 30
0.0
 11
30.11465952
 21
77.842215545
 31
0.0
  0
LINE
  8
0
  6
CONTINUOUS
 62
     2
 10
30.11465952
 20
77.842215545
 30
0.0
 11
30.119706871
 21
77.99221524
 31
0.0
  0
LINE
  8
0
  6
CONTINUOUS
 62
     2
 10
30.119706871
 20
77.99221524
 30
0.0
 11
30.116359467
 21
78.147048818
 31
0.0
  0
LINE
  8
0
  6
CONTINUOUS
 62
     2
 10
30.116359467
 20
78.147048818
 30
0.0
 11
30.105429494
 21
78.290930487
 31
0.0
  0
LINE
  8
0
  6
CONTINUOUS
 62
     2
 10
30.105429494
 20
78.290930487
 30
0.0
 11
30.086024891
 21
78.44023539
 31
0.0
  0
LINE
  8
0
  6
CONTINUOUS
 62
     2
 10
30.086024891
 20
78.44023539
 30
0.0
 11
30.059451161
 21
78.583838096
 31
0.0
  0
LINE
  8
0
  6
CONTINUOUS
 62
     2
 10
30.059451161
 20
78.583838096
 30
0.0
 11
30.023464121
 21
78.730674508
 31
0.0
  0
LINE
  8
0
  6
CONTINUOUS
 62
     2
 10
30.023464121
 20
78.730674508
 30
0.0
 11
29.971320702
 21
78.808352803
 31
0.0
  0
LINE
  8
0
  6
CONTINUOUS
 62
     2
 10
29.971320702
 20
78.808352803
 30
0.0
 11
29.88521188
 21
78.871462947
 31
0.0
  0
LINE
  8
0
  6
CONTINUOUS
 62
     2
 10
29.88521188
 20
78.871462947
 30
0.0
 11
29.770333854
 21
78.899807318
 31
0.0
  0
LINE
  8
0
  6
CONTINUOUS
 62
     2
 10
29.770333854
 20
78.899807318
 30
0.0
 11
29.636433084
 21
78.872467984
 31
0.0
  0
LINE
  8
0
  6
CONTINUOUS
 62
     2
 10
29.636433084
 20
78.872467984
 30
0.0
 11
29.546943341
 21
78.806995669
 31
0.0
  0
LINE
  8
0
  6
CONTINUOUS
 62
     2
 10
29.546943341
 20
78.806995669
 30
0.0
 11
29.494692979
 21
78.727631895
 31
0.0
  0
LINE
  8
0
  6
CONTINUOUS
 62
     2
 10
28.66
 20
77.12
 30
0.0
 11
28.66
 21
77.27
 31
0.0
  0
LINE
  8
0
  6
CONTINUOUS
 62
     2
 10
28.66
 20
77.27
 30
0.0
 11
28.66
 21
77.42
 31
0.0
  0
LINE
  8
0
  6
CONTINUOUS
 62
     2
 10
28.66
 20
77.42
 30
0.0
 11
28.66
 21
77.57
 31
0.0
  0
LINE
  8
0
  6
CONTINUOUS
 62
     2
 10
28.66
 20
77.57
 30
0.0
 11
28.66
 21
77.72
 31
0.0
  0
LINE
  8
0
  6
CONTINUOUS
 62
     2
 10
28.66
 20
77.72
 30
0.0
 11
28.66
 21
77.87
 31
0.0
  0
LINE
  8
0
  6
CONTINUOUS
 62
     2
 10
28.66
 20
77.87
 30
0.0
 11
28.66
 21
78.02
 31
0.0
  0
LINE
  8
0
  6
CONTINUOUS
 62
     2
 10
28.66
 20
78.02
 30
0.0
 11
28.66
 21
78.22
 31
0.0
  0
LINE
  8
0
  6
CONTINUOUS
 62
     2
 10
28.66
 20
78.22
 30
0.0
 11
28.66
 21
78.07
 31
0.0
  0
LINE
  8
0
  6
CONTINUOUS
 62
     2
 10
28.66
 20
78.07
 30
0.0
 11
28.66
 21
77.92
 31
0.0
  0
LINE
  8
0
  6
CONTINUOUS
 62
     2
 10
28.66
 20
77.92
 30
0.0
 11
28.66
 21
77.77
 31
0.0
  0
LINE
  8
0
  6
CONTINUOUS
 62
     2
 10
28.66
 20
77.77
 30
0.0
 11
28.66
 21
77.62
 31
0.0
  0
LINE
  8
0
  6
CONTINUOUS
 62
     2
 10
28.66
 20
77.62
 30
0.0
 11
28.66
 21
77.52
 31
0.0
  0
LINE
  8
0
  6
CONTINUOUS
 62
     2
 10
28.66
 20
77.52
 30
0.0
 11
28.86
 21
77.52
 31
0.0
  0
LINE
  8
0
  6
CONTINUOUS
 62
     2
 10
28.86
 20
77.52
 30
0.0
 11
28.71
 21
77.52
 31
0.0
  0
LINE
  8
0
  6
CONTINUOUS
 62
     2
 10
28.71
 20
77.52
 30
0.0
 11
28.56
 21
77.52
 31
0.0
  0
LINE
  8
0
  6
CONTINUOUS
 62
     2
 10
28.56
 20
77.52
 30
0.0
 11
28.41
 21
77.52
 31
0.0
  0
LINE
  8
0
  6
CONTINUOUS
 62
     2
 10
28.41
 20
77.52
 30
0.0
 11
28.26
 21
77.52
 31
0.0
  0
LINE
  8
0
  6
CONTINUOUS
 62
     2
 10
28.26
 20
77.52
 30
0.0
 11
28.14
 21
77.52
 31
0.0
  0
LINE
  8
0
  6
CONTINUOUS
 62
     2
 10
28.14
 20
77.52
 30
0.0
 11
28.174448276
 21
77.66162069
 31
0.0
  0
LINE
  8
0
  6
CONTINUOUS
 62
     2
 10
28.174448276
 20
77.66162069
 30
0.0
 11
28.208896552
 21
77.803241379
 31
0.0
  0
LINE
  8
0
  6
CONTINUOUS
 62
     2
 10
28.208896552
 20
77.803241379
 30
0.0
 11
28.243344828
 21
77.944862069
 31
0.0
  0
LINE
  8
0
  6
CONTINUOUS
 62
     2
 10
28.243344828
 20
77.944862069
 30
0.0
 11
28.277793103
 21
78.086482759
 31
0.0
  0
LINE
  8
0
  6
CONTINUOUS
 62
     2
 10
28.277793103
 20
78.086482759
 30
0.0
 11
28.312241379
 21
78.228103448
 31
0.0
  0
LINE
  8
0
  6
CONTINUOUS
 62
     2
 10
28.312241379
 20
78.228103448
 30
0.0
 11
28.346689655
 21
78.369724138
 31
0.0
  0
LINE
  8
0
  6
CONTINUOUS
 62
     2
 10
28.346689655
 20
78.369724138
 30
0.0
 11
28.381137931
 21
78.511344828
 31
0.0
  0
LINE
  8
0
  6
CONTINUOUS
 62
     2
 10
28.381137931
 20
78.511344828
 30
0.0
 11
28.415586207
 21
78.652965517
 31
0.0
  0
LINE
  8
0
  6
CONTINUOUS
 62
     2
 10
28.415586207
 20
78.652965517
 30
0.0
 11
28.450034483
 21
78.794586207
 31
0.0
  0
LINE
  8
0
  6
CONTINUOUS
 62
     2
 10
28.450034483
 20
78.794586207
 30
0.0
 11
28.471637811
 21
78.883399888
 31
0.0
  0
LINE
  8
0
  6
CONTINUOUS
 62
     2
 10
28.12
 20
87.6
 30
0.0
 11
28.138210375
 21
87.746810616
 31
0.0
  0
LINE
  8
0
  6
CONTINUOUS
 62
     2
 10
28.138210375
 20
87.746810616
 30
0.0
 11
28.187252328
 21
87.872645817
 31
0.0
  0
LINE
  8
0
  6
CONTINUOUS
 62
     2
 10
28.187252328
 20
87.872645817
 30
0.0
 11
28.261554138
 21
87.973740162
 31
0.0
  0
LINE
  8
0
  6
CONTINUOUS
 62
     2
 10
28.261554138
 20
87.973740162
 30
0.0
 11
28.36201761
 21
88.047237923
 31
0.0
  0
LINE
  8
0
  6
CONTINUOUS
 62
     2
 10
28.36201761
 20
88.047237923
 30
0.0
 11
28.48681217
 21
88.079710851
 31
0.0
  0
LINE
  8
0
  6
CONTINUOUS
 62
     2
 10
28.48681217
 20
88.079710851
 30
0.0
 11
28.649051808
 21
88.041533872
 31
0.0
  0
LINE
  8
0
  6
CONTINUOUS
 62
     2
 10
28.649051808
 20
88.041533872
 30
0.0
 11
28.734672227
 21
87.97753198
 31
0.0
  0
LINE
  8
0
  6
CONTINUOUS
 62
     2
 10
28.734672227
 20
87.97753198
 30
0.0
 11
28.813406606
 21
87.871435848
 31
0.0
  0
LINE
  8
0
  6
CONTINUOUS
 62
     2
 10
28.813406606
 20
87.871435848
 30
0.0
 11
28.861069872
 21
87.749611162
 31
0.0
  0
LINE
  8
0
  6
CONTINUOUS
 62
     2
 10
28.861069872
 20
87.749611162
 30
0.0
 11
28.879999873
 21
87.599607098
 31
0.0
  0
LINE
  8
0
  6
CONTINUOUS
 62
     2
 10
28.879999873
 20
87.599607098
 30
0.0
 11
28.868629721
 21
87.483459539
 31
0.0
  0
LINE
  8
0
  6
CONTINUOUS
 62
     2
 10
28.868629721
 20
87.483459539
 30
0.0
 11
28.825828498
 21
87.353002434
 31
0.0
  0
LINE
  8
0
  6
CONTINUOUS
 62
     2
 10
28.825828498
 20
87.353002434
 30
0.0
 11
28.737525369
 21
87.225325779
 31
0.0
  0
LINE
  8
0
  6
CONTINUOUS
 62
     2
 10
28.737525369
 20
87.225325779
 30
0.0
 11
28.65547554
 21
87.162014947
 31
0.0
  0
LINE
  8
0
  6
CONTINUOUS
 62
     2
 10
28.65547554
 20
87.162014947
 30
0.0
 11
28.490537341
 21
87.120148846
 31
0.0
  0
LINE
  8
0
  6
CONTINUOUS
 62
     2
 10
28.490537341
 20
87.120148846
 30
0.0
 11
28.369040431
 21
87.149405549
 31
0.0
  0
LINE
  8
0
  6
CONTINUOUS
 62
     2
 10
28.369040431
 20
87.149405549
 30
0.0
 11
28.259885651
 21
87.227968156
 31
0.0
  0
LINE
  8
0
  6
CONTINUOUS
 62
     2
 10
28.259885651
 20
87.227968156
 30
0.0
 11
28.182601555
 21
87.336068827
 31
0.0
  0
LINE
  8
0
  6
CONTINUOUS
 62
     2
 10
28.182601555
 20
87.336068827
 30
0.0
 11
28.134609201
 21
87.468185592
 31
0.0
  0
LINE
  8
0
  6
CONTINUOUS
 62
     2
 10
28.134609201
 20
87.468185592
 30
0.0
 11
28.125782971
 21
87.746557868
 31
0.0
  0
LINE
  8
0
  6
CONTINUOUS
 62
     2
 10
28.125782971
 20
87.746557868
 30
0.0
 11
28.139948535
 21
87.871681071
 31
0.0
  0
LINE
  8
0
  6
CONTINUOUS
 62
     2
 10
28.139948535
 20
87.871681071
 30
0.0
 11
28.16794074
 21
88.019572686
 31
0.0
  0
LINE
  8
0
  6
CONTINUOUS
 62
     2
 10
28.16794074
 20
88.019572686
 30
0.0
 11
28.21016461
 21
88.172086263
 31
0.0
  0
LINE
  8
0
  6
CONTINUOUS
 62
     2
 10
28.21016461
 20
88.172086263
 30
0.0
 11
28.257822786
 21
88.302641904
 31
0.0
  0
LINE
  8
0
  6
CONTINUOUS
 62
     2
 10
28.257822786
 20
88.302641904
 30
0.0
 11
28.313108063
 21
88.425270422
 31
0.0
  0
LINE
  8
0
  6
CONTINUOUS
 62
     2
 10
28.313108063
 20
88.425270422
 30
0.0
 11
28.374595268
 21
88.539295292
 31
0.0
  0
LINE
  8
0
  6
CONTINUOUS
 62
     2
 10
28.374595268
 20
88.539295292
 30
0.0
 11
28.440856534
 21
88.644335861
 31
0.0
  0
LINE
  8
0
  6
CONTINUOUS
 62
     2
 10
28.440856534
 20
88.644335861
 30
0.0
 11
28.51052153
 21
88.74027761
 31
0.0
  0
LINE
  8
0
  6
CONTINUOUS
 62
     2
 10
28.51052153
 20
88.74027761
 30
0.0
 11
28.632975723
 21
88.882624496
 31
0.0
  0
LINE
  8
0
  6
CONTINUOUS
 62
     2
 10
29.494692979
 20
88.727631895
 30
0.0
 11
29.460314642
 21
88.584954116
 31
0.0
  0
LINE
  8
0
  6
CONTINUOUS
 62
     2
 10
29.460314642
 20
88.584954116
 30
0.0
 11
29.433340333
 21
88.439200479
 31
0.0
  0
LINE
  8
0
  6
CONTINUOUS
 62
     2
 10
29.433340333
 20
88.439200479
 30
0.0
 11
29.414123205
 21
88.291168417
 31
0.0
  0
LINE
  8
0
  6
CONTINUOUS
 62
     2
 10
29.414123205
 20
88.291168417
 30
0.0
 11
29.402908353
 21
88.141704187
 31
0.0
  0
LINE
  8
0
  6
CONTINUOUS
 62
     2
 10
29.402908353
 20
88.141704187
 30
0.0
 11
29.399824949
 21
87.991683724
 31
0.0
  0
LINE
  8
0
  6
CONTINUOUS
 62
     2
 10
29.399824949
 20
87.991683724
 30
0.0
 11
29.404882439
 21
87.841992158
 31
0.0
  0
LINE
  8
0
  6
CONTINUOUS
 62
     2
 10
29.404882439
 20
87.841992158
 30
0.0
 11
29.417971024
 21
87.69350303
 31
0.0
  0
LINE
  8
0
  6
CONTINUOUS
 62
     2
 10
29.417971024
 20
87.69350303
 30
0.0
 11
29.438866358
 21
87.547058225
 31
0.0
  0
LINE
  8
0
  6
CONTINUOUS
 62
     2
 10
29.438866358
 20
87.547058225
 30
0.0
 11
29.46723811
 21
87.403449583
 31
0.0
  0
LINE
  8
0
  6
CONTINUOUS
 62
     2
 10
29.46723811
 20
87.403449583
 30
0.0
 11
29.502661819
 21
87.263402995
 31
0.0
  0
LINE
  8
0
  6
CONTINUOUS
 62
     2
 10
29.502661819
 20
87.263402995
 30
0.0
 11
29.561749623
 21
87.198126835
 31
0.0
  0
LINE
  8
0
  6
CONTINUOUS
 62
     2
 10
29.561749623
 20
87.198126835
 30
0.0
 11
29.636463496
 21
87.147517728
 31
0.0
  0
LINE
  8
0
  6
CONTINUOUS
 62
     2
 10
29.636463496
 20
87.147517728
 30
0.0
 11
29.761478348
 21
87.120005066
 31
0.0
  0
LINE
  8
0
  6
CONTINUOUS
 62
     2
 10
29.761478348
 20
87.120005066
 30
0.0
 11
29.863683888
 21
87.139258994
 31
0.0
  0
LINE
  8
0
  6
CONTINUOUS
 62
     2
 10
29.863683888
 20
87.139258994
 30
0.0
 11
29.956548122
 21
87.196983388
 31
0.0
  0
LINE
  8
0
  6
CONTINUOUS
 62
     2
 10
29.956548122
 20
87.196983388
 30
0.0
 11
30.006231228
 21
87.257179876
 31
0.0
  0
LINE
  8
0
  6
CONTINUOUS
 62
     2
 10
30.006231228
 20
87.257179876
 30
0.0
 11
30.052208452
 21
87.403086664
 31
0.0
  0
LINE
  8
0
  6
CONTINUOUS
 62
     2
 10
30.052208452
 20
87.403086664
 30
0.0
 11
30.079903738
 21
87.542623558
 31
0.0
  0
LINE
  8
0
  6
CONTINUOUS
 62
     2
 10
30.079903738
 20
87.542623558
 30
0.0
 11
30.101501165
 21
87.693016943
 31
0.0
  0
LINE
  8
0
  6
CONTINUOUS
 62
     2
 10
30.101501165
 20
87.693016943
 30
0.0
 11
30.11465952
 21
87.842215545
 31
0.0
  0
LINE
  8
0
  6
CONTINUOUS
 62
     2
 10
30.11465952
 20
87.842215545
 30
0.0
 11
30.119706871
 21
87.99221524
 31
0.0
  0
LINE
  8
0
  6
CONTINUOUS
 62
     2
 10
30.119706871
 20
87.99221524
 30
0.0
 11
30.116359467
 21
88.147048818
 31
0.0
  0
LINE
  8
0
  6
CONTINUOUS
 62
     2
 10
30.116359467
 20
88.147048818
 30
0.0
 11
30.105429494
 21
88.290930487
 31
0.0
  0
LINE
  8
0
  6
CONTINUOUS
 62
     2
 10
30.105429494
 20
88.290930487
 30
0.0
 11
30.086024891
 21
88.44023539
 31
0.0
  0
LINE
  8
0
  6
CONTINUOUS
 62
     2
 10
30.086024891
 20
88.44023539
 30
0.0
 11
30.059451161
 21
88.583838096
 31
0.0
  0
LINE
  8
0
  6
CONTINUOUS
 62
     2
 10
30.059451161
 20
88.583838096
 30
0.0
 11
30.023464121
 21
88.730674508
 31
0.0
  0
LINE
  8
0
  6
CONTINUOUS
 62
     2
 10
30.023464121
 20
88.730674508
 30
0.0
 11
29.971320702
 21
88.808352803
 31
0.0
  0
LINE
  8
0
  6
CONTINUOUS
 62
     2
 10
29.971320702
 20
88.808352803
 30
0.0
 11
29.88521188
 21
88.871462947
 31
0.0
  0
LINE
  8
0
  6
CONTINUOUS
 62
     2
 10
29.88521188
 20
88.871462947
 30
0.0
 11
29.770333854
 21
88.899807318
 31
0.0
  0
LINE
  8
0
  6
CONTINUOUS
 62
     2
 10
29.770333854
 20
88.899807318
 30
0.0
 11
29.636433084
 21
88.872467984
 31
0.0
  0
LINE
  8
0
  6
CONTINUOUS
 62
     2
 10
29.636433084
 20
88.872467984
 30
0.0
 11
29.546943341
 21
88.806995669
 31
0.0
  0
LINE
  8
0
  6
CONTINUOUS
 62
     2
 10
29.546943341
 20
88.806995669
 30
0.0
 11
29.494692979
 21
88.727631895
 31
0.0
  0
LINE
  8
0
  6
CONTINUOUS
 62
     2
 10
29.494692979
 20
98.727631895
 30
0.0
 11
29.460314642
 21
98.584954116
 31
0.0
  0
LINE
  8
0
  6
CONTINUOUS
 62
     2
 10
29.460314642
 20
98.584954116
 30
0.0
 11
29.433340333
 21
98.439200479
 31
0.0
  0
LINE
  8
0
  6
CONTINUOUS
 62
     2
 10
29.433340333
 20
98.439200479
 30
0.0
 11
29.414123205
 21
98.291168417
 31
0.0
  0
LINE
  8
0
  6
CONTINUOUS
 62
     2
 10
29.414123205
 20
98.291168417
 30
0.0
 11
29.402908353
 21
98.141704187
 31
0.0
  0
LINE
  8
0
  6
CONTINUOUS
 62
     2
 10
29.402908353
 20
98.141704187
 30
0.0
 11
29.399824949
 21
97.991683724
 31
0.0
  0
LINE
  8
0
  6
CONTINUOUS
 62
     2
 10
29.399824949
 20
97.991683724
 30
0.0
 11
29.404882439
 21
97.841992158
 31
0.0
  0
LINE
  8
0
  6
CONTINUOUS
 62
     2
 10
29.404882439
 20
97.841992158
 30
0.0
 11
29.417971024
 21
97.69350303
 31
0.0
  0
LINE
  8
0
  6
CONTINUOUS
 62
     2
 10
29.417971024
 20
97.69350303
 30
0.0
 11
29.438866358
 21
97.547058225
 31
0.0
  0
LINE
  8
0
  6
CONTINUOUS
 62
     2
 10
29.438866358
 20
97.547058225
 30
0.0
 11
29.46723811
 21
97.403449583
 31
0.0
  0
LINE
  8
0
  6
CONTINUOUS
 62
     2
 10
29.46723811
 20
97.403449583
 30
0.0
 11
29.502661819
 21
97.263402995
 31
0.0
  0
LINE
  8
0
  6
CONTINUOUS
 62
     2
 10
29.502661819
 20
97.263402995
 30
0.0
 11
29.561749623
 21
97.198126835
 31
0.0
  0
LINE
  8
0
  6
CONTINUOUS
 62
     2
 10
29.561749623
 20
97.198126835
 30
0.0
 11
29.636463496
 21
97.147517728
 31
0.0
  0
LINE
  8
0
  6
CONTINUOUS
 62
     2
 10
29.636463496
 20
97.147517728
 30
0.0
 11
29.761478348
 21
97.120005066
 31
0.0
  0
LINE
  8
0
  6
CONTINUOUS
 62
     2
 10
29.761478348
 20
97.120005066
 30
0.0
 11
29.863683888
 21
97.139258994
 31
0.0
  0
LINE
  8
0
  6
CONTINUOUS
 62
     2
 10
29.863683888
 20
97.139258994
 30
0.0
 11
29.956548122
 21
97.196983388
 31
0.0
  0
LINE
  8
0
  6
CONTINUOUS
 62
     2
 10
29.956548122
 20
97.196983388
 30
0.0
 11
30.006231228
 21
97.257179876
 31
0.0
  0
LINE
  8
0
  6
CONTINUOUS
 62
     2
 10
30.006231228
 20
97.257179876
 30
0.0
 11
30.052208452
 21
97.403086664
 31
0.0
  0
LINE
  8
0
  6
CONTINUOUS
 62
     2
 10
30.052208452
 20
97.403086664
 30
0.0
 11
30.079903738
 21
97.542623558
 31
0.0
  0
LINE
  8
0
  6
CONTINUOUS
 62
     2
 10
30.079903738
 20
97.542623558
 30
0.0
 11
30.101501165
 21
97.693016943
 31
0.0
  0
LINE
  8
0
  6
CONTINUOUS
 62
     2
 10
30.101501165
 20
97.693016943
 30
0.0
 11
30.11465952
 21
97.842215545
 31
0.0
  0
LINE
  8
0
  6
CONTINUOUS
 62
     2
 10
30.11465952
 20
97.842215545
 30
0.0
 11
30.119706871
 21
97.99221524
 31
0.0
  0
LINE
  8
0
  6
CONTINUOUS
 62
     2
 10
30.119706871
 20
97.99221524
 30
0.0
 11
30.116359467
 21
98.147048818
 31
0.0
  0
LINE
  8
0
  6
CONTINUOUS
 62
     2
 10
30.116359467
 20
98.147048818
 30
0.0
 11
30.105429494
 21
98.290930487
 31
0.0
  0
LINE
  8
0
  6
CONTINUOUS
 62
     2
 10
30.105429494
 20
98.290930487
 30
0.0
 11
30.086024891
 21
98.44023539
 31
0.0
  0
LINE
  8
0
  6
CONTINUOUS
 62
     2
 10
30.086024891
 20
98.44023539
 30
0.0
 11
30.059451161
 21
98.583838096
 31
0.0
  0
LINE
  8
0
  6
CONTINUOUS
 62
     2
 10
30.059451161
 20
98.583838096
 30
0.0
 11
30.023464121
 21
98.730674508
 31
0.0
  0
LINE
  8
0
  6
CONTINUOUS
 62
     2
 10
30.023464121
 20
98.730674508
 30
0.0
 11
29.971320702
 21
98.808352803
 31
0.0
  0
LINE
  8
0
  6
CONTINUOUS
 62
     2
 10
29.971320702
 20
98.808352803
 30
0.0
 11
29.88521188
 21
98.871462947
 31
0.0
  0
LINE
  8
0
  6
CONTINUOUS
 62
     2
 10
29.88521188
 20
98.871462947
 30
0.0
 11
29.770333854
 21
98.899807318
 31
0.0
  0
LINE
  8
0
  6
CONTINUOUS
 62
     2
 10
29.770333854
 20
98.899807318
 30
0.0
 11
29.636433084
 21
98.872467984
 31
0.0
  0
LINE
  8
0
  6
CONTINUOUS
 62
     2
 10
29.636433084
 20
98.872467984
 30
0.0
 11
29.546943341
 21
98.806995669
 31
0.0
  0
LINE
  8
0
  6
CONTINUOUS
 62
     2
 10
29.546943341
 20
98.806995669
 30
0.0
 11
29.494692979
 21
98.727631895
 31
0.0
  0
LINE
  8
0
  6
CONTINUOUS
 62
     2
 10
28.50000005
 20
98.08
 30
0.0
 11
28.596707499
 21
98.064195763
 31
0.0
  0
LINE
  8
0
  6
CONTINUOUS
 62
     2
 10
28.596707499
 20
98.064195763
 30
0.0
 11
28.676280563
 21
98.025226985
 31
0.0
  0
LINE
  8
0
  6
CONTINUOUS
 62
     2
 10
28.676280563
 20
98.025226985
 30
0.0
 11
28.755183482
 21
97.955666753
 31
0.0
  0
LINE
  8
0
  6
CONTINUOUS
 62
     2
 10
28.755183482
 20
97.955666753
 30
0.0
 11
28.823974344
 21
97.85085891
 31
0.0
  0
LINE
  8
0
  6
CONTINUOUS
 62
     2
 10
28.823974344
 20
97.85085891
 30
0.0
 11
28.867190825
 21
97.723575956
 31
0.0
  0
LINE
  8
0
  6
CONTINUOUS
 62
     2
 10
28.867190825
 20
97.723575956
 30
0.0
 11
28.879998209
 21
97.598526286
 31
0.0
  0
LINE
  8
0
  6
CONTINUOUS
 62
     2
 10
28.879998209
 20
97.598526286
 30
0.0
 11
28.865801853
 21
97.470017403
 31
0.0
  0
LINE
  8
0
  6
CONTINUOUS
 62
     2
 10
28.865801853
 20
97.470017403
 30
0.0
 11
28.828264421
 21
97.358203499
 31
0.0
  0
LINE
  8
0
  6
CONTINUOUS
 62
     2
 10
28.828264421
 20
97.358203499
 30
0.0
 11
28.757656455
 21
97.24718946
 31
0.0
  0
LINE
  8
0
  6
CONTINUOUS
 62
     2
 10
28.757656455
 20
97.24718946
 30
0.0
 11
28.679805795
 21
97.177134663
 31
0.0
  0
LINE
  8
0
  6
CONTINUOUS
 62
     2
 10
28.679805795
 20
97.177134663
 30
0.0
 11
28.595181332
 21
97.135301199
 31
0.0
  0
LINE
  8
0
  6
CONTINUOUS
 62
     2
 10
28.595181332
 20
97.135301199
 30
0.0
 11
28.500181446
 21
97.120000055
 31
0.0
  0
LINE
  8
0
  6
CONTINUOUS
 62
     2
 10
28.500181446
 20
97.120000055
 30
0.0
 11
28.391369619
 21
97.140031081
 31
0.0
  0
LINE
  8
0
  6
CONTINUOUS
 62
     2
 10
28.391369619
 20
97.140031081
 30
0.0
 11
28.316280539
 21
97.179827354
 31
0.0
  0
LINE
  8
0
  6
CONTINUOUS
 62
     2
 10
28.316280539
 20
97.179827354
 30
0.0
 11
28.246232577
 21
97.242720317
 31
0.0
  0
LINE
  8
0
  6
CONTINUOUS
 62
     2
 10
28.246232577
 20
97.242720317
 30
0.0
 11
28.174398223
 21
97.352525856
 31
0.0
  0
LINE
  8
0
  6
CONTINUOUS
 62
     2
 10
28.174398223
 20
97.352525856
 30
0.0
 11
28.134731343
 21
97.46764656
 31
0.0
  0
LINE
  8
0
  6
CONTINUOUS
 62
     2
 10
28.134731343
 20
97.46764656
 30
0.0
 11
28.120004683
 21
97.597616918
 31
0.0
  0
LINE
  8
0
  6
CONTINUOUS
 62
     2
 10
28.120004683
 20
97.597616918
 30
0.0
 11
28.132765587
 21
97.723369122
 31
0.0
  0
LINE
  8
0
  6
CONTINUOUS
 62
     2
 10
28.132765587
 20
97.723369122
 30
0.0
 11
28.177009722
 21
97.852875504
 31
0.0
  0
LINE
  8
0
  6
CONTINUOUS
 62
     2
 10
28.177009722
 20
97.852875504
 30
0.0
 11
28.242188973
 21
97.952630326
 31
0.0
  0
LINE
  8
0
  6
CONTINUOUS
 62
     2
 10
28.242188973
 20
97.952630326
 30
0.0
 11
28.329636755
 21
98.029058061
 31
0.0
  0
LINE
  8
0
  6
CONTINUOUS
 62
     2
 10
28.329636755
 20
98.029058061
 30
0.0
 11
28.4285188
 21
98.071431169
 31
0.0
  0
LINE
  8
0
  6
CONTINUOUS
 62
     2
 10
28.4285188
 20
98.071431169
 30
0.0
 11
28.599992233
 21
98.100029703
 31
0.0
  0
LINE
  8
0
  6
CONTINUOUS
 62
     2
 10
28.599992233
 20
98.100029703
 30
0.0
 11
28.684062679
 21
98.152793714
 31
0.0
  0
LINE
  8
0
  6
CONTINUOUS
 62
     2
 10
28.684062679
 20
98.152793714
 30
0.0
 11
28.750527897
 21
98.231140812
 31
0.0
  0
LINE
  8
0
  6
CONTINUOUS
 62
     2
 10
28.750527897
 20
98.231140812
 30
0.0
 11
28.80015087
 21
98.341315018
 31
0.0
  0
LINE
  8
0
  6
CONTINUOUS
 62
     2
 10
28.80015087
 20
98.341315018
 30
0.0
 11
28.819998272
 21
98.481314391
 31
0.0
  0
LINE
  8
0
  6
CONTINUOUS
 62
     2
 10
28.819998272
 20
98.481314391
 30
0.0
 11
28.800746376
 21
98.616654317
 31
0.0
  0
LINE
  8
0
  6
CONTINUOUS
 62
     2
 10
28.800746376
 20
98.616654317
 30
0.0
 11
28.749525037
 21
98.730428557
 31
0.0
  0
LINE
  8
0
  6
CONTINUOUS
 62
     2
 10
28.749525037
 20
98.730428557
 30
0.0
 11
28.679782977
 21
98.810903312
 31
0.0
  0
LINE
  8
0
  6
CONTINUOUS
 62
     2
 10
28.679782977
 20
98.810903312
 30
0.0
 11
28.60077657
 21
98.859646387
 31
0.0
  0
LINE
  8
0
  6
CONTINUOUS
 62
     2
 10
28.60077657
 20
98.859646387
 30
0.0
 11
28.500807566
 21
98.879998726
 31
0.0
  0
LINE
  8
0
  6
CONTINUOUS
 62
     2
 10
28.500807566
 20
98.879998726
 30
0.0
 11
28.400737029
 21
98.860268948
 31
0.0
  0
LINE
  8
0
  6
CONTINUOUS
 62
     2
 10
28.400737029
 20
98.860268948
 30
0.0
 11
28.320337311
 21
98.811005377
 31
0.0
  0
LINE
  8
0
  6
CONTINUOUS
 62
     2
 10
28.320337311
 20
98.811005377
 30
0.0
 11
28.250646165
 21
98.730694862
 31
0.0
  0
LINE
  8
0
  6
CONTINUOUS
 62
     2
 10
28.250646165
 20
98.730694862
 30
0.0
 11
28.199766528
 21
98.618405329
 31
0.0
  0
LINE
  8
0
  6
CONTINUOUS
 62
     2
 10
28.199766528
 20
98.618405329
 30
0.0
 11
28.180002539
 21
98.478406504
 31
0.0
  0
LINE
  8
0
  6
CONTINUOUS
 62
     2
 10
28.180002539
 20
98.478406504
 30
0.0
 11
28.199925856
 21
98.341055834
 31
0.0
  0
LINE
  8
0
  6
CONTINUOUS
 62
     2
 10
28.199925856
 20
98.341055834
 30
0.0
 11
28.249681192
 21
98.230812275
 31
0.0
  0
LINE
  8
0
  6
CONTINUOUS
 62
     2
 10
28.249681192
 20
98.230812275
 30
0.0
 11
28.326220188
 21
98.144122937
 31
0.0
  0
LINE
  8
0
  6
CONTINUOUS
 62
     2
 10
28.326220188
 20
98.144122937
 30
0.0
 11
28.415162297
 21
98.09431359
 31
0.0
  0
LINE
  8
0
  6
CONTINUOUS
 62
     2
 10
28.415162297
 20
98.09431359
 30
0.0
 11
28.50000005
 21
98.08
 31
0.0
  0
LINE
  8
0
  6
CONTINUOUS
 62
     2
 10
27.875
 20
108.88
 30
0.0
 11
27.875
 21
108.73
 31
0.0
  0
LINE
  8
0
  6
CONTINUOUS
 62
     2
 10
27.875
 20
108.73
 30
0.0
 11
27.875
 21
108.58
 31
0.0
  0
LINE
  8
0
  6
CONTINUOUS
 62
     2
 10
27.875
 20
108.58
 30
0.0
 11
27.875
 21
108.43
 31
0.0
  0
LINE
  8
0
  6
CONTINUOUS
 62
     2
 10
27.875
 20
108.43
 30
0.0
 11
27.875
 21
108.28
 31
0.0
  0
LINE
  8
0
  6
CONTINUOUS
 62
     2
 10
27.875
 20
108.28
 30
0.0
 11
27.875
 21
108.13
 31
0.0
  0
LINE
  8
0
  6
CONTINUOUS
 62
     2
 10
27.875
 20
108.13
 30
0.0
 11
27.875
 21
107.98
 31
0.0
  0
LINE
  8
0
  6
CONTINUOUS
 62
     2
 10
27.875
 20
107.98
 30
0.0
 11
27.875
 21
107.83
 31
0.0
  0
LINE
  8
0
  6
CONTINUOUS
 62
     2
 10
27.875
 20
107.83
 30
0.0
 11
27.875
 21
107.68
 31
0.0
  0
LINE
  8
0
  6
CONTINUOUS
 62
     2
 10
27.875
 20
107.68
 30
0.0
 11
27.875
 21
107.53
 31
0.0
  0
LINE
  8
0
  6
CONTINUOUS
 62
     2
 10
27.875
 20
107.53
 30
0.0
 11
27.875
 21
107.38
 31
0.0
  0
LINE
  8
0
  6
CONTINUOUS
 62
     2
 10
27.875
 20
107.38
 30
0.0
 11
27.875
 21
107.23
 31
0.0
  0
LINE
  8
0
  6
CONTINUOUS
 62
     2
 10
27.875
 20
107.23
 30
0.0
 11
27.875
 21
107.12
 31
0.0
  0
LINE
  8
0
  6
CONTINUOUS
 62
     2
 10
28.869692979
 20
108.727631895
 30
0.0
 11
28.835314642
 21
108.584954116
 31
0.0
  0
LINE
  8
0
  6
CONTINUOUS
 62
     2
 10
28.835314642
 20
108.584954116
 30
0.0
 11
28.808340333
 21
108.439200479
 31
0.0
  0
LINE
  8
0
  6
CONTINUOUS
 62
     2
 10
28.808340333
 20
108.439200479
 30
0.0
 11
28.789123205
 21
108.291168417
 31
0.0
  0
LINE
  8
0
  6
CONTINUOUS
 62
     2
 10
28.789123205
 20
108.291168417
 30
0.0
 11
28.777908353
 21
108.141704187
 31
0.0
  0
LINE
  8
0
  6
CONTINUOUS
 62
     2
 10
28.777908353
 20
108.141704187
 30
0.0
 11
28.774824949
 21
107.991683724
 31
0.0
  0
LINE
  8
0
  6
CONTINUOUS
 62
     2
 10
28.774824949
 20
107.991683724
 30
0.0
 11
28.779882439
 21
107.841992158
 31
0.0
  0
LINE
  8
0
  6
CONTINUOUS
 62
     2
 10
28.779882439
 20
107.841992158
 30
0.0
 11
28.792971024
 21
107.69350303
 31
0.0
  0
LINE
  8
0
  6
CONTINUOUS
 62
     2
 10
28.792971024
 20
107.69350303
 30
0.0
 11
28.813866358
 21
107.547058225
 31
0.0
  0
LINE
  8
0
  6
CONTINUOUS
 62
     2
 10
28.813866358
 20
107.547058225
 30
0.0
 11
28.84223811
 21
107.403449583
 31
0.0
  0
LINE
  8
0
  6
CONTINUOUS
 62
     2
 10
28.84223811
 20
107.403449583
 30
0.0
 11
28.877661819
 21
107.263402995
 31
0.0
  0
LINE
  8
0
  6
CONTINUOUS
 62
     2
 10
28.877661819
 20
107.263402995
 30
0.0
 11
28.936749623
 21
107.198126835
 31
0.0
  0
LINE
  8
0
  6
CONTINUOUS
 62
     2
 10
28.936749623
 20
107.198126835
 30
0.0
 11
29.011463496
 21
107.147517728
 31
0.0
  0
LINE
  8
0
  6
CONTINUOUS
 62
     2
 10
29.011463496
 20
107.147517728
 30
0.0
 11
29.136478348
 21
107.120005066
 31
0.0
  0
LINE
  8
0
  6
CONTINUOUS
 62
     2
 10
29.136478348
 20
107.120005066
 30
0.0
 11
29.238683888
 21
107.139258994
 31
0.0
  0
LINE
  8
0
  6
CONTINUOUS
 62
     2
 10
29.238683888
 20
107.139258994
 30
0.0
 11
29.331548122
 21
107.196983388
 31
0.0
  0
LINE
  8
0
  6
CONTINUOUS
 62
     2
 10
29.331548122
 20
107.196983388
 30
0.0
 11
29.381231228
 21
107.257179876
 31
0.0
  0
LINE
  8
0
  6
CONTINUOUS
 62
     2
 10
29.381231228
 20
107.257179876
 30
0.0
 11
29.427208452
 21
107.403086664
 31
0.0
  0
LINE
  8
0
  6
CONTINUOUS
 62
     2
 10
29.427208452
 20
107.403086664
 30
0.0
 11
29.454903738
 21
107.542623558
 31
0.0
  0
LINE
  8
0
  6
CONTINUOUS
 62
     2
 10
29.454903738
 20
107.542623558
 30
0.0
 11
29.476501165
 21
107.693016943
 31
0.0
  0
LINE
  8
0
  6
CONTINUOUS
 62
     2
 10
29.476501165
 20
107.693016943
 30
0.0
 11
29.48965952
 21
107.842215545
 31
0.0
  0
LINE
  8
0
  6
CONTINUOUS
 62
     2
 10
29.48965952
 20
107.842215545
 30
0.0
 11
29.494706871
 21
107.99221524
 31
0.0
  0
LINE
  8
0
  6
CONTINUOUS
 62
     2
 10
29.494706871
 20
107.99221524
 30
0.0
 11
29.491359467
 21
108.147048818
 31
0.0
  0
LINE
  8
0
  6
CONTINUOUS
 62
     2
 10
29.491359467
 20
108.147048818
 30
0.0
 11
29.480429494
 21
108.290930487
 31
0.0
  0
LINE
  8
0
  6
CONTINUOUS
 62
     2
 10
29.480429494
 20
108.290930487
 30
0.0
 11
29.461024891
 21
108.44023539
 31
0.0
  0
LINE
  8
0
  6
CONTINUOUS
 62
     2
 10
29.461024891
 20
108.44023539
 30
0.0
 11
29.434451161
 21
108.583838096
 31
0.0
  0
LINE
  8
0
  6
CONTINUOUS
 62
     2
 10
29.434451161
 20
108.583838096
 30
0.0
 11
29.398464121
 21
108.730674508
 31
0.0
  0
LINE
  8
0
  6
CONTINUOUS
 62
     2
 10
29.398464121
 20
108.730674508
 30
0.0
 11
29.346320702
 21
108.808352803
 31
0.0
  0
LINE
  8
0
  6
CONTINUOUS
 62
     2
 10
29.346320702
 20
108.808352803
 30
0.0
 11
29.26021188
 21
108.871462947
 31
0.0
  0
LINE
  8
0
  6
CONTINUOUS
 62
     2
 10
29.26021188
 20
108.871462947
 30
0.0
 11
29.145333854
 21
108.899807318
 31
0.0
  0
LINE
  8
0
  6
CONTINUOUS
 62
     2
 10
29.145333854
 20
108.899807318
 30
0.0
 11
29.011433084
 21
108.872467984
 31
0.0
  0
LINE
  8
0
  6
CONTINUOUS
 62
     2
 10
29.011433084
 20
108.872467984
 30
0.0
 11
28.921943341
 21
108.806995669
 31
0.0
  0
LINE
  8
0
  6
CONTINUOUS
 62
     2
 10
28.921943341
 20
108.806995669
 30
0.0
 11
28.869692979
 21
108.727631895
 31
0.0
  0
LINE
  8
0
  6
CONTINUOUS
 62
     2
 10
30.119692979
 20
108.727631895
 30
0.0
 11
30.085314642
 21
108.584954116
 31
0.0
  0
LINE
  8
0
  6
CONTINUOUS
 62
     2
 10
30.085314642
 20
108.584954116
 30
0.0
 11
30.058340333
 21
108.439200479
 31
0.0
  0
LINE
  8
0
  6
CONTINUOUS
 62
     2
 10
30.058340333
 20
108.439200479
 30
0.0
 11
30.039123205
 21
108.291168417
 31
0.0
  0
LINE
  8
0
  6
CONTINUOUS
 62
     2
 10
30.039123205
 20
108.291168417
 30
0.0
 11
30.027908353
 21
108.141704187
 31
0.0
  0
LINE
  8
0
  6
CONTINUOUS
 62
     2
 10
30.027908353
 20
108.141704187
 30
0.0
 11
30.024824949
 21
107.991683724
 31
0.0
  0
LINE
  8
0
  6
CONTINUOUS
 62
     2
 10
30.024824949
 20
107.991683724
 30
0.0
 11
30.029882439
 21
107.841992158
 31
0.0
  0
LINE
  8
0
  6
CONTINUOUS
 62
     2
 10
30.029882439
 20
107.841992158
 30
0.0
 11
30.042971024
 21
107.69350303
 31
0.0
  0
LINE
  8
0
  6
CONTINUOUS
 62
     2
 10
30.042971024
 20
107.69350303
 30
0.0
 11
30.063866358
 21
107.547058225
 31
0.0
  0
LINE
  8
0
  6
CONTINUOUS
 62
     2
 10
30.063866358
 20
107.547058225
 30
0.0
 11
30.09223811
 21
107.403449583
 31
0.0
  0
LINE
  8
0
  6
CONTINUOUS
 62
     2
 10
30.09223811
 20
107.403449583
 30
0.0
 11
30.127661819
 21
107.263402995
 31
0.0
  0
LINE
  8
0
  6
CONTINUOUS
 62
     2
 10
30.127661819
 20
107.263402995
 30
0.0
 11
30.186749623
 21
107.198126835
 31
0.0
  0
LINE
  8
0
  6
CONTINUOUS
 62
     2
 10
30.186749623
 20
107.198126835
 30
0.0
 11
30.261463496
 21
107.147517728
 31
0.0
  0
LINE
  8
0
  6
CONTINUOUS
 62
     2
 10
30.261463496
 20
107.147517728
 30
0.0
 11
30.386478348
 21
107.120005066
 31
0.0
  0
LINE
  8
0
  6
CONTINUOUS
 62
     2
 10
30.386478348
 20
107.120005066
 30
0.0
 11
30.488683888
 21
107.139258994
 31
0.0
  0
LINE
  8
0
  6
CONTINUOUS
 62
     2
 10
30.488683888
 20
107.139258994
 30
0.0
 11
30.581548122
 21
107.196983388
 31
0.0
  0
LINE
  8
0
  6
CONTINUOUS
 62
     2
 10
30.581548122
 20
107.196983388
 30
0.0
 11
30.631231228
 21
107.257179876
 31
0.0
  0
LINE
  8
0
  6
CONTINUOUS
 62
     2
 10
30.631231228
 20
107.257179876
 30
0.0
 11
30.677208452
 21
107.403086664
 31
0.0
  0
LINE
  8
0
  6
CONTINUOUS
 62
     2
 10
30.677208452
 20
107.403086664
 30
0.0
 11
30.704903738
 21
107.542623558
 31
0.0
  0
LINE
  8
0
  6
CONTINUOUS
 62
     2
 10
30.704903738
 20
107.542623558
 30
0.0
 11
30.726501165
 21
107.693016943
 31
0.0
  0
LINE
  8
0
  6
CONTINUOUS
 62
     2
 10
30.726501165
 20
107.693016943
 30
0.0
 11
30.73965952
 21
107.842215545
 31
0.0
  0
LINE
  8
0
  6
CONTINUOUS
 62
     2
 10
30.73965952
 20
107.842215545
 30
0.0
 11
30.744706871
 21
107.99221524
 31
0.0
  0
LINE
  8
0
  6
CONTINUOUS
 62
     2
 10
30.744706871
 20
107.99221524
 30
0.0
 11
30.741359467
 21
108.147048818
 31
0.0
  0
LINE
  8
0
  6
CONTINUOUS
 62
     2
 10
30.741359467
 20
108.147048818
 30
0.0
 11
30.730429494
 21
108.290930487
 31
0.0
  0
LINE
  8
0
  6
CONTINUOUS
 62
     2
 10
30.730429494
 20
108.290930487
 30
0.0
 11
30.711024891
 21
108.44023539
 31
0.0
  0
LINE
  8
0
  6
CONTINUOUS
 62
     2
 10
30.711024891
 20
108.44023539
 30
0.0
 11
30.684451161
 21
108.583838096
 31
0.0
  0
LINE
  8
0
  6
CONTINUOUS
 62
     2
 10
30.684451161
 20
108.583838096
 30
0.0
 11
30.648464121
 21
108.730674508
 31
0.0
  0
LINE
  8
0
  6
CONTINUOUS
 62
     2
 10
30.648464121
 20
108.730674508
 30
0.0
 11
30.596320702
 21
108.808352803
 31
0.0
  0
LINE
  8
0
  6
CONTINUOUS
 62
     2
 10
30.596320702
 20
108.808352803
 30
0.0
 11
30.51021188
 21
108.871462947
 31
0.0
  0
LINE
  8
0
  6
CONTINUOUS
 62
     2
 10
30.51021188
 20
108.871462947
 30
0.0
 11
30.395333854
 21
108.899807318
 31
0.0
  0
LINE
  8
0
  6
CONTINUOUS
 62
     2
 10
30.395333854
 20
108.899807318
 30
0.0
 11
30.261433084
 21
108.872467984
 31
0.0
  0
LINE
  8
0
  6
CONTINUOUS
 62
     2
 10
30.261433084
 20
108.872467984
 30
0.0
 11
30.171943341
 21
108.806995669
 31
0.0
  0
LINE
  8
0
  6
CONTINUOUS
 62
     2
 10
30.171943341
 20
108.806995669
 30
0.0
 11
30.119692979
 21
108.727631895
 31
0.0
  0
LINE
  8
0
  6
CONTINUOUS
 62
     2
 10
36.125
 20
58.0
 30
0.0
 11
34.4625
 21
58.0
 31
0.0
  0
LINE
  8
0
  6
CONTINUOUS
 62
     2
 10
36.125
 20
63.0
 30
0.0
 11
34.4625
 21
63.0
 31
0.0
  0
LINE
  8
0
  6
CONTINUOUS
 62
     2
 10
36.125
 20
68.0
 30
0.0
 11
34.4625
 21
68.0
 31
0.0
  0
LINE
  8
0
  6
CONTINUOUS
 62
     2
 10
36.125
 20
73.0
 30
0.0
 11
34.4625
 21
73.0
 31
0.0
  0
LINE
  8
0
  6
CONTINUOUS
 62
     2
 10
36.125
 20
78.0
 30
0.0
 11
34.4625
 21
78.0
 31
0.0
  0
LINE
  8
0
  6
CONTINUOUS
 62
     2
 10
36.125
 20
83.0
 30
0.0
 11
34.4625
 21
83.0
 31
0.0
  0
LINE
  8
0
  6
CONTINUOUS
 62
     2
 10
36.125
 20
88.0
 30
0.0
 11
34.4625
 21
88.0
 31
0.0
  0
LINE
  8
0
  6
CONTINUOUS
 62
     2
 10
36.125
 20
93.0
 30
0.0
 11
34.4625
 21
93.0
 31
0.0
  0
LINE
  8
0
  6
CONTINUOUS
 62
     2
 10
36.125
 20
98.0
 30
0.0
 11
34.4625
 21
98.0
 31
0.0
  0
LINE
  8
0
  6
CONTINUOUS
 62
     2
 10
36.125
 20
103.0
 30
0.0
 11
34.4625
 21
103.0
 31
0.0
  0
LINE
  8
0
  6
CONTINUOUS
 62
     2
 10
36.125
 20
108.0
 30
0.0
 11
34.4625
 21
108.0
 31
0.0
  0
LINE
  8
0
  6
CONTINUOUS
 62
     2
 10
36.25
 20
57.925
 30
0.0
 11
36.25
 21
58.075
 31
0.0
  0
LINE
  8
0
  6
CONTINUOUS
 62
     2
 10
36.25
 20
58.075
 30
0.0
 11
34.3375
 21
58.075
 31
0.0
  0
LINE
  8
0
  6
CONTINUOUS
 62
     2
 10
34.3375
 20
58.075
 30
0.0
 11
34.3375
 21
57.925
 31
0.0
  0
LINE
  8
0
  6
CONTINUOUS
 62
     2
 10
34.3375
 20
57.925
 30
0.0
 11
36.25
 21
57.925
 31
0.0
  0
LINE
  8
0
  6
CONTINUOUS
 62
     2
 10
36.25
 20
59.0
 30
0.0
 11
35.0875
 21
59.0
 31
0.0
  0
LINE
  8
0
  6
CONTINUOUS
 62
     2
 10
35.0875
 20
59.0
 30
0.0
 11
36.25
 21
59.0
 31
0.0
  0
LINE
  8
0
  6
CONTINUOUS
 62
     2
 10
36.25
 20
62.925
 30
0.0
 11
36.25
 21
63.075
 31
0.0
  0
LINE
  8
0
  6
CONTINUOUS
 62
     2
 10
36.25
 20
63.075
 30
0.0
 11
34.3375
 21
63.075
 31
0.0
  0
LINE
  8
0
  6
CONTINUOUS
 62
     2
 10
34.3375
 20
63.075
 30
0.0
 11
34.3375
 21
62.925
 31
0.0
  0
LINE
  8
0
  6
CONTINUOUS
 62
     2
 10
34.3375
 20
62.925
 30
0.0
 11
36.25
 21
62.925
 31
0.0
  0
LINE
  8
0
  6
CONTINUOUS
 62
     2
 10
36.25
 20
60.0
 30
0.0
 11
35.0875
 21
60.0
 31
0.0
  0
LINE
  8
0
  6
CONTINUOUS
 62
     2
 10
35.0875
 20
60.0
 30
0.0
 11
36.25
 21
60.0
 31
0.0
  0
LINE
  8
0
  6
CONTINUOUS
 62
     2
 10
36.25
 20
61.0
 30
0.0
 11
35.0875
 21
61.0
 31
0.0
  0
LINE
  8
0
  6
CONTINUOUS
 62
     2
 10
35.0875
 20
61.0
 30
0.0
 11
36.25
 21
61.0
 31
0.0
  0
LINE
  8
0
  6
CONTINUOUS
 62
     2
 10
36.25
 20
62.0
 30
0.0
 11
35.0875
 21
62.0
 31
0.0
  0
LINE
  8
0
  6
CONTINUOUS
 62
     2
 10
35.0875
 20
62.0
 30
0.0
 11
36.25
 21
62.0
 31
0.0
  0
LINE
  8
0
  6
CONTINUOUS
 62
     2
 10
36.25
 20
64.0
 30
0.0
 11
35.0875
 21
64.0
 31
0.0
  0
LINE
  8
0
  6
CONTINUOUS
 62
     2
 10
35.0875
 20
64.0
 30
0.0
 11
36.25
 21
64.0
 31
0.0
  0
LINE
  8
0
  6
CONTINUOUS
 62
     2
 10
36.25
 20
67.925
 30
0.0
 11
36.25
 21
68.075
 31
0.0
  0
LINE
  8
0
  6
CONTINUOUS
 62
     2
 10
36.25
 20
68.075
 30
0.0
 11
34.3375
 21
68.075
 31
0.0
  0
LINE
  8
0
  6
CONTINUOUS
 62
     2
 10
34.3375
 20
68.075
 30
0.0
 11
34.3375
 21
67.925
 31
0.0
  0
LINE
  8
0
  6
CONTINUOUS
 62
     2
 10
34.3375
 20
67.925
 30
0.0
 11
36.25
 21
67.925
 31
0.0
  0
LINE
  8
0
  6
CONTINUOUS
 62
     2
 10
36.25
 20
65.0
 30
0.0
 11
35.0875
 21
65.0
 31
0.0
  0
LINE
  8
0
  6
CONTINUOUS
 62
     2
 10
35.0875
 20
65.0
 30
0.0
 11
36.25
 21
65.0
 31
0.0
  0
LINE
  8
0
  6
CONTINUOUS
 62
     2
 10
36.25
 20
66.0
 30
0.0
 11
35.0875
 21
66.0
 31
0.0
  0
LINE
  8
0
  6
CONTINUOUS
 62
     2
 10
35.0875
 20
66.0
 30
0.0
 11
36.25
 21
66.0
 31
0.0
  0
LINE
  8
0
  6
CONTINUOUS
 62
     2
 10
36.25
 20
67.0
 30
0.0
 11
35.0875
 21
67.0
 31
0.0
  0
LINE
  8
0
  6
CONTINUOUS
 62
     2
 10
35.0875
 20
67.0
 30
0.0
 11
36.25
 21
67.0
 31
0.0
  0
LINE
  8
0
  6
CONTINUOUS
 62
     2
 10
36.25
 20
69.0
 30
0.0
 11
35.0875
 21
69.0
 31
0.0
  0
LINE
  8
0
  6
CONTINUOUS
 62
     2
 10
35.0875
 20
69.0
 30
0.0
 11
36.25
 21
69.0
 31
0.0
  0
LINE
  8
0
  6
CONTINUOUS
 62
     2
 10
36.25
 20
72.925
 30
0.0
 11
36.25
 21
73.075
 31
0.0
  0
LINE
  8
0
  6
CONTINUOUS
 62
     2
 10
36.25
 20
73.075
 30
0.0
 11
34.3375
 21
73.075
 31
0.0
  0
LINE
  8
0
  6
CONTINUOUS
 62
     2
 10
34.3375
 20
73.075
 30
0.0
 11
34.3375
 21
72.925
 31
0.0
  0
LINE
  8
0
  6
CONTINUOUS
 62
     2
 10
34.3375
 20
72.925
 30
0.0
 11
36.25
 21
72.925
 31
0.0
  0
LINE
  8
0
  6
CONTINUOUS
 62
     2
 10
36.25
 20
70.0
 30
0.0
 11
35.0875
 21
70.0
 31
0.0
  0
LINE
  8
0
  6
CONTINUOUS
 62
     2
 10
35.0875
 20
70.0
 30
0.0
 11
36.25
 21
70.0
 31
0.0
  0
LINE
  8
0
  6
CONTINUOUS
 62
     2
 10
36.25
 20
71.0
 30
0.0
 11
35.0875
 21
71.0
 31
0.0
  0
LINE
  8
0
  6
CONTINUOUS
 62
     2
 10
35.0875
 20
71.0
 30
0.0
 11
36.25
 21
71.0
 31
0.0
  0
LINE
  8
0
  6
CONTINUOUS
 62
     2
 10
36.25
 20
72.0
 30
0.0
 11
35.0875
 21
72.0
 31
0.0
  0
LINE
  8
0
  6
CONTINUOUS
 62
     2
 10
35.0875
 20
72.0
 30
0.0
 11
36.25
 21
72.0
 31
0.0
  0
LINE
  8
0
  6
CONTINUOUS
 62
     2
 10
36.25
 20
74.0
 30
0.0
 11
35.0875
 21
74.0
 31
0.0
  0
LINE
  8
0
  6
CONTINUOUS
 62
     2
 10
35.0875
 20
74.0
 30
0.0
 11
36.25
 21
74.0
 31
0.0
  0
LINE
  8
0
  6
CONTINUOUS
 62
     2
 10
36.25
 20
77.925
 30
0.0
 11
36.25
 21
78.075
 31
0.0
  0
LINE
  8
0
  6
CONTINUOUS
 62
     2
 10
36.25
 20
78.075
 30
0.0
 11
34.3375
 21
78.075
 31
0.0
  0
LINE
  8
0
  6
CONTINUOUS
 62
     2
 10
34.3375
 20
78.075
 30
0.0
 11
34.3375
 21
77.925
 31
0.0
  0
LINE
  8
0
  6
CONTINUOUS
 62
     2
 10
34.3375
 20
77.925
 30
0.0
 11
36.25
 21
77.925
 31
0.0
  0
LINE
  8
0
  6
CONTINUOUS
 62
     2
 10
36.25
 20
75.0
 30
0.0
 11
35.0875
 21
75.0
 31
0.0
  0
LINE
  8
0
  6
CONTINUOUS
 62
     2
 10
35.0875
 20
75.0
 30
0.0
 11
36.25
 21
75.0
 31
0.0
  0
LINE
  8
0
  6
CONTINUOUS
 62
     2
 10
36.25
 20
76.0
 30
0.0
 11
35.0875
 21
76.0
 31
0.0
  0
LINE
  8
0
  6
CONTINUOUS
 62
     2
 10
35.0875
 20
76.0
 30
0.0
 11
36.25
 21
76.0
 31
0.0
  0
LINE
  8
0
  6
CONTINUOUS
 62
     2
 10
36.25
 20
77.0
 30
0.0
 11
35.0875
 21
77.0
 31
0.0
  0
LINE
  8
0
  6
CONTINUOUS
 62
     2
 10
35.0875
 20
77.0
 30
0.0
 11
36.25
 21
77.0
 31
0.0
  0
LINE
  8
0
  6
CONTINUOUS
 62
     2
 10
36.25
 20
79.0
 30
0.0
 11
35.0875
 21
79.0
 31
0.0
  0
LINE
  8
0
  6
CONTINUOUS
 62
     2
 10
35.0875
 20
79.0
 30
0.0
 11
36.25
 21
79.0
 31
0.0
  0
LINE
  8
0
  6
CONTINUOUS
 62
     2
 10
36.25
 20
82.925
 30
0.0
 11
36.25
 21
83.075
 31
0.0
  0
LINE
  8
0
  6
CONTINUOUS
 62
     2
 10
36.25
 20
83.075
 30
0.0
 11
34.3375
 21
83.075
 31
0.0
  0
LINE
  8
0
  6
CONTINUOUS
 62
     2
 10
34.3375
 20
83.075
 30
0.0
 11
34.3375
 21
82.925
 31
0.0
  0
LINE
  8
0
  6
CONTINUOUS
 62
     2
 10
34.3375
 20
82.925
 30
0.0
 11
36.25
 21
82.925
 31
0.0
  0
LINE
  8
0
  6
CONTINUOUS
 62
     2
 10
36.25
 20
80.0
 30
0.0
 11
35.0875
 21
80.0
 31
0.0
  0
LINE
  8
0
  6
CONTINUOUS
 62
     2
 10
35.0875
 20
80.0
 30
0.0
 11
36.25
 21
80.0
 31
0.0
  0
LINE
  8
0
  6
CONTINUOUS
 62
     2
 10
36.25
 20
81.0
 30
0.0
 11
35.0875
 21
81.0
 31
0.0
  0
LINE
  8
0
  6
CONTINUOUS
 62
     2
 10
35.0875
 20
81.0
 30
0.0
 11
36.25
 21
81.0
 31
0.0
  0
LINE
  8
0
  6
CONTINUOUS
 62
     2
 10
36.25
 20
82.0
 30
0.0
 11
35.0875
 21
82.0
 31
0.0
  0
LINE
  8
0
  6
CONTINUOUS
 62
     2
 10
35.0875
 20
82.0
 30
0.0
 11
36.25
 21
82.0
 31
0.0
  0
LINE
  8
0
  6
CONTINUOUS
 62
     2
 10
36.25
 20
84.0
 30
0.0
 11
35.0875
 21
84.0
 31
0.0
  0
LINE
  8
0
  6
CONTINUOUS
 62
     2
 10
35.0875
 20
84.0
 30
0.0
 11
36.25
 21
84.0
 31
0.0
  0
LINE
  8
0
  6
CONTINUOUS
 62
     2
 10
36.25
 20
87.925
 30
0.0
 11
36.25
 21
88.075
 31
0.0
  0
LINE
  8
0
  6
CONTINUOUS
 62
     2
 10
36.25
 20
88.075
 30
0.0
 11
34.3375
 21
88.075
 31
0.0
  0
LINE
  8
0
  6
CONTINUOUS
 62
     2
 10
34.3375
 20
88.075
 30
0.0
 11
34.3375
 21
87.925
 31
0.0
  0
LINE
  8
0
  6
CONTINUOUS
 62
     2
 10
34.3375
 20
87.925
 30
0.0
 11
36.25
 21
87.925
 31
0.0
  0
LINE
  8
0
  6
CONTINUOUS
 62
     2
 10
36.25
 20
85.0
 30
0.0
 11
35.0875
 21
85.0
 31
0.0
  0
LINE
  8
0
  6
CONTINUOUS
 62
     2
 10
35.0875
 20
85.0
 30
0.0
 11
36.25
 21
85.0
 31
0.0
  0
LINE
  8
0
  6
CONTINUOUS
 62
     2
 10
36.25
 20
86.0
 30
0.0
 11
35.0875
 21
86.0
 31
0.0
  0
LINE
  8
0
  6
CONTINUOUS
 62
     2
 10
35.0875
 20
86.0
 30
0.0
 11
36.25
 21
86.0
 31
0.0
  0
LINE
  8
0
  6
CONTINUOUS
 62
     2
 10
36.25
 20
87.0
 30
0.0
 11
35.0875
 21
87.0
 31
0.0
  0
LINE
  8
0
  6
CONTINUOUS
 62
     2
 10
35.0875
 20
87.0
 30
0.0
 11
36.25
 21
87.0
 31
0.0
  0
LINE
  8
0
  6
CONTINUOUS
 62
     2
 10
36.25
 20
89.0
 30
0.0
 11
35.0875
 21
89.0
 31
0.0
  0
LINE
  8
0
  6
CONTINUOUS
 62
     2
 10
35.0875
 20
89.0
 30
0.0
 11
36.25
 21
89.0
 31
0.0
  0
LINE
  8
0
  6
CONTINUOUS
 62
     2
 10
36.25
 20
92.925
 30
0.0
 11
36.25
 21
93.075
 31
0.0
  0
LINE
  8
0
  6
CONTINUOUS
 62
     2
 10
36.25
 20
93.075
 30
0.0
 11
34.3375
 21
93.075
 31
0.0
  0
LINE
  8
0
  6
CONTINUOUS
 62
     2
 10
34.3375
 20
93.075
 30
0.0
 11
34.3375
 21
92.925
 31
0.0
  0
LINE
  8
0
  6
CONTINUOUS
 62
     2
 10
34.3375
 20
92.925
 30
0.0
 11
36.25
 21
92.925
 31
0.0
  0
LINE
  8
0
  6
CONTINUOUS
 62
     2
 10
36.25
 20
90.0
 30
0.0
 11
35.0875
 21
90.0
 31
0.0
  0
LINE
  8
0
  6
CONTINUOUS
 62
     2
 10
35.0875
 20
90.0
 30
0.0
 11
36.25
 21
90.0
 31
0.0
  0
LINE
  8
0
  6
CONTINUOUS
 62
     2
 10
36.25
 20
91.0
 30
0.0
 11
35.0875
 21
91.0
 31
0.0
  0
LINE
  8
0
  6
CONTINUOUS
 62
     2
 10
35.0875
 20
91.0
 30
0.0
 11
36.25
 21
91.0
 31
0.0
  0
LINE
  8
0
  6
CONTINUOUS
 62
     2
 10
36.25
 20
92.0
 30
0.0
 11
35.0875
 21
92.0
 31
0.0
  0
LINE
  8
0
  6
CONTINUOUS
 62
     2
 10
35.0875
 20
92.0
 30
0.0
 11
36.25
 21
92.0
 31
0.0
  0
LINE
  8
0
  6
CONTINUOUS
 62
     2
 10
36.25
 20
94.0
 30
0.0
 11
35.0875
 21
94.0
 31
0.0
  0
LINE
  8
0
  6
CONTINUOUS
 62
     2
 10
35.0875
 20
94.0
 30
0.0
 11
36.25
 21
94.0
 31
0.0
  0
LINE
  8
0
  6
CONTINUOUS
 62
     2
 10
36.25
 20
97.925
 30
0.0
 11
36.25
 21
98.075
 31
0.0
  0
LINE
  8
0
  6
CONTINUOUS
 62
     2
 10
36.25
 20
98.075
 30
0.0
 11
34.3375
 21
98.075
 31
0.0
  0
LINE
  8
0
  6
CONTINUOUS
 62
     2
 10
34.3375
 20
98.075
 30
0.0
 11
34.3375
 21
97.925
 31
0.0
  0
LINE
  8
0
  6
CONTINUOUS
 62
     2
 10
34.3375
 20
97.925
 30
0.0
 11
36.25
 21
97.925
 31
0.0
  0
LINE
  8
0
  6
CONTINUOUS
 62
     2
 10
36.25
 20
95.0
 30
0.0
 11
35.0875
 21
95.0
 31
0.0
  0
LINE
  8
0
  6
CONTINUOUS
 62
     2
 10
35.0875
 20
95.0
 30
0.0
 11
36.25
 21
95.0
 31
0.0
  0
LINE
  8
0
  6
CONTINUOUS
 62
     2
 10
36.25
 20
96.0
 30
0.0
 11
35.0875
 21
96.0
 31
0.0
  0
LINE
  8
0
  6
CONTINUOUS
 62
     2
 10
35.0875
 20
96.0
 30
0.0
 11
36.25
 21
96.0
 31
0.0
  0
LINE
  8
0
  6
CONTINUOUS
 62
     2
 10
36.25
 20
97.0
 30
0.0
 11
35.0875
 21
97.0
 31
0.0
  0
LINE
  8
0
  6
CONTINUOUS
 62
     2
 10
35.0875
 20
97.0
 30
0.0
 11
36.25
 21
97.0
 31
0.0
  0
LINE
  8
0
  6
CONTINUOUS
 62
     2
 10
36.25
 20
99.0
 30
0.0
 11
35.0875
 21
99.0
 31
0.0
  0
LINE
  8
0
  6
CONTINUOUS
 62
     2
 10
35.0875
 20
99.0
 30
0.0
 11
36.25
 21
99.0
 31
0.0
  0
LINE
  8
0
  6
CONTINUOUS
 62
     2
 10
36.25
 20
102.925
 30
0.0
 11
36.25
 21
103.075
 31
0.0
  0
LINE
  8
0
  6
CONTINUOUS
 62
     2
 10
36.25
 20
103.075
 30
0.0
 11
34.3375
 21
103.075
 31
0.0
  0
LINE
  8
0
  6
CONTINUOUS
 62
     2
 10
34.3375
 20
103.075
 30
0.0
 11
34.3375
 21
102.925
 31
0.0
  0
LINE
  8
0
  6
CONTINUOUS
 62
     2
 10
34.3375
 20
102.925
 30
0.0
 11
36.25
 21
102.925
 31
0.0
  0
LINE
  8
0
  6
CONTINUOUS
 62
     2
 10
36.25
 20
100.0
 30
0.0
 11
35.0875
 21
100.0
 31
0.0
  0
LINE
  8
0
  6
CONTINUOUS
 62
     2
 10
35.0875
 20
100.0
 30
0.0
 11
36.25
 21
100.0
 31
0.0
  0
LINE
  8
0
  6
CONTINUOUS
 62
     2
 10
36.25
 20
101.0
 30
0.0
 11
35.0875
 21
101.0
 31
0.0
  0
LINE
  8
0
  6
CONTINUOUS
 62
     2
 10
35.0875
 20
101.0
 30
0.0
 11
36.25
 21
101.0
 31
0.0
  0
LINE
  8
0
  6
CONTINUOUS
 62
     2
 10
36.25
 20
102.0
 30
0.0
 11
35.0875
 21
102.0
 31
0.0
  0
LINE
  8
0
  6
CONTINUOUS
 62
     2
 10
35.0875
 20
102.0
 30
0.0
 11
36.25
 21
102.0
 31
0.0
  0
LINE
  8
0
  6
CONTINUOUS
 62
     2
 10
36.25
 20
104.0
 30
0.0
 11
35.0875
 21
104.0
 31
0.0
  0
LINE
  8
0
  6
CONTINUOUS
 62
     2
 10
35.0875
 20
104.0
 30
0.0
 11
36.25
 21
104.0
 31
0.0
  0
LINE
  8
0
  6
CONTINUOUS
 62
     2
 10
36.25
 20
107.925
 30
0.0
 11
36.25
 21
108.075
 31
0.0
  0
LINE
  8
0
  6
CONTINUOUS
 62
     2
 10
36.25
 20
108.075
 30
0.0
 11
34.3375
 21
108.075
 31
0.0
  0
LINE
  8
0
  6
CONTINUOUS
 62
     2
 10
34.3375
 20
108.075
 30
0.0
 11
34.3375
 21
107.925
 31
0.0
  0
LINE
  8
0
  6
CONTINUOUS
 62
     2
 10
34.3375
 20
107.925
 30
0.0
 11
36.25
 21
107.925
 31
0.0
  0
LINE
  8
0
  6
CONTINUOUS
 62
     2
 10
36.25
 20
105.0
 30
0.0
 11
35.0875
 21
105.0
 31
0.0
  0
LINE
  8
0
  6
CONTINUOUS
 62
     2
 10
35.0875
 20
105.0
 30
0.0
 11
36.25
 21
105.0
 31
0.0
  0
LINE
  8
0
  6
CONTINUOUS
 62
     2
 10
36.25
 20
106.0
 30
0.0
 11
35.0875
 21
106.0
 31
0.0
  0
LINE
  8
0
  6
CONTINUOUS
 62
     2
 10
35.0875
 20
106.0
 30
0.0
 11
36.25
 21
106.0
 31
0.0
  0
LINE
  8
0
  6
CONTINUOUS
 62
     2
 10
36.25
 20
107.0
 30
0.0
 11
35.0875
 21
107.0
 31
0.0
  0
LINE
  8
0
  6
CONTINUOUS
 62
     2
 10
35.0875
 20
107.0
 30
0.0
 11
36.25
 21
107.0
 31
0.0
  0
LINE
  8
0
  6
CONTINUOUS
 62
     2
 10
38.619692979
 20
58.727631895
 30
0.0
 11
38.585314642
 21
58.584954116
 31
0.0
  0
LINE
  8
0
  6
CONTINUOUS
 62
     2
 10
38.585314642
 20
58.584954116
 30
0.0
 11
38.558340333
 21
58.439200479
 31
0.0
  0
LINE
  8
0
  6
CONTINUOUS
 62
     2
 10
38.558340333
 20
58.439200479
 30
0.0
 11
38.539123205
 21
58.291168417
 31
0.0
  0
LINE
  8
0
  6
CONTINUOUS
 62
     2
 10
38.539123205
 20
58.291168417
 30
0.0
 11
38.527908353
 21
58.141704187
 31
0.0
  0
LINE
  8
0
  6
CONTINUOUS
 62
     2
 10
38.527908353
 20
58.141704187
 30
0.0
 11
38.524824949
 21
57.991683724
 31
0.0
  0
LINE
  8
0
  6
CONTINUOUS
 62
     2
 10
38.524824949
 20
57.991683724
 30
0.0
 11
38.529882439
 21
57.841992158
 31
0.0
  0
LINE
  8
0
  6
CONTINUOUS
 62
     2
 10
38.529882439
 20
57.841992158
 30
0.0
 11
38.542971024
 21
57.69350303
 31
0.0
  0
LINE
  8
0
  6
CONTINUOUS
 62
     2
 10
38.542971024
 20
57.69350303
 30
0.0
 11
38.563866358
 21
57.547058225
 31
0.0
  0
LINE
  8
0
  6
CONTINUOUS
 62
     2
 10
38.563866358
 20
57.547058225
 30
0.0
 11
38.59223811
 21
57.403449583
 31
0.0
  0
LINE
  8
0
  6
CONTINUOUS
 62
     2
 10
38.59223811
 20
57.403449583
 30
0.0
 11
38.627661819
 21
57.263402995
 31
0.0
  0
LINE
  8
0
  6
CONTINUOUS
 62
     2
 10
38.627661819
 20
57.263402995
 30
0.0
 11
38.686749623
 21
57.198126835
 31
0.0
  0
LINE
  8
0
  6
CONTINUOUS
 62
     2
 10
38.686749623
 20
57.198126835
 30
0.0
 11
38.761463496
 21
57.147517728
 31
0.0
  0
LINE
  8
0
  6
CONTINUOUS
 62
     2
 10
38.761463496
 20
57.147517728
 30
0.0
 11
38.886478348
 21
57.120005066
 31
0.0
  0
LINE
  8
0
  6
CONTINUOUS
 62
     2
 10
38.886478348
 20
57.120005066
 30
0.0
 11
38.988683888
 21
57.139258994
 31
0.0
  0
LINE
  8
0
  6
CONTINUOUS
 62
     2
 10
38.988683888
 20
57.139258994
 30
0.0
 11
39.081548122
 21
57.196983388
 31
0.0
  0
LINE
  8
0
  6
CONTINUOUS
 62
     2
 10
39.081548122
 20
57.196983388
 30
0.0
 11
39.131231228
 21
57.257179876
 31
0.0
  0
LINE
  8
0
  6
CONTINUOUS
 62
     2
 10
39.131231228
 20
57.257179876
 30
0.0
 11
39.177208452
 21
57.403086664
 31
0.0
  0
LINE
  8
0
  6
CONTINUOUS
 62
     2
 10
39.177208452
 20
57.403086664
 30
0.0
 11
39.204903738
 21
57.542623558
 31
0.0
  0
LINE
  8
0
  6
CONTINUOUS
 62
     2
 10
39.204903738
 20
57.542623558
 30
0.0
 11
39.226501165
 21
57.693016943
 31
0.0
  0
LINE
  8
0
  6
CONTINUOUS
 62
     2
 10
39.226501165
 20
57.693016943
 30
0.0
 11
39.23965952
 21
57.842215545
 31
0.0
  0
LINE
  8
0
  6
CONTINUOUS
 62
     2
 10
39.23965952
 20
57.842215545
 30
0.0
 11
39.244706871
 21
57.99221524
 31
0.0
  0
LINE
  8
0
  6
CONTINUOUS
 62
     2
 10
39.244706871
 20
57.99221524
 30
0.0
 11
39.241359467
 21
58.147048818
 31
0.0
  0
LINE
  8
0
  6
CONTINUOUS
 62
     2
 10
39.241359467
 20
58.147048818
 30
0.0
 11
39.230429494
 21
58.290930487
 31
0.0
  0
LINE
  8
0
  6
CONTINUOUS
 62
     2
 10
39.230429494
 20
58.290930487
 30
0.0
 11
39.211024891
 21
58.44023539
 31
0.0
  0
LINE
  8
0
  6
CONTINUOUS
 62
     2
 10
39.211024891
 20
58.44023539
 30
0.0
 11
39.184451161
 21
58.583838096
 31
0.0
  0
LINE
  8
0
  6
CONTINUOUS
 62
     2
 10
39.184451161
 20
58.583838096
 30
0.0
 11
39.148464121
 21
58.730674508
 31
0.0
  0
LINE
  8
0
  6
CONTINUOUS
 62
     2
 10
39.148464121
 20
58.730674508
 30
0.0
 11
39.096320702
 21
58.808352803
 31
0.0
  0
LINE
  8
0
  6
CONTINUOUS
 62
     2
 10
39.096320702
 20
58.808352803
 30
0.0
 11
39.01021188
 21
58.871462947
 31
0.0
  0
LINE
  8
0
  6
CONTINUOUS
 62
     2
 10
39.01021188
 20
58.871462947
 30
0.0
 11
38.895333854
 21
58.899807318
 31
0.0
  0
LINE
  8
0
  6
CONTINUOUS
 62
     2
 10
38.895333854
 20
58.899807318
 30
0.0
 11
38.761433084
 21
58.872467984
 31
0.0
  0
LINE
  8
0
  6
CONTINUOUS
 62
     2
 10
38.761433084
 20
58.872467984
 30
0.0
 11
38.671943341
 21
58.806995669
 31
0.0
  0
LINE
  8
0
  6
CONTINUOUS
 62
     2
 10
38.671943341
 20
58.806995669
 30
0.0
 11
38.619692979
 21
58.727631895
 31
0.0
  0
LINE
  8
0
  6
CONTINUOUS
 62
     2
 10
37.89
 20
68.52
 30
0.0
 11
37.899003244
 21
68.600007985
 31
0.0
  0
LINE
  8
0
  6
CONTINUOUS
 62
     2
 10
37.899003244
 20
68.600007985
 30
0.0
 11
37.924881783
 21
68.674590249
 31
0.0
  0
LINE
  8
0
  6
CONTINUOUS
 62
     2
 10
37.924881783
 20
68.674590249
 30
0.0
 11
37.961121182
 21
68.734823249
 31
0.0
  0
LINE
  8
0
  6
CONTINUOUS
 62
     2
 10
37.961121182
 20
68.734823249
 30
0.0
 11
38.008872872
 21
68.787315746
 31
0.0
  0
LINE
  8
0
  6
CONTINUOUS
 62
     2
 10
38.008872872
 20
68.787315746
 30
0.0
 11
38.064254659
 21
68.82838072
 31
0.0
  0
LINE
  8
0
  6
CONTINUOUS
 62
     2
 10
38.064254659
 20
68.82838072
 30
0.0
 11
38.136509985
 21
68.861643113
 31
0.0
  0
LINE
  8
0
  6
CONTINUOUS
 62
     2
 10
38.136509985
 20
68.861643113
 30
0.0
 11
38.236763364
 21
68.879756573
 31
0.0
  0
LINE
  8
0
  6
CONTINUOUS
 62
     2
 10
38.236763364
 20
68.879756573
 30
0.0
 11
38.340321623
 21
68.8684853
 31
0.0
  0
LINE
  8
0
  6
CONTINUOUS
 62
     2
 10
38.340321623
 20
68.8684853
 30
0.0
 11
38.413827953
 21
68.840562633
 31
0.0
  0
LINE
  8
0
  6
CONTINUOUS
 62
     2
 10
38.413827953
 20
68.840562633
 30
0.0
 11
38.473217173
 21
68.802443081
 31
0.0
  0
LINE
  8
0
  6
CONTINUOUS
 62
     2
 10
38.473217173
 20
68.802443081
 30
0.0
 11
38.524194879
 21
68.753274877
 31
0.0
  0
LINE
  8
0
  6
CONTINUOUS
 62
     2
 10
38.524194879
 20
68.753274877
 30
0.0
 11
38.56338842
 21
68.697165736
 31
0.0
  0
LINE
  8
0
  6
CONTINUOUS
 62
     2
 10
38.56338842
 20
68.697165736
 30
0.0
 11
38.594634949
 21
68.624051679
 31
0.0
  0
LINE
  8
0
  6
CONTINUOUS
 62
     2
 10
38.594634949
 20
68.624051679
 30
0.0
 11
38.608893217
 21
68.548207426
 31
0.0
  0
LINE
  8
0
  6
CONTINUOUS
 62
     2
 10
38.608893217
 20
68.548207426
 30
0.0
 11
38.606978646
 21
68.473457048
 31
0.0
  0
LINE
  8
0
  6
CONTINUOUS
 62
     2
 10
38.606978646
 20
68.473457048
 30
0.0
 11
38.588055517
 21
68.396232204
 31
0.0
  0
LINE
  8
0
  6
CONTINUOUS
 62
     2
 10
38.588055517
 20
68.396232204
 30
0.0
 11
38.553938272
 21
68.326534244
 31
0.0
  0
LINE
  8
0
  6
CONTINUOUS
 62
     2
 10
38.553938272
 20
68.326534244
 30
0.0
 11
38.510651652
 21
68.25209975
 31
0.0
  0
LINE
  8
0
  6
CONTINUOUS
 62
     2
 10
38.510651652
 20
68.25209975
 30
0.0
 11
38.445465793
 21
68.14000792
 31
0.0
  0
LINE
  8
0
  6
CONTINUOUS
 62
     2
 10
38.445465793
 20
68.14000792
 30
0.0
 11
38.380279934
 21
68.027916091
 31
0.0
  0
LINE
  8
0
  6
CONTINUOUS
 62
     2
 10
38.380279934
 20
68.027916091
 30
0.0
 11
38.315094075
 21
67.915824262
 31
0.0
  0
LINE
  8
0
  6
CONTINUOUS
 62
     2
 10
38.315094075
 20
67.915824262
 30
0.0
 11
38.249908216
 21
67.803732433
 31
0.0
  0
LINE
  8
0
  6
CONTINUOUS
 62
     2
 10
38.249908216
 20
67.803732433
 30
0.0
 11
38.184722357
 21
67.691640603
 31
0.0
  0
LINE
  8
0
  6
CONTINUOUS
 62
     2
 10
38.184722357
 20
67.691640603
 30
0.0
 11
38.119536499
 21
67.579548774
 31
0.0
  0
LINE
  8
0
  6
CONTINUOUS
 62
     2
 10
38.119536499
 20
67.579548774
 30
0.0
 11
38.05435064
 21
67.467456945
 31
0.0
  0
LINE
  8
0
  6
CONTINUOUS
 62
     2
 10
38.05435064
 20
67.467456945
 30
0.0
 11
37.989164781
 21
67.355365116
 31
0.0
  0
LINE
  8
0
  6
CONTINUOUS
 62
     2
 10
37.989164781
 20
67.355365116
 30
0.0
 11
37.923978922
 21
67.243273286
 31
0.0
  0
LINE
  8
0
  6
CONTINUOUS
 62
     2
 10
37.923978922
 20
67.243273286
 30
0.0
 11
37.852290601
 21
67.12
 31
0.0
  0
LINE
  8
0
  6
CONTINUOUS
 62
     2
 10
37.852290601
 20
67.12
 30
0.0
 11
38.002290601
 21
67.12
 31
0.0
  0
LINE
  8
0
  6
CONTINUOUS
 62
     2
 10
38.002290601
 20
67.12
 30
0.0
 11
38.152290601
 21
67.12
 31
0.0
  0
LINE
  8
0
  6
CONTINUOUS
 62
     2
 10
38.152290601
 20
67.12
 30
0.0
 11
38.302290601
 21
67.12
 31
0.0
  0
LINE
  8
0
  6
CONTINUOUS
 62
     2
 10
38.302290601
 20
67.12
 30
0.0
 11
38.452290601
 21
67.12
 31
0.0
  0
LINE
  8
0
  6
CONTINUOUS
 62
     2
 10
38.452290601
 20
67.12
 30
0.0
 11
38.61000001
 21
67.12
 31
0.0
  0
LINE
  8
0
  6
CONTINUOUS
 62
     2
 10
39.244692979
 20
68.727631895
 30
0.0
 11
39.210314642
 21
68.584954116
 31
0.0
  0
LINE
  8
0
  6
CONTINUOUS
 62
     2
 10
39.210314642
 20
68.584954116
 30
0.0
 11
39.183340333
 21
68.439200479
 31
0.0
  0
LINE
  8
0
  6
CONTINUOUS
 62
     2
 10
39.183340333
 20
68.439200479
 30
0.0
 11
39.164123205
 21
68.291168417
 31
0.0
  0
LINE
  8
0
  6
CONTINUOUS
 62
     2
 10
39.164123205
 20
68.291168417
 30
0.0
 11
39.152908353
 21
68.141704187
 31
0.0
  0
LINE
  8
0
  6
CONTINUOUS
 62
     2
 10
39.152908353
 20
68.141704187
 30
0.0
 11
39.149824949
 21
67.991683724
 31
0.0
  0
LINE
  8
0
  6
CONTINUOUS
 62
     2
 10
39.149824949
 20
67.991683724
 30
0.0
 11
39.154882439
 21
67.841992158
 31
0.0
  0
LINE
  8
0
  6
CONTINUOUS
 62
     2
 10
39.154882439
 20
67.841992158
 30
0.0
 11
39.167971024
 21
67.69350303
 31
0.0
  0
LINE
  8
0
  6
CONTINUOUS
 62
     2
 10
39.167971024
 20
67.69350303
 30
0.0
 11
39.188866358
 21
67.547058225
 31
0.0
  0
LINE
  8
0
  6
CONTINUOUS
 62
     2
 10
39.188866358
 20
67.547058225
 30
0.0
 11
39.21723811
 21
67.403449583
 31
0.0
  0
LINE
  8
0
  6
CONTINUOUS
 62
     2
 10
39.21723811
 20
67.403449583
 30
0.0
 11
39.252661819
 21
67.263402995
 31
0.0
  0
LINE
  8
0
  6
CONTINUOUS
 62
     2
 10
39.252661819
 20
67.263402995
 30
0.0
 11
39.311749623
 21
67.198126835
 31
0.0
  0
LINE
  8
0
  6
CONTINUOUS
 62
     2
 10
39.311749623
 20
67.198126835
 30
0.0
 11
39.386463496
 21
67.147517728
 31
0.0
  0
LINE
  8
0
  6
CONTINUOUS
 62
     2
 10
39.386463496
 20
67.147517728
 30
0.0
 11
39.511478348
 21
67.120005066
 31
0.0
  0
LINE
  8
0
  6
CONTINUOUS
 62
     2
 10
39.511478348
 20
67.120005066
 30
0.0
 11
39.613683888
 21
67.139258994
 31
0.0
  0
LINE
  8
0
  6
CONTINUOUS
 62
     2
 10
39.613683888
 20
67.139258994
 30
0.0
 11
39.706548122
 21
67.196983388
 31
0.0
  0
LINE
  8
0
  6
CONTINUOUS
 62
     2
 10
39.706548122
 20
67.196983388
 30
0.0
 11
39.756231228
 21
67.257179876
 31
0.0
  0
LINE
  8
0
  6
CONTINUOUS
 62
     2
 10
39.756231228
 20
67.257179876
 30
0.0
 11
39.802208452
 21
67.403086664
 31
0.0
  0
LINE
  8
0
  6
CONTINUOUS
 62
     2
 10
39.802208452
 20
67.403086664
 30
0.0
 11
39.829903738
 21
67.542623558
 31
0.0
  0
LINE
  8
0
  6
CONTINUOUS
 62
     2
 10
39.829903738
 20
67.542623558
 30
0.0
 11
39.851501165
 21
67.693016943
 31
0.0
  0
LINE
  8
0
  6
CONTINUOUS
 62
     2
 10
39.851501165
 20
67.693016943
 30
0.0
 11
39.86465952
 21
67.842215545
 31
0.0
  0
LINE
  8
0
  6
CONTINUOUS
 62
     2
 10
39.86465952
 20
67.842215545
 30
0.0
 11
39.869706871
 21
67.99221524
 31
0.0
  0
LINE
  8
0
  6
CONTINUOUS
 62
     2
 10
39.869706871
 20
67.99221524
 30
0.0
 11
39.866359467
 21
68.147048818
 31
0.0
  0
LINE
  8
0
  6
CONTINUOUS
 62
     2
 10
39.866359467
 20
68.147048818
 30
0.0
 11
39.855429494
 21
68.290930487
 31
0.0
  0
LINE
  8
0
  6
CONTINUOUS
 62
     2
 10
39.855429494
 20
68.290930487
 30
0.0
 11
39.836024891
 21
68.44023539
 31
0.0
  0
LINE
  8
0
  6
CONTINUOUS
 62
     2
 10
39.836024891
 20
68.44023539
 30
0.0
 11
39.809451161
 21
68.583838096
 31
0.0
  0
LINE
  8
0
  6
CONTINUOUS
 62
     2
 10
39.809451161
 20
68.583838096
 30
0.0
 11
39.773464121
 21
68.730674508
 31
0.0
  0
LINE
  8
0
  6
CONTINUOUS
 62
     2
 10
39.773464121
 20
68.730674508
 30
0.0
 11
39.721320702
 21
68.808352803
 31
0.0
  0
LINE
  8
0
  6
CONTINUOUS
 62
     2
 10
39.721320702
 20
68.808352803
 30
0.0
 11
39.63521188
 21
68.871462947
 31
0.0
  0
LINE
  8
0
  6
CONTINUOUS
 62
     2
 10
39.63521188
 20
68.871462947
 30
0.0
 11
39.520333854
 21
68.899807318
 31
0.0
  0
LINE
  8
0
  6
CONTINUOUS
 62
     2
 10
39.520333854
 20
68.899807318
 30
0.0
 11
39.386433084
 21
68.872467984
 31
0.0
  0
LINE
  8
0
  6
CONTINUOUS
 62
     2
 10
39.386433084
 20
68.872467984
 30
0.0
 11
39.296943341
 21
68.806995669
 31
0.0
  0
LINE
  8
0
  6
CONTINUOUS
 62
     2
 10
39.296943341
 20
68.806995669
 30
0.0
 11
39.244692979
 21
68.727631895
 31
0.0
  0
LINE
  8
0
  6
CONTINUOUS
 62
     2
 10
39.244692979
 20
78.727631895
 30
0.0
 11
39.210314642
 21
78.584954116
 31
0.0
  0
LINE
  8
0
  6
CONTINUOUS
 62
     2
 10
39.210314642
 20
78.584954116
 30
0.0
 11
39.183340333
 21
78.439200479
 31
0.0
  0
LINE
  8
0
  6
CONTINUOUS
 62
     2
 10
39.183340333
 20
78.439200479
 30
0.0
 11
39.164123205
 21
78.291168417
 31
0.0
  0
LINE
  8
0
  6
CONTINUOUS
 62
     2
 10
39.164123205
 20
78.291168417
 30
0.0
 11
39.152908353
 21
78.141704187
 31
0.0
  0
LINE
  8
0
  6
CONTINUOUS
 62
     2
 10
39.152908353
 20
78.141704187
 30
0.0
 11
39.149824949
 21
77.991683724
 31
0.0
  0
LINE
  8
0
  6
CONTINUOUS
 62
     2
 10
39.149824949
 20
77.991683724
 30
0.0
 11
39.154882439
 21
77.841992158
 31
0.0
  0
LINE
  8
0
  6
CONTINUOUS
 62
     2
 10
39.154882439
 20
77.841992158
 30
0.0
 11
39.167971024
 21
77.69350303
 31
0.0
  0
LINE
  8
0
  6
CONTINUOUS
 62
     2
 10
39.167971024
 20
77.69350303
 30
0.0
 11
39.188866358
 21
77.547058225
 31
0.0
  0
LINE
  8
0
  6
CONTINUOUS
 62
     2
 10
39.188866358
 20
77.547058225
 30
0.0
 11
39.21723811
 21
77.403449583
 31
0.0
  0
LINE
  8
0
  6
CONTINUOUS
 62
     2
 10
39.21723811
 20
77.403449583
 30
0.0
 11
39.252661819
 21
77.263402995
 31
0.0
  0
LINE
  8
0
  6
CONTINUOUS
 62
     2
 10
39.252661819
 20
77.263402995
 30
0.0
 11
39.311749623
 21
77.198126835
 31
0.0
  0
LINE
  8
0
  6
CONTINUOUS
 62
     2
 10
39.311749623
 20
77.198126835
 30
0.0
 11
39.386463496
 21
77.147517728
 31
0.0
  0
LINE
  8
0
  6
CONTINUOUS
 62
     2
 10
39.386463496
 20
77.147517728
 30
0.0
 11
39.511478348
 21
77.120005066
 31
0.0
  0
LINE
  8
0
  6
CONTINUOUS
 62
     2
 10
39.511478348
 20
77.120005066
 30
0.0
 11
39.613683888
 21
77.139258994
 31
0.0
  0
LINE
  8
0
  6
CONTINUOUS
 62
     2
 10
39.613683888
 20
77.139258994
 30
0.0
 11
39.706548122
 21
77.196983388
 31
0.0
  0
LINE
  8
0
  6
CONTINUOUS
 62
     2
 10
39.706548122
 20
77.196983388
 30
0.0
 11
39.756231228
 21
77.257179876
 31
0.0
  0
LINE
  8
0
  6
CONTINUOUS
 62
     2
 10
39.756231228
 20
77.257179876
 30
0.0
 11
39.802208452
 21
77.403086664
 31
0.0
  0
LINE
  8
0
  6
CONTINUOUS
 62
     2
 10
39.802208452
 20
77.403086664
 30
0.0
 11
39.829903738
 21
77.542623558
 31
0.0
  0
LINE
  8
0
  6
CONTINUOUS
 62
     2
 10
39.829903738
 20
77.542623558
 30
0.0
 11
39.851501165
 21
77.693016943
 31
0.0
  0
LINE
  8
0
  6
CONTINUOUS
 62
     2
 10
39.851501165
 20
77.693016943
 30
0.0
 11
39.86465952
 21
77.842215545
 31
0.0
  0
LINE
  8
0
  6
CONTINUOUS
 62
     2
 10
39.86465952
 20
77.842215545
 30
0.0
 11
39.869706871
 21
77.99221524
 31
0.0
  0
LINE
  8
0
  6
CONTINUOUS
 62
     2
 10
39.869706871
 20
77.99221524
 30
0.0
 11
39.866359467
 21
78.147048818
 31
0.0
  0
LINE
  8
0
  6
CONTINUOUS
 62
     2
 10
39.866359467
 20
78.147048818
 30
0.0
 11
39.855429494
 21
78.290930487
 31
0.0
  0
LINE
  8
0
  6
CONTINUOUS
 62
     2
 10
39.855429494
 20
78.290930487
 30
0.0
 11
39.836024891
 21
78.44023539
 31
0.0
  0
LINE
  8
0
  6
CONTINUOUS
 62
     2
 10
39.836024891
 20
78.44023539
 30
0.0
 11
39.809451161
 21
78.583838096
 31
0.0
  0
LINE
  8
0
  6
CONTINUOUS
 62
     2
 10
39.809451161
 20
78.583838096
 30
0.0
 11
39.773464121
 21
78.730674508
 31
0.0
  0
LINE
  8
0
  6
CONTINUOUS
 62
     2
 10
39.773464121
 20
78.730674508
 30
0.0
 11
39.721320702
 21
78.808352803
 31
0.0
  0
LINE
  8
0
  6
CONTINUOUS
 62
     2
 10
39.721320702
 20
78.808352803
 30
0.0
 11
39.63521188
 21
78.871462947
 31
0.0
  0
LINE
  8
0
  6
CONTINUOUS
 62
     2
 10
39.63521188
 20
78.871462947
 30
0.0
 11
39.520333854
 21
78.899807318
 31
0.0
  0
LINE
  8
0
  6
CONTINUOUS
 62
     2
 10
39.520333854
 20
78.899807318
 30
0.0
 11
39.386433084
 21
78.872467984
 31
0.0
  0
LINE
  8
0
  6
CONTINUOUS
 62
     2
 10
39.386433084
 20
78.872467984
 30
0.0
 11
39.296943341
 21
78.806995669
 31
0.0
  0
LINE
  8
0
  6
CONTINUOUS
 62
     2
 10
39.296943341
 20
78.806995669
 30
0.0
 11
39.244692979
 21
78.727631895
 31
0.0
  0
LINE
  8
0
  6
CONTINUOUS
 62
     2
 10
38.41
 20
77.12
 30
0.0
 11
38.41
 21
77.27
 31
0.0
  0
LINE
  8
0
  6
CONTINUOUS
 62
     2
 10
38.41
 20
77.27
 30
0.0
 11
38.41
 21
77.42
 31
0.0
  0
LINE
  8
0
  6
CONTINUOUS
 62
     2
 10
38.41
 20
77.42
 30
0.0
 11
38.41
 21
77.57
 31
0.0
  0
LINE
  8
0
  6
CONTINUOUS
 62
     2
 10
38.41
 20
77.57
 30
0.0
 11
38.41
 21
77.72
 31
0.0
  0
LINE
  8
0
  6
CONTINUOUS
 62
     2
 10
38.41
 20
77.72
 30
0.0
 11
38.41
 21
77.87
 31
0.0
  0
LINE
  8
0
  6
CONTINUOUS
 62
     2
 10
38.41
 20
77.87
 30
0.0
 11
38.41
 21
78.02
 31
0.0
  0
LINE
  8
0
  6
CONTINUOUS
 62
     2
 10
38.41
 20
78.02
 30
0.0
 11
38.41
 21
78.22
 31
0.0
  0
LINE
  8
0
  6
CONTINUOUS
 62
     2
 10
38.41
 20
78.22
 30
0.0
 11
38.41
 21
78.07
 31
0.0
  0
LINE
  8
0
  6
CONTINUOUS
 62
     2
 10
38.41
 20
78.07
 30
0.0
 11
38.41
 21
77.92
 31
0.0
  0
LINE
  8
0
  6
CONTINUOUS
 62
     2
 10
38.41
 20
77.92
 30
0.0
 11
38.41
 21
77.77
 31
0.0
  0
LINE
  8
0
  6
CONTINUOUS
 62
     2
 10
38.41
 20
77.77
 30
0.0
 11
38.41
 21
77.62
 31
0.0
  0
LINE
  8
0
  6
CONTINUOUS
 62
     2
 10
38.41
 20
77.62
 30
0.0
 11
38.41
 21
77.52
 31
0.0
  0
LINE
  8
0
  6
CONTINUOUS
 62
     2
 10
38.41
 20
77.52
 30
0.0
 11
38.61
 21
77.52
 31
0.0
  0
LINE
  8
0
  6
CONTINUOUS
 62
     2
 10
38.61
 20
77.52
 30
0.0
 11
38.46
 21
77.52
 31
0.0
  0
LINE
  8
0
  6
CONTINUOUS
 62
     2
 10
38.46
 20
77.52
 30
0.0
 11
38.31
 21
77.52
 31
0.0
  0
LINE
  8
0
  6
CONTINUOUS
 62
     2
 10
38.31
 20
77.52
 30
0.0
 11
38.16
 21
77.52
 31
0.0
  0
LINE
  8
0
  6
CONTINUOUS
 62
     2
 10
38.16
 20
77.52
 30
0.0
 11
38.01
 21
77.52
 31
0.0
  0
LINE
  8
0
  6
CONTINUOUS
 62
     2
 10
38.01
 20
77.52
 30
0.0
 11
37.89
 21
77.52
 31
0.0
  0
LINE
  8
0
  6
CONTINUOUS
 62
     2
 10
37.89
 20
77.52
 30
0.0
 11
37.924448276
 21
77.66162069
 31
0.0
  0
LINE
  8
0
  6
CONTINUOUS
 62
     2
 10
37.924448276
 20
77.66162069
 30
0.0
 11
37.958896552
 21
77.803241379
 31
0.0
  0
LINE
  8
0
  6
CONTINUOUS
 62
     2
 10
37.958896552
 20
77.803241379
 30
0.0
 11
37.993344828
 21
77.944862069
 31
0.0
  0
LINE
  8
0
  6
CONTINUOUS
 62
     2
 10
37.993344828
 20
77.944862069
 30
0.0
 11
38.027793103
 21
78.086482759
 31
0.0
  0
LINE
  8
0
  6
CONTINUOUS
 62
     2
 10
38.027793103
 20
78.086482759
 30
0.0
 11
38.062241379
 21
78.228103448
 31
0.0
  0
LINE
  8
0
  6
CONTINUOUS
 62
     2
 10
38.062241379
 20
78.228103448
 30
0.0
 11
38.096689655
 21
78.369724138
 31
0.0
  0
LINE
  8
0
  6
CONTINUOUS
 62
     2
 10
38.096689655
 20
78.369724138
 30
0.0
 11
38.131137931
 21
78.511344828
 31
0.0
  0
LINE
  8
0
  6
CONTINUOUS
 62
     2
 10
38.131137931
 20
78.511344828
 30
0.0
 11
38.165586207
 21
78.652965517
 31
0.0
  0
LINE
  8
0
  6
CONTINUOUS
 62
     2
 10
38.165586207
 20
78.652965517
 30
0.0
 11
38.200034483
 21
78.794586207
 31
0.0
  0
LINE
  8
0
  6
CONTINUOUS
 62
     2
 10
38.200034483
 20
78.794586207
 30
0.0
 11
38.221637811
 21
78.883399888
 31
0.0
  0
LINE
  8
0
  6
CONTINUOUS
 62
     2
 10
37.87
 20
87.6
 30
0.0
 11
37.888210375
 21
87.746810616
 31
0.0
  0
LINE
  8
0
  6
CONTINUOUS
 62
     2
 10
37.888210375
 20
87.746810616
 30
0.0
 11
37.937252328
 21
87.872645817
 31
0.0
  0
LINE
  8
0
  6
CONTINUOUS
 62
     2
 10
37.937252328
 20
87.872645817
 30
0.0
 11
38.011554138
 21
87.973740162
 31
0.0
  0
LINE
  8
0
  6
CONTINUOUS
 62
     2
 10
38.011554138
 20
87.973740162
 30
0.0
 11
38.11201761
 21
88.047237923
 31
0.0
  0
LINE
  8
0
  6
CONTINUOUS
 62
     2
 10
38.11201761
 20
88.047237923
 30
0.0
 11
38.23681217
 21
88.079710851
 31
0.0
  0
LINE
  8
0
  6
CONTINUOUS
 62
     2
 10
38.23681217
 20
88.079710851
 30
0.0
 11
38.399051808
 21
88.041533872
 31
0.0
  0
LINE
  8
0
  6
CONTINUOUS
 62
     2
 10
38.399051808
 20
88.041533872
 30
0.0
 11
38.484672227
 21
87.97753198
 31
0.0
  0
LINE
  8
0
  6
CONTINUOUS
 62
     2
 10
38.484672227
 20
87.97753198
 30
0.0
 11
38.563406606
 21
87.871435848
 31
0.0
  0
LINE
  8
0
  6
CONTINUOUS
 62
     2
 10
38.563406606
 20
87.871435848
 30
0.0
 11
38.611069872
 21
87.749611162
 31
0.0
  0
LINE
  8
0
  6
CONTINUOUS
 62
     2
 10
38.611069872
 20
87.749611162
 30
0.0
 11
38.629999873
 21
87.599607098
 31
0.0
  0
LINE
  8
0
  6
CONTINUOUS
 62
     2
 10
38.629999873
 20
87.599607098
 30
0.0
 11
38.618629721
 21
87.483459539
 31
0.0
  0
LINE
  8
0
  6
CONTINUOUS
 62
     2
 10
38.618629721
 20
87.483459539
 30
0.0
 11
38.575828498
 21
87.353002434
 31
0.0
  0
LINE
  8
0
  6
CONTINUOUS
 62
     2
 10
38.575828498
 20
87.353002434
 30
0.0
 11
38.487525369
 21
87.225325779
 31
0.0
  0
LINE
  8
0
  6
CONTINUOUS
 62
     2
 10
38.487525369
 20
87.225325779
 30
0.0
 11
38.40547554
 21
87.162014947
 31
0.0
  0
LINE
  8
0
  6
CONTINUOUS
 62
     2
 10
38.40547554
 20
87.162014947
 30
0.0
 11
38.240537341
 21
87.120148846
 31
0.0
  0
LINE
  8
0
  6
CONTINUOUS
 62
     2
 10
38.240537341
 20
87.120148846
 30
0.0
 11
38.119040431
 21
87.149405549
 31
0.0
  0
LINE
  8
0
  6
CONTINUOUS
 62
     2
 10
38.119040431
 20
87.149405549
 30
0.0
 11
38.009885651
 21
87.227968156
 31
0.0
  0
LINE
  8
0
  6
CONTINUOUS
 62
     2
 10
38.009885651
 20
87.227968156
 30
0.0
 11
37.932601555
 21
87.336068827
 31
0.0
  0
LINE
  8
0
  6
CONTINUOUS
 62
     2
 10
37.932601555
 20
87.336068827
 30
0.0
 11
37.884609201
 21
87.468185592
 31
0.0
  0
LINE
  8
0
  6
CONTINUOUS
 62
     2
 10
37.884609201
 20
87.468185592
 30
0.0
 11
37.875782971
 21
87.746557868
 31
0.0
  0
LINE
  8
0
  6
CONTINUOUS
 62
     2
 10
37.875782971
 20
87.746557868
 30
0.0
 11
37.889948535
 21
87.871681071
 31
0.0
  0
LINE
  8
0
  6
CONTINUOUS
 62
     2
 10
37.889948535
 20
87.871681071
 30
0.0
 11
37.91794074
 21
88.019572686
 31
0.0
  0
LINE
  8
0
  6
CONTINUOUS
 62
     2
 10
37.91794074
 20
88.019572686
 30
0.0
 11
37.96016461
 21
88.172086263
 31
0.0
  0
LINE
  8
0
  6
CONTINUOUS
 62
     2
 10
37.96016461
 20
88.172086263
 30
0.0
 11
38.007822786
 21
88.302641904
 31
0.0
  0
LINE
  8
0
  6
CONTINUOUS
 62
     2
 10
38.007822786
 20
88.302641904
 30
0.0
 11
38.063108063
 21
88.425270422
 31
0.0
  0
LINE
  8
0
  6
CONTINUOUS
 62
     2
 10
38.063108063
 20
88.425270422
 30
0.0
 11
38.124595268
 21
88.539295292
 31
0.0
  0
LINE
  8
0
  6
CONTINUOUS
 62
     2
 10
38.124595268
 20
88.539295292
 30
0.0
 11
38.190856534
 21
88.644335861
 31
0.0
  0
LINE
  8
0
  6
CONTINUOUS
 62
     2
 10
38.190856534
 20
88.644335861
 30
0.0
 11
38.26052153
 21
88.74027761
 31
0.0
  0
LINE
  8
0
  6
CONTINUOUS
 62
     2
 10
38.26052153
 20
88.74027761
 30
0.0
 11
38.382975723
 21
88.882624496
 31
0.0
  0
LINE
  8
0
  6
CONTINUOUS
 62
     2
 10
39.244692979
 20
88.727631895
 30
0.0
 11
39.210314642
 21
88.584954116
 31
0.0
  0
LINE
  8
0
  6
CONTINUOUS
 62
     2
 10
39.210314642
 20
88.584954116
 30
0.0
 11
39.183340333
 21
88.439200479
 31
0.0
  0
LINE
  8
0
  6
CONTINUOUS
 62
     2
 10
39.183340333
 20
88.439200479
 30
0.0
 11
39.164123205
 21
88.291168417
 31
0.0
  0
LINE
  8
0
  6
CONTINUOUS
 62
     2
 10
39.164123205
 20
88.291168417
 30
0.0
 11
39.152908353
 21
88.141704187
 31
0.0
  0
LINE
  8
0
  6
CONTINUOUS
 62
     2
 10
39.152908353
 20
88.141704187
 30
0.0
 11
39.149824949
 21
87.991683724
 31
0.0
  0
LINE
  8
0
  6
CONTINUOUS
 62
     2
 10
39.149824949
 20
87.991683724
 30
0.0
 11
39.154882439
 21
87.841992158
 31
0.0
  0
LINE
  8
0
  6
CONTINUOUS
 62
     2
 10
39.154882439
 20
87.841992158
 30
0.0
 11
39.167971024
 21
87.69350303
 31
0.0
  0
LINE
  8
0
  6
CONTINUOUS
 62
     2
 10
39.167971024
 20
87.69350303
 30
0.0
 11
39.188866358
 21
87.547058225
 31
0.0
  0
LINE
  8
0
  6
CONTINUOUS
 62
     2
 10
39.188866358
 20
87.547058225
 30
0.0
 11
39.21723811
 21
87.403449583
 31
0.0
  0
LINE
  8
0
  6
CONTINUOUS
 62
     2
 10
39.21723811
 20
87.403449583
 30
0.0
 11
39.252661819
 21
87.263402995
 31
0.0
  0
LINE
  8
0
  6
CONTINUOUS
 62
     2
 10
39.252661819
 20
87.263402995
 30
0.0
 11
39.311749623
 21
87.198126835
 31
0.0
  0
LINE
  8
0
  6
CONTINUOUS
 62
     2
 10
39.311749623
 20
87.198126835
 30
0.0
 11
39.386463496
 21
87.147517728
 31
0.0
  0
LINE
  8
0
  6
CONTINUOUS
 62
     2
 10
39.386463496
 20
87.147517728
 30
0.0
 11
39.511478348
 21
87.120005066
 31
0.0
  0
LINE
  8
0
  6
CONTINUOUS
 62
     2
 10
39.511478348
 20
87.120005066
 30
0.0
 11
39.613683888
 21
87.139258994
 31
0.0
  0
LINE
  8
0
  6
CONTINUOUS
 62
     2
 10
39.613683888
 20
87.139258994
 30
0.0
 11
39.706548122
 21
87.196983388
 31
0.0
  0
LINE
  8
0
  6
CONTINUOUS
 62
     2
 10
39.706548122
 20
87.196983388
 30
0.0
 11
39.756231228
 21
87.257179876
 31
0.0
  0
LINE
  8
0
  6
CONTINUOUS
 62
     2
 10
39.756231228
 20
87.257179876
 30
0.0
 11
39.802208452
 21
87.403086664
 31
0.0
  0
LINE
  8
0
  6
CONTINUOUS
 62
     2
 10
39.802208452
 20
87.403086664
 30
0.0
 11
39.829903738
 21
87.542623558
 31
0.0
  0
LINE
  8
0
  6
CONTINUOUS
 62
     2
 10
39.829903738
 20
87.542623558
 30
0.0
 11
39.851501165
 21
87.693016943
 31
0.0
  0
LINE
  8
0
  6
CONTINUOUS
 62
     2
 10
39.851501165
 20
87.693016943
 30
0.0
 11
39.86465952
 21
87.842215545
 31
0.0
  0
LINE
  8
0
  6
CONTINUOUS
 62
     2
 10
39.86465952
 20
87.842215545
 30
0.0
 11
39.869706871
 21
87.99221524
 31
0.0
  0
LINE
  8
0
  6
CONTINUOUS
 62
     2
 10
39.869706871
 20
87.99221524
 30
0.0
 11
39.866359467
 21
88.147048818
 31
0.0
  0
LINE
  8
0
  6
CONTINUOUS
 62
     2
 10
39.866359467
 20
88.147048818
 30
0.0
 11
39.855429494
 21
88.290930487
 31
0.0
  0
LINE
  8
0
  6
CONTINUOUS
 62
     2
 10
39.855429494
 20
88.290930487
 30
0.0
 11
39.836024891
 21
88.44023539
 31
0.0
  0
LINE
  8
0
  6
CONTINUOUS
 62
     2
 10
39.836024891
 20
88.44023539
 30
0.0
 11
39.809451161
 21
88.583838096
 31
0.0
  0
LINE
  8
0
  6
CONTINUOUS
 62
     2
 10
39.809451161
 20
88.583838096
 30
0.0
 11
39.773464121
 21
88.730674508
 31
0.0
  0
LINE
  8
0
  6
CONTINUOUS
 62
     2
 10
39.773464121
 20
88.730674508
 30
0.0
 11
39.721320702
 21
88.808352803
 31
0.0
  0
LINE
  8
0
  6
CONTINUOUS
 62
     2
 10
39.721320702
 20
88.808352803
 30
0.0
 11
39.63521188
 21
88.871462947
 31
0.0
  0
LINE
  8
0
  6
CONTINUOUS
 62
     2
 10
39.63521188
 20
88.871462947
 30
0.0
 11
39.520333854
 21
88.899807318
 31
0.0
  0
LINE
  8
0
  6
CONTINUOUS
 62
     2
 10
39.520333854
 20
88.899807318
 30
0.0
 11
39.386433084
 21
88.872467984
 31
0.0
  0
LINE
  8
0
  6
CONTINUOUS
 62
     2
 10
39.386433084
 20
88.872467984
 30
0.0
 11
39.296943341
 21
88.806995669
 31
0.0
  0
LINE
  8
0
  6
CONTINUOUS
 62
     2
 10
39.296943341
 20
88.806995669
 30
0.0
 11
39.244692979
 21
88.727631895
 31
0.0
  0
LINE
  8
0
  6
CONTINUOUS
 62
     2
 10
39.244692979
 20
98.727631895
 30
0.0
 11
39.210314642
 21
98.584954116
 31
0.0
  0
LINE
  8
0
  6
CONTINUOUS
 62
     2
 10
39.210314642
 20
98.584954116
 30
0.0
 11
39.183340333
 21
98.439200479
 31
0.0
  0
LINE
  8
0
  6
CONTINUOUS
 62
     2
 10
39.183340333
 20
98.439200479
 30
0.0
 11
39.164123205
 21
98.291168417
 31
0.0
  0
LINE
  8
0
  6
CONTINUOUS
 62
     2
 10
39.164123205
 20
98.291168417
 30
0.0
 11
39.152908353
 21
98.141704187
 31
0.0
  0
LINE
  8
0
  6
CONTINUOUS
 62
     2
 10
39.152908353
 20
98.141704187
 30
0.0
 11
39.149824949
 21
97.991683724
 31
0.0
  0
LINE
  8
0
  6
CONTINUOUS
 62
     2
 10
39.149824949
 20
97.991683724
 30
0.0
 11
39.154882439
 21
97.841992158
 31
0.0
  0
LINE
  8
0
  6
CONTINUOUS
 62
     2
 10
39.154882439
 20
97.841992158
 30
0.0
 11
39.167971024
 21
97.69350303
 31
0.0
  0
LINE
  8
0
  6
CONTINUOUS
 62
     2
 10
39.167971024
 20
97.69350303
 30
0.0
 11
39.188866358
 21
97.547058225
 31
0.0
  0
LINE
  8
0
  6
CONTINUOUS
 62
     2
 10
39.188866358
 20
97.547058225
 30
0.0
 11
39.21723811
 21
97.403449583
 31
0.0
  0
LINE
  8
0
  6
CONTINUOUS
 62
     2
 10
39.21723811
 20
97.403449583
 30
0.0
 11
39.252661819
 21
97.263402995
 31
0.0
  0
LINE
  8
0
  6
CONTINUOUS
 62
     2
 10
39.252661819
 20
97.263402995
 30
0.0
 11
39.311749623
 21
97.198126835
 31
0.0
  0
LINE
  8
0
  6
CONTINUOUS
 62
     2
 10
39.311749623
 20
97.198126835
 30
0.0
 11
39.386463496
 21
97.147517728
 31
0.0
  0
LINE
  8
0
  6
CONTINUOUS
 62
     2
 10
39.386463496
 20
97.147517728
 30
0.0
 11
39.511478348
 21
97.120005066
 31
0.0
  0
LINE
  8
0
  6
CONTINUOUS
 62
     2
 10
39.511478348
 20
97.120005066
 30
0.0
 11
39.613683888
 21
97.139258994
 31
0.0
  0
LINE
  8
0
  6
CONTINUOUS
 62
     2
 10
39.613683888
 20
97.139258994
 30
0.0
 11
39.706548122
 21
97.196983388
 31
0.0
  0
LINE
  8
0
  6
CONTINUOUS
 62
     2
 10
39.706548122
 20
97.196983388
 30
0.0
 11
39.756231228
 21
97.257179876
 31
0.0
  0
LINE
  8
0
  6
CONTINUOUS
 62
     2
 10
39.756231228
 20
97.257179876
 30
0.0
 11
39.802208452
 21
97.403086664
 31
0.0
  0
LINE
  8
0
  6
CONTINUOUS
 62
     2
 10
39.802208452
 20
97.403086664
 30
0.0
 11
39.829903738
 21
97.542623558
 31
0.0
  0
LINE
  8
0
  6
CONTINUOUS
 62
     2
 10
39.829903738
 20
97.542623558
 30
0.0
 11
39.851501165
 21
97.693016943
 31
0.0
  0
LINE
  8
0
  6
CONTINUOUS
 62
     2
 10
39.851501165
 20
97.693016943
 30
0.0
 11
39.86465952
 21
97.842215545
 31
0.0
  0
LINE
  8
0
  6
CONTINUOUS
 62
     2
 10
39.86465952
 20
97.842215545
 30
0.0
 11
39.869706871
 21
97.99221524
 31
0.0
  0
LINE
  8
0
  6
CONTINUOUS
 62
     2
 10
39.869706871
 20
97.99221524
 30
0.0
 11
39.866359467
 21
98.147048818
 31
0.0
  0
LINE
  8
0
  6
CONTINUOUS
 62
     2
 10
39.866359467
 20
98.147048818
 30
0.0
 11
39.855429494
 21
98.290930487
 31
0.0
  0
LINE
  8
0
  6
CONTINUOUS
 62
     2
 10
39.855429494
 20
98.290930487
 30
0.0
 11
39.836024891
 21
98.44023539
 31
0.0
  0
LINE
  8
0
  6
CONTINUOUS
 62
     2
 10
39.836024891
 20
98.44023539
 30
0.0
 11
39.809451161
 21
98.583838096
 31
0.0
  0
LINE
  8
0
  6
CONTINUOUS
 62
     2
 10
39.809451161
 20
98.583838096
 30
0.0
 11
39.773464121
 21
98.730674508
 31
0.0
  0
LINE
  8
0
  6
CONTINUOUS
 62
     2
 10
39.773464121
 20
98.730674508
 30
0.0
 11
39.721320702
 21
98.808352803
 31
0.0
  0
LINE
  8
0
  6
CONTINUOUS
 62
     2
 10
39.721320702
 20
98.808352803
 30
0.0
 11
39.63521188
 21
98.871462947
 31
0.0
  0
LINE
  8
0
  6
CONTINUOUS
 62
     2
 10
39.63521188
 20
98.871462947
 30
0.0
 11
39.520333854
 21
98.899807318
 31
0.0
  0
LINE
  8
0
  6
CONTINUOUS
 62
     2
 10
39.520333854
 20
98.899807318
 30
0.0
 11
39.386433084
 21
98.872467984
 31
0.0
  0
LINE
  8
0
  6
CONTINUOUS
 62
     2
 10
39.386433084
 20
98.872467984
 30
0.0
 11
39.296943341
 21
98.806995669
 31
0.0
  0
LINE
  8
0
  6
CONTINUOUS
 62
     2
 10
39.296943341
 20
98.806995669
 30
0.0
 11
39.244692979
 21
98.727631895
 31
0.0
  0
LINE
  8
0
  6
CONTINUOUS
 62
     2
 10
38.25000005
 20
98.08
 30
0.0
 11
38.346707499
 21
98.064195763
 31
0.0
  0
LINE
  8
0
  6
CONTINUOUS
 62
     2
 10
38.346707499
 20
98.064195763
 30
0.0
 11
38.426280563
 21
98.025226985
 31
0.0
  0
LINE
  8
0
  6
CONTINUOUS
 62
     2
 10
38.426280563
 20
98.025226985
 30
0.0
 11
38.505183482
 21
97.955666753
 31
0.0
  0
LINE
  8
0
  6
CONTINUOUS
 62
     2
 10
38.505183482
 20
97.955666753
 30
0.0
 11
38.573974344
 21
97.85085891
 31
0.0
  0
LINE
  8
0
  6
CONTINUOUS
 62
     2
 10
38.573974344
 20
97.85085891
 30
0.0
 11
38.617190825
 21
97.723575956
 31
0.0
  0
LINE
  8
0
  6
CONTINUOUS
 62
     2
 10
38.617190825
 20
97.723575956
 30
0.0
 11
38.629998209
 21
97.598526286
 31
0.0
  0
LINE
  8
0
  6
CONTINUOUS
 62
     2
 10
38.629998209
 20
97.598526286
 30
0.0
 11
38.615801853
 21
97.470017403
 31
0.0
  0
LINE
  8
0
  6
CONTINUOUS
 62
     2
 10
38.615801853
 20
97.470017403
 30
0.0
 11
38.578264421
 21
97.358203499
 31
0.0
  0
LINE
  8
0
  6
CONTINUOUS
 62
     2
 10
38.578264421
 20
97.358203499
 30
0.0
 11
38.507656455
 21
97.24718946
 31
0.0
  0
LINE
  8
0
  6
CONTINUOUS
 62
     2
 10
38.507656455
 20
97.24718946
 30
0.0
 11
38.429805795
 21
97.177134663
 31
0.0
  0
LINE
  8
0
  6
CONTINUOUS
 62
     2
 10
38.429805795
 20
97.177134663
 30
0.0
 11
38.345181332
 21
97.135301199
 31
0.0
  0
LINE
  8
0
  6
CONTINUOUS
 62
     2
 10
38.345181332
 20
97.135301199
 30
0.0
 11
38.250181446
 21
97.120000055
 31
0.0
  0
LINE
  8
0
  6
CONTINUOUS
 62
     2
 10
38.250181446
 20
97.120000055
 30
0.0
 11
38.141369619
 21
97.140031081
 31
0.0
  0
LINE
  8
0
  6
CONTINUOUS
 62
     2
 10
38.141369619
 20
97.140031081
 30
0.0
 11
38.066280539
 21
97.179827354
 31
0.0
  0
LINE
  8
0
  6
CONTINUOUS
 62
     2
 10
38.066280539
 20
97.179827354
 30
0.0
 11
37.996232577
 21
97.242720317
 31
0.0
  0
LINE
  8
0
  6
CONTINUOUS
 62
     2
 10
37.996232577
 20
97.242720317
 30
0.0
 11
37.924398223
 21
97.352525856
 31
0.0
  0
LINE
  8
0
  6
CONTINUOUS
 62
     2
 10
37.924398223
 20
97.352525856
 30
0.0
 11
37.884731343
 21
97.46764656
 31
0.0
  0
LINE
  8
0
  6
CONTINUOUS
 62
     2
 10
37.884731343
 20
97.46764656
 30
0.0
 11
37.870004683
 21
97.597616918
 31
0.0
  0
LINE
  8
0
  6
CONTINUOUS
 62
     2
 10
37.870004683
 20
97.597616918
 30
0.0
 11
37.882765587
 21
97.723369122
 31
0.0
  0
LINE
  8
0
  6
CONTINUOUS
 62
     2
 10
37.882765587
 20
97.723369122
 30
0.0
 11
37.927009722
 21
97.852875504
 31
0.0
  0
LINE
  8
0
  6
CONTINUOUS
 62
     2
 10
37.927009722
 20
97.852875504
 30
0.0
 11
37.992188973
 21
97.952630326
 31
0.0
  0
LINE
  8
0
  6
CONTINUOUS
 62
     2
 10
37.992188973
 20
97.952630326
 30
0.0
 11
38.079636755
 21
98.029058061
 31
0.0
  0
LINE
  8
0
  6
CONTINUOUS
 62
     2
 10
38.079636755
 20
98.029058061
 30
0.0
 11
38.1785188
 21
98.071431169
 31
0.0
  0
LINE
  8
0
  6
CONTINUOUS
 62
     2
 10
38.1785188
 20
98.071431169
 30
0.0
 11
38.349992233
 21
98.100029703
 31
0.0
  0
LINE
  8
0
  6
CONTINUOUS
 62
     2
 10
38.349992233
 20
98.100029703
 30
0.0
 11
38.434062679
 21
98.152793714
 31
0.0
  0
LINE
  8
0
  6
CONTINUOUS
 62
     2
 10
38.434062679
 20
98.152793714
 30
0.0
 11
38.500527897
 21
98.231140812
 31
0.0
  0
LINE
  8
0
  6
CONTINUOUS
 62
     2
 10
38.500527897
 20
98.231140812
 30
0.0
 11
38.55015087
 21
98.341315018
 31
0.0
  0
LINE
  8
0
  6
CONTINUOUS
 62
     2
 10
38.55015087
 20
98.341315018
 30
0.0
 11
38.569998272
 21
98.481314391
 31
0.0
  0
LINE
  8
0
  6
CONTINUOUS
 62
     2
 10
38.569998272
 20
98.481314391
 30
0.0
 11
38.550746376
 21
98.616654317
 31
0.0
  0
LINE
  8
0
  6
CONTINUOUS
 62
     2
 10
38.550746376
 20
98.616654317
 30
0.0
 11
38.499525037
 21
98.730428557
 31
0.0
  0
LINE
  8
0
  6
CONTINUOUS
 62
     2
 10
38.499525037
 20
98.730428557
 30
0.0
 11
38.429782977
 21
98.810903312
 31
0.0
  0
LINE
  8
0
  6
CONTINUOUS
 62
     2
 10
38.429782977
 20
98.810903312
 30
0.0
 11
38.35077657
 21
98.859646387
 31
0.0
  0
LINE
  8
0
  6
CONTINUOUS
 62
     2
 10
38.35077657
 20
98.859646387
 30
0.0
 11
38.250807566
 21
98.879998726
 31
0.0
  0
LINE
  8
0
  6
CONTINUOUS
 62
     2
 10
38.250807566
 20
98.879998726
 30
0.0
 11
38.150737029
 21
98.860268948
 31
0.0
  0
LINE
  8
0
  6
CONTINUOUS
 62
     2
 10
38.150737029
 20
98.860268948
 30
0.0
 11
38.070337311
 21
98.811005377
 31
0.0
  0
LINE
  8
0
  6
CONTINUOUS
 62
     2
 10
38.070337311
 20
98.811005377
 30
0.0
 11
38.000646165
 21
98.730694862
 31
0.0
  0
LINE
  8
0
  6
CONTINUOUS
 62
     2
 10
38.000646165
 20
98.730694862
 30
0.0
 11
37.949766528
 21
98.618405329
 31
0.0
  0
LINE
  8
0
  6
CONTINUOUS
 62
     2
 10
37.949766528
 20
98.618405329
 30
0.0
 11
37.930002539
 21
98.478406504
 31
0.0
  0
LINE
  8
0
  6
CONTINUOUS
 62
     2
 10
37.930002539
 20
98.478406504
 30
0.0
 11
37.949925856
 21
98.341055834
 31
0.0
  0
LINE
  8
0
  6
CONTINUOUS
 62
     2
 10
37.949925856
 20
98.341055834
 30
0.0
 11
37.999681192
 21
98.230812275
 31
0.0
  0
LINE
  8
0
  6
CONTINUOUS
 62
     2
 10
37.999681192
 20
98.230812275
 30
0.0
 11
38.076220188
 21
98.144122937
 31
0.0
  0
LINE
  8
0
  6
CONTINUOUS
 62
     2
 10
38.076220188
 20
98.144122937
 30
0.0
 11
38.165162297
 21
98.09431359
 31
0.0
  0
LINE
  8
0
  6
CONTINUOUS
 62
     2
 10
38.165162297
 20
98.09431359
 30
0.0
 11
38.25000005
 21
98.08
 31
0.0
  0
LINE
  8
0
  6
CONTINUOUS
 62
     2
 10
37.625
 20
108.88
 30
0.0
 11
37.625
 21
108.73
 31
0.0
  0
LINE
  8
0
  6
CONTINUOUS
 62
     2
 10
37.625
 20
108.73
 30
0.0
 11
37.625
 21
108.58
 31
0.0
  0
LINE
  8
0
  6
CONTINUOUS
 62
     2
 10
37.625
 20
108.58
 30
0.0
 11
37.625
 21
108.43
 31
0.0
  0
LINE
  8
0
  6
CONTINUOUS
 62
     2
 10
37.625
 20
108.43
 30
0.0
 11
37.625
 21
108.28
 31
0.0
  0
LINE
  8
0
  6
CONTINUOUS
 62
     2
 10
37.625
 20
108.28
 30
0.0
 11
37.625
 21
108.13
 31
0.0
  0
LINE
  8
0
  6
CONTINUOUS
 62
     2
 10
37.625
 20
108.13
 30
0.0
 11
37.625
 21
107.98
 31
0.0
  0
LINE
  8
0
  6
CONTINUOUS
 62
     2
 10
37.625
 20
107.98
 30
0.0
 11
37.625
 21
107.83
 31
0.0
  0
LINE
  8
0
  6
CONTINUOUS
 62
     2
 10
37.625
 20
107.83
 30
0.0
 11
37.625
 21
107.68
 31
0.0
  0
LINE
  8
0
  6
CONTINUOUS
 62
     2
 10
37.625
 20
107.68
 30
0.0
 11
37.625
 21
107.53
 31
0.0
  0
LINE
  8
0
  6
CONTINUOUS
 62
     2
 10
37.625
 20
107.53
 30
0.0
 11
37.625
 21
107.38
 31
0.0
  0
LINE
  8
0
  6
CONTINUOUS
 62
     2
 10
37.625
 20
107.38
 30
0.0
 11
37.625
 21
107.23
 31
0.0
  0
LINE
  8
0
  6
CONTINUOUS
 62
     2
 10
37.625
 20
107.23
 30
0.0
 11
37.625
 21
107.12
 31
0.0
  0
LINE
  8
0
  6
CONTINUOUS
 62
     2
 10
38.619692979
 20
108.727631895
 30
0.0
 11
38.585314642
 21
108.584954116
 31
0.0
  0
LINE
  8
0
  6
CONTINUOUS
 62
     2
 10
38.585314642
 20
108.584954116
 30
0.0
 11
38.558340333
 21
108.439200479
 31
0.0
  0
LINE
  8
0
  6
CONTINUOUS
 62
     2
 10
38.558340333
 20
108.439200479
 30
0.0
 11
38.539123205
 21
108.291168417
 31
0.0
  0
LINE
  8
0
  6
CONTINUOUS
 62
     2
 10
38.539123205
 20
108.291168417
 30
0.0
 11
38.527908353
 21
108.141704187
 31
0.0
  0
LINE
  8
0
  6
CONTINUOUS
 62
     2
 10
38.527908353
 20
108.141704187
 30
0.0
 11
38.524824949
 21
107.991683724
 31
0.0
  0
LINE
  8
0
  6
CONTINUOUS
 62
     2
 10
38.524824949
 20
107.991683724
 30
0.0
 11
38.529882439
 21
107.841992158
 31
0.0
  0
LINE
  8
0
  6
CONTINUOUS
 62
     2
 10
38.529882439
 20
107.841992158
 30
0.0
 11
38.542971024
 21
107.69350303
 31
0.0
  0
LINE
  8
0
  6
CONTINUOUS
 62
     2
 10
38.542971024
 20
107.69350303
 30
0.0
 11
38.563866358
 21
107.547058225
 31
0.0
  0
LINE
  8
0
  6
CONTINUOUS
 62
     2
 10
38.563866358
 20
107.547058225
 30
0.0
 11
38.59223811
 21
107.403449583
 31
0.0
  0
LINE
  8
0
  6
CONTINUOUS
 62
     2
 10
38.59223811
 20
107.403449583
 30
0.0
 11
38.627661819
 21
107.263402995
 31
0.0
  0
LINE
  8
0
  6
CONTINUOUS
 62
     2
 10
38.627661819
 20
107.263402995
 30
0.0
 11
38.686749623
 21
107.198126835
 31
0.0
  0
LINE
  8
0
  6
CONTINUOUS
 62
     2
 10
38.686749623
 20
107.198126835
 30
0.0
 11
38.761463496
 21
107.147517728
 31
0.0
  0
LINE
  8
0
  6
CONTINUOUS
 62
     2
 10
38.761463496
 20
107.147517728
 30
0.0
 11
38.886478348
 21
107.120005066
 31
0.0
  0
LINE
  8
0
  6
CONTINUOUS
 62
     2
 10
38.886478348
 20
107.120005066
 30
0.0
 11
38.988683888
 21
107.139258994
 31
0.0
  0
LINE
  8
0
  6
CONTINUOUS
 62
     2
 10
38.988683888
 20
107.139258994
 30
0.0
 11
39.081548122
 21
107.196983388
 31
0.0
  0
LINE
  8
0
  6
CONTINUOUS
 62
     2
 10
39.081548122
 20
107.196983388
 30
0.0
 11
39.131231228
 21
107.257179876
 31
0.0
  0
LINE
  8
0
  6
CONTINUOUS
 62
     2
 10
39.131231228
 20
107.257179876
 30
0.0
 11
39.177208452
 21
107.403086664
 31
0.0
  0
LINE
  8
0
  6
CONTINUOUS
 62
     2
 10
39.177208452
 20
107.403086664
 30
0.0
 11
39.204903738
 21
107.542623558
 31
0.0
  0
LINE
  8
0
  6
CONTINUOUS
 62
     2
 10
39.204903738
 20
107.542623558
 30
0.0
 11
39.226501165
 21
107.693016943
 31
0.0
  0
LINE
  8
0
  6
CONTINUOUS
 62
     2
 10
39.226501165
 20
107.693016943
 30
0.0
 11
39.23965952
 21
107.842215545
 31
0.0
  0
LINE
  8
0
  6
CONTINUOUS
 62
     2
 10
39.23965952
 20
107.842215545
 30
0.0
 11
39.244706871
 21
107.99221524
 31
0.0
  0
LINE
  8
0
  6
CONTINUOUS
 62
     2
 10
39.244706871
 20
107.99221524
 30
0.0
 11
39.241359467
 21
108.147048818
 31
0.0
  0
LINE
  8
0
  6
CONTINUOUS
 62
     2
 10
39.241359467
 20
108.147048818
 30
0.0
 11
39.230429494
 21
108.290930487
 31
0.0
  0
LINE
  8
0
  6
CONTINUOUS
 62
     2
 10
39.230429494
 20
108.290930487
 30
0.0
 11
39.211024891
 21
108.44023539
 31
0.0
  0
LINE
  8
0
  6
CONTINUOUS
 62
     2
 10
39.211024891
 20
108.44023539
 30
0.0
 11
39.184451161
 21
108.583838096
 31
0.0
  0
LINE
  8
0
  6
CONTINUOUS
 62
     2
 10
39.184451161
 20
108.583838096
 30
0.0
 11
39.148464121
 21
108.730674508
 31
0.0
  0
LINE
  8
0
  6
CONTINUOUS
 62
     2
 10
39.148464121
 20
108.730674508
 30
0.0
 11
39.096320702
 21
108.808352803
 31
0.0
  0
LINE
  8
0
  6
CONTINUOUS
 62
     2
 10
39.096320702
 20
108.808352803
 30
0.0
 11
39.01021188
 21
108.871462947
 31
0.0
  0
LINE
  8
0
  6
CONTINUOUS
 62
     2
 10
39.01021188
 20
108.871462947
 30
0.0
 11
38.895333854
 21
108.899807318
 31
0.0
  0
LINE
  8
0
  6
CONTINUOUS
 62
     2
 10
38.895333854
 20
108.899807318
 30
0.0
 11
38.761433084
 21
108.872467984
 31
0.0
  0
LINE
  8
0
  6
CONTINUOUS
 62
     2
 10
38.761433084
 20
108.872467984
 30
0.0
 11
38.671943341
 21
108.806995669
 31
0.0
  0
LINE
  8
0
  6
CONTINUOUS
 62
     2
 10
38.671943341
 20
108.806995669
 30
0.0
 11
38.619692979
 21
108.727631895
 31
0.0
  0
LINE
  8
0
  6
CONTINUOUS
 62
     2
 10
39.869692979
 20
108.727631895
 30
0.0
 11
39.835314642
 21
108.584954116
 31
0.0
  0
LINE
  8
0
  6
CONTINUOUS
 62
     2
 10
39.835314642
 20
108.584954116
 30
0.0
 11
39.808340333
 21
108.439200479
 31
0.0
  0
LINE
  8
0
  6
CONTINUOUS
 62
     2
 10
39.808340333
 20
108.439200479
 30
0.0
 11
39.789123205
 21
108.291168417
 31
0.0
  0
LINE
  8
0
  6
CONTINUOUS
 62
     2
 10
39.789123205
 20
108.291168417
 30
0.0
 11
39.777908353
 21
108.141704187
 31
0.0
  0
LINE
  8
0
  6
CONTINUOUS
 62
     2
 10
39.777908353
 20
108.141704187
 30
0.0
 11
39.774824949
 21
107.991683724
 31
0.0
  0
LINE
  8
0
  6
CONTINUOUS
 62
     2
 10
39.774824949
 20
107.991683724
 30
0.0
 11
39.779882439
 21
107.841992158
 31
0.0
  0
LINE
  8
0
  6
CONTINUOUS
 62
     2
 10
39.779882439
 20
107.841992158
 30
0.0
 11
39.792971024
 21
107.69350303
 31
0.0
  0
LINE
  8
0
  6
CONTINUOUS
 62
     2
 10
39.792971024
 20
107.69350303
 30
0.0
 11
39.813866358
 21
107.547058225
 31
0.0
  0
LINE
  8
0
  6
CONTINUOUS
 62
     2
 10
39.813866358
 20
107.547058225
 30
0.0
 11
39.84223811
 21
107.403449583
 31
0.0
  0
LINE
  8
0
  6
CONTINUOUS
 62
     2
 10
39.84223811
 20
107.403449583
 30
0.0
 11
39.877661819
 21
107.263402995
 31
0.0
  0
LINE
  8
0
  6
CONTINUOUS
 62
     2
 10
39.877661819
 20
107.263402995
 30
0.0
 11
39.936749623
 21
107.198126835
 31
0.0
  0
LINE
  8
0
  6
CONTINUOUS
 62
     2
 10
39.936749623
 20
107.198126835
 30
0.0
 11
40.011463496
 21
107.147517728
 31
0.0
  0
LINE
  8
0
  6
CONTINUOUS
 62
     2
 10
40.011463496
 20
107.147517728
 30
0.0
 11
40.136478348
 21
107.120005066
 31
0.0
  0
LINE
  8
0
  6
CONTINUOUS
 62
     2
 10
40.136478348
 20
107.120005066
 30
0.0
 11
40.238683888
 21
107.139258994
 31
0.0
  0
LINE
  8
0
  6
CONTINUOUS
 62
     2
 10
40.238683888
 20
107.139258994
 30
0.0
 11
40.331548122
 21
107.196983388
 31
0.0
  0
LINE
  8
0
  6
CONTINUOUS
 62
     2
 10
40.331548122
 20
107.196983388
 30
0.0
 11
40.381231228
 21
107.257179876
 31
0.0
  0
LINE
  8
0
  6
CONTINUOUS
 62
     2
 10
40.381231228
 20
107.257179876
 30
0.0
 11
40.427208452
 21
107.403086664
 31
0.0
  0
LINE
  8
0
  6
CONTINUOUS
 62
     2
 10
40.427208452
 20
107.403086664
 30
0.0
 11
40.454903738
 21
107.542623558
 31
0.0
  0
LINE
  8
0
  6
CONTINUOUS
 62
     2
 10
40.454903738
 20
107.542623558
 30
0.0
 11
40.476501165
 21
107.693016943
 31
0.0
  0
LINE
  8
0
  6
CONTINUOUS
 62
     2
 10
40.476501165
 20
107.693016943
 30
0.0
 11
40.48965952
 21
107.842215545
 31
0.0
  0
LINE
  8
0
  6
CONTINUOUS
 62
     2
 10
40.48965952
 20
107.842215545
 30
0.0
 11
40.494706871
 21
107.99221524
 31
0.0
  0
LINE
  8
0
  6
CONTINUOUS
 62
     2
 10
40.494706871
 20
107.99221524
 30
0.0
 11
40.491359467
 21
108.147048818
 31
0.0
  0
LINE
  8
0
  6
CONTINUOUS
 62
     2
 10
40.491359467
 20
108.147048818
 30
0.0
 11
40.480429494
 21
108.290930487
 31
0.0
  0
LINE
  8
0
  6
CONTINUOUS
 62
     2
 10
40.480429494
 20
108.290930487
 30
0.0
 11
40.461024891
 21
108.44023539
 31
0.0
  0
LINE
  8
0
  6
CONTINUOUS
 62
     2
 10
40.461024891
 20
108.44023539
 30
0.0
 11
40.434451161
 21
108.583838096
 31
0.0
  0
LINE
  8
0
  6
CONTINUOUS
 62
     2
 10
40.434451161
 20
108.583838096
 30
0.0
 11
40.398464121
 21
108.730674508
 31
0.0
  0
LINE
  8
0
  6
CONTINUOUS
 62
     2
 10
40.398464121
 20
108.730674508
 30
0.0
 11
40.346320702
 21
108.808352803
 31
0.0
  0
LINE
  8
0
  6
CONTINUOUS
 62
     2
 10
40.346320702
 20
108.808352803
 30
0.0
 11
40.26021188
 21
108.871462947
 31
0.0
  0
LINE
  8
0
  6
CONTINUOUS
 62
     2
 10
40.26021188
 20
108.871462947
 30
0.0
 11
40.145333854
 21
108.899807318
 31
0.0
  0
LINE
  8
0
  6
CONTINUOUS
 62
     2
 10
40.145333854
 20
108.899807318
 30
0.0
 11
40.011433084
 21
108.872467984
 31
0.0
  0
LINE
  8
0
  6
CONTINUOUS
 62
     2
 10
40.011433084
 20
108.872467984
 30
0.0
 11
39.921943341
 21
108.806995669
 31
0.0
  0
LINE
  8
0
  6
CONTINUOUS
 62
     2
 10
39.921943341
 20
108.806995669
 30
0.0
 11
39.869692979
 21
108.727631895
 31
0.0
  0
ARC
  8
0
  6
CONTINUOUS
 62
     2
 10
27.79
 20
83.4
 30
0.0
 40
1.056
 50
337.467174552
 51
22.511176732
  0
ARC
  8
0
  6
CONTINUOUS
 62
     2
 10
27.79
 20
83.4
 30
0.0
 40
1.032
 50
337.684584171
 51
22.324706219
  0
ARC
  8
0
  6
CONTINUOUS
 62
     2
 10
27.79
 20
83.4
 30
0.0
 40
1.008
 50
337.549614612
 51
22.453599418
  0
ARC
  8
0
  6
CONTINUOUS
 62
     2
 10
27.79
 20
83.4
 30
0.0
 40
0.984
 50
337.442033402
 51
22.554911701
  0
ARC
  8
0
  6
CONTINUOUS
 62
     2
 10
27.79
 20
83.4
 30
0.0
 40
0.96
 50
337.452380695
 51
22.564315364
  0
ARC
  8
0
  6
CONTINUOUS
 62
     2
 10
29.23
 20
83.4
 30
0.0
 40
1.056
 50
157.488823268
 51
202.532825448
  0
ARC
  8
0
  6
CONTINUOUS
 62
     2
 10
29.23
 20
83.4
 30
0.0
 40
1.032
 50
157.675293781
 51
202.315415829
  0
ARC
  8
0
  6
CONTINUOUS
 62
     2
 10
29.23
 20
83.4
 30
0.0
 40
1.008
 50
157.546400582
 51
202.450385388
  0
ARC
  8
0
  6
CONTINUOUS
 62
     2
 10
29.23
 20
83.4
 30
0.0
 40
0.984
 50
157.445088299
 51
202.557966598
  0
ARC
  8
0
  6
CONTINUOUS
 62
     2
 10
29.23
 20
83.4
 30
0.0
 40
0.96
 50
157.435684636
 51
202.547619305
  0
ARC
  8
0
  6
CONTINUOUS
 62
     2
 10
28.51
 20
83.7
 30
0.0
 40
0.18
 50
22.323602445
 51
157.676397555
  0
ARC
  8
0
  6
CONTINUOUS
 62
     2
 10
28.51
 20
83.7
 30
0.0
 40
0.204
 50
22.306563269
 51
157.693436731
  0
ARC
  8
0
  6
CONTINUOUS
 62
     2
 10
28.51
 20
83.7
 30
0.0
 40
0.228
 50
21.884823963
 51
158.115176037
  0
ARC
  8
0
  6
CONTINUOUS
 62
     2
 10
28.51
 20
83.7
 30
0.0
 40
0.252
 50
21.411238642
 51
158.588761358
  0
ARC
  8
0
  6
CONTINUOUS
 62
     2
 10
28.51
 20
83.7
 30
0.0
 40
0.276
 50
22.204019072
 51
157.795980928
  0
ARC
  8
0
  6
CONTINUOUS
 62
     2
 10
28.51
 20
83.1
 30
0.0
 40
0.18
 50
202.234559129
 51
337.765440871
  0
ARC
  8
0
  6
CONTINUOUS
 62
     2
 10
28.51
 20
83.1
 30
0.0
 40
0.204
 50
202.321298355
 51
337.678701645
  0
ARC
  8
0
  6
CONTINUOUS
 62
     2
 10
28.51
 20
83.1
 30
0.0
 40
0.228
 50
201.870616205
 51
338.129383795
  0
ARC
  8
0
  6
CONTINUOUS
 62
     2
 10
28.51
 20
83.1
 30
0.0
 40
0.252
 50
201.373203871
 51
338.626796129
  0
ARC
  8
0
  6
CONTINUOUS
 62
     2
 10
28.51
 20
83.1
 30
0.0
 40
0.276
 50
202.286846658
 51
337.713153342
  0
ARC
  8
0
  6
CONTINUOUS
 62
     2
 10
29.07
 20
82.6
 30
0.0
 40
1.056
 50
337.467174552
 51
22.511176732
  0
ARC
  8
0
  6
CONTINUOUS
 62
     2
 10
29.07
 20
82.6
 30
0.0
 40
1.032
 50
337.684584171
 51
22.324706219
  0
ARC
  8
0
  6
CONTINUOUS
 62
     2
 10
29.07
 20
82.6
 30
0.0
 40
1.008
 50
337.549614612
 51
22.453599418
  0
ARC
  8
0
  6
CONTINUOUS
 62
     2
 10
29.07
 20
82.6
 30
0.0
 40
0.984
 50
337.442033402
 51
22.554911701
  0
ARC
  8
0
  6
CONTINUOUS
 62
     2
 10
29.07
 20
82.6
 30
0.0
 40
0.96
 50
337.452380695
 51
22.564315364
  0
ARC
  8
0
  6
CONTINUOUS
 62
     2
 10
30.51
 20
82.6
 30
0.0
 40
1.056
 50
157.488823268
 51
202.532825448
  0
ARC
  8
0
  6
CONTINUOUS
 62
     2
 10
30.51
 20
82.6
 30
0.0
 40
1.032
 50
157.675293781
 51
202.315415829
  0
ARC
  8
0
  6
CONTINUOUS
 62
     2
 10
30.51
 20
82.6
 30
0.0
 40
1.008
 50
157.546400582
 51
202.450385388
  0
ARC
  8
0
  6
CONTINUOUS
 62
     2
 10
30.51
 20
82.6
 30
0.0
 40
0.984
 50
157.445088299
 51
202.557966598
  0
ARC
  8
0
  6
CONTINUOUS
 62
     2
 10
30.51
 20
82.6
 30
0.0
 40
0.96
 50
157.435684636
 51
202.547619305
  0
ARC
  8
0
  6
CONTINUOUS
 62
     2
 10
29.79
 20
82.9
 30
0.0
 40
0.18
 50
22.323602445
 51
157.676397555
  0
ARC
  8
0
  6
CONTINUOUS
 62
     2
 10
29.79
 20
82.9
 30
0.0
 40
0.204
 50
22.306563269
 51
157.693436731
  0
ARC
  8
0
  6
CONTINUOUS
 62
     2
 10
29.79
 20
82.9
 30
0.0
 40
0.228
 50
21.884823963
 51
158.115176037
  0
ARC
  8
0
  6
CONTINUOUS
 62
     2
 10
29.79
 20
82.9
 30
0.0
 40
0.252
 50
21.411238642
 51
158.588761358
  0
ARC
  8
0
  6
CONTINUOUS
 62
     2
 10
29.79
 20
82.9
 30
0.0
 40
0.276
 50
22.204019072
 51
157.795980928
  0
ARC
  8
0
  6
CONTINUOUS
 62
     2
 10
29.79
 20
82.3
 30
0.0
 40
0.18
 50
202.234559129
 51
337.765440871
  0
ARC
  8
0
  6
CONTINUOUS
 62
     2
 10
29.79
 20
82.3
 30
0.0
 40
0.204
 50
202.321298355
 51
337.678701645
  0
ARC
  8
0
  6
CONTINUOUS
 62
     2
 10
29.79
 20
82.3
 30
0.0
 40
0.228
 50
201.870616205
 51
338.129383795
  0
ARC
  8
0
  6
CONTINUOUS
 62
     2
 10
29.79
 20
82.3
 30
0.0
 40
0.252
 50
201.373203871
 51
338.626796129
  0
ARC
  8
0
  6
CONTINUOUS
 62
     2
 10
29.79
 20
82.3
 30
0.0
 40
0.276
 50
202.286846658
 51
337.713153342
  0
LINE
  8
0
  6
CONTINUOUS
 62
     2
 10
29.965454591
 20
83.897146195
 30
0.0
 11
28.408085676
 21
82.041146195
 31
0.0
  0
LINE
  8
0
  6
CONTINUOUS
 62
     2
 10
29.891914324
 20
83.958853805
 30
0.0
 11
28.334545409
 21
82.102853805
 31
0.0
  0
LINE
  8
0
  6
CONTINUOUS
 62
     2
 10
28.389700609
 20
82.056573097
 30
0.0
 11
29.947069524
 21
83.912573097
 31
0.0
  0
LINE
  8
0
  6
CONTINUOUS
 62
     2
 10
28.352930476
 20
82.087426903
 30
0.0
 11
29.910299391
 21
83.943426903
 31
0.0
  0
LINE
  8
0
  6
CONTINUOUS
 62
     2
 10
29.928684458
 20
83.928
 30
0.0
 11
28.371315542
 21
82.072
 31
0.0
  0
ARC
  8
0
  6
CONTINUOUS
 62
     2
 10
28.371315542
 20
82.072
 30
0.0
 40
0.024
 50
140.0
 51
320.0
  0
ARC
  8
0
  6
CONTINUOUS
 62
     2
 10
28.371315542
 20
82.072
 30
0.0
 40
0.048
 50
140.0
 51
320.0
  0
ARC
  8
0
  6
CONTINUOUS
 62
     2
 10
29.928684458
 20
83.928
 30
0.0
 40
0.024
 50
320.0
 51
140.0
  0
ARC
  8
0
  6
CONTINUOUS
 62
     2
 10
29.928684458
 20
83.928
 30
0.0
 40
0.048
 50
320.0
 51
140.0
  0
ARC
  8
0
  6
CONTINUOUS
 62
     2
 10
37.49
 20
83.4
 30
0.0
 40
1.056
 50
337.467174552
 51
22.511176732
  0
ARC
  8
0
  6
CONTINUOUS
 62
     2
 10
37.49
 20
83.4
 30
0.0
 40
1.032
 50
337.684584171
 51
22.324706219
  0
ARC
  8
0
  6
CONTINUOUS
 62
     2
 10
37.49
 20
83.4
 30
0.0
 40
1.008
 50
337.549614612
 51
22.453599418
  0
ARC
  8
0
  6
CONTINUOUS
 62
     2
 10
37.49
 20
83.4
 30
0.0
 40
0.984
 50
337.442033402
 51
22.554911701
  0
ARC
  8
0
  6
CONTINUOUS
 62
     2
 10
37.49
 20
83.4
 30
0.0
 40
0.96
 50
337.452380695
 51
22.564315364
  0
ARC
  8
0
  6
CONTINUOUS
 62
     2
 10
38.93
 20
83.4
 30
0.0
 40
1.056
 50
157.488823268
 51
202.532825448
  0
ARC
  8
0
  6
CONTINUOUS
 62
     2
 10
38.93
 20
83.4
 30
0.0
 40
1.032
 50
157.675293781
 51
202.315415829
  0
ARC
  8
0
  6
CONTINUOUS
 62
     2
 10
38.93
 20
83.4
 30
0.0
 40
1.008
 50
157.546400582
 51
202.450385388
  0
ARC
  8
0
  6
CONTINUOUS
 62
     2
 10
38.93
 20
83.4
 30
0.0
 40
0.984
 50
157.445088299
 51
202.557966598
  0
ARC
  8
0
  6
CONTINUOUS
 62
     2
 10
38.93
 20
83.4
 30
0.0
 40
0.96
 50
157.435684636
 51
202.547619305
  0
ARC
  8
0
  6
CONTINUOUS
 62
     2
 10
38.21
 20
83.7
 30
0.0
 40
0.18
 50
22.323602445
 51
157.676397555
  0
ARC
  8
0
  6
CONTINUOUS
 62
     2
 10
38.21
 20
83.7
 30
0.0
 40
0.204
 50
22.306563269
 51
157.693436731
  0
ARC
  8
0
  6
CONTINUOUS
 62
     2
 10
38.21
 20
83.7
 30
0.0
 40
0.228
 50
21.884823963
 51
158.115176037
  0
ARC
  8
0
  6
CONTINUOUS
 62
     2
 10
38.21
 20
83.7
 30
0.0
 40
0.252
 50
21.411238642
 51
158.588761358
  0
ARC
  8
0
  6
CONTINUOUS
 62
     2
 10
38.21
 20
83.7
 30
0.0
 40
0.276
 50
22.204019072
 51
157.795980928
  0
ARC
  8
0
  6
CONTINUOUS
 62
     2
 10
38.21
 20
83.1
 30
0.0
 40
0.18
 50
202.234559129
 51
337.765440871
  0
ARC
  8
0
  6
CONTINUOUS
 62
     2
 10
38.21
 20
83.1
 30
0.0
 40
0.204
 50
202.321298355
 51
337.678701645
  0
ARC
  8
0
  6
CONTINUOUS
 62
     2
 10
38.21
 20
83.1
 30
0.0
 40
0.228
 50
201.870616205
 51
338.129383795
  0
ARC
  8
0
  6
CONTINUOUS
 62
     2
 10
38.21
 20
83.1
 30
0.0
 40
0.252
 50
201.373203871
 51
338.626796129
  0
ARC
  8
0
  6
CONTINUOUS
 62
     2
 10
38.21
 20
83.1
 30
0.0
 40
0.276
 50
202.286846658
 51
337.713153342
  0
ARC
  8
0
  6
CONTINUOUS
 62
     2
 10
38.77
 20
82.6
 30
0.0
 40
1.056
 50
337.467174552
 51
22.511176732
  0
ARC
  8
0
  6
CONTINUOUS
 62
     2
 10
38.77
 20
82.6
 30
0.0
 40
1.032
 50
337.684584171
 51
22.324706219
  0
ARC
  8
0
  6
CONTINUOUS
 62
     2
 10
38.77
 20
82.6
 30
0.0
 40
1.008
 50
337.549614612
 51
22.453599418
  0
ARC
  8
0
  6
CONTINUOUS
 62
     2
 10
38.77
 20
82.6
 30
0.0
 40
0.984
 50
337.442033402
 51
22.554911701
  0
ARC
  8
0
  6
CONTINUOUS
 62
     2
 10
38.77
 20
82.6
 30
0.0
 40
0.96
 50
337.452380695
 51
22.564315364
  0
ARC
  8
0
  6
CONTINUOUS
 62
     2
 10
40.21
 20
82.6
 30
0.0
 40
1.056
 50
157.488823268
 51
202.532825448
  0
ARC
  8
0
  6
CONTINUOUS
 62
     2
 10
40.21
 20
82.6
 30
0.0
 40
1.032
 50
157.675293781
 51
202.315415829
  0
ARC
  8
0
  6
CONTINUOUS
 62
     2
 10
40.21
 20
82.6
 30
0.0
 40
1.008
 50
157.546400582
 51
202.450385388
  0
ARC
  8
0
  6
CONTINUOUS
 62
     2
 10
40.21
 20
82.6
 30
0.0
 40
0.984
 50
157.445088299
 51
202.557966598
  0
ARC
  8
0
  6
CONTINUOUS
 62
     2
 10
40.21
 20
82.6
 30
0.0
 40
0.96
 50
157.435684636
 51
202.547619305
  0
ARC
  8
0
  6
CONTINUOUS
 62
     2
 10
39.49
 20
82.9
 30
0.0
 40
0.18
 50
22.323602445
 51
157.676397555
  0
ARC
  8
0
  6
CONTINUOUS
 62
     2
 10
39.49
 20
82.9
 30
0.0
 40
0.204
 50
22.306563269
 51
157.693436731
  0
ARC
  8
0
  6
CONTINUOUS
 62
     2
 10
39.49
 20
82.9
 30
0.0
 40
0.228
 50
21.884823963
 51
158.115176037
  0
ARC
  8
0
  6
CONTINUOUS
 62
     2
 10
39.49
 20
82.9
 30
0.0
 40
0.252
 50
21.411238642
 51
158.588761358
  0
ARC
  8
0
  6
CONTINUOUS
 62
     2
 10
39.49
 20
82.9
 30
0.0
 40
0.276
 50
22.204019072
 51
157.795980928
  0
ARC
  8
0
  6
CONTINUOUS
 62
     2
 10
39.49
 20
82.3
 30
0.0
 40
0.18
 50
202.234559129
 51
337.765440871
  0
ARC
  8
0
  6
CONTINUOUS
 62
     2
 10
39.49
 20
82.3
 30
0.0
 40
0.204
 50
202.321298355
 51
337.678701645
  0
ARC
  8
0
  6
CONTINUOUS
 62
     2
 10
39.49
 20
82.3
 30
0.0
 40
0.228
 50
201.870616205
 51
338.129383795
  0
ARC
  8
0
  6
CONTINUOUS
 62
     2
 10
39.49
 20
82.3
 30
0.0
 40
0.252
 50
201.373203871
 51
338.626796129
  0
ARC
  8
0
  6
CONTINUOUS
 62
     2
 10
39.49
 20
82.3
 30
0.0
 40
0.276
 50
202.286846658
 51
337.713153342
  0
LINE
  8
0
  6
CONTINUOUS
 62
     2
 10
39.665454591
 20
83.897146195
 30
0.0
 11
38.108085676
 21
82.041146195
 31
0.0
  0
LINE
  8
0
  6
CONTINUOUS
 62
     2
 10
39.591914324
 20
83.958853805
 30
0.0
 11
38.034545409
 21
82.102853805
 31
0.0
  0
LINE
  8
0
  6
CONTINUOUS
 62
     2
 10
38.089700609
 20
82.056573097
 30
0.0
 11
39.647069524
 21
83.912573097
 31
0.0
  0
LINE
  8
0
  6
CONTINUOUS
 62
     2
 10
38.052930476
 20
82.087426903
 30
0.0
 11
39.610299391
 21
83.943426903
 31
0.0
  0
LINE
  8
0
  6
CONTINUOUS
 62
     2
 10
39.628684458
 20
83.928
 30
0.0
 11
38.071315542
 21
82.072
 31
0.0
  0
ARC
  8
0
  6
CONTINUOUS
 62
     2
 10
38.071315542
 20
82.072
 30
0.0
 40
0.024
 50
140.0
 51
320.0
  0
ARC
  8
0
  6
CONTINUOUS
 62
     2
 10
38.071315542
 20
82.072
 30
0.0
 40
0.048
 50
140.0
 51
320.0
  0
ARC
  8
0
  6
CONTINUOUS
 62
     2
 10
39.628684458
 20
83.928
 30
0.0
 40
0.024
 50
320.0
 51
140.0
  0
ARC
  8
0
  6
CONTINUOUS
 62
     2
 10
39.628684458
 20
83.928
 30
0.0
 40
0.048
 50
320.0
 51
140.0
  0
LINE
  8
0
  6
CONTINUOUS
 62
     2
 10
27.8
 20
62.5
 30
0.0
 11
27.8
 21
60.0
 31
0.0
  0
LINE
  8
0
  6
CONTINUOUS
 62
     2
 10
31.05
 20
61.25
 30
0.0
 11
27.8
 21
62.5
 31
0.0
  0
LINE
  8
0
  6
CONTINUOUS
 62
     2
 10
27.8
 20
60.0
 30
0.0
 11
31.05
 21
61.25
 31
0.0
  0
LINE
  8
0
  6
CONTINUOUS
 62
     2
 10
40.2
 20
62.5
 30
0.0
 11
40.2
 21
60.0
 31
0.0
  0
LINE
  8
0
  6
CONTINUOUS
 62
     2
 10
36.95
 20
61.25
 30
0.0
 11
40.2
 21
62.5
 31
0.0
  0
LINE
  8
0
  6
CONTINUOUS
 62
     2
 10
40.2
 20
60.0
 30
0.0
 11
36.95
 21
61.25
 31
0.0
  0
LINE
  8
0
  6
CONTINUOUS
 62
     2
 10
27.75
 20
61.3
 30
0.0
 11
26.862682377
 21
63.637234998
 31
0.0
  0
LINE
  8
0
  6
CONTINUOUS
 62
     2
 10
40.25
 20
61.3
 30
0.0
 11
41.137317623
 21
63.637234998
 31
0.0
  0
LINE
  8
0
  6
CONTINUOUS
 62
     2
 10
52.0
 20
122.5
 30
0.0
 11
51.352952387
 21
120.085185434
 31
0.0
  0
LINE
  8
0
  6
CONTINUOUS
 62
     2
 10
52.0
 20
122.5
 30
0.0
 11
52.647047613
 21
120.085185434
 31
0.0
  0
LINE
  8
0
  6
CONTINUOUS
 62
     2
 10
52.0
 20
122.5
 30
0.0
 11
52.0
 21
47.5
 31
0.0
  0
LINE
  8
0
  6
CONTINUOUS
 62
     2
 10
52.0
 20
47.5
 30
0.0
 11
52.647047613
 21
49.914814566
 31
0.0
  0
LINE
  8
0
  6
CONTINUOUS
 62
     2
 10
52.0
 20
47.5
 30
0.0
 11
51.352952387
 21
49.914814566
 31
0.0
  0
TEXT
  8
0
  6
CONTINUOUS
 62
     2
 10
51.0
 20
82.0
 30
0.3
 40
3.0
  1
１５０
 50
90.0
 41
0.6
 51
0.0
  7
KANJI4
  0
LINE
  8
0
  6
CONTINUOUS
 62
     2
 10
45.5
 20
122.5
 30
0.0
 11
54.0
 21
122.5
 31
0.0
  0
LINE
  8
0
  6
CONTINUOUS
 62
     2
 10
46.0
 20
47.5
 30
0.0
 11
54.0
 21
47.5
 31
0.0
  0
LINE
  8
0
  6
CONTINUOUS
 62
     2
 10
17.0
 20
122.5
 30
0.0
 11
16.352952387
 21
120.085185434
 31
0.0
  0
LINE
  8
0
  6
CONTINUOUS
 62
     2
 10
17.0
 20
122.5
 30
0.0
 11
17.647047613
 21
120.085185434
 31
0.0
  0
LINE
  8
0
  6
CONTINUOUS
 62
     2
 10
17.0
 20
122.5
 30
0.0
 11
17.0
 21
112.25
 31
0.0
  0
LINE
  8
0
  6
CONTINUOUS
 62
     2
 10
17.0
 20
112.25
 30
0.0
 11
17.647047613
 21
114.664814566
 31
0.0
  0
LINE
  8
0
  6
CONTINUOUS
 62
     2
 10
17.0
 20
112.25
 30
0.0
 11
16.352952387
 21
114.664814566
 31
0.0
  0
TEXT
  8
0
  6
CONTINUOUS
 62
     2
 10
16.0
 20
113.325
 30
0.3
 40
3.0
  1
２０．５
 50
90.0
 41
0.6
 51
0.0
  7
KANJI4
  0
LINE
  8
0
  6
CONTINUOUS
 62
     2
 10
22.0
 20
122.5
 30
0.0
 11
15.0
 21
122.5
 31
0.0
  0
LINE
  8
0
  6
CONTINUOUS
 62
     2
 10
21.5
 20
112.25
 30
0.0
 11
15.0
 21
112.25
 31
0.0
  0
LINE
  8
0
  6
CONTINUOUS
 62
     2
 10
17.0
 20
47.5
 30
0.0
 11
17.647047613
 21
49.914814566
 31
0.0
  0
LINE
  8
0
  6
CONTINUOUS
 62
     2
 10
17.0
 20
47.5
 30
0.0
 11
16.352952387
 21
49.914814566
 31
0.0
  0
LINE
  8
0
  6
CONTINUOUS
 62
     2
 10
17.0
 20
47.5
 30
0.0
 11
17.0
 21
53.75
 31
0.0
  0
LINE
  8
0
  6
CONTINUOUS
 62
     2
 10
17.0
 20
53.75
 30
0.0
 11
16.352952387
 21
51.335185434
 31
0.0
  0
LINE
  8
0
  6
CONTINUOUS
 62
     2
 10
17.0
 20
53.75
 30
0.0
 11
17.647047613
 21
51.335185434
 31
0.0
  0
LINE
  8
0
  6
CONTINUOUS
 62
     2
 10
22.0
 20
47.5
 30
0.0
 11
15.0
 21
47.5
 31
0.0
  0
LINE
  8
0
  6
CONTINUOUS
 62
     2
 10
21.5
 20
53.75
 30
0.0
 11
15.0
 21
53.75
 31
0.0
  0
LINE
  8
0
  6
CONTINUOUS
 62
     2
 10
71.477297077
 20
117.73986021
 30
0.0
 11
71.76013979
 21
118.022702923
 31
0.0
  0
LINE
  8
0
  6
CONTINUOUS
 62
     2
 10
70.522702923
 20
119.26013979
 30
0.0
 11
70.23986021
 21
118.977297077
 31
0.0
  0
LINE
  8
0
  6
CONTINUOUS
 62
     2
 10
71.76013979
 20
118.977297077
 30
0.0
 11
71.477297077
 21
119.26013979
 31
0.0
  0
LINE
  8
0
  6
CONTINUOUS
 62
     2
 10
70.23986021
 20
118.022702923
 30
0.0
 11
70.522702923
 21
117.73986021
 31
0.0
  0
LINE
  8
0
  6
CONTINUOUS
 62
     2
 10
70.823223305
 20
118.959619408
 30
0.0
 11
70.522702923
 21
119.26013979
 31
0.0
  0
LINE
  8
0
  6
CONTINUOUS
 62
     2
 10
71.477297077
 20
119.26013979
 30
0.0
 11
71.176776695
 21
118.959619408
 31
0.0
  0
ARC
  8
0
  6
CONTINUOUS
 62
     2
 10
71.0
 20
119.136396103
 30
0.0
 40
0.25
 50
225.0
 51
315.0
  0
LINE
  8
0
  6
CONTINUOUS
 62
     2
 10
70.23986021
 20
118.977297077
 30
0.0
 11
70.540380592
 21
118.676776695
 31
0.0
  0
LINE
  8
0
  6
CONTINUOUS
 62
     2
 10
70.540380592
 20
118.323223305
 30
0.0
 11
70.23986021
 21
118.022702923
 31
0.0
  0
ARC
  8
0
  6
CONTINUOUS
 62
     2
 10
70.363603897
 20
118.5
 30
0.0
 40
0.25
 50
315.0
 51
45.0
  0
LINE
  8
0
  6
CONTINUOUS
 62
     2
 10
71.176776695
 20
118.040380592
 30
0.0
 11
71.477297077
 21
117.73986021
 31
0.0
  0
LINE
  8
0
  6
CONTINUOUS
 62
     2
 10
70.522702923
 20
117.73986021
 30
0.0
 11
70.823223305
 21
118.040380592
 31
0.0
  0
ARC
  8
0
  6
CONTINUOUS
 62
     2
 10
71.0
 20
117.863603897
 30
0.0
 40
0.25
 50
45.0
 51
135.0
  0
LINE
  8
0
  6
CONTINUOUS
 62
     2
 10
71.76013979
 20
118.022702923
 30
0.0
 11
71.459619408
 21
118.323223305
 31
0.0
  0
LINE
  8
0
  6
CONTINUOUS
 62
     2
 10
71.459619408
 20
118.676776695
 30
0.0
 11
71.76013979
 21
118.977297077
 31
0.0
  0
ARC
  8
0
  6
CONTINUOUS
 62
     2
 10
71.636396103
 20
118.5
 30
0.0
 40
0.25
 50
135.0
 51
225.0
  0
CIRCLE
  8
0
  6
CONTINUOUS
 62
     2
 10
71.0
 20
118.5
 30
0.0
 40
1.5
  0
LINE
  8
0
  6
CONTINUOUS
 62
     2
 10
111.477297077
 20
117.73986021
 30
0.0
 11
111.76013979
 21
118.022702923
 31
0.0
  0
LINE
  8
0
  6
CONTINUOUS
 62
     2
 10
110.522702923
 20
119.26013979
 30
0.0
 11
110.23986021
 21
118.977297077
 31
0.0
  0
LINE
  8
0
  6
CONTINUOUS
 62
     2
 10
111.76013979
 20
118.977297077
 30
0.0
 11
111.477297077
 21
119.26013979
 31
0.0
  0
LINE
  8
0
  6
CONTINUOUS
 62
     2
 10
110.23986021
 20
118.022702923
 30
0.0
 11
110.522702923
 21
117.73986021
 31
0.0
  0
LINE
  8
0
  6
CONTINUOUS
 62
     2
 10
110.823223305
 20
118.959619408
 30
0.0
 11
110.522702923
 21
119.26013979
 31
0.0
  0
LINE
  8
0
  6
CONTINUOUS
 62
     2
 10
111.477297077
 20
119.26013979
 30
0.0
 11
111.176776695
 21
118.959619408
 31
0.0
  0
ARC
  8
0
  6
CONTINUOUS
 62
     2
 10
111.0
 20
119.136396103
 30
0.0
 40
0.25
 50
225.0
 51
315.0
  0
LINE
  8
0
  6
CONTINUOUS
 62
     2
 10
110.23986021
 20
118.977297077
 30
0.0
 11
110.540380592
 21
118.676776695
 31
0.0
  0
LINE
  8
0
  6
CONTINUOUS
 62
     2
 10
110.540380592
 20
118.323223305
 30
0.0
 11
110.23986021
 21
118.022702923
 31
0.0
  0
ARC
  8
0
  6
CONTINUOUS
 62
     2
 10
110.363603897
 20
118.5
 30
0.0
 40
0.25
 50
315.0
 51
45.0
  0
LINE
  8
0
  6
CONTINUOUS
 62
     2
 10
111.176776695
 20
118.040380592
 30
0.0
 11
111.477297077
 21
117.73986021
 31
0.0
  0
LINE
  8
0
  6
CONTINUOUS
 62
     2
 10
110.522702923
 20
117.73986021
 30
0.0
 11
110.823223305
 21
118.040380592
 31
0.0
  0
ARC
  8
0
  6
CONTINUOUS
 62
     2
 10
111.0
 20
117.863603897
 30
0.0
 40
0.25
 50
45.0
 51
135.0
  0
LINE
  8
0
  6
CONTINUOUS
 62
     2
 10
111.76013979
 20
118.022702923
 30
0.0
 11
111.459619408
 21
118.323223305
 31
0.0
  0
LINE
  8
0
  6
CONTINUOUS
 62
     2
 10
111.459619408
 20
118.676776695
 30
0.0
 11
111.76013979
 21
118.977297077
 31
0.0
  0
ARC
  8
0
  6
CONTINUOUS
 62
     2
 10
111.636396103
 20
118.5
 30
0.0
 40
0.25
 50
135.0
 51
225.0
  0
CIRCLE
  8
0
  6
CONTINUOUS
 62
     2
 10
111.0
 20
118.5
 30
0.0
 40
1.5
  0
LINE
  8
0
  6
CONTINUOUS
 62
     2
 10
151.477297077
 20
117.73986021
 30
0.0
 11
151.76013979
 21
118.022702923
 31
0.0
  0
LINE
  8
0
  6
CONTINUOUS
 62
     2
 10
150.522702923
 20
119.26013979
 30
0.0
 11
150.23986021
 21
118.977297077
 31
0.0
  0
LINE
  8
0
  6
CONTINUOUS
 62
     2
 10
151.76013979
 20
118.977297077
 30
0.0
 11
151.477297077
 21
119.26013979
 31
0.0
  0
LINE
  8
0
  6
CONTINUOUS
 62
     2
 10
150.23986021
 20
118.022702923
 30
0.0
 11
150.522702923
 21
117.73986021
 31
0.0
  0
LINE
  8
0
  6
CONTINUOUS
 62
     2
 10
150.823223305
 20
118.959619408
 30
0.0
 11
150.522702923
 21
119.26013979
 31
0.0
  0
LINE
  8
0
  6
CONTINUOUS
 62
     2
 10
151.477297077
 20
119.26013979
 30
0.0
 11
151.176776695
 21
118.959619408
 31
0.0
  0
ARC
  8
0
  6
CONTINUOUS
 62
     2
 10
151.0
 20
119.136396103
 30
0.0
 40
0.25
 50
225.0
 51
315.0
  0
LINE
  8
0
  6
CONTINUOUS
 62
     2
 10
150.23986021
 20
118.977297077
 30
0.0
 11
150.540380592
 21
118.676776695
 31
0.0
  0
LINE
  8
0
  6
CONTINUOUS
 62
     2
 10
150.540380592
 20
118.323223305
 30
0.0
 11
150.23986021
 21
118.022702923
 31
0.0
  0
ARC
  8
0
  6
CONTINUOUS
 62
     2
 10
150.363603897
 20
118.5
 30
0.0
 40
0.25
 50
315.0
 51
45.0
  0
LINE
  8
0
  6
CONTINUOUS
 62
     2
 10
151.176776695
 20
118.040380592
 30
0.0
 11
151.477297077
 21
117.73986021
 31
0.0
  0
LINE
  8
0
  6
CONTINUOUS
 62
     2
 10
150.522702923
 20
117.73986021
 30
0.0
 11
150.823223305
 21
118.040380592
 31
0.0
  0
ARC
  8
0
  6
CONTINUOUS
 62
     2
 10
151.0
 20
117.863603897
 30
0.0
 40
0.25
 50
45.0
 51
135.0
  0
LINE
  8
0
  6
CONTINUOUS
 62
     2
 10
151.76013979
 20
118.022702923
 30
0.0
 11
151.459619408
 21
118.323223305
 31
0.0
  0
LINE
  8
0
  6
CONTINUOUS
 62
     2
 10
151.459619408
 20
118.676776695
 30
0.0
 11
151.76013979
 21
118.977297077
 31
0.0
  0
ARC
  8
0
  6
CONTINUOUS
 62
     2
 10
151.636396103
 20
118.5
 30
0.0
 40
0.25
 50
135.0
 51
225.0
  0
CIRCLE
  8
0
  6
CONTINUOUS
 62
     2
 10
151.0
 20
118.5
 30
0.0
 40
1.5
  0
LINE
  8
0
  6
CONTINUOUS
 62
     2
 10
71.477297077
 20
52.26013979
 30
0.0
 11
71.76013979
 21
51.977297077
 31
0.0
  0
LINE
  8
0
  6
CONTINUOUS
 62
     2
 10
70.522702923
 20
50.73986021
 30
0.0
 11
70.23986021
 21
51.022702923
 31
0.0
  0
LINE
  8
0
  6
CONTINUOUS
 62
     2
 10
71.76013979
 20
51.022702923
 30
0.0
 11
71.477297077
 21
50.73986021
 31
0.0
  0
LINE
  8
0
  6
CONTINUOUS
 62
     2
 10
70.23986021
 20
51.977297077
 30
0.0
 11
70.522702923
 21
52.26013979
 31
0.0
  0
LINE
  8
0
  6
CONTINUOUS
 62
     2
 10
70.823223305
 20
51.040380592
 30
0.0
 11
70.522702923
 21
50.73986021
 31
0.0
  0
LINE
  8
0
  6
CONTINUOUS
 62
     2
 10
71.477297077
 20
50.73986021
 30
0.0
 11
71.176776695
 21
51.040380592
 31
0.0
  0
ARC
  8
0
  6
CONTINUOUS
 62
     2
 10
71.0
 20
50.863603897
 30
0.0
 40
0.25
 50
45.0
 51
135.0
  0
LINE
  8
0
  6
CONTINUOUS
 62
     2
 10
70.23986021
 20
51.022702923
 30
0.0
 11
70.540380592
 21
51.323223305
 31
0.0
  0
LINE
  8
0
  6
CONTINUOUS
 62
     2
 10
70.540380592
 20
51.676776695
 30
0.0
 11
70.23986021
 21
51.977297077
 31
0.0
  0
ARC
  8
0
  6
CONTINUOUS
 62
     2
 10
70.363603897
 20
51.5
 30
0.0
 40
0.25
 50
315.0
 51
45.0
  0
LINE
  8
0
  6
CONTINUOUS
 62
     2
 10
71.176776695
 20
51.959619408
 30
0.0
 11
71.477297077
 21
52.26013979
 31
0.0
  0
LINE
  8
0
  6
CONTINUOUS
 62
     2
 10
70.522702923
 20
52.26013979
 30
0.0
 11
70.823223305
 21
51.959619408
 31
0.0
  0
ARC
  8
0
  6
CONTINUOUS
 62
     2
 10
71.0
 20
52.136396103
 30
0.0
 40
0.25
 50
225.0
 51
315.0
  0
LINE
  8
0
  6
CONTINUOUS
 62
     2
 10
71.76013979
 20
51.977297077
 30
0.0
 11
71.459619408
 21
51.676776695
 31
0.0
  0
LINE
  8
0
  6
CONTINUOUS
 62
     2
 10
71.459619408
 20
51.323223305
 30
0.0
 11
71.76013979
 21
51.022702923
 31
0.0
  0
ARC
  8
0
  6
CONTINUOUS
 62
     2
 10
71.636396103
 20
51.5
 30
0.0
 40
0.25
 50
135.0
 51
225.0
  0
CIRCLE
  8
0
  6
CONTINUOUS
 62
     2
 10
71.0
 20
51.5
 30
0.0
 40
1.5
  0
LINE
  8
0
  6
CONTINUOUS
 62
     2
 10
111.477297077
 20
52.26013979
 30
0.0
 11
111.76013979
 21
51.977297077
 31
0.0
  0
LINE
  8
0
  6
CONTINUOUS
 62
     2
 10
110.522702923
 20
50.73986021
 30
0.0
 11
110.23986021
 21
51.022702923
 31
0.0
  0
LINE
  8
0
  6
CONTINUOUS
 62
     2
 10
111.76013979
 20
51.022702923
 30
0.0
 11
111.477297077
 21
50.73986021
 31
0.0
  0
LINE
  8
0
  6
CONTINUOUS
 62
     2
 10
110.23986021
 20
51.977297077
 30
0.0
 11
110.522702923
 21
52.26013979
 31
0.0
  0
LINE
  8
0
  6
CONTINUOUS
 62
     2
 10
110.823223305
 20
51.040380592
 30
0.0
 11
110.522702923
 21
50.73986021
 31
0.0
  0
LINE
  8
0
  6
CONTINUOUS
 62
     2
 10
111.477297077
 20
50.73986021
 30
0.0
 11
111.176776695
 21
51.040380592
 31
0.0
  0
ARC
  8
0
  6
CONTINUOUS
 62
     2
 10
111.0
 20
50.863603897
 30
0.0
 40
0.25
 50
45.0
 51
135.0
  0
LINE
  8
0
  6
CONTINUOUS
 62
     2
 10
110.23986021
 20
51.022702923
 30
0.0
 11
110.540380592
 21
51.323223305
 31
0.0
  0
LINE
  8
0
  6
CONTINUOUS
 62
     2
 10
110.540380592
 20
51.676776695
 30
0.0
 11
110.23986021
 21
51.977297077
 31
0.0
  0
ARC
  8
0
  6
CONTINUOUS
 62
     2
 10
110.363603897
 20
51.5
 30
0.0
 40
0.25
 50
315.0
 51
45.0
  0
LINE
  8
0
  6
CONTINUOUS
 62
     2
 10
111.176776695
 20
51.959619408
 30
0.0
 11
111.477297077
 21
52.26013979
 31
0.0
  0
LINE
  8
0
  6
CONTINUOUS
 62
     2
 10
110.522702923
 20
52.26013979
 30
0.0
 11
110.823223305
 21
51.959619408
 31
0.0
  0
ARC
  8
0
  6
CONTINUOUS
 62
     2
 10
111.0
 20
52.136396103
 30
0.0
 40
0.25
 50
225.0
 51
315.0
  0
LINE
  8
0
  6
CONTINUOUS
 62
     2
 10
111.76013979
 20
51.977297077
 30
0.0
 11
111.459619408
 21
51.676776695
 31
0.0
  0
LINE
  8
0
  6
CONTINUOUS
 62
     2
 10
111.459619408
 20
51.323223305
 30
0.0
 11
111.76013979
 21
51.022702923
 31
0.0
  0
ARC
  8
0
  6
CONTINUOUS
 62
     2
 10
111.636396103
 20
51.5
 30
0.0
 40
0.25
 50
135.0
 51
225.0
  0
CIRCLE
  8
0
  6
CONTINUOUS
 62
     2
 10
111.0
 20
51.5
 30
0.0
 40
1.5
  0
LINE
  8
0
  6
CONTINUOUS
 62
     2
 10
151.477297077
 20
52.26013979
 30
0.0
 11
151.76013979
 21
51.977297077
 31
0.0
  0
LINE
  8
0
  6
CONTINUOUS
 62
     2
 10
150.522702923
 20
50.73986021
 30
0.0
 11
150.23986021
 21
51.022702923
 31
0.0
  0
LINE
  8
0
  6
CONTINUOUS
 62
     2
 10
151.76013979
 20
51.022702923
 30
0.0
 11
151.477297077
 21
50.73986021
 31
0.0
  0
LINE
  8
0
  6
CONTINUOUS
 62
     2
 10
150.23986021
 20
51.977297077
 30
0.0
 11
150.522702923
 21
52.26013979
 31
0.0
  0
LINE
  8
0
  6
CONTINUOUS
 62
     2
 10
150.823223305
 20
51.040380592
 30
0.0
 11
150.522702923
 21
50.73986021
 31
0.0
  0
LINE
  8
0
  6
CONTINUOUS
 62
     2
 10
151.477297077
 20
50.73986021
 30
0.0
 11
151.176776695
 21
51.040380592
 31
0.0
  0
ARC
  8
0
  6
CONTINUOUS
 62
     2
 10
151.0
 20
50.863603897
 30
0.0
 40
0.25
 50
45.0
 51
135.0
  0
LINE
  8
0
  6
CONTINUOUS
 62
     2
 10
150.23986021
 20
51.022702923
 30
0.0
 11
150.540380592
 21
51.323223305
 31
0.0
  0
LINE
  8
0
  6
CONTINUOUS
 62
     2
 10
150.540380592
 20
51.676776695
 30
0.0
 11
150.23986021
 21
51.977297077
 31
0.0
  0
ARC
  8
0
  6
CONTINUOUS
 62
     2
 10
150.363603897
 20
51.5
 30
0.0
 40
0.25
 50
315.0
 51
45.0
  0
LINE
  8
0
  6
CONTINUOUS
 62
     2
 10
151.176776695
 20
51.959619408
 30
0.0
 11
151.477297077
 21
52.26013979
 31
0.0
  0
LINE
  8
0
  6
CONTINUOUS
 62
     2
 10
150.522702923
 20
52.26013979
 30
0.0
 11
150.823223305
 21
51.959619408
 31
0.0
  0
ARC
  8
0
  6
CONTINUOUS
 62
     2
 10
151.0
 20
52.136396103
 30
0.0
 40
0.25
 50
225.0
 51
315.0
  0
LINE
  8
0
  6
CONTINUOUS
 62
     2
 10
151.76013979
 20
51.977297077
 30
0.0
 11
151.459619408
 21
51.676776695
 31
0.0
  0
LINE
  8
0
  6
CONTINUOUS
 62
     2
 10
151.459619408
 20
51.323223305
 30
0.0
 11
151.76013979
 21
51.022702923
 31
0.0
  0
ARC
  8
0
  6
CONTINUOUS
 62
     2
 10
151.636396103
 20
51.5
 30
0.0
 40
0.25
 50
135.0
 51
225.0
  0
CIRCLE
  8
0
  6
CONTINUOUS
 62
     2
 10
151.0
 20
51.5
 30
0.0
 40
1.5
  0
LINE
  8
0
  6
CONTINUOUS
 62
     2
 10
68.75
 20
125.4
 30
0.0
 11
68.75
 21
122.9
 31
0.0
  0
LINE
  8
0
  6
CONTINUOUS
 62
     2
 10
77.5
 20
125.4
 30
0.0
 11
77.5
 21
122.9
 31
0.0
  0
LINE
  8
0
  6
CONTINUOUS
 62
     2
 10
137.5
 20
125.4
 30
0.0
 11
137.5
 21
122.9
 31
0.0
  0
LINE
  8
0
  6
CONTINUOUS
 62
     2
 10
158.25
 20
123.0
 30
0.0
 11
158.25
 21
125.5
 31
0.0
  0
LINE
  8
0
  6
CONTINUOUS
 62
     2
 10
137.5
 20
125.15
 30
0.0
 11
151.9
 21
125.15
 31
0.0
  0
LINE
  8
0
  6
CONTINUOUS
 62
     2
 10
151.9
 20
123.15
 30
0.0
 11
137.4875
 21
123.15
 31
0.0
  0
LINE
  8
0
  6
CONTINUOUS
 62
     2
 10
77.5
 20
125.15
 30
0.0
 11
74.3
 21
125.15
 31
0.0
  0
LINE
  8
0
  6
CONTINUOUS
 62
     2
 10
74.3
 20
123.15
 30
0.0
 11
77.5
 21
123.15
 31
0.0
  0
LINE
  8
0
  6
CONTINUOUS
 62
     2
 10
68.5
 20
125.15
 30
0.0
 11
72.7
 21
125.15
 31
0.0
  0
LINE
  8
0
  6
CONTINUOUS
 62
     2
 10
68.5
 20
123.15
 30
0.0
 11
72.7
 21
123.15
 31
0.0
  0
LINE
  8
0
  6
CONTINUOUS
 62
     2
 10
66.0
 20
47.5
 30
0.0
 11
66.0
 21
122.5
 31
0.0
  0
LINE
  8
0
  6
CONTINUOUS
 62
     2
 10
65.75
 20
47.5
 30
0.0
 11
65.75
 21
122.5
 31
0.0
  0
LINE
  8
0
  6
CONTINUOUS
 62
     2
 10
60.849118357
 20
113.021233433
 30
0.0
 11
63.022587759
 21
111.785907258
 31
0.0
  0
LINE
  8
0
  6
CONTINUOUS
 62
     2
 10
60.849118357
 20
113.021233433
 30
0.0
 11
63.349061161
 21
113.038144284
 31
0.0
  0
TEXT
  8
0
  6
CONTINUOUS
 62
     2
 10
97.452279273
 20
104.511771549
 30
0.3
 40
3.0
  1
Ｒ２４０（カバー面）
 50
345.387571118
 41
0.6
 51
0.0
  7
KANJI4
  0
LINE
  8
0
  6
CONTINUOUS
 62
     2
 10
65.385888117
 20
106.0
 30
0.0
 11
67.393131457
 21
104.509706682
 31
0.0
  0
LINE
  8
0
  6
CONTINUOUS
 62
     2
 10
65.385888117
 20
106.0
 30
0.0
 11
67.8693585
 21
105.712989798
 31
0.0
  0
LINE
  8
0
  6
CONTINUOUS
 62
     2
 10
65.385888117
 20
106.0
 30
0.0
 11
123.5
 21
83.0
 31
0.0
  0
TEXT
  8
0
  6
CONTINUOUS
 62
     2
 10
82.968
 20
100.116944022
 30
0.3
 40
3.0
  1
Ｒ１２５（指針）
 50
338.407675128
 41
0.6
 51
0.0
  7
KANJI4
  0
LINE
  8
0
  6
LTYPE3
 62
     2
 10
118.5
 20
83.0
 30
0.0
 11
128.5
 21
83.0
 31
0.0
  0
LINE
  8
0
  6
CONTINUOUS
 62
     2
 10
123.5
 20
83.0
 30
0.0
 11
67.132899667
 21
56.0
 31
0.0
  0
ARC
  8
0
  6
CONTINUOUS
 62
     2
 10
123.5
 20
83.0
 30
0.0
 40
62.5
 50
155.741033199
 51
207.524275948
  0
LINE
  8
0
  6
CONTINUOUS
 62
     2
 10
60.849118357
 20
113.021233433
 30
0.0
 11
176.0
 21
83.0
 31
0.0
  0
LINE
  8
0
  6
LTYPE3
 62
     2
 10
176.0
 20
85.5
 30
0.0
 11
176.0
 21
80.5
 31
0.0
  0
LINE
  8
0
  6
CONTINUOUS
 62
     2
 10
86.85
 20
44.6
 30
0.0
 11
87.497047613
 21
42.185185434
 31
0.0
  0
LINE
  8
0
  6
CONTINUOUS
 62
     2
 10
86.85
 20
44.6
 30
0.0
 11
88.617766953
 21
42.832233047
 31
0.0
  0
LINE
  8
0
  6
LTYPE3
 62
     2
 10
71.0
 20
49.0
 30
0.0
 11
71.0
 21
54.0
 31
0.0
  0
LINE
  8
0
  6
LTYPE3
 62
     2
 10
68.5
 20
51.5
 30
0.0
 11
73.5
 21
51.5
 31
0.0
  0
LINE
  8
0
  6
LTYPE3
 62
     2
 10
111.0
 20
49.0
 30
0.0
 11
111.0
 21
54.0
 31
0.0
  0
LINE
  8
0
  6
LTYPE3
 62
     2
 10
108.5
 20
51.5
 30
0.0
 11
113.5
 21
51.5
 31
0.0
  0
LINE
  8
0
  6
LTYPE3
 62
     2
 10
151.0
 20
49.0
 30
0.0
 11
151.0
 21
54.0
 31
0.0
  0
LINE
  8
0
  6
LTYPE3
 62
     2
 10
148.5
 20
51.5
 30
0.0
 11
153.5
 21
51.5
 31
0.0
  0
LINE
  8
0
  6
LTYPE3
 62
     2
 10
151.0
 20
116.0
 30
0.0
 11
151.0
 21
121.0
 31
0.0
  0
LINE
  8
0
  6
LTYPE3
 62
     2
 10
148.5
 20
118.5
 30
0.0
 11
153.5
 21
118.5
 31
0.0
  0
LINE
  8
0
  6
LTYPE3
 62
     2
 10
111.0
 20
116.0
 30
0.0
 11
111.0
 21
121.0
 31
0.0
  0
LINE
  8
0
  6
LTYPE3
 62
     2
 10
108.5
 20
118.5
 30
0.0
 11
113.5
 21
118.5
 31
0.0
  0
LINE
  8
0
  6
LTYPE3
 62
     2
 10
71.0
 20
116.0
 30
0.0
 11
71.0
 21
121.0
 31
0.0
  0
LINE
  8
0
  6
LTYPE3
 62
     2
 10
68.5
 20
118.5
 30
0.0
 11
73.5
 21
118.5
 31
0.0
  0
LINE
  8
0
  6
LTYPE3
 62
     2
 10
173.5
 20
83.0
 30
0.0
 11
178.5
 21
83.0
 31
0.0
  0
LINE
  8
0
  6
CONTINUOUS
 62
     2
 10
61.0
 20
122.75
 30
0.0
 11
61.0
 21
135.0
 31
0.0
  0
LINE
  8
0
  6
CONTINUOUS
 62
     2
 10
66.0
 20
124.75
 30
0.0
 11
66.0
 21
135.0
 31
0.0
  0
TEXT
  8
0
  6
CONTINUOUS
 62
     2
 10
61.55
 20
134.0
 30
0.3
 40
3.0
  1
１０
 50
0.0
 41
0.6
 51
0.0
  7
KANJI4
  0
LINE
  8
0
  6
CONTINUOUS
 62
     2
 10
61.0
 20
133.0
 30
0.0
 11
57.0
 21
133.0
 31
0.0
  0
LINE
  8
0
  6
CONTINUOUS
 62
     2
 10
57.0
 20
133.0
 30
0.0
 11
53.25
 21
133.0
 31
0.0
  0
LINE
  8
0
  6
CONTINUOUS
 62
     2
 10
57.0
 20
133.0
 30
0.0
 11
54.585185434
 21
133.647047613
 31
0.0
  0
LINE
  8
0
  6
CONTINUOUS
 62
     2
 10
57.0
 20
133.0
 30
0.0
 11
54.585185434
 21
132.352952387
 31
0.0
  0
LINE
  8
0
  6
CONTINUOUS
 62
     2
 10
57.0
 20
84.0
 30
0.0
 11
57.0
 21
135.0
 31
0.0
  0
TEXT
  8
0
  6
CONTINUOUS
 62
     2
 10
58.1
 20
134.0
 30
0.3
 40
3.0
  1
８
 50
0.0
 41
0.6
 51
0.0
  7
KANJI4
  0
LINE
  8
0
  6
CONTINUOUS
 62
     2
 10
161.5
 20
121.75
 30
0.0
 11
161.5
 21
135.0
 31
0.0
  0
LINE
  8
0
  6
CONTINUOUS
 62
     2
 10
161.5
 20
133.0
 30
0.0
 11
159.085185434
 21
133.647047613
 31
0.0
  0
LINE
  8
0
  6
CONTINUOUS
 62
     2
 10
161.5
 20
133.0
 30
0.0
 11
159.085185434
 21
132.352952387
 31
0.0
  0
LINE
  8
0
  6
CONTINUOUS
 62
     2
 10
161.5
 20
133.0
 30
0.0
 11
66.0
 21
133.0
 31
0.0
  0
LINE
  8
0
  6
CONTINUOUS
 62
     2
 10
66.0
 20
133.0
 30
0.0
 11
68.414814566
 21
132.352952387
 31
0.0
  0
LINE
  8
0
  6
CONTINUOUS
 62
     2
 10
66.0
 20
133.0
 30
0.0
 11
68.414814566
 21
133.647047613
 31
0.0
  0
TEXT
  8
0
  6
CONTINUOUS
 62
     2
 10
110.75
 20
134.0
 30
0.3
 40
3.0
  1
１９１
 50
0.0
 41
0.6
 51
0.0
  7
KANJI4
  0
LINE
  8
0
  6
CONTINUOUS
 62
     2
 10
61.0
 20
133.0
 30
0.0
 11
66.0
 21
133.0
 31
0.0
  0
CIRCLE
  8
0
  6
CONTINUOUS
 62
     2
 10
61.0
 20
133.0
 30
0.0
 40
0.3
  0
LINE
  8
0
  6
CONTINUOUS
 62
     2
 10
161.5
 20
93.5
 30
0.0
 11
163.0
 21
93.7
 31
0.0
  0
LINE
  8
0
  6
CONTINUOUS
 62
     2
 10
163.0
 20
92.7
 30
0.0
 11
161.5
 21
92.5
 31
0.0
  0
LINE
  8
0
  6
CONTINUOUS
 62
     2
 10
163.0
 20
92.7
 30
0.0
 11
163.0
 21
93.7
 31
0.0
  0
LINE
  8
0
  6
CONTINUOUS
 62
     2
 10
161.0
 20
121.25
 30
0.0
 11
181.5
 21
121.25
 31
0.0
  0
LINE
  8
0
  6
CONTINUOUS
 62
     2
 10
179.5
 20
121.25
 30
0.0
 11
178.852952387
 21
118.835185434
 31
0.0
  0
LINE
  8
0
  6
CONTINUOUS
 62
     2
 10
179.5
 20
121.25
 30
0.0
 11
180.147047613
 21
118.835185434
 31
0.0
  0
LINE
  8
0
  6
CONTINUOUS
 62
     2
 10
179.5
 20
121.25
 30
0.0
 11
179.5
 21
48.75
 31
0.0
  0
LINE
  8
0
  6
CONTINUOUS
 62
     2
 10
179.5
 20
48.75
 30
0.0
 11
180.147047613
 21
51.164814566
 31
0.0
  0
LINE
  8
0
  6
CONTINUOUS
 62
     2
 10
179.5
 20
48.75
 30
0.0
 11
178.852952387
 21
51.164814566
 31
0.0
  0
LINE
  8
0
  6
CONTINUOUS
 62
     2
 10
161.0
 20
48.75
 30
0.0
 11
181.5
 21
48.75
 31
0.0
  0
TEXT
  8
0
  6
CONTINUOUS
 62
     2
 10
178.5
 20
86.0
 30
0.3
 40
3.0
  1
１４５
 50
90.0
 41
0.6
 51
0.0
  7
KANJI4
  0
ARC
  8
0
  6
CONTINUOUS
 62
     2
 10
152.91796875
 20
124.25
 30
0.0
 40
1.78203125
 50
320.853748339
 51
39.146251661
  0
ARC
  8
0
  6
CONTINUOUS
 62
     2
 10
152.91796875
 20
122.0
 30
0.0
 40
1.78203125
 50
0.0
 51
39.146251661
  0
ARC
  8
0
  6
CONTINUOUS
 62
     2
 10
152.91796875
 20
126.5
 30
0.0
 40
1.78203125
 50
320.853748339
 51
360.0
  0
LINE
  8
0
  6
CONTINUOUS
 62
     2
 10
154.7
 20
125.25
 30
0.0
 11
158.5
 21
125.25
 31
0.0
  0
LINE
  8
0
  6
CONTINUOUS
 62
     2
 10
158.5
 20
123.25
 30
0.0
 11
154.7
 21
123.25
 31
0.0
  0
LINE
  8
0
  6
CONTINUOUS
 62
     2
 10
68.75
 20
44.6
 30
0.0
 11
68.75
 21
47.1
 31
0.0
  0
LINE
  8
0
  6
CONTINUOUS
 62
     2
 10
77.5
 20
44.6
 30
0.0
 11
77.5
 21
47.1
 31
0.0
  0
LINE
  8
0
  6
CONTINUOUS
 62
     2
 10
137.5
 20
44.6
 30
0.0
 11
137.5
 21
47.1
 31
0.0
  0
LINE
  8
0
  6
CONTINUOUS
 62
     2
 10
158.25
 20
47.0
 30
0.0
 11
158.25
 21
44.5
 31
0.0
  0
LINE
  8
0
  6
CONTINUOUS
 62
     2
 10
137.5
 20
44.85
 30
0.0
 11
151.9
 21
44.85
 31
0.0
  0
LINE
  8
0
  6
CONTINUOUS
 62
     2
 10
151.9
 20
46.85
 30
0.0
 11
137.4875
 21
46.85
 31
0.0
  0
LINE
  8
0
  6
CONTINUOUS
 62
     2
 10
77.5
 20
44.85
 30
0.0
 11
74.3
 21
44.85
 31
0.0
  0
LINE
  8
0
  6
CONTINUOUS
 62
     2
 10
74.3
 20
46.85
 30
0.0
 11
77.5
 21
46.85
 31
0.0
  0
LINE
  8
0
  6
CONTINUOUS
 62
     2
 10
68.5
 20
44.85
 30
0.0
 11
72.7
 21
44.85
 31
0.0
  0
LINE
  8
0
  6
CONTINUOUS
 62
     2
 10
68.5
 20
46.85
 30
0.0
 11
72.7
 21
46.85
 31
0.0
  0
ARC
  8
0
  6
CONTINUOUS
 62
     2
 10
152.91796875
 20
45.75
 30
0.0
 40
1.78203125
 50
320.853748339
 51
39.146251661
  0
ARC
  8
0
  6
CONTINUOUS
 62
     2
 10
152.91796875
 20
48.0
 30
0.0
 40
1.78203125
 50
320.853748339
 51
360.0
  0
ARC
  8
0
  6
CONTINUOUS
 62
     2
 10
152.91796875
 20
43.5
 30
0.0
 40
1.78203125
 50
0.0
 51
39.146251661
  0
LINE
  8
0
  6
CONTINUOUS
 62
     2
 10
154.7
 20
44.75
 30
0.0
 11
158.5
 21
44.75
 31
0.0
  0
LINE
  8
0
  6
CONTINUOUS
 62
     2
 10
158.5
 20
46.75
 30
0.0
 11
154.7
 21
46.75
 31
0.0
  0
LINE
  8
0
  6
CONTINUOUS
 62
     2
 10
179.5
 20
48.75
 30
0.0
 11
180.147047613
 21
51.164814566
 31
0.0
  0
LINE
  8
0
  6
CONTINUOUS
 62
     2
 10
179.5
 20
48.75
 30
0.0
 11
178.852952387
 21
51.164814566
 31
0.0
  0
LINE
  8
0
  6
CONTINUOUS
 62
     2
 10
179.5
 20
52.5
 30
0.0
 11
179.5
 21
48.75
 31
0.0
  0
LINE
  8
0
  6
CONTINUOUS
 62
     2
 10
179.5
 20
48.75
 30
0.0
 11
179.5
 21
43.75
 31
0.0
  0
LINE
  8
0
  6
CONTINUOUS
 62
     2
 10
179.5
 20
43.75
 30
0.0
 11
179.5
 21
40.0
 31
0.0
  0
LINE
  8
0
  6
CONTINUOUS
 62
     2
 10
179.5
 20
43.75
 30
0.0
 11
178.852952387
 21
41.335185434
 31
0.0
  0
LINE
  8
0
  6
CONTINUOUS
 62
     2
 10
179.5
 20
43.75
 30
0.0
 11
180.147047613
 21
41.335185434
 31
0.0
  0
LINE
  8
0
  6
CONTINUOUS
 62
     2
 10
155.7
 20
43.75
 30
0.0
 11
181.5
 21
43.75
 31
0.0
  0
TEXT
  8
0
  6
CONTINUOUS
 62
     2
 10
178.5
 20
44.3
 30
0.3
 40
3.0
  1
１０
 50
90.0
 41
0.6
 51
0.0
  7
KANJI4
  0
LINE
  8
0
  6
CONTINUOUS
 62
     2
 10
161.5
 20
95.0
 30
0.0
 11
162.5
 21
95.0
 31
0.0
  0
LINE
  8
0
  6
CONTINUOUS
 62
     2
 10
162.5
 20
95.0
 30
0.0
 11
162.5
 21
105.0
 31
0.0
  0
LINE
  8
0
  6
CONTINUOUS
 62
     2
 10
162.5
 20
105.0
 30
0.0
 11
161.5
 21
105.0
 31
0.0
  0
LINE
  8
0
  6
CONTINUOUS
 62
     2
 10
57.0
 20
134.0
 30
0.0
 11
57.0
 21
140.0
 31
0.0
  0
LINE
  8
0
  6
CONTINUOUS
 62
     2
 10
57.0
 20
138.0
 30
0.0
 11
59.414814566
 21
137.352952387
 31
0.0
  0
LINE
  8
0
  6
CONTINUOUS
 62
     2
 10
57.0
 20
138.0
 30
0.0
 11
59.414814566
 21
138.647047613
 31
0.0
  0
LINE
  8
0
  6
CONTINUOUS
 62
     2
 10
161.5
 20
133.0
 30
0.0
 11
163.914814566
 21
132.352952387
 31
0.0
  0
LINE
  8
0
  6
CONTINUOUS
 62
     2
 10
161.5
 20
133.0
 30
0.0
 11
163.914814566
 21
133.647047613
 31
0.0
  0
LINE
  8
0
  6
CONTINUOUS
 62
     2
 10
66.0
 20
40.75
 30
0.0
 11
66.0
 21
36.75
 31
0.0
  0
LINE
  8
0
  6
CONTINUOUS
 62
     2
 10
66.0
 20
38.75
 30
0.0
 11
63.585185434
 21
39.397047613
 31
0.0
  0
LINE
  8
0
  6
CONTINUOUS
 62
     2
 10
66.0
 20
38.75
 30
0.0
 11
63.585185434
 21
38.102952387
 31
0.0
  0
LINE
  8
0
  6
CONTINUOUS
 62
     2
 10
62.25
 20
38.75
 30
0.0
 11
66.0
 21
38.75
 31
0.0
  0
LINE
  8
0
  6
CONTINUOUS
 62
     2
 10
66.0
 20
38.75
 30
0.0
 11
68.5
 21
38.75
 31
0.0
  0
LINE
  8
0
  6
CONTINUOUS
 62
     2
 10
68.5
 20
38.75
 30
0.0
 11
80.35
 21
38.75
 31
0.0
  0
LINE
  8
0
  6
CONTINUOUS
 62
     2
 10
68.5
 20
38.75
 30
0.0
 11
70.914814566
 21
38.102952387
 31
0.0
  0
LINE
  8
0
  6
CONTINUOUS
 62
     2
 10
68.5
 20
38.75
 30
0.0
 11
70.914814566
 21
39.397047613
 31
0.0
  0
LINE
  8
0
  6
CONTINUOUS
 62
     2
 10
68.5
 20
41.25
 30
0.0
 11
68.5
 21
36.75
 31
0.0
  0
TEXT
  8
0
  6
CONTINUOUS
 62
     2
 10
72.25
 20
39.75
 30
0.3
 40
3.0
  1
８　ｍａｘ．
 50
0.0
 41
0.6
 51
0.0
  7
KANJI4
  0
LINE
  8
0
  6
CONTINUOUS
 62
     2
 10
163.019648985
 20
93.602619865
 30
0.0
 11
164.119648985
 21
95.502619865
 31
0.0
  0
ARC
  8
0
  6
CONTINUOUS
 62
     2
 10
151.547612459
 20
100.824978177
 30
0.0
 40
13.652237927
 50
337.054681693
 51
32.200337832
  0
LINE
  8
0
  6
CONTINUOUS
 62
     2
 10
163.1
 20
108.1
 30
0.0
 11
161.5
 21
109.4
 31
0.0
  0
LINE
  8
0
  6
CONTINUOUS
 62
     2
 10
163.711990013
 20
93.201790848
 30
0.0
 11
164.836582082
 21
95.144268057
 31
0.0
  0
ARC
  8
0
  6
CONTINUOUS
 62
     2
 10
151.547612459
 20
100.824978177
 30
0.0
 40
14.452237927
 50
336.854474688
 51
32.729950107
  0
LINE
  8
0
  6
CONTINUOUS
 62
     2
 10
163.711990013
 20
93.201790848
 30
0.0
 11
163.011990013
 21
92.801790848
 31
0.0
  0
LINE
  8
0
  6
CONTINUOUS
 62
     2
 10
163.705243543
 20
108.639016028
 30
0.0
 11
161.5
 21
110.430776406
 31
0.0
  0
LINE
  8
0
  6
CONTINUOUS
 62
     2
 10
166.25
 20
92.25
 30
0.0
 11
166.25
 21
88.15
 31
0.0
  0
LINE
  8
0
  6
CONTINUOUS
 62
     2
 10
166.65
 20
88.15
 30
0.0
 11
166.65
 21
92.25
 31
0.0
  0
LINE
  8
0
  6
CONTINUOUS
 62
     2
 10
166.65
 20
92.25
 30
0.0
 11
166.25
 21
92.25
 31
0.0
  0
LINE
  8
0
  6
CONTINUOUS
 62
     2
 10
166.25
 20
91.45
 30
0.0
 11
166.65
 21
91.45
 31
0.0
  0
LINE
  8
0
  6
CONTINUOUS
 62
     2
 10
166.25
 20
88.95
 30
0.0
 11
166.65
 21
88.95
 31
0.0
  0
LINE
  8
0
  6
CONTINUOUS
 62
     2
 10
166.25
 20
53.15
 30
0.0
 11
166.25
 21
57.25
 31
0.0
  0
LINE
  8
0
  6
CONTINUOUS
 62
     2
 10
166.65
 20
57.25
 30
0.0
 11
166.65
 21
53.15
 31
0.0
  0
LINE
  8
0
  6
CONTINUOUS
 62
     2
 10
166.65
 20
53.15
 30
0.0
 11
166.25
 21
53.15
 31
0.0
  0
LINE
  8
0
  6
CONTINUOUS
 62
     2
 10
166.25
 20
53.95
 30
0.0
 11
166.65
 21
53.95
 31
0.0
  0
LINE
  8
0
  6
CONTINUOUS
 62
     2
 10
166.25
 20
56.45
 30
0.0
 11
166.65
 21
56.45
 31
0.0
  0
LINE
  8
0
  6
CONTINUOUS
 62
     2
 10
166.25
 20
58.15
 30
0.0
 11
166.25
 21
62.25
 31
0.0
  0
LINE
  8
0
  6
CONTINUOUS
 62
     2
 10
166.65
 20
62.25
 30
0.0
 11
166.65
 21
58.15
 31
0.0
  0
LINE
  8
0
  6
CONTINUOUS
 62
     2
 10
166.65
 20
58.15
 30
0.0
 11
166.25
 21
58.15
 31
0.0
  0
LINE
  8
0
  6
CONTINUOUS
 62
     2
 10
166.25
 20
58.95
 30
0.0
 11
166.65
 21
58.95
 31
0.0
  0
LINE
  8
0
  6
CONTINUOUS
 62
     2
 10
166.25
 20
61.45
 30
0.0
 11
166.65
 21
61.45
 31
0.0
  0
LINE
  8
0
  6
CONTINUOUS
 62
     2
 10
166.25
 20
63.15
 30
0.0
 11
166.25
 21
67.25
 31
0.0
  0
LINE
  8
0
  6
CONTINUOUS
 62
     2
 10
166.65
 20
67.25
 30
0.0
 11
166.65
 21
63.15
 31
0.0
  0
LINE
  8
0
  6
CONTINUOUS
 62
     2
 10
166.25
 20
63.95
 30
0.0
 11
166.65
 21
63.95
 31
0.0
  0
LINE
  8
0
  6
CONTINUOUS
 62
     2
 10
166.25
 20
66.45
 30
0.0
 11
166.65
 21
66.45
 31
0.0
  0
LINE
  8
0
  6
CONTINUOUS
 62
     2
 10
166.25
 20
68.15
 30
0.0
 11
166.25
 21
72.25
 31
0.0
  0
LINE
  8
0
  6
CONTINUOUS
 62
     2
 10
166.65
 20
72.25
 30
0.0
 11
166.65
 21
68.15
 31
0.0
  0
LINE
  8
0
  6
CONTINUOUS
 62
     2
 10
166.25
 20
68.95
 30
0.0
 11
166.65
 21
68.95
 31
0.0
  0
LINE
  8
0
  6
CONTINUOUS
 62
     2
 10
166.25
 20
71.45
 30
0.0
 11
166.65
 21
71.45
 31
0.0
  0
LINE
  8
0
  6
CONTINUOUS
 62
     2
 10
166.25
 20
73.15
 30
0.0
 11
166.25
 21
77.25
 31
0.0
  0
LINE
  8
0
  6
CONTINUOUS
 62
     2
 10
166.65
 20
77.25
 30
0.0
 11
166.65
 21
73.15
 31
0.0
  0
LINE
  8
0
  6
CONTINUOUS
 62
     2
 10
166.25
 20
73.95
 30
0.0
 11
166.65
 21
73.95
 31
0.0
  0
LINE
  8
0
  6
CONTINUOUS
 62
     2
 10
166.25
 20
76.45
 30
0.0
 11
166.65
 21
76.45
 31
0.0
  0
LINE
  8
0
  6
CONTINUOUS
 62
     2
 10
166.25
 20
78.15
 30
0.0
 11
166.25
 21
82.25
 31
0.0
  0
LINE
  8
0
  6
CONTINUOUS
 62
     2
 10
166.65
 20
82.25
 30
0.0
 11
166.65
 21
78.15
 31
0.0
  0
LINE
  8
0
  6
CONTINUOUS
 62
     2
 10
166.25
 20
78.95
 30
0.0
 11
166.65
 21
78.95
 31
0.0
  0
LINE
  8
0
  6
CONTINUOUS
 62
     2
 10
166.25
 20
81.45
 30
0.0
 11
166.65
 21
81.45
 31
0.0
  0
LINE
  8
0
  6
CONTINUOUS
 62
     2
 10
166.25
 20
83.15
 30
0.0
 11
166.25
 21
87.25
 31
0.0
  0
LINE
  8
0
  6
CONTINUOUS
 62
     2
 10
166.65
 20
87.25
 30
0.0
 11
166.65
 21
83.15
 31
0.0
  0
LINE
  8
0
  6
CONTINUOUS
 62
     2
 10
166.25
 20
83.95
 30
0.0
 11
166.65
 21
83.95
 31
0.0
  0
LINE
  8
0
  6
CONTINUOUS
 62
     2
 10
166.25
 20
86.45
 30
0.0
 11
166.65
 21
86.45
 31
0.0
  0
LINE
  8
0
  6
CONTINUOUS
 62
     2
 10
169.35
 20
57.25
 30
0.0
 11
169.35
 21
58.15
 31
0.0
  0
LINE
  8
0
  6
CONTINUOUS
 62
     2
 10
169.85
 20
58.15
 30
0.0
 11
169.85
 21
57.25
 31
0.0
  0
LINE
  8
0
  6
CONTINUOUS
 62
     2
 10
168.75
 20
57.25
 30
0.0
 11
168.75
 21
58.15
 31
0.0
  0
LINE
  8
0
  6
CONTINUOUS
 62
     2
 10
169.35
 20
62.25
 30
0.0
 11
169.35
 21
63.15
 31
0.0
  0
LINE
  8
0
  6
CONTINUOUS
 62
     2
 10
169.85
 20
63.15
 30
0.0
 11
169.85
 21
62.25
 31
0.0
  0
LINE
  8
0
  6
CONTINUOUS
 62
     2
 10
168.75
 20
62.25
 30
0.0
 11
168.75
 21
63.15
 31
0.0
  0
LINE
  8
0
  6
CONTINUOUS
 62
     2
 10
169.35
 20
67.25
 30
0.0
 11
169.35
 21
68.15
 31
0.0
  0
LINE
  8
0
  6
CONTINUOUS
 62
     2
 10
169.85
 20
68.15
 30
0.0
 11
169.85
 21
67.25
 31
0.0
  0
LINE
  8
0
  6
CONTINUOUS
 62
     2
 10
168.75
 20
67.25
 30
0.0
 11
168.75
 21
68.15
 31
0.0
  0
LINE
  8
0
  6
CONTINUOUS
 62
     2
 10
169.35
 20
72.25
 30
0.0
 11
169.35
 21
73.15
 31
0.0
  0
LINE
  8
0
  6
CONTINUOUS
 62
     2
 10
169.85
 20
73.15
 30
0.0
 11
169.85
 21
72.25
 31
0.0
  0
LINE
  8
0
  6
CONTINUOUS
 62
     2
 10
168.75
 20
72.25
 30
0.0
 11
168.75
 21
73.15
 31
0.0
  0
LINE
  8
0
  6
CONTINUOUS
 62
     2
 10
169.35
 20
77.25
 30
0.0
 11
169.35
 21
78.15
 31
0.0
  0
LINE
  8
0
  6
CONTINUOUS
 62
     2
 10
169.85
 20
78.15
 30
0.0
 11
169.85
 21
77.25
 31
0.0
  0
LINE
  8
0
  6
CONTINUOUS
 62
     2
 10
168.75
 20
77.25
 30
0.0
 11
168.75
 21
78.15
 31
0.0
  0
LINE
  8
0
  6
CONTINUOUS
 62
     2
 10
169.35
 20
82.25
 30
0.0
 11
169.35
 21
83.15
 31
0.0
  0
LINE
  8
0
  6
CONTINUOUS
 62
     2
 10
169.85
 20
83.15
 30
0.0
 11
169.85
 21
82.25
 31
0.0
  0
LINE
  8
0
  6
CONTINUOUS
 62
     2
 10
168.75
 20
82.25
 30
0.0
 11
168.75
 21
83.15
 31
0.0
  0
LINE
  8
0
  6
CONTINUOUS
 62
     2
 10
169.35
 20
87.25
 30
0.0
 11
169.35
 21
88.15
 31
0.0
  0
LINE
  8
0
  6
CONTINUOUS
 62
     2
 10
169.85
 20
88.15
 30
0.0
 11
169.85
 21
87.25
 31
0.0
  0
LINE
  8
0
  6
CONTINUOUS
 62
     2
 10
168.75
 20
87.25
 30
0.0
 11
168.75
 21
88.15
 31
0.0
  0
LINE
  8
0
  6
LTYPE3
 62
     2
 10
169.45
 20
60.2
 30
0.0
 11
162.5
 21
60.2
 31
0.0
  0
LINE
  8
0
  6
LTYPE3
 62
     2
 10
169.45
 20
65.2
 30
0.0
 11
162.5
 21
65.2
 31
0.0
  0
LINE
  8
0
  6
LTYPE3
 62
     2
 10
169.45
 20
80.2
 30
0.0
 11
162.5
 21
80.2
 31
0.0
  0
LINE
  8
0
  6
LTYPE3
 62
     2
 10
169.45
 20
85.2
 30
0.0
 11
162.5
 21
85.2
 31
0.0
  0
LINE
  8
0
  6
LTYPE3
 62
     2
 10
169.45
 20
90.2
 30
0.0
 11
162.5
 21
90.2
 31
0.0
  0
LINE
  8
0
  6
LTYPE3
 62
     2
 10
169.45
 20
55.2
 30
0.0
 11
162.5
 21
55.2
 31
0.0
  0
TEXT
  8
0
  6
CONTINUOUS
 62
     2
 10
172.722391992
 20
69.3
 30
0.3
 40
3.0
  1
ネジ
 50
0.0
 41
0.9
 51
0.0
  7
KANJI2
  0
LINE
  8
0
  6
CONTINUOUS
 62
     2
 10
171.2
 20
88.3
 30
0.0
 11
171.2
 21
57.1
 31
0.0
  0
LINE
  8
0
  6
CONTINUOUS
 62
     2
 10
171.2
 20
57.1
 30
0.0
 11
169.5
 21
57.1
 31
0.0
  0
LINE
  8
0
  6
CONTINUOUS
 62
     2
 10
169.5
 20
57.1
 30
0.0
 11
169.5
 21
88.3
 31
0.0
  0
LINE
  8
0
  6
CONTINUOUS
 62
     2
 10
169.5
 20
88.3
 30
0.0
 11
171.2
 21
88.3
 31
0.0
  0
LINE
  8
0
  6
CONTINUOUS
 62
     2
 10
175.75
 20
58.15
 30
0.0
 11
175.102952387
 21
55.735185434
 31
0.0
  0
LINE
  8
0
  6
CONTINUOUS
 62
     2
 10
175.75
 20
58.15
 30
0.0
 11
176.397047613
 21
55.735185434
 31
0.0
  0
LINE
  8
0
  6
CONTINUOUS
 62
     2
 10
175.75
 20
54.4
 30
0.0
 11
175.75
 21
58.15
 31
0.0
  0
LINE
  8
0
  6
CONTINUOUS
 62
     2
 10
175.75
 20
58.15
 30
0.0
 11
175.75
 21
62.25
 31
0.0
  0
LINE
  8
0
  6
CONTINUOUS
 62
     2
 10
175.75
 20
62.25
 30
0.0
 11
175.75
 21
66.0
 31
0.0
  0
LINE
  8
0
  6
CONTINUOUS
 62
     2
 10
175.75
 20
62.25
 30
0.0
 11
176.397047613
 21
64.664814566
 31
0.0
  0
LINE
  8
0
  6
CONTINUOUS
 62
     2
 10
175.75
 20
62.25
 30
0.0
 11
175.102952387
 21
64.664814566
 31
0.0
  0
TEXT
  8
0
  6
CONTINUOUS
 62
     2
 10
174.75
 20
58.2
 30
0.2
 40
3.0
  1
８．２
 50
90.0
 41
0.5
 51
0.0
  7
KANJI7
  0
LINE
  8
0
  6
CONTINUOUS
 62
     2
 10
171.75
 20
62.25
 30
0.0
 11
177.75
 21
62.25
 31
0.0
  0
LINE
  8
0
  6
CONTINUOUS
 62
     2
 10
171.75
 20
58.15
 30
0.0
 11
177.75
 21
58.15
 31
0.0
  0
LINE
  8
0
  6
CONTINUOUS
 62
     2
 10
166.65
 20
77.25
 30
0.0
 11
166.65
 21
73.15
 31
0.0
  0
LINE
  8
0
  6
CONTINUOUS
 62
     2
 10
166.25
 20
73.95
 30
0.0
 11
166.65
 21
73.95
 31
0.0
  0
LINE
  8
0
  6
CONTINUOUS
 62
     2
 10
166.25
 20
76.45
 30
0.0
 11
166.65
 21
76.45
 31
0.0
  0
LINE
  8
0
  6
LTYPE3
 62
     2
 10
169.45
 20
75.2
 30
0.0
 11
162.5
 21
75.2
 31
0.0
  0
LINE
  8
0
  6
CONTINUOUS
 62
     2
 10
166.65
 20
72.25
 30
0.0
 11
166.65
 21
68.15
 31
0.0
  0
LINE
  8
0
  6
CONTINUOUS
 62
     2
 10
166.25
 20
68.95
 30
0.0
 11
166.65
 21
68.95
 31
0.0
  0
LINE
  8
0
  6
CONTINUOUS
 62
     2
 10
166.25
 20
71.45
 30
0.0
 11
166.65
 21
71.45
 31
0.0
  0
LINE
  8
0
  6
LTYPE3
 62
     2
 10
169.45
 20
70.2
 30
0.0
 11
162.5
 21
70.2
 31
0.0
  0
LINE
  8
0
  6
CONTINUOUS
 62
     2
 10
171.2
 20
133.0
 30
0.0
 11
168.785185434
 21
133.647047613
 31
0.0
  0
LINE
  8
0
  6
CONTINUOUS
 62
     2
 10
171.2
 20
133.0
 30
0.0
 11
168.785185434
 21
132.352952387
 31
0.0
  0
LINE
  8
0
  6
CONTINUOUS
 62
     2
 10
171.2
 20
89.25
 30
0.0
 11
171.2
 21
135.0
 31
0.0
  0
LINE
  8
0
  6
CONTINUOUS
 62
     2
 10
161.5
 20
133.0
 30
0.0
 11
171.2
 21
133.0
 31
0.0
  0
LINE
  8
0
  6
CONTINUOUS
 62
     2
 10
171.2
 20
138.0
 30
0.0
 11
168.785185434
 21
138.647047613
 31
0.0
  0
LINE
  8
0
  6
CONTINUOUS
 62
     2
 10
171.2
 20
138.0
 30
0.0
 11
168.785185434
 21
137.352952387
 31
0.0
  0
LINE
  8
0
  6
CONTINUOUS
 62
     2
 10
171.2
 20
134.0
 30
0.0
 11
171.2
 21
140.0
 31
0.0
  0
LINE
  8
0
  6
CONTINUOUS
 62
     2
 10
57.0
 20
138.0
 30
0.0
 11
171.2
 21
138.0
 31
0.0
  0
LINE
  8
0
  6
CONTINUOUS
 62
     2
 10
86.85
 20
44.6
 30
0.0
 11
93.922540798
 21
32.35
 31
0.0
  0
LINE
  8
0
  6
CONTINUOUS
 62
     2
 10
93.922540798
 20
32.35
 30
0.0
 11
117.622540798
 21
32.35
 31
0.0
  0
TEXT
  8
0
  6
CONTINUOUS
 62
     2
 10
93.922540798
 20
33.35
 30
0.3
 40
3.0
  1
取付金具（Ｍ５）
 50
0.0
 41
0.9
 51
0.0
  7
KANJI2
  0
TEXT
  8
0
  6
CONTINUOUS
 62
     2
 10
172.722391992
 20
69.3
 30
0.3
 40
3.0
  1
ネジ
 50
0.0
 41
0.9
 51
0.0
  7
KANJI2
  0
LINE
  8
0
  6
CONTINUOUS
 62
     2
 10
171.2
 20
71.43660254
 30
0.0
 11
171.847047613
 21
69.021787975
 31
0.0
  0
LINE
  8
0
  6
CONTINUOUS
 62
     2
 10
171.2
 20
71.43660254
 30
0.0
 11
172.967766953
 21
69.668835587
 31
0.0
  0
LINE
  8
0
  6
CONTINUOUS
 62
     2
 10
171.2
 20
71.43660254
 30
0.0
 11
174.144486373
 21
66.33660254
 31
0.0
  0
LINE
  8
0
  6
CONTINUOUS
 62
     2
 10
188.65
 20
139.8
 30
0.0
 11
182.65
 21
139.8
 31
0.0
  0
LINE
  8
0
  6
CONTINUOUS
 62
     2
 10
184.65
 20
139.8
 30
0.0
 11
184.002952387
 21
142.214814566
 31
0.0
  0
LINE
  8
0
  6
CONTINUOUS
 62
     2
 10
184.65
 20
139.8
 30
0.0
 11
185.297047613
 21
142.214814566
 31
0.0
  0
ARC
  8
0
  6
CONTINUOUS
 62
     2
 10
179.9
 20
36.8
 30
0.0
 40
1.0
 50
0.0
 51
90.0
  0
LINE
  8
0
  6
CONTINUOUS
 62
     2
 10
68.75
 20
156.75
 30
0.0
 11
68.75
 21
154.25
 31
0.0
  0
LINE
  8
0
  6
CONTINUOUS
 62
     2
 10
77.5
 20
154.25
 30
0.0
 11
77.5
 21
156.75
 31
0.0
  0
LINE
  8
0
  6
CONTINUOUS
 62
     2
 10
158.25
 20
154.25
 30
0.0
 11
158.25
 21
156.75
 31
0.0
  0
LINE
  8
0
  6
CONTINUOUS
 62
     2
 10
137.5
 20
154.25
 30
0.0
 11
137.5
 21
156.75
 31
0.0
  0
LINE
  8
0
  6
CONTINUOUS
 62
     2
 10
74.3
 20
156.5
 30
0.0
 11
77.5
 21
156.5
 31
0.0
  0
LINE
  8
0
  6
CONTINUOUS
 62
     2
 10
74.3
 20
154.5
 30
0.0
 11
77.5
 21
154.5
 31
0.0
  0
LINE
  8
0
  6
CONTINUOUS
 62
     2
 10
68.5
 20
156.5
 30
0.0
 11
72.7
 21
156.5
 31
0.0
  0
LINE
  8
0
  6
CONTINUOUS
 62
     2
 10
68.5
 20
154.5
 30
0.0
 11
72.7
 21
154.5
 31
0.0
  0
LINE
  8
0
  6
CONTINUOUS
 62
     2
 10
151.9
 20
154.5
 30
0.0
 11
137.5
 21
154.5
 31
0.0
  0
LINE
  8
0
  6
CONTINUOUS
 62
     2
 10
137.5
 20
156.5
 30
0.0
 11
151.9
 21
156.5
 31
0.0
  0
LINE
  8
0
  6
CONTINUOUS
 62
     2
 10
60.0
 20
165.5
 30
0.0
 11
54.0
 21
165.5
 31
0.0
  0
LINE
  8
0
  6
CONTINUOUS
 62
     2
 10
56.0
 20
165.5
 30
0.0
 11
55.352952387
 21
163.085185434
 31
0.0
  0
LINE
  8
0
  6
CONTINUOUS
 62
     2
 10
56.0
 20
165.5
 30
0.0
 11
56.647047613
 21
163.085185434
 31
0.0
  0
LINE
  8
0
  6
CONTINUOUS
 62
     2
 10
56.0
 20
161.75
 30
0.0
 11
56.0
 21
165.5
 31
0.0
  0
LINE
  8
0
  6
CONTINUOUS
 62
     2
 10
56.0
 20
165.5
 30
0.0
 11
56.0
 21
167.0
 31
0.0
  0
LINE
  8
0
  6
CONTINUOUS
 62
     2
 10
56.0
 20
167.0
 30
0.0
 11
56.0
 21
172.55
 31
0.0
  0
LINE
  8
0
  6
CONTINUOUS
 62
     2
 10
56.0
 20
167.0
 30
0.0
 11
56.647047613
 21
169.414814566
 31
0.0
  0
LINE
  8
0
  6
CONTINUOUS
 62
     2
 10
56.0
 20
167.0
 30
0.0
 11
55.352952387
 21
169.414814566
 31
0.0
  0
LINE
  8
0
  6
CONTINUOUS
 62
     2
 10
64.75
 20
167.0
 30
0.0
 11
54.0
 21
167.0
 31
0.0
  0
TEXT
  8
0
  6
CONTINUOUS
 62
     2
 10
55.0
 20
170.75
 30
0.3
 40
3.0
  1
３
 50
90.0
 41
0.6
 51
0.0
  7
KANJI4
  0
ARC
  8
0
  6
CONTINUOUS
 62
     2
 10
152.91796875
 20
154.375
 30
0.0
 40
1.78203125
 50
332.474380886
 51
39.146251661
  0
ARC
  8
0
  6
CONTINUOUS
 62
     2
 10
152.91796875
 20
156.625
 30
0.0
 40
1.78203125
 50
320.853748339
 51
27.525619114
  0
LINE
  8
0
  6
CONTINUOUS
 62
     2
 10
154.7
 20
156.5
 30
0.0
 11
158.5
 21
156.5
 31
0.0
  0
LINE
  8
0
  6
CONTINUOUS
 62
     2
 10
158.5
 20
154.5
 30
0.0
 11
154.7
 21
154.5
 31
0.0
  0
LINE
  8
0
  6
CONTINUOUS
 62
     2
 10
67.607050808
 20
170.0
 30
0.0
 11
88.307050808
 21
170.0
 31
0.0
  0
TEXT
  8
0
  6
CONTINUOUS
 62
     2
 10
67.607050808
 20
171.0
 30
0.3
 40
3.0
  1
エスカッション
 50
0.0
 41
0.9
 51
0.0
  7
KANJI2
  0
LINE
  8
0
  6
LTYPE3
 62
     2
 10
53.0
 20
155.5
 30
0.0
 11
172.0
 21
155.5
 31
0.0
  0
LINE
  8
0
  6
CONTINUOUS
 62
     2
 10
158.15
 20
163.95
 30
0.0
 11
160.06677682
 21
165.554981814
 31
0.0
  0
LINE
  8
0
  6
CONTINUOUS
 62
     2
 10
158.15
 20
163.95
 30
0.0
 11
159.007486512
 21
166.298343433
 31
0.0
  0
LINE
  8
0
  6
CONTINUOUS
 62
     2
 10
126.900877193
 20
174.05
 30
0.0
 11
165.237719298
 21
174.05
 31
0.0
  0
LINE
  8
0
  6
CONTINUOUS
 62
     2
 10
158.15
 20
163.95
 30
0.0
 11
165.237719298
 21
174.05
 31
0.0
  0
LINE
  8
0
  6
LTYPE3
 62
     2
 10
167.65
 20
155.5
 30
0.0
 11
158.5
 21
155.5
 31
0.0
  0
TEXT
  8
0
  6
CONTINUOUS
 62
     2
 10
172.722391992
 20
73.8
 30
0.3
 40
3.0
  1
Ｍ３
 50
0.0
 41
0.9
 51
0.0
  7
KANJI2
  0
LINE
  8
0
  6
CONTINUOUS
 62
     2
 10
167.04
 20
91.53
 30
0.0
 11
167.04
 21
88.87
 31
0.0
  0
LINE
  8
0
  6
CONTINUOUS
 62
     2
 10
167.35
 20
88.89
 30
0.0
 11
167.04
 21
88.87
 31
0.0
  0
LINE
  8
0
  6
CONTINUOUS
 62
     2
 10
167.04
 20
91.53
 30
0.0
 11
167.35
 21
91.53
 31
0.0
  0
LINE
  8
0
  6
CONTINUOUS
 62
     2
 10
168.09
 20
90.78
 30
0.0
 11
168.09
 21
89.62
 31
0.0
  0
ARC
  8
0
  6
CONTINUOUS
 62
     2
 10
167.34
 20
90.78
 30
0.0
 40
0.75
 50
0.0
 51
90.0
  0
ARC
  8
0
  6
CONTINUOUS
 62
     2
 10
167.34
 20
89.62
 30
0.0
 40
0.75
 50
268.472474559
 51
0.0
  0
LINE
  8
0
  6
CONTINUOUS
 62
     2
 10
167.03
 20
91.55
 30
0.0
 11
166.65
 21
91.55
 31
0.0
  0
LINE
  8
0
  6
CONTINUOUS
 62
     2
 10
166.65
 20
91.55
 30
0.0
 11
166.65
 21
88.87
 31
0.0
  0
LINE
  8
0
  6
CONTINUOUS
 62
     2
 10
166.65
 20
88.87
 30
0.0
 11
167.03
 21
88.87
 31
0.0
  0
LINE
  8
0
  6
CONTINUOUS
 62
     2
 10
166.65
 20
90.08
 30
0.0
 11
167.03
 21
90.39
 31
0.0
  0
LINE
  8
0
  6
CONTINUOUS
 62
     2
 10
166.65
 20
89.84
 30
0.0
 11
167.04
 21
90.13
 31
0.0
  0
LINE
  8
0
  6
CONTINUOUS
 62
     2
 10
168.09
 20
90.41
 30
0.0
 11
168.02
 21
90.41
 31
0.0
  0
LINE
  8
0
  6
CONTINUOUS
 62
     2
 10
168.02
 20
90.42
 30
0.0
 11
168.02
 21
90.04
 31
0.0
  0
LINE
  8
0
  6
CONTINUOUS
 62
     2
 10
168.02
 20
90.04
 30
0.0
 11
168.08
 21
90.04
 31
0.0
  0
LINE
  8
0
  6
CONTINUOUS
 62
     2
 10
167.04
 20
86.53
 30
0.0
 11
167.04
 21
83.87
 31
0.0
  0
LINE
  8
0
  6
CONTINUOUS
 62
     2
 10
167.35
 20
83.89
 30
0.0
 11
167.04
 21
83.87
 31
0.0
  0
LINE
  8
0
  6
CONTINUOUS
 62
     2
 10
167.04
 20
86.53
 30
0.0
 11
167.35
 21
86.53
 31
0.0
  0
LINE
  8
0
  6
CONTINUOUS
 62
     2
 10
168.09
 20
85.78
 30
0.0
 11
168.09
 21
84.62
 31
0.0
  0
ARC
  8
0
  6
CONTINUOUS
 62
     2
 10
167.34
 20
85.78
 30
0.0
 40
0.75
 50
0.0
 51
90.0
  0
ARC
  8
0
  6
CONTINUOUS
 62
     2
 10
167.34
 20
84.62
 30
0.0
 40
0.75
 50
268.472474559
 51
0.0
  0
LINE
  8
0
  6
CONTINUOUS
 62
     2
 10
167.03
 20
86.55
 30
0.0
 11
166.65
 21
86.55
 31
0.0
  0
LINE
  8
0
  6
CONTINUOUS
 62
     2
 10
166.65
 20
86.55
 30
0.0
 11
166.65
 21
83.87
 31
0.0
  0
LINE
  8
0
  6
CONTINUOUS
 62
     2
 10
166.65
 20
83.87
 30
0.0
 11
167.03
 21
83.87
 31
0.0
  0
LINE
  8
0
  6
CONTINUOUS
 62
     2
 10
166.65
 20
85.08
 30
0.0
 11
167.03
 21
85.39
 31
0.0
  0
LINE
  8
0
  6
CONTINUOUS
 62
     2
 10
166.65
 20
84.84
 30
0.0
 11
167.04
 21
85.13
 31
0.0
  0
LINE
  8
0
  6
CONTINUOUS
 62
     2
 10
168.09
 20
85.41
 30
0.0
 11
168.02
 21
85.41
 31
0.0
  0
LINE
  8
0
  6
CONTINUOUS
 62
     2
 10
168.02
 20
85.42
 30
0.0
 11
168.02
 21
85.04
 31
0.0
  0
LINE
  8
0
  6
CONTINUOUS
 62
     2
 10
168.02
 20
85.04
 30
0.0
 11
168.08
 21
85.04
 31
0.0
  0
LINE
  8
0
  6
CONTINUOUS
 62
     2
 10
167.04
 20
81.53
 30
0.0
 11
167.04
 21
78.87
 31
0.0
  0
LINE
  8
0
  6
CONTINUOUS
 62
     2
 10
167.35
 20
78.89
 30
0.0
 11
167.04
 21
78.87
 31
0.0
  0
LINE
  8
0
  6
CONTINUOUS
 62
     2
 10
167.04
 20
81.53
 30
0.0
 11
167.35
 21
81.53
 31
0.0
  0
LINE
  8
0
  6
CONTINUOUS
 62
     2
 10
168.09
 20
80.78
 30
0.0
 11
168.09
 21
79.62
 31
0.0
  0
ARC
  8
0
  6
CONTINUOUS
 62
     2
 10
167.34
 20
80.78
 30
0.0
 40
0.75
 50
0.0
 51
90.0
  0
ARC
  8
0
  6
CONTINUOUS
 62
     2
 10
167.34
 20
79.62
 30
0.0
 40
0.75
 50
268.472474559
 51
0.0
  0
LINE
  8
0
  6
CONTINUOUS
 62
     2
 10
167.03
 20
81.55
 30
0.0
 11
166.65
 21
81.55
 31
0.0
  0
LINE
  8
0
  6
CONTINUOUS
 62
     2
 10
166.65
 20
81.55
 30
0.0
 11
166.65
 21
78.87
 31
0.0
  0
LINE
  8
0
  6
CONTINUOUS
 62
     2
 10
166.65
 20
78.87
 30
0.0
 11
167.03
 21
78.87
 31
0.0
  0
LINE
  8
0
  6
CONTINUOUS
 62
     2
 10
166.65
 20
80.08
 30
0.0
 11
167.03
 21
80.39
 31
0.0
  0
LINE
  8
0
  6
CONTINUOUS
 62
     2
 10
166.65
 20
79.84
 30
0.0
 11
167.04
 21
80.13
 31
0.0
  0
LINE
  8
0
  6
CONTINUOUS
 62
     2
 10
168.09
 20
80.41
 30
0.0
 11
168.02
 21
80.41
 31
0.0
  0
LINE
  8
0
  6
CONTINUOUS
 62
     2
 10
168.02
 20
80.42
 30
0.0
 11
168.02
 21
80.04
 31
0.0
  0
LINE
  8
0
  6
CONTINUOUS
 62
     2
 10
168.02
 20
80.04
 30
0.0
 11
168.08
 21
80.04
 31
0.0
  0
LINE
  8
0
  6
CONTINUOUS
 62
     2
 10
167.04
 20
76.53
 30
0.0
 11
167.04
 21
73.87
 31
0.0
  0
LINE
  8
0
  6
CONTINUOUS
 62
     2
 10
167.35
 20
73.89
 30
0.0
 11
167.04
 21
73.87
 31
0.0
  0
LINE
  8
0
  6
CONTINUOUS
 62
     2
 10
167.04
 20
76.53
 30
0.0
 11
167.35
 21
76.53
 31
0.0
  0
LINE
  8
0
  6
CONTINUOUS
 62
     2
 10
168.09
 20
75.78
 30
0.0
 11
168.09
 21
74.62
 31
0.0
  0
ARC
  8
0
  6
CONTINUOUS
 62
     2
 10
167.34
 20
75.78
 30
0.0
 40
0.75
 50
0.0
 51
90.0
  0
ARC
  8
0
  6
CONTINUOUS
 62
     2
 10
167.34
 20
74.62
 30
0.0
 40
0.75
 50
268.472474559
 51
0.0
  0
LINE
  8
0
  6
CONTINUOUS
 62
     2
 10
167.03
 20
76.55
 30
0.0
 11
166.65
 21
76.55
 31
0.0
  0
LINE
  8
0
  6
CONTINUOUS
 62
     2
 10
166.65
 20
76.55
 30
0.0
 11
166.65
 21
73.87
 31
0.0
  0
LINE
  8
0
  6
CONTINUOUS
 62
     2
 10
166.65
 20
73.87
 30
0.0
 11
167.03
 21
73.87
 31
0.0
  0
LINE
  8
0
  6
CONTINUOUS
 62
     2
 10
166.65
 20
75.08
 30
0.0
 11
167.03
 21
75.39
 31
0.0
  0
LINE
  8
0
  6
CONTINUOUS
 62
     2
 10
166.65
 20
74.84
 30
0.0
 11
167.04
 21
75.13
 31
0.0
  0
LINE
  8
0
  6
CONTINUOUS
 62
     2
 10
168.09
 20
75.41
 30
0.0
 11
168.02
 21
75.41
 31
0.0
  0
LINE
  8
0
  6
CONTINUOUS
 62
     2
 10
168.02
 20
75.42
 30
0.0
 11
168.02
 21
75.04
 31
0.0
  0
LINE
  8
0
  6
CONTINUOUS
 62
     2
 10
168.02
 20
75.04
 30
0.0
 11
168.08
 21
75.04
 31
0.0
  0
LINE
  8
0
  6
CONTINUOUS
 62
     2
 10
167.04
 20
71.53
 30
0.0
 11
167.04
 21
68.87
 31
0.0
  0
LINE
  8
0
  6
CONTINUOUS
 62
     2
 10
167.35
 20
68.89
 30
0.0
 11
167.04
 21
68.87
 31
0.0
  0
LINE
  8
0
  6
CONTINUOUS
 62
     2
 10
167.04
 20
71.53
 30
0.0
 11
167.35
 21
71.53
 31
0.0
  0
LINE
  8
0
  6
CONTINUOUS
 62
     2
 10
168.09
 20
70.78
 30
0.0
 11
168.09
 21
69.62
 31
0.0
  0
ARC
  8
0
  6
CONTINUOUS
 62
     2
 10
167.34
 20
70.78
 30
0.0
 40
0.75
 50
0.0
 51
90.0
  0
ARC
  8
0
  6
CONTINUOUS
 62
     2
 10
167.34
 20
69.62
 30
0.0
 40
0.75
 50
268.472474559
 51
0.0
  0
LINE
  8
0
  6
CONTINUOUS
 62
     2
 10
167.03
 20
71.55
 30
0.0
 11
166.65
 21
71.55
 31
0.0
  0
LINE
  8
0
  6
CONTINUOUS
 62
     2
 10
166.65
 20
71.55
 30
0.0
 11
166.65
 21
68.87
 31
0.0
  0
LINE
  8
0
  6
CONTINUOUS
 62
     2
 10
166.65
 20
68.87
 30
0.0
 11
167.03
 21
68.87
 31
0.0
  0
LINE
  8
0
  6
CONTINUOUS
 62
     2
 10
166.65
 20
70.08
 30
0.0
 11
167.03
 21
70.39
 31
0.0
  0
LINE
  8
0
  6
CONTINUOUS
 62
     2
 10
166.65
 20
69.84
 30
0.0
 11
167.04
 21
70.13
 31
0.0
  0
LINE
  8
0
  6
CONTINUOUS
 62
     2
 10
168.09
 20
70.41
 30
0.0
 11
168.02
 21
70.41
 31
0.0
  0
LINE
  8
0
  6
CONTINUOUS
 62
     2
 10
168.02
 20
70.42
 30
0.0
 11
168.02
 21
70.04
 31
0.0
  0
LINE
  8
0
  6
CONTINUOUS
 62
     2
 10
168.02
 20
70.04
 30
0.0
 11
168.08
 21
70.04
 31
0.0
  0
LINE
  8
0
  6
CONTINUOUS
 62
     2
 10
167.04
 20
56.53
 30
0.0
 11
167.04
 21
53.87
 31
0.0
  0
LINE
  8
0
  6
CONTINUOUS
 62
     2
 10
167.35
 20
53.89
 30
0.0
 11
167.04
 21
53.87
 31
0.0
  0
LINE
  8
0
  6
CONTINUOUS
 62
     2
 10
167.04
 20
56.53
 30
0.0
 11
167.35
 21
56.53
 31
0.0
  0
LINE
  8
0
  6
CONTINUOUS
 62
     2
 10
168.09
 20
55.78
 30
0.0
 11
168.09
 21
54.62
 31
0.0
  0
ARC
  8
0
  6
CONTINUOUS
 62
     2
 10
167.34
 20
55.78
 30
0.0
 40
0.75
 50
0.0
 51
90.0
  0
ARC
  8
0
  6
CONTINUOUS
 62
     2
 10
167.34
 20
54.62
 30
0.0
 40
0.75
 50
268.472474559
 51
0.0
  0
LINE
  8
0
  6
CONTINUOUS
 62
     2
 10
167.03
 20
56.55
 30
0.0
 11
166.65
 21
56.55
 31
0.0
  0
LINE
  8
0
  6
CONTINUOUS
 62
     2
 10
166.65
 20
56.55
 30
0.0
 11
166.65
 21
53.87
 31
0.0
  0
LINE
  8
0
  6
CONTINUOUS
 62
     2
 10
166.65
 20
53.87
 30
0.0
 11
167.03
 21
53.87
 31
0.0
  0
LINE
  8
0
  6
CONTINUOUS
 62
     2
 10
166.65
 20
55.08
 30
0.0
 11
167.03
 21
55.39
 31
0.0
  0
LINE
  8
0
  6
CONTINUOUS
 62
     2
 10
166.65
 20
54.84
 30
0.0
 11
167.04
 21
55.13
 31
0.0
  0
LINE
  8
0
  6
CONTINUOUS
 62
     2
 10
168.09
 20
55.41
 30
0.0
 11
168.02
 21
55.41
 31
0.0
  0
LINE
  8
0
  6
CONTINUOUS
 62
     2
 10
168.02
 20
55.42
 30
0.0
 11
168.02
 21
55.04
 31
0.0
  0
LINE
  8
0
  6
CONTINUOUS
 62
     2
 10
168.02
 20
55.04
 30
0.0
 11
168.08
 21
55.04
 31
0.0
  0
LINE
  8
0
  6
CONTINUOUS
 62
     2
 10
168.15
 20
80.2
 30
0.0
 11
168.797047613
 21
77.785185434
 31
0.0
  0
LINE
  8
0
  6
CONTINUOUS
 62
     2
 10
168.15
 20
80.2
 30
0.0
 11
169.917766953
 21
78.432233047
 31
0.0
  0
LINE
  8
0
  6
CONTINUOUS
 62
     2
 10
168.15
 20
80.2
 30
0.0
 11
172.422391992
 21
72.8
 31
0.0
  0
LINE
  8
0
  6
CONTINUOUS
 62
     2
 10
172.422391992
 20
72.8
 30
0.0
 11
178.722391992
 21
72.8
 31
0.0
  0
LINE
  8
0
  6
LTYPE2
 62
     5
 10
156.5
 20
147.0
 30
0.0
 11
159.0
 21
147.0
 31
0.0
  0
LINE
  8
0
  6
LTYPE2
 62
     5
 10
159.0
 20
147.0
 30
0.0
 11
159.0
 21
164.0
 31
0.0
  0
LINE
  8
0
  6
LTYPE2
 62
     5
 10
159.0
 20
164.0
 30
0.0
 11
156.5
 21
164.0
 31
0.0
  0
LINE
  8
0
  6
LTYPE2
 62
     5
 10
156.5
 20
154.25
 30
0.0
 11
156.5
 21
147.0
 31
0.0
  0
LINE
  8
0
  6
LTYPE2
 62
     5
 10
156.5
 20
164.0
 30
0.0
 11
156.5
 21
156.75
 31
0.0
  0
TEXT
  8
0
  6
CONTINUOUS
 62
     2
 10
127.55
 20
175.05
 30
0.3
 40
3.0
  1
ＴＡＧ　ＮＯ．　２枚表示の場合
 50
0.0
 41
0.9
 51
0.0
  7
KANJI2
  0
TEXT
  8
0
  6
CONTINUOUS
 62
     2
 10
109.5
 20
139.0
 30
0.3
 40
3.0
  1
２２８．５
 50
0.0
 41
0.6
 51
0.0
  7
KANJI4
  0
TEXT
  8
0
  6
CONTINUOUS
 62
     2
 10
163.0
 20
134.0
 30
0.3
 40
3.0
  1
１９．５
 50
0.0
 41
0.6
 51
0.0
  7
KANJI4
  0
TEXT
  8
0
  6
CONTINUOUS
 62
     2
 10
16.0
 20
47.775
 30
0.2
 40
3.0
  1
１２．５
 50
90.0
 41
0.5
 51
0.0
  7
KANJI7
  0
TEXT
  8
0
  6
CONTINUOUS
 62
     2
 10
199.17
 20
179.8
 30
0.3
 40
3.0
  1
４０．２×Ｎ＋１．５
 50
0.0
 41
0.6
 51
0.0
  7
KANJI4
  0
LINE
  8
0
  6
CONTINUOUS
 62
     2
 10
66.0
 20
160.5
 30
0.0
 11
66.0
 21
167.0
 31
0.0
  0
LINE
  8
0
  6
CONTINUOUS
 62
     2
 10
66.0
 20
167.0
 30
0.0
 11
65.75
 21
167.0
 31
0.0
  0
LINE
  8
0
  6
CONTINUOUS
 62
     2
 10
65.75
 20
167.0
 30
0.0
 11
65.75
 21
160.5
 31
0.0
  0
LINE
  8
0
  6
CONTINUOUS
 62
     2
 10
65.875
 20
167.0
 30
0.0
 11
67.642766953
 21
168.767766953
 31
0.0
  0
LINE
  8
0
  6
CONTINUOUS
 62
     2
 10
65.875
 20
167.0
 30
0.0
 11
66.522047613
 21
169.414814566
 31
0.0
  0
LINE
  8
0
  6
CONTINUOUS
 62
     2
 10
65.875
 20
167.0
 30
0.0
 11
67.607050808
 21
170.0
 31
0.0
  0
LINE
  8
0
  6
CONTINUOUS
 62
     2
 10
66.0
 20
150.5
 30
0.0
 11
66.0
 21
144.0
 31
0.0
  0
LINE
  8
0
  6
CONTINUOUS
 62
     2
 10
66.0
 20
144.0
 30
0.0
 11
65.75
 21
144.0
 31
0.0
  0
LINE
  8
0
  6
CONTINUOUS
 62
     2
 10
65.75
 20
144.0
 30
0.0
 11
65.75
 21
150.5
 31
0.0
  0
LINE
  8
0
  6
CONTINUOUS
 62
     1
 10
161.5
 20
162.0
 30
0.0
 11
161.5
 21
153.5
 31
0.0
  0
LINE
  8
0
  6
CONTINUOUS
 62
     1
 10
161.5
 20
162.0
 30
0.0
 11
164.25
 21
162.0
 31
0.0
  0
LINE
  8
0
  6
CONTINUOUS
 62
     1
 10
166.154993762
 20
160.754750312
 30
0.0
 11
164.25
 21
160.85
 31
0.0
  0
ARC
  8
0
  6
CONTINUOUS
 62
     1
 10
166.15
 20
160.654875078
 30
0.0
 40
0.1
 50
360.0
 51
87.137594774
  0
LINE
  8
0
  6
CONTINUOUS
 62
     1
 10
166.25
 20
160.654875078
 30
0.0
 11
166.25
 21
154.845124922
 31
0.0
  0
ARC
  8
0
  6
CONTINUOUS
 62
     1
 10
166.15
 20
154.845124922
 30
0.0
 40
0.1
 50
272.862405226
 51
0.0
  0
LINE
  8
0
  6
CONTINUOUS
 62
     1
 10
164.25
 20
162.0
 30
0.0
 11
164.25
 21
160.85
 31
0.0
  0
LINE
  8
0
  6
CONTINUOUS
 62
     1
 10
164.25
 20
153.5
 30
0.0
 11
161.5
 21
153.5
 31
0.0
  0
LINE
  8
0
  6
CONTINUOUS
 62
     1
 10
164.25
 20
162.0
 30
0.0
 11
168.701937515
 21
162.0
 31
0.0
  0
ARC
  8
0
  6
CONTINUOUS
 62
     1
 10
168.701937515
 20
161.9
 30
0.0
 40
0.1
 50
38.659808254
 51
90.0
  0
LINE
  8
0
  6
CONTINUOUS
 62
     1
 10
169.319975604
 20
161.287530495
 30
0.0
 11
168.780024396
 21
161.962469505
 31
0.0
  0
ARC
  8
0
  6
CONTINUOUS
 62
     1
 10
169.398062485
 20
161.35
 30
0.0
 40
0.1
 50
218.659808254
 51
270.0
  0
LINE
  8
0
  6
CONTINUOUS
 62
     1
 10
169.75
 20
161.25
 30
0.0
 11
169.398062485
 21
161.25
 31
0.0
  0
ARC
  8
0
  6
CONTINUOUS
 62
     1
 10
169.75
 20
161.35
 30
0.0
 40
0.1
 50
270.0
 51
0.0
  0
LINE
  8
0
  6
CONTINUOUS
 62
     1
 10
169.85
 20
161.9
 30
0.0
 11
169.85
 21
161.35
 31
0.0
  0
ARC
  8
0
  6
CONTINUOUS
 62
     1
 10
169.95
 20
161.9
 30
0.0
 40
0.1
 50
90.0
 51
180.0
  0
LINE
  8
0
  6
CONTINUOUS
 62
     1
 10
169.95
 20
162.0
 30
0.0
 11
170.65
 21
162.0
 31
0.0
  0
ARC
  8
0
  6
CONTINUOUS
 62
     1
 10
170.65
 20
161.9
 30
0.0
 40
0.1
 50
0.0
 51
90.0
  0
LINE
  8
0
  6
CONTINUOUS
 62
     1
 10
164.25
 20
153.5
 30
0.0
 11
168.701937515
 21
153.5
 31
0.0
  0
ARC
  8
0
  6
CONTINUOUS
 62
     1
 10
168.701937515
 20
153.6
 30
0.0
 40
0.1
 50
270.0
 51
321.340191746
  0
LINE
  8
0
  6
CONTINUOUS
 62
     1
 10
169.319975604
 20
154.212469505
 30
0.0
 11
168.780024396
 21
153.537530495
 31
0.0
  0
ARC
  8
0
  6
CONTINUOUS
 62
     1
 10
169.398062485
 20
154.15
 30
0.0
 40
0.1
 50
90.0
 51
141.340191746
  0
LINE
  8
0
  6
CONTINUOUS
 62
     1
 10
169.75
 20
154.25
 30
0.0
 11
169.398062485
 21
154.25
 31
0.0
  0
ARC
  8
0
  6
CONTINUOUS
 62
     1
 10
169.75
 20
154.15
 30
0.0
 40
0.1
 50
0.0
 51
90.0
  0
LINE
  8
0
  6
CONTINUOUS
 62
     1
 10
170.75
 20
161.9
 30
0.0
 11
170.75
 21
153.6
 31
0.0
  0
LINE
  8
0
  6
CONTINUOUS
 62
     1
 10
169.85
 20
154.15
 30
0.0
 11
169.85
 21
153.6
 31
0.0
  0
ARC
  8
0
  6
CONTINUOUS
 62
     1
 10
169.95
 20
153.6
 30
0.0
 40
0.1
 50
180.0
 51
270.0
  0
LINE
  8
0
  6
CONTINUOUS
 62
     1
 10
169.95
 20
153.5
 30
0.0
 11
170.65
 21
153.5
 31
0.0
  0
ARC
  8
0
  6
CONTINUOUS
 62
     1
 10
170.65
 20
153.6
 30
0.0
 40
0.1
 50
270.0
 51
0.0
  0
LINE
  8
0
  6
CONTINUOUS
 62
     2
 10
166.25
 20
159.9
 30
0.0
 11
166.3
 21
159.9
 31
0.0
  0
ARC
  8
0
  6
CONTINUOUS
 62
     2
 10
166.3
 20
159.55
 30
0.0
 40
0.35
 50
0.0
 51
90.0
  0
LINE
  8
0
  6
CONTINUOUS
 62
     2
 10
166.3
 20
155.6
 30
0.0
 11
166.25
 21
155.6
 31
0.0
  0
LINE
  8
0
  6
CONTINUOUS
 62
     2
 10
166.65
 20
159.55
 30
0.0
 11
166.65
 21
155.95
 31
0.0
  0
ARC
  8
0
  6
CONTINUOUS
 62
     2
 10
166.3
 20
155.95
 30
0.0
 40
0.35
 50
270.0
 51
0.0
  0
LINE
  8
0
  6
CONTINUOUS
 62
     2
 10
169.650003081
 20
153.65
 30
0.0
 11
169.750003081
 21
153.7
 31
0.0
  0
LINE
  8
0
  6
CONTINUOUS
 62
     2
 10
169.750003081
 20
153.7
 30
0.0
 11
169.85
 21
153.6
 31
0.0
  0
LINE
  8
0
  6
CONTINUOUS
 62
     2
 10
169.950003081
 20
153.05
 30
0.0
 11
170.65
 21
153.05
 31
0.0
  0
ARC
  8
0
  6
CONTINUOUS
 62
     2
 10
170.65
 20
153.6
 30
0.0
 40
0.55
 50
270.0
 51
0.0
  0
ARC
  8
0
  6
CONTINUOUS
 62
     2
 10
170.100003081
 20
153.5
 30
0.0
 40
0.474341649
 50
161.565051177
 51
251.565051177
  0
LINE
  8
0
  6
CONTINUOUS
 62
     2
 10
171.2
 20
153.6
 30
0.0
 11
171.2
 21
161.9
 31
0.0
  0
LINE
  8
0
  6
CONTINUOUS
 62
     2
 10
169.950003081
 20
162.45
 30
0.0
 11
170.65
 21
162.45
 31
0.0
  0
ARC
  8
0
  6
CONTINUOUS
 62
     2
 10
170.65
 20
161.9
 30
0.0
 40
0.55
 50
360.0
 51
90.0
  0
LINE
  8
0
  6
CONTINUOUS
 62
     2
 10
169.650003081
 20
161.85
 30
0.0
 11
169.750003081
 21
161.8
 31
0.0
  0
LINE
  8
0
  6
CONTINUOUS
 62
     2
 10
169.750003081
 20
161.8
 30
0.0
 11
169.85
 21
161.9
 31
0.0
  0
ARC
  8
0
  6
CONTINUOUS
 62
     2
 10
170.100003081
 20
162.0
 30
0.0
 40
0.474341649
 50
108.434948823
 51
198.434948823
  0
LINE
  8
0
  6
CONTINUOUS
 62
     2
 10
167.04
 20
159.08
 30
0.0
 11
167.04
 21
156.42
 31
0.0
  0
LINE
  8
0
  6
CONTINUOUS
 62
     2
 10
167.35
 20
156.44
 30
0.0
 11
167.04
 21
156.42
 31
0.0
  0
LINE
  8
0
  6
CONTINUOUS
 62
     2
 10
167.04
 20
159.08
 30
0.0
 11
167.35
 21
159.08
 31
0.0
  0
LINE
  8
0
  6
CONTINUOUS
 62
     2
 10
168.09
 20
158.33
 30
0.0
 11
168.09
 21
157.17
 31
0.0
  0
ARC
  8
0
  6
CONTINUOUS
 62
     2
 10
167.34
 20
158.33
 30
0.0
 40
0.75
 50
0.0
 51
90.0
  0
ARC
  8
0
  6
CONTINUOUS
 62
     2
 10
167.34
 20
157.17
 30
0.0
 40
0.75
 50
268.472474559
 51
0.0
  0
LINE
  8
0
  6
CONTINUOUS
 62
     2
 10
167.03
 20
159.1
 30
0.0
 11
166.65
 21
159.1
 31
0.0
  0
LINE
  8
0
  6
CONTINUOUS
 62
     2
 10
166.65
 20
159.1
 30
0.0
 11
166.65
 21
156.42
 31
0.0
  0
LINE
  8
0
  6
CONTINUOUS
 62
     2
 10
166.65
 20
156.42
 30
0.0
 11
167.03
 21
156.42
 31
0.0
  0
LINE
  8
0
  6
CONTINUOUS
 62
     2
 10
166.65
 20
157.63
 30
0.0
 11
167.03
 21
157.94
 31
0.0
  0
LINE
  8
0
  6
CONTINUOUS
 62
     2
 10
166.65
 20
157.39
 30
0.0
 11
167.04
 21
157.68
 31
0.0
  0
LINE
  8
0
  6
CONTINUOUS
 62
     2
 10
168.09
 20
157.96
 30
0.0
 11
168.02
 21
157.96
 31
0.0
  0
LINE
  8
0
  6
CONTINUOUS
 62
     2
 10
168.02
 20
157.97
 30
0.0
 11
168.02
 21
157.59
 31
0.0
  0
LINE
  8
0
  6
CONTINUOUS
 62
     2
 10
168.02
 20
157.59
 30
0.0
 11
168.08
 21
157.59
 31
0.0
  0
LINE
  8
0
  6
LTYPE3
 62
     2
 10
166.25
 20
157.75
 30
0.0
 11
168.75
 21
157.75
 31
0.0
  0
ARC
  8
0
  6
CONTINUOUS
 62
     2
 10
165.599998634
 20
157.166667
 30
0.0
 40
0.333333
 50
270.0
 51
90.0
  0
ARC
  8
0
  6
CONTINUOUS
 62
     2
 10
165.599998634
 20
156.500001
 30
0.0
 40
0.333333
 50
270.0
 51
90.0
  0
ARC
  8
0
  6
CONTINUOUS
 62
     2
 10
165.599998634
 20
155.833335
 30
0.0
 40
0.333333
 50
270.0
 51
90.0
  0
ARC
  8
0
  6
CONTINUOUS
 62
     2
 10
165.599998634
 20
155.166669
 30
0.0
 40
0.333333
 50
270.0
 51
90.0
  0
ARC
  8
0
  6
CONTINUOUS
 62
     2
 10
165.599998634
 20
154.500003
 30
0.0
 40
0.333333
 50
270.0
 51
90.0
  0
ARC
  8
0
  6
CONTINUOUS
 62
     2
 10
165.599998634
 20
153.833337
 30
0.0
 40
0.333333
 50
270.0
 51
90.0
  0
LINE
  8
0
  6
CONTINUOUS
 62
     2
 10
161.5
 20
153.500002
 30
0.0
 11
165.6
 21
153.500002
 31
0.0
  0
LINE
  8
0
  6
CONTINUOUS
 62
     2
 10
161.5
 20
154.166668
 30
0.0
 11
165.6
 21
154.166668
 31
0.0
  0
LINE
  8
0
  6
CONTINUOUS
 62
     2
 10
161.5
 20
154.833334
 30
0.0
 11
165.6
 21
154.833334
 31
0.0
  0
LINE
  8
0
  6
CONTINUOUS
 62
     2
 10
161.5
 20
155.5
 30
0.0
 11
165.6
 21
155.5
 31
0.0
  0
LINE
  8
0
  6
CONTINUOUS
 62
     2
 10
161.5
 20
156.166666
 30
0.0
 11
165.6
 21
156.166666
 31
0.0
  0
LINE
  8
0
  6
CONTINUOUS
 62
     2
 10
161.5
 20
156.833332
 30
0.0
 11
165.6
 21
156.833332
 31
0.0
  0
LINE
  8
0
  6
CONTINUOUS
 62
     2
 10
161.5
 20
157.499998
 30
0.0
 11
165.6
 21
157.499998
 31
0.0
  0
LINE
  8
0
  6
CONTINUOUS
 62
     1
 10
166.154993762
 20
154.745249688
 30
0.0
 11
165.841667301
 21
154.729583365
 31
0.0
  0
TEXT
  8
0
  6
CONTINUOUS
 62
     2
 10
180.144486373
 20
67.33660254
 30
0.0
 40
3.0
  1
端子カバー
 50
0.0
 41
0.833333333
 51
0.0
  7
KANJI8
  0
LINE
  8
0
  6
CONTINUOUS
 62
     2
 10
174.144486373
 20
66.33660254
 30
0.0
 11
192.45
 21
66.33660254
 31
0.0
  0
LINE
  8
0
  6
CONTINUOUS
 62
     1
 10
215.0
 20
120.75
 30
0.0
 11
195.0
 21
120.75
 31
0.0
  0
LINE
  8
0
  6
CONTINUOUS
 62
     1
 10
195.0
 20
120.75
 30
0.0
 11
195.0
 21
49.25
 31
0.0
  0
LINE
  8
0
  6
CONTINUOUS
 62
     1
 10
196.0
 20
120.75
 30
0.0
 11
196.0
 21
121.25
 31
0.0
  0
LINE
  8
0
  6
CONTINUOUS
 62
     1
 10
196.0
 20
121.25
 30
0.0
 11
214.0
 21
121.25
 31
0.0
  0
LINE
  8
0
  6
CONTINUOUS
 62
     1
 10
214.0
 20
121.25
 30
0.0
 11
214.0
 21
120.75
 31
0.0
  0
LINE
  8
0
  6
CONTINUOUS
 62
     1
 10
196.0
 20
49.25
 30
0.0
 11
196.0
 21
48.75
 31
0.0
  0
LINE
  8
0
  6
CONTINUOUS
 62
     1
 10
196.0
 20
48.75
 30
0.0
 11
214.0
 21
48.75
 31
0.0
  0
LINE
  8
0
  6
CONTINUOUS
 62
     1
 10
214.0
 20
48.75
 30
0.0
 11
214.0
 21
49.25
 31
0.0
  0
LINE
  8
0
  6
CONTINUOUS
 62
     1
 10
204.75
 20
120.75
 30
0.0
 11
204.75
 21
120.4
 31
0.0
  0
LINE
  8
0
  6
CONTINUOUS
 62
     1
 10
205.25
 20
120.75
 30
0.0
 11
205.25
 21
120.4
 31
0.0
  0
LINE
  8
0
  6
CONTINUOUS
 62
     1
 10
198.75
 20
126.25
 30
0.0
 11
198.75
 21
121.25
 31
0.0
  0
LINE
  8
0
  6
CONTINUOUS
 62
     1
 10
211.25
 20
126.25
 30
0.0
 11
211.25
 21
121.25
 31
0.0
  0
CIRCLE
  8
0
  6
CONTINUOUS
 62
     1
 10
205.0
 20
124.25
 30
0.0
 40
1.275
  0
LINE
  8
0
  6
CONTINUOUS
 62
     1
 10
200.75
 20
126.25
 30
0.0
 11
200.75
 21
121.25
 31
0.0
  0
LINE
  8
0
  6
CONTINUOUS
 62
     1
 10
209.25
 20
126.25
 30
0.0
 11
209.25
 21
121.25
 31
0.0
  0
LINE
  8
0
  6
CONTINUOUS
 62
     1
 10
198.75
 20
122.5
 30
0.0
 11
196.0
 21
122.5
 31
0.0
  0
LINE
  8
0
  6
CONTINUOUS
 62
     1
 10
196.0
 20
122.5
 30
0.0
 11
196.0
 21
121.25
 31
0.0
  0
LINE
  8
0
  6
CONTINUOUS
 62
     1
 10
195.0
 20
120.75
 30
0.0
 11
195.0
 21
122.5
 31
0.0
  0
LINE
  8
0
  6
CONTINUOUS
 62
     1
 10
195.0
 20
122.5
 30
0.0
 11
196.0
 21
122.5
 31
0.0
  0
LINE
  8
0
  6
CONTINUOUS
 62
     1
 10
215.0
 20
120.75
 30
0.0
 11
215.0
 21
122.5
 31
0.0
  0
LINE
  8
0
  6
CONTINUOUS
 62
     1
 10
215.0
 20
122.5
 30
0.0
 11
214.0
 21
122.5
 31
0.0
  0
LINE
  8
0
  6
CONTINUOUS
 62
     1
 10
214.0
 20
121.25
 30
0.0
 11
214.0
 21
122.5
 31
0.0
  0
LINE
  8
0
  6
CONTINUOUS
 62
     1
 10
214.0
 20
122.5
 30
0.0
 11
211.25
 21
122.5
 31
0.0
  0
LINE
  8
0
  6
CONTINUOUS
 62
     1
 10
198.75
 20
43.75
 30
0.0
 11
198.75
 21
48.75
 31
0.0
  0
LINE
  8
0
  6
CONTINUOUS
 62
     1
 10
211.25
 20
43.75
 30
0.0
 11
211.25
 21
48.75
 31
0.0
  0
LINE
  8
0
  6
CONTINUOUS
 62
     1
 10
200.75
 20
43.75
 30
0.0
 11
200.75
 21
48.75
 31
0.0
  0
LINE
  8
0
  6
CONTINUOUS
 62
     1
 10
209.25
 20
43.75
 30
0.0
 11
209.25
 21
48.75
 31
0.0
  0
LINE
  8
0
  6
CONTINUOUS
 62
     1
 10
198.75
 20
47.5
 30
0.0
 11
196.0
 21
47.5
 31
0.0
  0
LINE
  8
0
  6
CONTINUOUS
 62
     1
 10
196.0
 20
47.5
 30
0.0
 11
196.0
 21
48.75
 31
0.0
  0
LINE
  8
0
  6
CONTINUOUS
 62
     1
 10
195.0
 20
49.25
 30
0.0
 11
195.0
 21
47.5
 31
0.0
  0
LINE
  8
0
  6
CONTINUOUS
 62
     1
 10
195.0
 20
47.5
 30
0.0
 11
196.0
 21
47.5
 31
0.0
  0
LINE
  8
0
  6
CONTINUOUS
 62
     1
 10
215.0
 20
49.25
 30
0.0
 11
215.0
 21
47.5
 31
0.0
  0
LINE
  8
0
  6
CONTINUOUS
 62
     1
 10
215.0
 20
47.5
 30
0.0
 11
214.0
 21
47.5
 31
0.0
  0
LINE
  8
0
  6
CONTINUOUS
 62
     1
 10
214.0
 20
48.75
 30
0.0
 11
214.0
 21
47.5
 31
0.0
  0
LINE
  8
0
  6
CONTINUOUS
 62
     1
 10
214.0
 20
47.5
 30
0.0
 11
211.25
 21
47.5
 31
0.0
  0
LINE
  8
0
  6
CONTINUOUS
 62
     1
 10
205.0
 20
126.500000962
 30
0.0
 11
203.051442841
 21
125.375000962
 31
0.0
  0
LINE
  8
0
  6
CONTINUOUS
 62
     1
 10
203.051442841
 20
125.375000962
 30
0.0
 11
203.051442841
 21
123.125000962
 31
0.0
  0
LINE
  8
0
  6
CONTINUOUS
 62
     1
 10
203.051442841
 20
123.125000962
 30
0.0
 11
205.0
 21
122.000000962
 31
0.0
  0
LINE
  8
0
  6
CONTINUOUS
 62
     1
 10
205.0
 20
122.000000962
 30
0.0
 11
206.948557159
 21
123.125000962
 31
0.0
  0
LINE
  8
0
  6
CONTINUOUS
 62
     1
 10
206.948557159
 20
123.125000962
 30
0.0
 11
206.948557159
 21
125.375000962
 31
0.0
  0
LINE
  8
0
  6
CONTINUOUS
 62
     1
 10
206.948557159
 20
125.375000962
 30
0.0
 11
205.0
 21
126.500000962
 31
0.0
  0
LINE
  8
0
  6
CONTINUOUS
 62
     1
 10
205.433014368
 20
126.25
 30
0.0
 11
211.25
 21
126.25
 31
0.0
  0
LINE
  8
0
  6
CONTINUOUS
 62
     1
 10
198.75
 20
126.25
 30
0.0
 11
204.566985632
 21
126.25
 31
0.0
  0
CIRCLE
  8
0
  6
CONTINUOUS
 62
     1
 10
205.0
 20
45.75
 30
0.0
 40
1.275
  0
LINE
  8
0
  6
CONTINUOUS
 62
     1
 10
205.0
 20
43.499999038
 30
0.0
 11
203.051442841
 21
44.624999038
 31
0.0
  0
LINE
  8
0
  6
CONTINUOUS
 62
     1
 10
203.051442841
 20
44.624999038
 30
0.0
 11
203.051442841
 21
46.874999038
 31
0.0
  0
LINE
  8
0
  6
CONTINUOUS
 62
     1
 10
203.051442841
 20
46.874999038
 30
0.0
 11
205.0
 21
47.999999038
 31
0.0
  0
LINE
  8
0
  6
CONTINUOUS
 62
     1
 10
205.0
 20
47.999999038
 30
0.0
 11
206.948557159
 21
46.874999038
 31
0.0
  0
LINE
  8
0
  6
CONTINUOUS
 62
     1
 10
206.948557159
 20
46.874999038
 30
0.0
 11
206.948557159
 21
44.624999038
 31
0.0
  0
LINE
  8
0
  6
CONTINUOUS
 62
     1
 10
206.948557159
 20
44.624999038
 30
0.0
 11
205.0
 21
43.499999038
 31
0.0
  0
LINE
  8
0
  6
CONTINUOUS
 62
     1
 10
205.433014368
 20
43.75
 30
0.0
 11
211.25
 21
43.75
 31
0.0
  0
LINE
  8
0
  6
CONTINUOUS
 62
     1
 10
198.75
 20
43.75
 30
0.0
 11
204.566985632
 21
43.75
 31
0.0
  0
LINE
  8
0
  6
CONTINUOUS
 62
     1
 10
204.75
 20
120.75
 30
0.0
 11
195.0
 21
120.75
 31
0.0
  0
LINE
  8
0
  6
CONTINUOUS
 62
     1
 10
204.75
 20
110.5
 30
0.0
 11
197.0
 21
110.5
 31
0.0
  0
LINE
  8
0
  6
CONTINUOUS
 62
     1
 10
197.0
 20
110.5
 30
0.0
 11
197.0
 21
94.75
 31
0.0
  0
LINE
  8
0
  6
CONTINUOUS
 62
     1
 10
195.0
 20
49.25
 30
0.0
 11
204.75
 21
49.25
 31
0.0
  0
LINE
  8
0
  6
CONTINUOUS
 62
     1
 10
205.25
 20
120.75
 30
0.0
 11
215.0
 21
120.75
 31
0.0
  0
LINE
  8
0
  6
CONTINUOUS
 62
     1
 10
205.25
 20
110.5
 30
0.0
 11
213.0
 21
110.5
 31
0.0
  0
LINE
  8
0
  6
CONTINUOUS
 62
     1
 10
213.0
 20
110.5
 30
0.0
 11
213.0
 21
94.75
 31
0.0
  0
LINE
  8
0
  6
CONTINUOUS
 62
     1
 10
215.0
 20
49.25
 30
0.0
 11
205.25
 21
49.25
 31
0.0
  0
LINE
  8
0
  6
CONTINUOUS
 62
     1
 10
197.0
 20
94.75
 30
0.0
 11
203.0
 21
94.75
 31
0.0
  0
LINE
  8
0
  6
CONTINUOUS
 62
     1
 10
203.0
 20
93.75
 30
0.0
 11
201.25
 21
93.75
 31
0.0
  0
LINE
  8
0
  6
CONTINUOUS
 62
     1
 10
207.0
 20
93.75
 30
0.0
 11
208.75
 21
93.75
 31
0.0
  0
LINE
  8
0
  6
CONTINUOUS
 62
     1
 10
213.0
 20
94.75
 30
0.0
 11
207.0
 21
94.75
 31
0.0
  0
LINE
  8
0
  6
CONTINUOUS
 62
     1
 10
205.25
 20
120.4
 30
0.0
 11
205.25
 21
120.75
 31
0.0
  0
LINE
  8
0
  6
CONTINUOUS
 62
     1
 10
205.25
 20
110.5
 30
0.0
 11
205.25
 21
110.9
 31
0.0
  0
LINE
  8
0
  6
CONTINUOUS
 62
     1
 10
204.75
 20
120.4
 30
0.0
 11
204.75
 21
120.75
 31
0.0
  0
LINE
  8
0
  6
CONTINUOUS
 62
     1
 10
204.75
 20
110.5
 30
0.0
 11
204.75
 21
110.9
 31
0.0
  0
LINE
  8
0
  6
CONTINUOUS
 62
     1
 10
205.25
 20
49.25
 30
0.0
 11
205.25
 21
49.75
 31
0.0
  0
LINE
  8
0
  6
CONTINUOUS
 62
     1
 10
204.75
 20
49.25
 30
0.0
 11
204.75
 21
49.75
 31
0.0
  0
LINE
  8
0
  6
CONTINUOUS
 62
     1
 10
208.75
 20
93.75
 30
0.0
 11
208.75
 21
92.3
 31
0.0
  0
LINE
  8
0
  6
CONTINUOUS
 62
     2
 10
197.25
 20
120.4
 30
0.0
 11
197.25
 21
110.9
 31
0.0
  0
LINE
  8
0
  6
CONTINUOUS
 62
     2
 10
212.75
 20
120.4
 30
0.0
 11
197.25
 21
120.4
 31
0.0
  0
LINE
  8
0
  6
CONTINUOUS
 62
     2
 10
212.75
 20
120.4
 30
0.0
 11
212.75
 21
110.9
 31
0.0
  0
LINE
  8
0
  6
CONTINUOUS
 62
     2
 10
197.25
 20
110.9
 30
0.0
 11
212.75
 21
110.9
 31
0.0
  0
ARC
  8
0
  6
CONTINUOUS
 62
     2
 10
203.333333
 20
92.65
 30
0.0
 40
0.333333
 50
180.0
 51
0.0
  0
ARC
  8
0
  6
CONTINUOUS
 62
     2
 10
203.999999
 20
92.65
 30
0.0
 40
0.333333
 50
180.0
 51
0.0
  0
ARC
  8
0
  6
CONTINUOUS
 62
     2
 10
204.666665
 20
92.65
 30
0.0
 40
0.333333
 50
180.0
 51
0.0
  0
ARC
  8
0
  6
CONTINUOUS
 62
     2
 10
205.333331
 20
92.65
 30
0.0
 40
0.333333
 50
180.0
 51
0.0
  0
ARC
  8
0
  6
CONTINUOUS
 62
     2
 10
205.999997
 20
92.65
 30
0.0
 40
0.333333
 50
180.0
 51
0.0
  0
ARC
  8
0
  6
CONTINUOUS
 62
     2
 10
206.666663
 20
92.65
 30
0.0
 40
0.333333
 50
180.0
 51
0.0
  0
TEXT
  8
0
  6
CONTINUOUS
 62
     2
 10
199.0
 20
116.4
 30
0.3
 40
3.0
  1
貼　銘　板
 50
0.0
 41
0.9
 51
0.0
  7
KANJI2
  0
TEXT
  8
0
  6
CONTINUOUS
 62
     2
 10
197.4
 20
112.4
 30
0.3
 40
3.0
  1
（表示事項）
 50
0.0
 41
0.9
 51
0.0
  7
KANJI2
  0
ARC
  8
0
  6
CONTINUOUS
 62
     2
 10
203.333333
 20
109.9
 30
0.0
 40
0.333333
 50
0.0
 51
180.0
  0
ARC
  8
0
  6
CONTINUOUS
 62
     2
 10
203.999999
 20
109.9
 30
0.0
 40
0.333333
 50
0.0
 51
180.0
  0
ARC
  8
0
  6
CONTINUOUS
 62
     2
 10
204.666665
 20
109.9
 30
0.0
 40
0.333333
 50
0.0
 51
180.0
  0
ARC
  8
0
  6
CONTINUOUS
 62
     2
 10
205.333331
 20
109.9
 30
0.0
 40
0.333333
 50
0.0
 51
180.0
  0
ARC
  8
0
  6
CONTINUOUS
 62
     2
 10
205.999997
 20
109.9
 30
0.0
 40
0.333333
 50
0.0
 51
180.0
  0
ARC
  8
0
  6
CONTINUOUS
 62
     2
 10
206.666663
 20
109.9
 30
0.0
 40
0.333333
 50
0.0
 51
180.0
  0
LINE
  8
0
  6
CONTINUOUS
 62
     2
 10
203.0
 20
92.65
 30
0.0
 11
203.0
 21
109.9
 31
0.0
  0
LINE
  8
0
  6
CONTINUOUS
 62
     2
 10
207.0
 20
109.9
 30
0.0
 11
207.0
 21
92.65
 31
0.0
  0
LINE
  8
0
  6
CONTINUOUS
 62
     2
 10
221.0
 20
65.25
 30
0.0
 11
221.647047613
 21
67.664814566
 31
0.0
  0
LINE
  8
0
  6
CONTINUOUS
 62
     2
 10
221.0
 20
65.25
 30
0.0
 11
220.352952387
 21
67.664814566
 31
0.0
  0
LINE
  8
0
  6
CONTINUOUS
 62
     2
 10
221.0
 20
69.0
 30
0.0
 11
221.0
 21
65.25
 31
0.0
  0
LINE
  8
0
  6
CONTINUOUS
 62
     2
 10
221.0
 20
65.25
 30
0.0
 11
221.0
 21
60.25
 31
0.0
  0
LINE
  8
0
  6
CONTINUOUS
 62
     2
 10
221.0
 20
60.25
 30
0.0
 11
221.0
 21
56.5
 31
0.0
  0
LINE
  8
0
  6
CONTINUOUS
 62
     2
 10
221.0
 20
60.25
 30
0.0
 11
220.352952387
 21
57.835185434
 31
0.0
  0
LINE
  8
0
  6
CONTINUOUS
 62
     2
 10
221.0
 20
60.25
 30
0.0
 11
221.647047613
 21
57.835185434
 31
0.0
  0
TEXT
  8
0
  6
CONTINUOUS
 62
     2
 10
220.0
 20
61.15
 30
0.3
 40
3.0
  1
１０
 50
90.0
 41
0.6
 51
0.0
  7
KANJI4
  0
LINE
  8
0
  6
CONTINUOUS
 62
     2
 10
198.15
 20
49.75
 30
0.0
 11
196.655449671
 21
47.745924324
 31
0.0
  0
LINE
  8
0
  6
CONTINUOUS
 62
     2
 10
198.15
 20
49.75
 30
0.0
 11
197.857719286
 21
47.267144389
 31
0.0
  0
LINE
  8
0
  6
CONTINUOUS
 62
     2
 10
217.55
 20
38.45
 30
0.0
 11
193.65
 21
38.45
 31
0.0
  0
LINE
  8
0
  6
CONTINUOUS
 62
     2
 10
198.15
 20
49.75
 30
0.0
 11
193.65
 21
38.45
 31
0.0
  0
ARC
  8
0
  6
CONTINUOUS
 62
     2
 10
205.0
 20
124.25
 30
0.0
 40
1.02
 50
23.088831181
 51
156.911168819
  0
ARC
  8
0
  6
CONTINUOUS
 62
     2
 10
205.0
 20
124.25
 30
0.0
 40
1.02
 50
203.088731761
 51
336.911268239
  0
LINE
  8
0
  6
CONTINUOUS
 62
     2
 10
203.789370317
 20
124.650000962
 30
0.0
 11
206.210629683
 21
124.650000962
 31
0.0
  0
LINE
  8
0
  6
CONTINUOUS
 62
     2
 10
203.789369681
 20
123.850000962
 30
0.0
 11
206.210630319
 21
123.850000962
 31
0.0
  0
ARC
  8
0
  6
CONTINUOUS
 62
     2
 10
205.0
 20
45.75
 30
0.0
 40
1.02
 50
203.088831181
 51
336.911168819
  0
ARC
  8
0
  6
CONTINUOUS
 62
     2
 10
205.0
 20
45.75
 30
0.0
 40
1.02
 50
23.088731761
 51
156.911268239
  0
LINE
  8
0
  6
CONTINUOUS
 62
     2
 10
203.789370317
 20
45.349999038
 30
0.0
 11
206.210629683
 21
45.349999038
 31
0.0
  0
LINE
  8
0
  6
CONTINUOUS
 62
     2
 10
203.789369681
 20
46.149999038
 30
0.0
 11
206.210630319
 21
46.149999038
 31
0.0
  0
LINE
  8
0
  6
LTYPE3
 62
     2
 10
205.0
 20
88.0
 30
0.0
 11
205.0
 21
92.5
 31
0.0
  0
LINE
  8
0
  6
LTYPE2
 62
     5
 10
196.5
 20
49.75
 30
0.0
 11
213.5
 21
49.75
 31
0.0
  0
LINE
  8
0
  6
LTYPE2
 62
     5
 10
213.5
 20
49.75
 30
0.0
 11
213.5
 21
52.25
 31
0.0
  0
LINE
  8
0
  6
LTYPE2
 62
     5
 10
213.5
 20
52.25
 30
0.0
 11
196.5
 21
52.25
 31
0.0
  0
LINE
  8
0
  6
LTYPE2
 62
     5
 10
196.5
 20
52.25
 30
0.0
 11
196.5
 21
49.75
 31
0.0
  0
LINE
  8
0
  6
CONTINUOUS
 62
     1
 10
195.0
 20
122.5
 30
0.0
 11
194.5
 21
122.5
 31
0.0
  0
LINE
  8
0
  6
CONTINUOUS
 62
     1
 10
193.5
 20
121.5
 30
0.0
 11
193.5
 21
48.5
 31
0.0
  0
ARC
  8
0
  6
CONTINUOUS
 62
     1
 10
194.5
 20
121.5
 30
0.0
 40
1.0
 50
90.0
 51
180.0
  0
LINE
  8
0
  6
CONTINUOUS
 62
     1
 10
195.0
 20
47.5
 30
0.0
 11
194.5
 21
47.5
 31
0.0
  0
ARC
  8
0
  6
CONTINUOUS
 62
     1
 10
194.5
 20
48.5
 30
0.0
 40
1.0
 50
180.0
 51
270.0
  0
LINE
  8
0
  6
CONTINUOUS
 62
     1
 10
216.5
 20
121.5
 30
0.0
 11
216.5
 21
48.5
 31
0.0
  0
LINE
  8
0
  6
CONTINUOUS
 62
     1
 10
215.0
 20
47.5
 30
0.0
 11
215.5
 21
47.5
 31
0.0
  0
ARC
  8
0
  6
CONTINUOUS
 62
     1
 10
215.5
 20
48.5
 30
0.0
 40
1.0
 50
270.0
 51
0.0
  0
LINE
  8
0
  6
CONTINUOUS
 62
     1
 10
215.0
 20
122.5
 30
0.0
 11
215.5
 21
122.5
 31
0.0
  0
ARC
  8
0
  6
CONTINUOUS
 62
     1
 10
215.5
 20
121.5
 30
0.0
 40
1.0
 50
0.0
 51
90.0
  0
LINE
  8
0
  6
CONTINUOUS
 62
     1
 10
204.25
 20
53.2
 30
0.0
 11
204.25
 21
57.3
 31
0.0
  0
LINE
  8
0
  6
CONTINUOUS
 62
     1
 10
210.25
 20
57.3
 30
0.0
 11
210.25
 21
53.2
 31
0.0
  0
LINE
  8
0
  6
CONTINUOUS
 62
     1
 10
203.0
 20
53.2
 30
0.0
 11
211.5
 21
53.2
 31
0.0
  0
LINE
  8
0
  6
CONTINUOUS
 62
     1
 10
211.5
 20
58.2
 30
0.0
 11
211.5
 21
57.3
 31
0.0
  0
LINE
  8
0
  6
CONTINUOUS
 62
     1
 10
203.0
 20
58.2
 30
0.0
 11
203.0
 21
57.3
 31
0.0
  0
LINE
  8
0
  6
CONTINUOUS
 62
     1
 10
203.0
 20
57.3
 30
0.0
 11
203.0
 21
53.2
 31
0.0
  0
LINE
  8
0
  6
CONTINUOUS
 62
     1
 10
211.5
 20
53.2
 30
0.0
 11
211.5
 21
57.3
 31
0.0
  0
LINE
  8
0
  6
CONTINUOUS
 62
     1
 10
204.25
 20
58.2
 30
0.0
 11
204.25
 21
62.3
 31
0.0
  0
LINE
  8
0
  6
CONTINUOUS
 62
     1
 10
210.25
 20
62.3
 30
0.0
 11
210.25
 21
58.2
 31
0.0
  0
LINE
  8
0
  6
CONTINUOUS
 62
     1
 10
211.5
 20
62.3
 30
0.0
 11
203.0
 21
62.3
 31
0.0
  0
LINE
  8
0
  6
CONTINUOUS
 62
     1
 10
203.0
 20
63.2
 30
0.0
 11
211.5
 21
63.2
 31
0.0
  0
LINE
  8
0
  6
CONTINUOUS
 62
     1
 10
211.5
 20
63.2
 30
0.0
 11
211.5
 21
62.3
 31
0.0
  0
LINE
  8
0
  6
CONTINUOUS
 62
     1
 10
203.0
 20
63.2
 30
0.0
 11
203.0
 21
62.3
 31
0.0
  0
LINE
  8
0
  6
CONTINUOUS
 62
     1
 10
203.0
 20
62.3
 30
0.0
 11
203.0
 21
58.2
 31
0.0
  0
LINE
  8
0
  6
CONTINUOUS
 62
     1
 10
211.5
 20
58.2
 30
0.0
 11
211.5
 21
62.3
 31
0.0
  0
LINE
  8
0
  6
CONTINUOUS
 62
     1
 10
204.25
 20
57.3
 30
0.0
 11
204.25
 21
53.2
 31
0.0
  0
LINE
  8
0
  6
CONTINUOUS
 62
     1
 10
204.25
 20
63.2
 30
0.0
 11
204.25
 21
67.3
 31
0.0
  0
LINE
  8
0
  6
CONTINUOUS
 62
     1
 10
210.25
 20
67.3
 30
0.0
 11
210.25
 21
63.2
 31
0.0
  0
LINE
  8
0
  6
CONTINUOUS
 62
     1
 10
211.5
 20
67.3
 30
0.0
 11
203.0
 21
67.3
 31
0.0
  0
LINE
  8
0
  6
CONTINUOUS
 62
     1
 10
203.0
 20
68.2
 30
0.0
 11
211.5
 21
68.2
 31
0.0
  0
LINE
  8
0
  6
CONTINUOUS
 62
     1
 10
211.5
 20
68.2
 30
0.0
 11
211.5
 21
67.3
 31
0.0
  0
LINE
  8
0
  6
CONTINUOUS
 62
     1
 10
203.0
 20
68.2
 30
0.0
 11
203.0
 21
67.3
 31
0.0
  0
LINE
  8
0
  6
CONTINUOUS
 62
     1
 10
203.0
 20
67.3
 30
0.0
 11
203.0
 21
63.2
 31
0.0
  0
LINE
  8
0
  6
CONTINUOUS
 62
     1
 10
211.5
 20
63.2
 30
0.0
 11
211.5
 21
67.3
 31
0.0
  0
LINE
  8
0
  6
CONTINUOUS
 62
     1
 10
204.25
 20
68.2
 30
0.0
 11
204.25
 21
72.3
 31
0.0
  0
LINE
  8
0
  6
CONTINUOUS
 62
     1
 10
210.25
 20
72.3
 30
0.0
 11
210.25
 21
68.2
 31
0.0
  0
LINE
  8
0
  6
CONTINUOUS
 62
     1
 10
211.5
 20
72.3
 30
0.0
 11
203.0
 21
72.3
 31
0.0
  0
LINE
  8
0
  6
CONTINUOUS
 62
     1
 10
203.0
 20
73.2
 30
0.0
 11
211.5
 21
73.2
 31
0.0
  0
LINE
  8
0
  6
CONTINUOUS
 62
     1
 10
211.5
 20
73.2
 30
0.0
 11
211.5
 21
72.3
 31
0.0
  0
LINE
  8
0
  6
CONTINUOUS
 62
     1
 10
203.0
 20
73.2
 30
0.0
 11
203.0
 21
72.3
 31
0.0
  0
LINE
  8
0
  6
CONTINUOUS
 62
     1
 10
203.0
 20
72.3
 30
0.0
 11
203.0
 21
68.2
 31
0.0
  0
LINE
  8
0
  6
CONTINUOUS
 62
     1
 10
211.5
 20
68.2
 30
0.0
 11
211.5
 21
72.3
 31
0.0
  0
LINE
  8
0
  6
CONTINUOUS
 62
     1
 10
204.25
 20
73.2
 30
0.0
 11
204.25
 21
77.3
 31
0.0
  0
LINE
  8
0
  6
CONTINUOUS
 62
     1
 10
210.25
 20
77.3
 30
0.0
 11
210.25
 21
73.2
 31
0.0
  0
LINE
  8
0
  6
CONTINUOUS
 62
     1
 10
211.5
 20
77.3
 30
0.0
 11
203.0
 21
77.3
 31
0.0
  0
LINE
  8
0
  6
CONTINUOUS
 62
     1
 10
203.0
 20
78.2
 30
0.0
 11
211.5
 21
78.2
 31
0.0
  0
LINE
  8
0
  6
CONTINUOUS
 62
     1
 10
211.5
 20
78.2
 30
0.0
 11
211.5
 21
77.3
 31
0.0
  0
LINE
  8
0
  6
CONTINUOUS
 62
     1
 10
203.0
 20
78.2
 30
0.0
 11
203.0
 21
77.3
 31
0.0
  0
LINE
  8
0
  6
CONTINUOUS
 62
     1
 10
203.0
 20
77.3
 30
0.0
 11
203.0
 21
73.2
 31
0.0
  0
LINE
  8
0
  6
CONTINUOUS
 62
     1
 10
211.5
 20
73.2
 30
0.0
 11
211.5
 21
77.3
 31
0.0
  0
LINE
  8
0
  6
CONTINUOUS
 62
     1
 10
204.25
 20
78.2
 30
0.0
 11
204.25
 21
82.3
 31
0.0
  0
LINE
  8
0
  6
CONTINUOUS
 62
     1
 10
210.25
 20
82.3
 30
0.0
 11
210.25
 21
78.2
 31
0.0
  0
LINE
  8
0
  6
CONTINUOUS
 62
     1
 10
211.5
 20
82.3
 30
0.0
 11
203.0
 21
82.3
 31
0.0
  0
LINE
  8
0
  6
CONTINUOUS
 62
     1
 10
203.0
 20
83.2
 30
0.0
 11
211.5
 21
83.2
 31
0.0
  0
LINE
  8
0
  6
CONTINUOUS
 62
     1
 10
211.5
 20
83.2
 30
0.0
 11
211.5
 21
82.3
 31
0.0
  0
LINE
  8
0
  6
CONTINUOUS
 62
     1
 10
203.0
 20
83.2
 30
0.0
 11
203.0
 21
82.3
 31
0.0
  0
LINE
  8
0
  6
CONTINUOUS
 62
     1
 10
203.0
 20
82.3
 30
0.0
 11
203.0
 21
78.2
 31
0.0
  0
LINE
  8
0
  6
CONTINUOUS
 62
     1
 10
211.5
 20
78.2
 30
0.0
 11
211.5
 21
82.3
 31
0.0
  0
LINE
  8
0
  6
CONTINUOUS
 62
     1
 10
204.25
 20
83.2
 30
0.0
 11
204.25
 21
87.3
 31
0.0
  0
LINE
  8
0
  6
CONTINUOUS
 62
     1
 10
210.25
 20
87.3
 30
0.0
 11
210.25
 21
83.2
 31
0.0
  0
LINE
  8
0
  6
CONTINUOUS
 62
     1
 10
211.5
 20
87.3
 30
0.0
 11
203.0
 21
87.3
 31
0.0
  0
LINE
  8
0
  6
CONTINUOUS
 62
     1
 10
203.0
 20
88.2
 30
0.0
 11
211.5
 21
88.2
 31
0.0
  0
LINE
  8
0
  6
CONTINUOUS
 62
     1
 10
211.5
 20
88.2
 30
0.0
 11
211.5
 21
87.3
 31
0.0
  0
LINE
  8
0
  6
CONTINUOUS
 62
     1
 10
203.0
 20
88.2
 30
0.0
 11
203.0
 21
87.3
 31
0.0
  0
LINE
  8
0
  6
CONTINUOUS
 62
     1
 10
203.0
 20
87.3
 30
0.0
 11
203.0
 21
83.2
 31
0.0
  0
LINE
  8
0
  6
CONTINUOUS
 62
     1
 10
211.5
 20
83.2
 30
0.0
 11
211.5
 21
87.3
 31
0.0
  0
LINE
  8
0
  6
CONTINUOUS
 62
     1
 10
203.0
 20
58.2
 30
0.0
 11
211.5
 21
58.2
 31
0.0
  0
LINE
  8
0
  6
CONTINUOUS
 62
     1
 10
204.25
 20
92.3
 30
0.0
 11
204.25
 21
88.2
 31
0.0
  0
LINE
  8
0
  6
CONTINUOUS
 62
     1
 10
210.25
 20
88.2
 30
0.0
 11
210.25
 21
92.3
 31
0.0
  0
LINE
  8
0
  6
CONTINUOUS
 62
     1
 10
203.0
 20
92.3
 30
0.0
 11
211.5
 21
92.3
 31
0.0
  0
LINE
  8
0
  6
CONTINUOUS
 62
     1
 10
203.0
 20
88.2
 30
0.0
 11
203.0
 21
92.3
 31
0.0
  0
LINE
  8
0
  6
CONTINUOUS
 62
     1
 10
211.5
 20
92.3
 30
0.0
 11
211.5
 21
88.2
 31
0.0
  0
LINE
  8
0
  6
CONTINUOUS
 62
     1
 10
204.25
 20
88.2
 30
0.0
 11
204.25
 21
92.3
 31
0.0
  0
LINE
  8
0
  6
CONTINUOUS
 62
     1
 10
211.5
 20
57.3
 30
0.0
 11
203.0
 21
57.3
 31
0.0
  0
LINE
  8
0
  6
CONTINUOUS
 62
     2
 10
205.5
 20
53.45
 30
0.0
 11
205.5
 21
54.0
 31
0.0
  0
LINE
  8
0
  6
CONTINUOUS
 62
     2
 10
205.5
 20
53.45
 30
0.0
 11
205.75
 21
53.2
 31
0.0
  0
LINE
  8
0
  6
CONTINUOUS
 62
     2
 10
205.5
 20
56.5
 30
0.0
 11
205.5
 21
57.05
 31
0.0
  0
LINE
  8
0
  6
CONTINUOUS
 62
     2
 10
205.5
 20
57.05
 30
0.0
 11
205.75
 21
57.3
 31
0.0
  0
LINE
  8
0
  6
CONTINUOUS
 62
     2
 10
209.0
 20
56.5
 30
0.0
 11
209.0
 21
57.05
 31
0.0
  0
LINE
  8
0
  6
CONTINUOUS
 62
     2
 10
208.75
 20
57.3
 30
0.0
 11
209.0
 21
57.05
 31
0.0
  0
LINE
  8
0
  6
CONTINUOUS
 62
     2
 10
209.0
 20
53.45
 30
0.0
 11
209.0
 21
54.0
 31
0.0
  0
LINE
  8
0
  6
CONTINUOUS
 62
     2
 10
205.75
 20
53.2
 30
0.0
 11
208.75
 21
53.2
 31
0.0
  0
LINE
  8
0
  6
CONTINUOUS
 62
     2
 10
209.0
 20
53.45
 30
0.0
 11
208.75
 21
53.2
 31
0.0
  0
LINE
  8
0
  6
CONTINUOUS
 62
     2
 10
205.1
 20
54.0
 30
0.0
 11
205.5
 21
54.0
 31
0.0
  0
LINE
  8
0
  6
CONTINUOUS
 62
     2
 10
205.1
 20
54.0
 30
0.0
 11
205.1
 21
56.5
 31
0.0
  0
LINE
  8
0
  6
CONTINUOUS
 62
     2
 10
205.1
 20
56.5
 30
0.0
 11
205.5
 21
56.5
 31
0.0
  0
LINE
  8
0
  6
CONTINUOUS
 62
     2
 10
209.4
 20
54.0
 30
0.0
 11
209.0
 21
54.0
 31
0.0
  0
LINE
  8
0
  6
CONTINUOUS
 62
     2
 10
209.4
 20
54.0
 30
0.0
 11
209.4
 21
56.5
 31
0.0
  0
LINE
  8
0
  6
CONTINUOUS
 62
     2
 10
209.4
 20
56.5
 30
0.0
 11
209.0
 21
56.5
 31
0.0
  0
LINE
  8
0
  6
CONTINUOUS
 62
     2
 10
209.4
 20
56.6
 30
0.0
 11
209.0
 21
56.6
 31
0.0
  0
ARC
  8
0
  6
CONTINUOUS
 62
     2
 10
209.4
 20
56.5
 30
0.0
 40
0.1
 50
0.0
 51
90.0
  0
LINE
  8
0
  6
CONTINUOUS
 62
     2
 10
209.0
 20
53.9
 30
0.0
 11
209.4
 21
53.9
 31
0.0
  0
LINE
  8
0
  6
CONTINUOUS
 62
     2
 10
209.5
 20
54.0
 30
0.0
 11
209.5
 21
56.5
 31
0.0
  0
ARC
  8
0
  6
CONTINUOUS
 62
     2
 10
209.4
 20
54.0
 30
0.0
 40
0.1
 50
270.0
 51
0.0
  0
LINE
  8
0
  6
CONTINUOUS
 62
     2
 10
205.1
 20
56.6
 30
0.0
 11
205.5
 21
56.6
 31
0.0
  0
ARC
  8
0
  6
CONTINUOUS
 62
     2
 10
205.1
 20
56.5
 30
0.0
 40
0.1
 50
90.0
 51
180.0
  0
LINE
  8
0
  6
CONTINUOUS
 62
     2
 10
205.5
 20
53.9
 30
0.0
 11
205.1
 21
53.9
 31
0.0
  0
ARC
  8
0
  6
CONTINUOUS
 62
     2
 10
205.1
 20
54.0
 30
0.0
 40
0.1
 50
180.0
 51
270.0
  0
LINE
  8
0
  6
CONTINUOUS
 62
     2
 10
205.0
 20
54.0
 30
0.0
 11
205.0
 21
56.5
 31
0.0
  0
LINE
  8
0
  6
CONTINUOUS
 62
     2
 10
205.5
 20
58.45
 30
0.0
 11
205.5
 21
59.0
 31
0.0
  0
LINE
  8
0
  6
CONTINUOUS
 62
     2
 10
205.5
 20
58.45
 30
0.0
 11
205.75
 21
58.2
 31
0.0
  0
LINE
  8
0
  6
CONTINUOUS
 62
     2
 10
205.5
 20
61.5
 30
0.0
 11
205.5
 21
62.05
 31
0.0
  0
LINE
  8
0
  6
CONTINUOUS
 62
     2
 10
205.5
 20
62.05
 30
0.0
 11
205.75
 21
62.3
 31
0.0
  0
LINE
  8
0
  6
CONTINUOUS
 62
     2
 10
208.75
 20
62.3
 30
0.0
 11
205.75
 21
62.3
 31
0.0
  0
LINE
  8
0
  6
CONTINUOUS
 62
     2
 10
209.0
 20
61.5
 30
0.0
 11
209.0
 21
62.05
 31
0.0
  0
LINE
  8
0
  6
CONTINUOUS
 62
     2
 10
208.75
 20
62.3
 30
0.0
 11
209.0
 21
62.05
 31
0.0
  0
LINE
  8
0
  6
CONTINUOUS
 62
     2
 10
209.0
 20
58.45
 30
0.0
 11
209.0
 21
59.0
 31
0.0
  0
LINE
  8
0
  6
CONTINUOUS
 62
     2
 10
205.75
 20
58.2
 30
0.0
 11
208.75
 21
58.2
 31
0.0
  0
LINE
  8
0
  6
CONTINUOUS
 62
     2
 10
209.0
 20
58.45
 30
0.0
 11
208.75
 21
58.2
 31
0.0
  0
LINE
  8
0
  6
CONTINUOUS
 62
     2
 10
205.1
 20
59.0
 30
0.0
 11
205.5
 21
59.0
 31
0.0
  0
LINE
  8
0
  6
CONTINUOUS
 62
     2
 10
205.1
 20
59.0
 30
0.0
 11
205.1
 21
61.5
 31
0.0
  0
LINE
  8
0
  6
CONTINUOUS
 62
     2
 10
205.1
 20
61.5
 30
0.0
 11
205.5
 21
61.5
 31
0.0
  0
LINE
  8
0
  6
CONTINUOUS
 62
     2
 10
209.4
 20
59.0
 30
0.0
 11
209.0
 21
59.0
 31
0.0
  0
LINE
  8
0
  6
CONTINUOUS
 62
     2
 10
209.4
 20
59.0
 30
0.0
 11
209.4
 21
61.5
 31
0.0
  0
LINE
  8
0
  6
CONTINUOUS
 62
     2
 10
209.4
 20
61.5
 30
0.0
 11
209.0
 21
61.5
 31
0.0
  0
LINE
  8
0
  6
CONTINUOUS
 62
     2
 10
209.4
 20
61.6
 30
0.0
 11
209.0
 21
61.6
 31
0.0
  0
ARC
  8
0
  6
CONTINUOUS
 62
     2
 10
209.4
 20
61.5
 30
0.0
 40
0.1
 50
0.0
 51
90.0
  0
LINE
  8
0
  6
CONTINUOUS
 62
     2
 10
209.0
 20
58.9
 30
0.0
 11
209.4
 21
58.9
 31
0.0
  0
LINE
  8
0
  6
CONTINUOUS
 62
     2
 10
209.5
 20
59.0
 30
0.0
 11
209.5
 21
61.5
 31
0.0
  0
ARC
  8
0
  6
CONTINUOUS
 62
     2
 10
209.4
 20
59.0
 30
0.0
 40
0.1
 50
270.0
 51
0.0
  0
LINE
  8
0
  6
CONTINUOUS
 62
     2
 10
205.1
 20
61.6
 30
0.0
 11
205.5
 21
61.6
 31
0.0
  0
ARC
  8
0
  6
CONTINUOUS
 62
     2
 10
205.1
 20
61.5
 30
0.0
 40
0.1
 50
90.0
 51
180.0
  0
LINE
  8
0
  6
CONTINUOUS
 62
     2
 10
205.5
 20
58.9
 30
0.0
 11
205.1
 21
58.9
 31
0.0
  0
ARC
  8
0
  6
CONTINUOUS
 62
     2
 10
205.1
 20
59.0
 30
0.0
 40
0.1
 50
180.0
 51
270.0
  0
LINE
  8
0
  6
CONTINUOUS
 62
     2
 10
205.0
 20
59.0
 30
0.0
 11
205.0
 21
61.5
 31
0.0
  0
LINE
  8
0
  6
CONTINUOUS
 62
     2
 10
205.5
 20
63.45
 30
0.0
 11
205.5
 21
64.0
 31
0.0
  0
LINE
  8
0
  6
CONTINUOUS
 62
     2
 10
205.5
 20
63.45
 30
0.0
 11
205.75
 21
63.2
 31
0.0
  0
LINE
  8
0
  6
CONTINUOUS
 62
     2
 10
205.5
 20
66.5
 30
0.0
 11
205.5
 21
67.05
 31
0.0
  0
LINE
  8
0
  6
CONTINUOUS
 62
     2
 10
205.5
 20
67.05
 30
0.0
 11
205.75
 21
67.3
 31
0.0
  0
LINE
  8
0
  6
CONTINUOUS
 62
     2
 10
208.75
 20
67.3
 30
0.0
 11
205.75
 21
67.3
 31
0.0
  0
LINE
  8
0
  6
CONTINUOUS
 62
     2
 10
209.0
 20
66.5
 30
0.0
 11
209.0
 21
67.05
 31
0.0
  0
LINE
  8
0
  6
CONTINUOUS
 62
     2
 10
208.75
 20
67.3
 30
0.0
 11
209.0
 21
67.05
 31
0.0
  0
LINE
  8
0
  6
CONTINUOUS
 62
     2
 10
209.0
 20
63.45
 30
0.0
 11
209.0
 21
64.0
 31
0.0
  0
LINE
  8
0
  6
CONTINUOUS
 62
     2
 10
205.75
 20
63.2
 30
0.0
 11
208.75
 21
63.2
 31
0.0
  0
LINE
  8
0
  6
CONTINUOUS
 62
     2
 10
209.0
 20
63.45
 30
0.0
 11
208.75
 21
63.2
 31
0.0
  0
LINE
  8
0
  6
CONTINUOUS
 62
     2
 10
205.1
 20
64.0
 30
0.0
 11
205.5
 21
64.0
 31
0.0
  0
LINE
  8
0
  6
CONTINUOUS
 62
     2
 10
205.1
 20
64.0
 30
0.0
 11
205.1
 21
66.5
 31
0.0
  0
LINE
  8
0
  6
CONTINUOUS
 62
     2
 10
205.1
 20
66.5
 30
0.0
 11
205.5
 21
66.5
 31
0.0
  0
LINE
  8
0
  6
CONTINUOUS
 62
     2
 10
209.4
 20
64.0
 30
0.0
 11
209.0
 21
64.0
 31
0.0
  0
LINE
  8
0
  6
CONTINUOUS
 62
     2
 10
209.4
 20
64.0
 30
0.0
 11
209.4
 21
66.5
 31
0.0
  0
LINE
  8
0
  6
CONTINUOUS
 62
     2
 10
209.4
 20
66.5
 30
0.0
 11
209.0
 21
66.5
 31
0.0
  0
LINE
  8
0
  6
CONTINUOUS
 62
     2
 10
209.4
 20
66.6
 30
0.0
 11
209.0
 21
66.6
 31
0.0
  0
ARC
  8
0
  6
CONTINUOUS
 62
     2
 10
209.4
 20
66.5
 30
0.0
 40
0.1
 50
0.0
 51
90.0
  0
LINE
  8
0
  6
CONTINUOUS
 62
     2
 10
209.0
 20
63.9
 30
0.0
 11
209.4
 21
63.9
 31
0.0
  0
LINE
  8
0
  6
CONTINUOUS
 62
     2
 10
209.5
 20
64.0
 30
0.0
 11
209.5
 21
66.5
 31
0.0
  0
ARC
  8
0
  6
CONTINUOUS
 62
     2
 10
209.4
 20
64.0
 30
0.0
 40
0.1
 50
270.0
 51
0.0
  0
LINE
  8
0
  6
CONTINUOUS
 62
     2
 10
205.1
 20
66.6
 30
0.0
 11
205.5
 21
66.6
 31
0.0
  0
ARC
  8
0
  6
CONTINUOUS
 62
     2
 10
205.1
 20
66.5
 30
0.0
 40
0.1
 50
90.0
 51
180.0
  0
LINE
  8
0
  6
CONTINUOUS
 62
     2
 10
205.5
 20
63.9
 30
0.0
 11
205.1
 21
63.9
 31
0.0
  0
ARC
  8
0
  6
CONTINUOUS
 62
     2
 10
205.1
 20
64.0
 30
0.0
 40
0.1
 50
180.0
 51
270.0
  0
LINE
  8
0
  6
CONTINUOUS
 62
     2
 10
205.0
 20
64.0
 30
0.0
 11
205.0
 21
66.5
 31
0.0
  0
LINE
  8
0
  6
CONTINUOUS
 62
     2
 10
205.5
 20
78.45
 30
0.0
 11
205.5
 21
79.0
 31
0.0
  0
LINE
  8
0
  6
CONTINUOUS
 62
     2
 10
205.5
 20
78.45
 30
0.0
 11
205.75
 21
78.2
 31
0.0
  0
LINE
  8
0
  6
CONTINUOUS
 62
     2
 10
205.5
 20
81.5
 30
0.0
 11
205.5
 21
82.05
 31
0.0
  0
LINE
  8
0
  6
CONTINUOUS
 62
     2
 10
205.5
 20
82.05
 30
0.0
 11
205.75
 21
82.3
 31
0.0
  0
LINE
  8
0
  6
CONTINUOUS
 62
     2
 10
208.75
 20
82.3
 30
0.0
 11
205.75
 21
82.3
 31
0.0
  0
LINE
  8
0
  6
CONTINUOUS
 62
     2
 10
209.0
 20
81.5
 30
0.0
 11
209.0
 21
82.05
 31
0.0
  0
LINE
  8
0
  6
CONTINUOUS
 62
     2
 10
208.75
 20
82.3
 30
0.0
 11
209.0
 21
82.05
 31
0.0
  0
LINE
  8
0
  6
CONTINUOUS
 62
     2
 10
209.0
 20
78.45
 30
0.0
 11
209.0
 21
79.0
 31
0.0
  0
LINE
  8
0
  6
CONTINUOUS
 62
     2
 10
205.75
 20
78.2
 30
0.0
 11
208.75
 21
78.2
 31
0.0
  0
LINE
  8
0
  6
CONTINUOUS
 62
     2
 10
209.0
 20
78.45
 30
0.0
 11
208.75
 21
78.2
 31
0.0
  0
LINE
  8
0
  6
CONTINUOUS
 62
     2
 10
205.1
 20
79.0
 30
0.0
 11
205.5
 21
79.0
 31
0.0
  0
LINE
  8
0
  6
CONTINUOUS
 62
     2
 10
205.1
 20
79.0
 30
0.0
 11
205.1
 21
81.5
 31
0.0
  0
LINE
  8
0
  6
CONTINUOUS
 62
     2
 10
205.1
 20
81.5
 30
0.0
 11
205.5
 21
81.5
 31
0.0
  0
LINE
  8
0
  6
CONTINUOUS
 62
     2
 10
209.4
 20
79.0
 30
0.0
 11
209.0
 21
79.0
 31
0.0
  0
LINE
  8
0
  6
CONTINUOUS
 62
     2
 10
209.4
 20
79.0
 30
0.0
 11
209.4
 21
81.5
 31
0.0
  0
LINE
  8
0
  6
CONTINUOUS
 62
     2
 10
209.4
 20
81.5
 30
0.0
 11
209.0
 21
81.5
 31
0.0
  0
LINE
  8
0
  6
CONTINUOUS
 62
     2
 10
209.4
 20
81.6
 30
0.0
 11
209.0
 21
81.6
 31
0.0
  0
ARC
  8
0
  6
CONTINUOUS
 62
     2
 10
209.4
 20
81.5
 30
0.0
 40
0.1
 50
0.0
 51
90.0
  0
LINE
  8
0
  6
CONTINUOUS
 62
     2
 10
209.0
 20
78.9
 30
0.0
 11
209.4
 21
78.9
 31
0.0
  0
LINE
  8
0
  6
CONTINUOUS
 62
     2
 10
209.5
 20
79.0
 30
0.0
 11
209.5
 21
81.5
 31
0.0
  0
ARC
  8
0
  6
CONTINUOUS
 62
     2
 10
209.4
 20
79.0
 30
0.0
 40
0.1
 50
270.0
 51
0.0
  0
LINE
  8
0
  6
CONTINUOUS
 62
     2
 10
205.1
 20
81.6
 30
0.0
 11
205.5
 21
81.6
 31
0.0
  0
ARC
  8
0
  6
CONTINUOUS
 62
     2
 10
205.1
 20
81.5
 30
0.0
 40
0.1
 50
90.0
 51
180.0
  0
LINE
  8
0
  6
CONTINUOUS
 62
     2
 10
205.5
 20
78.9
 30
0.0
 11
205.1
 21
78.9
 31
0.0
  0
ARC
  8
0
  6
CONTINUOUS
 62
     2
 10
205.1
 20
79.0
 30
0.0
 40
0.1
 50
180.0
 51
270.0
  0
LINE
  8
0
  6
CONTINUOUS
 62
     2
 10
205.0
 20
79.0
 30
0.0
 11
205.0
 21
81.5
 31
0.0
  0
LINE
  8
0
  6
CONTINUOUS
 62
     2
 10
205.5
 20
83.45
 30
0.0
 11
205.5
 21
84.0
 31
0.0
  0
LINE
  8
0
  6
CONTINUOUS
 62
     2
 10
205.5
 20
83.45
 30
0.0
 11
205.75
 21
83.2
 31
0.0
  0
LINE
  8
0
  6
CONTINUOUS
 62
     2
 10
205.5
 20
86.5
 30
0.0
 11
205.5
 21
87.05
 31
0.0
  0
LINE
  8
0
  6
CONTINUOUS
 62
     2
 10
205.5
 20
87.05
 30
0.0
 11
205.75
 21
87.3
 31
0.0
  0
LINE
  8
0
  6
CONTINUOUS
 62
     2
 10
208.75
 20
87.3
 30
0.0
 11
205.75
 21
87.3
 31
0.0
  0
LINE
  8
0
  6
CONTINUOUS
 62
     2
 10
209.0
 20
86.5
 30
0.0
 11
209.0
 21
87.05
 31
0.0
  0
LINE
  8
0
  6
CONTINUOUS
 62
     2
 10
208.75
 20
87.3
 30
0.0
 11
209.0
 21
87.05
 31
0.0
  0
LINE
  8
0
  6
CONTINUOUS
 62
     2
 10
209.0
 20
83.45
 30
0.0
 11
209.0
 21
84.0
 31
0.0
  0
LINE
  8
0
  6
CONTINUOUS
 62
     2
 10
205.75
 20
83.2
 30
0.0
 11
208.75
 21
83.2
 31
0.0
  0
LINE
  8
0
  6
CONTINUOUS
 62
     2
 10
209.0
 20
83.45
 30
0.0
 11
208.75
 21
83.2
 31
0.0
  0
LINE
  8
0
  6
CONTINUOUS
 62
     2
 10
205.1
 20
84.0
 30
0.0
 11
205.5
 21
84.0
 31
0.0
  0
LINE
  8
0
  6
CONTINUOUS
 62
     2
 10
205.1
 20
84.0
 30
0.0
 11
205.1
 21
86.5
 31
0.0
  0
LINE
  8
0
  6
CONTINUOUS
 62
     2
 10
205.1
 20
86.5
 30
0.0
 11
205.5
 21
86.5
 31
0.0
  0
LINE
  8
0
  6
CONTINUOUS
 62
     2
 10
209.4
 20
84.0
 30
0.0
 11
209.0
 21
84.0
 31
0.0
  0
LINE
  8
0
  6
CONTINUOUS
 62
     2
 10
209.4
 20
84.0
 30
0.0
 11
209.4
 21
86.5
 31
0.0
  0
LINE
  8
0
  6
CONTINUOUS
 62
     2
 10
209.4
 20
86.5
 30
0.0
 11
209.0
 21
86.5
 31
0.0
  0
LINE
  8
0
  6
CONTINUOUS
 62
     2
 10
209.4
 20
86.6
 30
0.0
 11
209.0
 21
86.6
 31
0.0
  0
ARC
  8
0
  6
CONTINUOUS
 62
     2
 10
209.4
 20
86.5
 30
0.0
 40
0.1
 50
0.0
 51
90.0
  0
LINE
  8
0
  6
CONTINUOUS
 62
     2
 10
209.0
 20
83.9
 30
0.0
 11
209.4
 21
83.9
 31
0.0
  0
LINE
  8
0
  6
CONTINUOUS
 62
     2
 10
209.5
 20
84.0
 30
0.0
 11
209.5
 21
86.5
 31
0.0
  0
ARC
  8
0
  6
CONTINUOUS
 62
     2
 10
209.4
 20
84.0
 30
0.0
 40
0.1
 50
270.0
 51
0.0
  0
LINE
  8
0
  6
CONTINUOUS
 62
     2
 10
205.1
 20
86.6
 30
0.0
 11
205.5
 21
86.6
 31
0.0
  0
ARC
  8
0
  6
CONTINUOUS
 62
     2
 10
205.1
 20
86.5
 30
0.0
 40
0.1
 50
90.0
 51
180.0
  0
LINE
  8
0
  6
CONTINUOUS
 62
     2
 10
205.5
 20
83.9
 30
0.0
 11
205.1
 21
83.9
 31
0.0
  0
ARC
  8
0
  6
CONTINUOUS
 62
     2
 10
205.1
 20
84.0
 30
0.0
 40
0.1
 50
180.0
 51
270.0
  0
LINE
  8
0
  6
CONTINUOUS
 62
     2
 10
205.0
 20
84.0
 30
0.0
 11
205.0
 21
86.5
 31
0.0
  0
LINE
  8
0
  6
CONTINUOUS
 62
     2
 10
205.5
 20
92.05
 30
0.0
 11
205.5
 21
91.5
 31
0.0
  0
LINE
  8
0
  6
CONTINUOUS
 62
     2
 10
205.5
 20
92.05
 30
0.0
 11
205.75
 21
92.3
 31
0.0
  0
LINE
  8
0
  6
CONTINUOUS
 62
     2
 10
205.5
 20
89.0
 30
0.0
 11
205.5
 21
88.45
 31
0.0
  0
LINE
  8
0
  6
CONTINUOUS
 62
     2
 10
205.5
 20
88.45
 30
0.0
 11
205.75
 21
88.2
 31
0.0
  0
LINE
  8
0
  6
CONTINUOUS
 62
     2
 10
208.75
 20
88.2
 30
0.0
 11
205.75
 21
88.2
 31
0.0
  0
LINE
  8
0
  6
CONTINUOUS
 62
     2
 10
209.0
 20
89.0
 30
0.0
 11
209.0
 21
88.45
 31
0.0
  0
LINE
  8
0
  6
CONTINUOUS
 62
     2
 10
208.75
 20
88.2
 30
0.0
 11
209.0
 21
88.45
 31
0.0
  0
LINE
  8
0
  6
CONTINUOUS
 62
     2
 10
209.0
 20
92.05
 30
0.0
 11
209.0
 21
91.5
 31
0.0
  0
LINE
  8
0
  6
CONTINUOUS
 62
     2
 10
205.75
 20
92.3
 30
0.0
 11
208.75
 21
92.3
 31
0.0
  0
LINE
  8
0
  6
CONTINUOUS
 62
     2
 10
209.0
 20
92.05
 30
0.0
 11
208.75
 21
92.3
 31
0.0
  0
LINE
  8
0
  6
CONTINUOUS
 62
     2
 10
205.1
 20
91.5
 30
0.0
 11
205.5
 21
91.5
 31
0.0
  0
LINE
  8
0
  6
CONTINUOUS
 62
     2
 10
205.1
 20
91.5
 30
0.0
 11
205.1
 21
89.0
 31
0.0
  0
LINE
  8
0
  6
CONTINUOUS
 62
     2
 10
205.1
 20
89.0
 30
0.0
 11
205.5
 21
89.0
 31
0.0
  0
LINE
  8
0
  6
CONTINUOUS
 62
     2
 10
209.4
 20
91.5
 30
0.0
 11
209.0
 21
91.5
 31
0.0
  0
LINE
  8
0
  6
CONTINUOUS
 62
     2
 10
209.4
 20
91.5
 30
0.0
 11
209.4
 21
89.0
 31
0.0
  0
LINE
  8
0
  6
CONTINUOUS
 62
     2
 10
209.4
 20
89.0
 30
0.0
 11
209.0
 21
89.0
 31
0.0
  0
LINE
  8
0
  6
CONTINUOUS
 62
     2
 10
209.4
 20
88.9
 30
0.0
 11
209.0
 21
88.9
 31
0.0
  0
ARC
  8
0
  6
CONTINUOUS
 62
     2
 10
209.4
 20
89.0
 30
0.0
 40
0.1
 50
270.0
 51
0.0
  0
LINE
  8
0
  6
CONTINUOUS
 62
     2
 10
209.0
 20
91.6
 30
0.0
 11
209.4
 21
91.6
 31
0.0
  0
LINE
  8
0
  6
CONTINUOUS
 62
     2
 10
209.5
 20
91.5
 30
0.0
 11
209.5
 21
89.0
 31
0.0
  0
ARC
  8
0
  6
CONTINUOUS
 62
     2
 10
209.4
 20
91.5
 30
0.0
 40
0.1
 50
0.0
 51
90.0
  0
LINE
  8
0
  6
CONTINUOUS
 62
     2
 10
205.1
 20
88.9
 30
0.0
 11
205.5
 21
88.9
 31
0.0
  0
ARC
  8
0
  6
CONTINUOUS
 62
     2
 10
205.1
 20
89.0
 30
0.0
 40
0.1
 50
180.0
 51
270.0
  0
LINE
  8
0
  6
CONTINUOUS
 62
     2
 10
205.5
 20
91.6
 30
0.0
 11
205.1
 21
91.6
 31
0.0
  0
ARC
  8
0
  6
CONTINUOUS
 62
     2
 10
205.1
 20
91.5
 30
0.0
 40
0.1
 50
90.0
 51
180.0
  0
LINE
  8
0
  6
CONTINUOUS
 62
     2
 10
205.0
 20
91.5
 30
0.0
 11
205.0
 21
89.0
 31
0.0
  0
LINE
  8
0
  6
CONTINUOUS
 62
     2
 10
208.75
 20
57.3
 30
0.0
 11
205.75
 21
57.3
 31
0.0
  0
LINE
  8
0
  6
LTYPE3
 62
     2
 10
207.25
 20
58.0
 30
0.0
 11
207.25
 21
62.5
 31
0.0
  0
LINE
  8
0
  6
LTYPE3
 62
     2
 10
205.0
 20
60.25
 30
0.0
 11
209.5
 21
60.25
 31
0.0
  0
LINE
  8
0
  6
LTYPE3
 62
     2
 10
207.25
 20
63.0
 30
0.0
 11
207.25
 21
67.5
 31
0.0
  0
LINE
  8
0
  6
LTYPE3
 62
     2
 10
205.0
 20
65.25
 30
0.0
 11
209.5
 21
65.25
 31
0.0
  0
LINE
  8
0
  6
LTYPE3
 62
     2
 10
207.25
 20
78.0
 30
0.0
 11
207.25
 21
82.5
 31
0.0
  0
LINE
  8
0
  6
LTYPE3
 62
     2
 10
205.0
 20
80.25
 30
0.0
 11
209.5
 21
80.25
 31
0.0
  0
LINE
  8
0
  6
LTYPE3
 62
     2
 10
207.25
 20
83.0
 30
0.0
 11
207.25
 21
87.5
 31
0.0
  0
LINE
  8
0
  6
LTYPE3
 62
     2
 10
205.0
 20
85.25
 30
0.0
 11
209.5
 21
85.25
 31
0.0
  0
LINE
  8
0
  6
LTYPE3
 62
     2
 10
207.25
 20
53.0
 30
0.0
 11
207.25
 21
57.5
 31
0.0
  0
LINE
  8
0
  6
LTYPE3
 62
     2
 10
205.0
 20
55.25
 30
0.0
 11
209.5
 21
55.25
 31
0.0
  0
LINE
  8
0
  6
LTYPE3
 62
     2
 10
205.0
 20
90.25
 30
0.0
 11
209.5
 21
90.25
 31
0.0
  0
LINE
  8
0
  6
CONTINUOUS
 62
     2
 10
212.0
 20
57.2
 30
0.0
 11
212.0
 21
88.3
 31
0.0
  0
LINE
  8
0
  6
CONTINUOUS
 62
     2
 10
212.0
 20
88.3
 30
0.0
 11
202.5
 21
88.3
 31
0.0
  0
LINE
  8
0
  6
CONTINUOUS
 62
     2
 10
202.5
 20
88.3
 30
0.0
 11
202.5
 21
57.2
 31
0.0
  0
LINE
  8
0
  6
CONTINUOUS
 62
     2
 10
202.5
 20
57.2
 30
0.0
 11
212.0
 21
57.2
 31
0.0
  0
LINE
  8
0
  6
CONTINUOUS
 62
     2
 10
205.5
 20
73.45
 30
0.0
 11
205.5
 21
74.0
 31
0.0
  0
LINE
  8
0
  6
CONTINUOUS
 62
     2
 10
205.5
 20
73.45
 30
0.0
 11
205.75
 21
73.2
 31
0.0
  0
LINE
  8
0
  6
CONTINUOUS
 62
     2
 10
205.5
 20
76.5
 30
0.0
 11
205.5
 21
77.05
 31
0.0
  0
LINE
  8
0
  6
CONTINUOUS
 62
     2
 10
205.5
 20
77.05
 30
0.0
 11
205.75
 21
77.3
 31
0.0
  0
LINE
  8
0
  6
CONTINUOUS
 62
     2
 10
208.75
 20
77.3
 30
0.0
 11
205.75
 21
77.3
 31
0.0
  0
LINE
  8
0
  6
CONTINUOUS
 62
     2
 10
209.0
 20
76.5
 30
0.0
 11
209.0
 21
77.05
 31
0.0
  0
LINE
  8
0
  6
CONTINUOUS
 62
     2
 10
208.75
 20
77.3
 30
0.0
 11
209.0
 21
77.05
 31
0.0
  0
LINE
  8
0
  6
CONTINUOUS
 62
     2
 10
209.0
 20
73.45
 30
0.0
 11
209.0
 21
74.0
 31
0.0
  0
LINE
  8
0
  6
CONTINUOUS
 62
     2
 10
205.75
 20
73.2
 30
0.0
 11
208.75
 21
73.2
 31
0.0
  0
LINE
  8
0
  6
CONTINUOUS
 62
     2
 10
209.0
 20
73.45
 30
0.0
 11
208.75
 21
73.2
 31
0.0
  0
LINE
  8
0
  6
CONTINUOUS
 62
     2
 10
205.1
 20
74.0
 30
0.0
 11
205.5
 21
74.0
 31
0.0
  0
LINE
  8
0
  6
CONTINUOUS
 62
     2
 10
205.1
 20
74.0
 30
0.0
 11
205.1
 21
76.5
 31
0.0
  0
LINE
  8
0
  6
CONTINUOUS
 62
     2
 10
205.1
 20
76.5
 30
0.0
 11
205.5
 21
76.5
 31
0.0
  0
LINE
  8
0
  6
CONTINUOUS
 62
     2
 10
209.4
 20
74.0
 30
0.0
 11
209.0
 21
74.0
 31
0.0
  0
LINE
  8
0
  6
CONTINUOUS
 62
     2
 10
209.4
 20
74.0
 30
0.0
 11
209.4
 21
76.5
 31
0.0
  0
LINE
  8
0
  6
CONTINUOUS
 62
     2
 10
209.4
 20
76.5
 30
0.0
 11
209.0
 21
76.5
 31
0.0
  0
LINE
  8
0
  6
CONTINUOUS
 62
     2
 10
209.4
 20
76.6
 30
0.0
 11
209.0
 21
76.6
 31
0.0
  0
ARC
  8
0
  6
CONTINUOUS
 62
     2
 10
209.4
 20
76.5
 30
0.0
 40
0.1
 50
0.0
 51
90.0
  0
LINE
  8
0
  6
CONTINUOUS
 62
     2
 10
209.0
 20
73.9
 30
0.0
 11
209.4
 21
73.9
 31
0.0
  0
LINE
  8
0
  6
CONTINUOUS
 62
     2
 10
209.5
 20
74.0
 30
0.0
 11
209.5
 21
76.5
 31
0.0
  0
ARC
  8
0
  6
CONTINUOUS
 62
     2
 10
209.4
 20
74.0
 30
0.0
 40
0.1
 50
270.0
 51
0.0
  0
LINE
  8
0
  6
CONTINUOUS
 62
     2
 10
205.1
 20
76.6
 30
0.0
 11
205.5
 21
76.6
 31
0.0
  0
ARC
  8
0
  6
CONTINUOUS
 62
     2
 10
205.1
 20
76.5
 30
0.0
 40
0.1
 50
90.0
 51
180.0
  0
LINE
  8
0
  6
CONTINUOUS
 62
     2
 10
205.5
 20
73.9
 30
0.0
 11
205.1
 21
73.9
 31
0.0
  0
ARC
  8
0
  6
CONTINUOUS
 62
     2
 10
205.1
 20
74.0
 30
0.0
 40
0.1
 50
180.0
 51
270.0
  0
LINE
  8
0
  6
CONTINUOUS
 62
     2
 10
205.0
 20
74.0
 30
0.0
 11
205.0
 21
76.5
 31
0.0
  0
LINE
  8
0
  6
LTYPE3
 62
     2
 10
207.25
 20
73.0
 30
0.0
 11
207.25
 21
77.5
 31
0.0
  0
LINE
  8
0
  6
LTYPE3
 62
     2
 10
205.0
 20
75.25
 30
0.0
 11
209.5
 21
75.25
 31
0.0
  0
LINE
  8
0
  6
CONTINUOUS
 62
     2
 10
205.5
 20
68.45
 30
0.0
 11
205.5
 21
69.0
 31
0.0
  0
LINE
  8
0
  6
CONTINUOUS
 62
     2
 10
205.5
 20
68.45
 30
0.0
 11
205.75
 21
68.2
 31
0.0
  0
LINE
  8
0
  6
CONTINUOUS
 62
     2
 10
205.5
 20
71.5
 30
0.0
 11
205.5
 21
72.05
 31
0.0
  0
LINE
  8
0
  6
CONTINUOUS
 62
     2
 10
205.5
 20
72.05
 30
0.0
 11
205.75
 21
72.3
 31
0.0
  0
LINE
  8
0
  6
CONTINUOUS
 62
     2
 10
208.75
 20
72.3
 30
0.0
 11
205.75
 21
72.3
 31
0.0
  0
LINE
  8
0
  6
CONTINUOUS
 62
     2
 10
209.0
 20
71.5
 30
0.0
 11
209.0
 21
72.05
 31
0.0
  0
LINE
  8
0
  6
CONTINUOUS
 62
     2
 10
208.75
 20
72.3
 30
0.0
 11
209.0
 21
72.05
 31
0.0
  0
LINE
  8
0
  6
CONTINUOUS
 62
     2
 10
209.0
 20
68.45
 30
0.0
 11
209.0
 21
69.0
 31
0.0
  0
LINE
  8
0
  6
CONTINUOUS
 62
     2
 10
205.75
 20
68.2
 30
0.0
 11
208.75
 21
68.2
 31
0.0
  0
LINE
  8
0
  6
CONTINUOUS
 62
     2
 10
209.0
 20
68.45
 30
0.0
 11
208.75
 21
68.2
 31
0.0
  0
LINE
  8
0
  6
CONTINUOUS
 62
     2
 10
205.1
 20
69.0
 30
0.0
 11
205.5
 21
69.0
 31
0.0
  0
LINE
  8
0
  6
CONTINUOUS
 62
     2
 10
205.1
 20
69.0
 30
0.0
 11
205.1
 21
71.5
 31
0.0
  0
LINE
  8
0
  6
CONTINUOUS
 62
     2
 10
205.1
 20
71.5
 30
0.0
 11
205.5
 21
71.5
 31
0.0
  0
LINE
  8
0
  6
CONTINUOUS
 62
     2
 10
209.4
 20
69.0
 30
0.0
 11
209.0
 21
69.0
 31
0.0
  0
LINE
  8
0
  6
CONTINUOUS
 62
     2
 10
209.4
 20
69.0
 30
0.0
 11
209.4
 21
71.5
 31
0.0
  0
LINE
  8
0
  6
CONTINUOUS
 62
     2
 10
209.4
 20
71.5
 30
0.0
 11
209.0
 21
71.5
 31
0.0
  0
LINE
  8
0
  6
CONTINUOUS
 62
     2
 10
209.4
 20
71.6
 30
0.0
 11
209.0
 21
71.6
 31
0.0
  0
ARC
  8
0
  6
CONTINUOUS
 62
     2
 10
209.4
 20
71.5
 30
0.0
 40
0.1
 50
0.0
 51
90.0
  0
LINE
  8
0
  6
CONTINUOUS
 62
     2
 10
209.0
 20
68.9
 30
0.0
 11
209.4
 21
68.9
 31
0.0
  0
LINE
  8
0
  6
CONTINUOUS
 62
     2
 10
209.5
 20
69.0
 30
0.0
 11
209.5
 21
71.5
 31
0.0
  0
ARC
  8
0
  6
CONTINUOUS
 62
     2
 10
209.4
 20
69.0
 30
0.0
 40
0.1
 50
270.0
 51
0.0
  0
LINE
  8
0
  6
CONTINUOUS
 62
     2
 10
205.1
 20
71.6
 30
0.0
 11
205.5
 21
71.6
 31
0.0
  0
ARC
  8
0
  6
CONTINUOUS
 62
     2
 10
205.1
 20
71.5
 30
0.0
 40
0.1
 50
90.0
 51
180.0
  0
LINE
  8
0
  6
CONTINUOUS
 62
     2
 10
205.5
 20
68.9
 30
0.0
 11
205.1
 21
68.9
 31
0.0
  0
ARC
  8
0
  6
CONTINUOUS
 62
     2
 10
205.1
 20
69.0
 30
0.0
 40
0.1
 50
180.0
 51
270.0
  0
LINE
  8
0
  6
CONTINUOUS
 62
     2
 10
205.0
 20
69.0
 30
0.0
 11
205.0
 21
71.5
 31
0.0
  0
LINE
  8
0
  6
LTYPE3
 62
     2
 10
207.25
 20
68.0
 30
0.0
 11
207.25
 21
72.5
 31
0.0
  0
LINE
  8
0
  6
LTYPE3
 62
     2
 10
205.0
 20
70.25
 30
0.0
 11
209.5
 21
70.25
 31
0.0
  0
CIRCLE
  8
0
  6
CONTINUOUS
 62
     2
 10
207.25
 20
90.25
 30
0.0
 40
1.5
  0
LINE
  8
0
  6
CONTINUOUS
 62
     2
 10
207.05
 20
89.375
 30
0.0
 11
207.05
 21
89.85
 31
0.0
  0
ARC
  8
0
  6
CONTINUOUS
 62
     2
 10
206.85
 20
89.85
 30
0.0
 40
0.2
 50
0.0
 51
90.0
  0
LINE
  8
0
  6
CONTINUOUS
 62
     2
 10
206.85
 20
90.05
 30
0.0
 11
206.375
 21
90.05
 31
0.0
  0
LINE
  8
0
  6
CONTINUOUS
 62
     2
 10
206.375
 20
90.05
 30
0.0
 11
206.375
 21
90.45
 31
0.0
  0
LINE
  8
0
  6
CONTINUOUS
 62
     2
 10
206.375
 20
90.45
 30
0.0
 11
206.85
 21
90.45
 31
0.0
  0
ARC
  8
0
  6
CONTINUOUS
 62
     2
 10
206.85
 20
90.65
 30
0.0
 40
0.2
 50
270.0
 51
0.0
  0
LINE
  8
0
  6
CONTINUOUS
 62
     2
 10
207.05
 20
90.65
 30
0.0
 11
207.05
 21
91.125
 31
0.0
  0
LINE
  8
0
  6
CONTINUOUS
 62
     2
 10
207.05
 20
91.125
 30
0.0
 11
207.45
 21
91.125
 31
0.0
  0
LINE
  8
0
  6
CONTINUOUS
 62
     2
 10
207.45
 20
91.125
 30
0.0
 11
207.45
 21
90.65
 31
0.0
  0
ARC
  8
0
  6
CONTINUOUS
 62
     2
 10
207.65
 20
90.65
 30
0.0
 40
0.2
 50
180.0
 51
270.0
  0
LINE
  8
0
  6
CONTINUOUS
 62
     2
 10
207.65
 20
90.45
 30
0.0
 11
208.125
 21
90.45
 31
0.0
  0
LINE
  8
0
  6
CONTINUOUS
 62
     2
 10
208.125
 20
90.45
 30
0.0
 11
208.125
 21
90.05
 31
0.0
  0
LINE
  8
0
  6
CONTINUOUS
 62
     2
 10
208.125
 20
90.05
 30
0.0
 11
207.65
 21
90.05
 31
0.0
  0
ARC
  8
0
  6
CONTINUOUS
 62
     2
 10
207.65
 20
89.85
 30
0.0
 40
0.2
 50
90.0
 51
180.0
  0
LINE
  8
0
  6
CONTINUOUS
 62
     2
 10
207.45
 20
89.85
 30
0.0
 11
207.45
 21
89.375
 31
0.0
  0
LINE
  8
0
  6
CONTINUOUS
 62
     2
 10
207.45
 20
89.375
 30
0.0
 11
207.05
 21
89.375
 31
0.0
  0
CIRCLE
  8
0
  6
CONTINUOUS
 62
     2
 10
207.25
 20
85.25
 30
0.0
 40
1.5
  0
LINE
  8
0
  6
CONTINUOUS
 62
     2
 10
207.05
 20
84.375
 30
0.0
 11
207.05
 21
84.85
 31
0.0
  0
ARC
  8
0
  6
CONTINUOUS
 62
     2
 10
206.85
 20
84.85
 30
0.0
 40
0.2
 50
0.0
 51
90.0
  0
LINE
  8
0
  6
CONTINUOUS
 62
     2
 10
206.85
 20
85.05
 30
0.0
 11
206.375
 21
85.05
 31
0.0
  0
LINE
  8
0
  6
CONTINUOUS
 62
     2
 10
206.375
 20
85.05
 30
0.0
 11
206.375
 21
85.45
 31
0.0
  0
LINE
  8
0
  6
CONTINUOUS
 62
     2
 10
206.375
 20
85.45
 30
0.0
 11
206.85
 21
85.45
 31
0.0
  0
ARC
  8
0
  6
CONTINUOUS
 62
     2
 10
206.85
 20
85.65
 30
0.0
 40
0.2
 50
270.0
 51
0.0
  0
LINE
  8
0
  6
CONTINUOUS
 62
     2
 10
207.05
 20
85.65
 30
0.0
 11
207.05
 21
86.125
 31
0.0
  0
LINE
  8
0
  6
CONTINUOUS
 62
     2
 10
207.05
 20
86.125
 30
0.0
 11
207.45
 21
86.125
 31
0.0
  0
LINE
  8
0
  6
CONTINUOUS
 62
     2
 10
207.45
 20
86.125
 30
0.0
 11
207.45
 21
85.65
 31
0.0
  0
ARC
  8
0
  6
CONTINUOUS
 62
     2
 10
207.65
 20
85.65
 30
0.0
 40
0.2
 50
180.0
 51
270.0
  0
LINE
  8
0
  6
CONTINUOUS
 62
     2
 10
207.65
 20
85.45
 30
0.0
 11
208.125
 21
85.45
 31
0.0
  0
LINE
  8
0
  6
CONTINUOUS
 62
     2
 10
208.125
 20
85.45
 30
0.0
 11
208.125
 21
85.05
 31
0.0
  0
LINE
  8
0
  6
CONTINUOUS
 62
     2
 10
208.125
 20
85.05
 30
0.0
 11
207.65
 21
85.05
 31
0.0
  0
ARC
  8
0
  6
CONTINUOUS
 62
     2
 10
207.65
 20
84.85
 30
0.0
 40
0.2
 50
90.0
 51
180.0
  0
LINE
  8
0
  6
CONTINUOUS
 62
     2
 10
207.45
 20
84.85
 30
0.0
 11
207.45
 21
84.375
 31
0.0
  0
LINE
  8
0
  6
CONTINUOUS
 62
     2
 10
207.45
 20
84.375
 30
0.0
 11
207.05
 21
84.375
 31
0.0
  0
CIRCLE
  8
0
  6
CONTINUOUS
 62
     2
 10
207.25
 20
70.25
 30
0.0
 40
1.5
  0
LINE
  8
0
  6
CONTINUOUS
 62
     2
 10
207.05
 20
69.375
 30
0.0
 11
207.05
 21
69.85
 31
0.0
  0
ARC
  8
0
  6
CONTINUOUS
 62
     2
 10
206.85
 20
69.85
 30
0.0
 40
0.2
 50
0.0
 51
90.0
  0
LINE
  8
0
  6
CONTINUOUS
 62
     2
 10
206.85
 20
70.05
 30
0.0
 11
206.375
 21
70.05
 31
0.0
  0
LINE
  8
0
  6
CONTINUOUS
 62
     2
 10
206.375
 20
70.05
 30
0.0
 11
206.375
 21
70.45
 31
0.0
  0
LINE
  8
0
  6
CONTINUOUS
 62
     2
 10
206.375
 20
70.45
 30
0.0
 11
206.85
 21
70.45
 31
0.0
  0
ARC
  8
0
  6
CONTINUOUS
 62
     2
 10
206.85
 20
70.65
 30
0.0
 40
0.2
 50
270.0
 51
0.0
  0
LINE
  8
0
  6
CONTINUOUS
 62
     2
 10
207.05
 20
70.65
 30
0.0
 11
207.05
 21
71.125
 31
0.0
  0
LINE
  8
0
  6
CONTINUOUS
 62
     2
 10
207.05
 20
71.125
 30
0.0
 11
207.45
 21
71.125
 31
0.0
  0
LINE
  8
0
  6
CONTINUOUS
 62
     2
 10
207.45
 20
71.125
 30
0.0
 11
207.45
 21
70.65
 31
0.0
  0
ARC
  8
0
  6
CONTINUOUS
 62
     2
 10
207.65
 20
70.65
 30
0.0
 40
0.2
 50
180.0
 51
270.0
  0
LINE
  8
0
  6
CONTINUOUS
 62
     2
 10
207.65
 20
70.45
 30
0.0
 11
208.125
 21
70.45
 31
0.0
  0
LINE
  8
0
  6
CONTINUOUS
 62
     2
 10
208.125
 20
70.45
 30
0.0
 11
208.125
 21
70.05
 31
0.0
  0
LINE
  8
0
  6
CONTINUOUS
 62
     2
 10
208.125
 20
70.05
 30
0.0
 11
207.65
 21
70.05
 31
0.0
  0
ARC
  8
0
  6
CONTINUOUS
 62
     2
 10
207.65
 20
69.85
 30
0.0
 40
0.2
 50
90.0
 51
180.0
  0
LINE
  8
0
  6
CONTINUOUS
 62
     2
 10
207.45
 20
69.85
 30
0.0
 11
207.45
 21
69.375
 31
0.0
  0
LINE
  8
0
  6
CONTINUOUS
 62
     2
 10
207.45
 20
69.375
 30
0.0
 11
207.05
 21
69.375
 31
0.0
  0
CIRCLE
  8
0
  6
CONTINUOUS
 62
     2
 10
207.25
 20
80.25
 30
0.0
 40
1.5
  0
LINE
  8
0
  6
CONTINUOUS
 62
     2
 10
207.05
 20
79.375
 30
0.0
 11
207.05
 21
79.85
 31
0.0
  0
ARC
  8
0
  6
CONTINUOUS
 62
     2
 10
206.85
 20
79.85
 30
0.0
 40
0.2
 50
0.0
 51
90.0
  0
LINE
  8
0
  6
CONTINUOUS
 62
     2
 10
206.85
 20
80.05
 30
0.0
 11
206.375
 21
80.05
 31
0.0
  0
LINE
  8
0
  6
CONTINUOUS
 62
     2
 10
206.375
 20
80.05
 30
0.0
 11
206.375
 21
80.45
 31
0.0
  0
LINE
  8
0
  6
CONTINUOUS
 62
     2
 10
206.375
 20
80.45
 30
0.0
 11
206.85
 21
80.45
 31
0.0
  0
ARC
  8
0
  6
CONTINUOUS
 62
     2
 10
206.85
 20
80.65
 30
0.0
 40
0.2
 50
270.0
 51
0.0
  0
LINE
  8
0
  6
CONTINUOUS
 62
     2
 10
207.05
 20
80.65
 30
0.0
 11
207.05
 21
81.125
 31
0.0
  0
LINE
  8
0
  6
CONTINUOUS
 62
     2
 10
207.05
 20
81.125
 30
0.0
 11
207.45
 21
81.125
 31
0.0
  0
LINE
  8
0
  6
CONTINUOUS
 62
     2
 10
207.45
 20
81.125
 30
0.0
 11
207.45
 21
80.65
 31
0.0
  0
ARC
  8
0
  6
CONTINUOUS
 62
     2
 10
207.65
 20
80.65
 30
0.0
 40
0.2
 50
180.0
 51
270.0
  0
LINE
  8
0
  6
CONTINUOUS
 62
     2
 10
207.65
 20
80.45
 30
0.0
 11
208.125
 21
80.45
 31
0.0
  0
LINE
  8
0
  6
CONTINUOUS
 62
     2
 10
208.125
 20
80.45
 30
0.0
 11
208.125
 21
80.05
 31
0.0
  0
LINE
  8
0
  6
CONTINUOUS
 62
     2
 10
208.125
 20
80.05
 30
0.0
 11
207.65
 21
80.05
 31
0.0
  0
ARC
  8
0
  6
CONTINUOUS
 62
     2
 10
207.65
 20
79.85
 30
0.0
 40
0.2
 50
90.0
 51
180.0
  0
LINE
  8
0
  6
CONTINUOUS
 62
     2
 10
207.45
 20
79.85
 30
0.0
 11
207.45
 21
79.375
 31
0.0
  0
LINE
  8
0
  6
CONTINUOUS
 62
     2
 10
207.45
 20
79.375
 30
0.0
 11
207.05
 21
79.375
 31
0.0
  0
CIRCLE
  8
0
  6
CONTINUOUS
 62
     2
 10
207.25
 20
75.25
 30
0.0
 40
1.5
  0
LINE
  8
0
  6
CONTINUOUS
 62
     2
 10
207.05
 20
74.375
 30
0.0
 11
207.05
 21
74.85
 31
0.0
  0
ARC
  8
0
  6
CONTINUOUS
 62
     2
 10
206.85
 20
74.85
 30
0.0
 40
0.2
 50
0.0
 51
90.0
  0
LINE
  8
0
  6
CONTINUOUS
 62
     2
 10
206.85
 20
75.05
 30
0.0
 11
206.375
 21
75.05
 31
0.0
  0
LINE
  8
0
  6
CONTINUOUS
 62
     2
 10
206.375
 20
75.05
 30
0.0
 11
206.375
 21
75.45
 31
0.0
  0
LINE
  8
0
  6
CONTINUOUS
 62
     2
 10
206.375
 20
75.45
 30
0.0
 11
206.85
 21
75.45
 31
0.0
  0
ARC
  8
0
  6
CONTINUOUS
 62
     2
 10
206.85
 20
75.65
 30
0.0
 40
0.2
 50
270.0
 51
0.0
  0
LINE
  8
0
  6
CONTINUOUS
 62
     2
 10
207.05
 20
75.65
 30
0.0
 11
207.05
 21
76.125
 31
0.0
  0
LINE
  8
0
  6
CONTINUOUS
 62
     2
 10
207.05
 20
76.125
 30
0.0
 11
207.45
 21
76.125
 31
0.0
  0
LINE
  8
0
  6
CONTINUOUS
 62
     2
 10
207.45
 20
76.125
 30
0.0
 11
207.45
 21
75.65
 31
0.0
  0
ARC
  8
0
  6
CONTINUOUS
 62
     2
 10
207.65
 20
75.65
 30
0.0
 40
0.2
 50
180.0
 51
270.0
  0
LINE
  8
0
  6
CONTINUOUS
 62
     2
 10
207.65
 20
75.45
 30
0.0
 11
208.125
 21
75.45
 31
0.0
  0
LINE
  8
0
  6
CONTINUOUS
 62
     2
 10
208.125
 20
75.45
 30
0.0
 11
208.125
 21
75.05
 31
0.0
  0
LINE
  8
0
  6
CONTINUOUS
 62
     2
 10
208.125
 20
75.05
 30
0.0
 11
207.65
 21
75.05
 31
0.0
  0
ARC
  8
0
  6
CONTINUOUS
 62
     2
 10
207.65
 20
74.85
 30
0.0
 40
0.2
 50
90.0
 51
180.0
  0
LINE
  8
0
  6
CONTINUOUS
 62
     2
 10
207.45
 20
74.85
 30
0.0
 11
207.45
 21
74.375
 31
0.0
  0
LINE
  8
0
  6
CONTINUOUS
 62
     2
 10
207.45
 20
74.375
 30
0.0
 11
207.05
 21
74.375
 31
0.0
  0
CIRCLE
  8
0
  6
CONTINUOUS
 62
     2
 10
207.25
 20
55.25
 30
0.0
 40
1.5
  0
LINE
  8
0
  6
CONTINUOUS
 62
     2
 10
207.05
 20
54.375
 30
0.0
 11
207.05
 21
54.85
 31
0.0
  0
ARC
  8
0
  6
CONTINUOUS
 62
     2
 10
206.85
 20
54.85
 30
0.0
 40
0.2
 50
0.0
 51
90.0
  0
LINE
  8
0
  6
CONTINUOUS
 62
     2
 10
206.85
 20
55.05
 30
0.0
 11
206.375
 21
55.05
 31
0.0
  0
LINE
  8
0
  6
CONTINUOUS
 62
     2
 10
206.375
 20
55.05
 30
0.0
 11
206.375
 21
55.45
 31
0.0
  0
LINE
  8
0
  6
CONTINUOUS
 62
     2
 10
206.375
 20
55.45
 30
0.0
 11
206.85
 21
55.45
 31
0.0
  0
ARC
  8
0
  6
CONTINUOUS
 62
     2
 10
206.85
 20
55.65
 30
0.0
 40
0.2
 50
270.0
 51
0.0
  0
LINE
  8
0
  6
CONTINUOUS
 62
     2
 10
207.05
 20
55.65
 30
0.0
 11
207.05
 21
56.125
 31
0.0
  0
LINE
  8
0
  6
CONTINUOUS
 62
     2
 10
207.05
 20
56.125
 30
0.0
 11
207.45
 21
56.125
 31
0.0
  0
LINE
  8
0
  6
CONTINUOUS
 62
     2
 10
207.45
 20
56.125
 30
0.0
 11
207.45
 21
55.65
 31
0.0
  0
ARC
  8
0
  6
CONTINUOUS
 62
     2
 10
207.65
 20
55.65
 30
0.0
 40
0.2
 50
180.0
 51
270.0
  0
LINE
  8
0
  6
CONTINUOUS
 62
     2
 10
207.65
 20
55.45
 30
0.0
 11
208.125
 21
55.45
 31
0.0
  0
LINE
  8
0
  6
CONTINUOUS
 62
     2
 10
208.125
 20
55.45
 30
0.0
 11
208.125
 21
55.05
 31
0.0
  0
LINE
  8
0
  6
CONTINUOUS
 62
     2
 10
208.125
 20
55.05
 30
0.0
 11
207.65
 21
55.05
 31
0.0
  0
ARC
  8
0
  6
CONTINUOUS
 62
     2
 10
207.65
 20
54.85
 30
0.0
 40
0.2
 50
90.0
 51
180.0
  0
LINE
  8
0
  6
CONTINUOUS
 62
     2
 10
207.45
 20
54.85
 30
0.0
 11
207.45
 21
54.375
 31
0.0
  0
LINE
  8
0
  6
CONTINUOUS
 62
     2
 10
207.45
 20
54.375
 30
0.0
 11
207.05
 21
54.375
 31
0.0
  0
LINE
  8
0
  6
CONTINUOUS
 62
     1
 10
205.25
 20
52.25
 30
0.0
 11
205.25
 21
53.2
 31
0.0
  0
LINE
  8
0
  6
CONTINUOUS
 62
     1
 10
204.75
 20
53.2
 30
0.0
 11
204.75
 21
52.25
 31
0.0
  0
LINE
  8
0
  6
CONTINUOUS
 62
     1
 10
201.25
 20
93.75
 30
0.0
 11
201.25
 21
92.25
 31
0.0
  0
LINE
  8
0
  6
CONTINUOUS
 62
     1
 10
201.25
 20
92.25
 30
0.0
 11
203.0
 21
92.25
 31
0.0
  0
LINE
  8
0
  6
CONTINUOUS
 62
     5
 10
200.6
 20
87.95
 30
0.0
 11
196.6
 21
87.95
 31
0.0
  0
LINE
  8
0
  6
CONTINUOUS
 62
     5
 10
196.85
 20
84.85
 30
0.0
 11
196.85
 21
80.85
 31
0.0
  0
LINE
  8
0
  6
CONTINUOUS
 62
     5
 10
196.85
 20
84.85
 30
0.0
 11
197.6
 21
85.45
 31
0.0
  0
LINE
  8
0
  6
CONTINUOUS
 62
     5
 10
196.85
 20
80.85
 30
0.0
 11
197.6
 21
80.25
 31
0.0
  0
TEXT
  8
0
  6
CONTINUOUS
 62
     5
 10
197.85
 20
84.7
 30
0.1
 40
1.5
  1
１＋
 50
0.0
 41
0.666666667
 51
0.0
  7
KANJI9
  0
TEXT
  8
0
  6
CONTINUOUS
 62
     5
 10
197.85
 20
79.45
 30
0.1
 40
1.5
  1
２－
 50
0.0
 41
0.666666667
 51
0.0
  7
KANJI9
  0
TEXT
  8
0
  6
CONTINUOUS
 62
     5
 10
196.7
 20
81.75
 30
0.05
 40
1.0
  1
ＩＮＰＵＴ
 50
0.0
 41
0.75
 51
0.0
  7
KANJI10
  0
TEXT
  8
0
  6
CONTINUOUS
 62
     5
 10
197.0
 20
83.15
 30
0.05
 40
1.0
  1
ＬＥＦＴ
 50
0.0
 41
0.75
 51
0.0
  7
KANJI10
  0
TEXT
  8
0
  6
CONTINUOUS
 62
     5
 10
196.7
 20
71.45
 30
0.05
 40
1.0
  1
ＩＮＰＵＴ
 50
0.0
 41
0.75
 51
0.0
  7
KANJI10
  0
TEXT
  8
0
  6
CONTINUOUS
 62
     5
 10
196.8
 20
72.85
 30
0.05
 40
1.0
  1
ＲＩＧＨＴ
 50
0.0
 41
0.75
 51
0.0
  7
KANJI10
  0
LINE
  8
0
  6
CONTINUOUS
 62
     5
 10
196.85
 20
74.85
 30
0.0
 11
196.85
 21
70.85
 31
0.0
  0
LINE
  8
0
  6
CONTINUOUS
 62
     5
 10
196.85
 20
74.85
 30
0.0
 11
197.6
 21
75.45
 31
0.0
  0
LINE
  8
0
  6
CONTINUOUS
 62
     5
 10
196.85
 20
70.85
 30
0.0
 11
197.6
 21
70.25
 31
0.0
  0
TEXT
  8
0
  6
CONTINUOUS
 62
     5
 10
197.85
 20
74.7
 30
0.1
 40
1.5
  1
３＋
 50
0.0
 41
0.666666667
 51
0.0
  7
KANJI9
  0
TEXT
  8
0
  6
CONTINUOUS
 62
     5
 10
197.85
 20
69.45
 30
0.1
 40
1.5
  1
４－
 50
0.0
 41
0.666666667
 51
0.0
  7
KANJI9
  0
LINE
  8
0
  6
CONTINUOUS
 62
     5
 10
196.6
 20
67.95
 30
0.0
 11
196.6
 21
87.95
 31
0.0
  0
LINE
  8
0
  6
CONTINUOUS
 62
     5
 10
196.6
 20
67.95
 30
0.0
 11
200.6
 21
67.95
 31
0.0
  0
LINE
  8
0
  6
CONTINUOUS
 62
     5
 10
200.6
 20
87.95
 30
0.0
 11
200.6
 21
67.95
 31
0.0
  0
LINE
  8
0
  6
CONTINUOUS
 62
     2
 10
207.25
 20
65.25
 30
0.0
 11
223.0
 21
65.25
 31
0.0
  0
LINE
  8
0
  6
CONTINUOUS
 62
     2
 10
207.25
 20
60.25
 30
0.0
 11
223.0
 21
60.25
 31
0.0
  0
LINE
  8
0
  6
CONTINUOUS
 62
     2
 10
224.0
 20
43.75
 30
0.0
 11
224.647047613
 21
46.164814566
 31
0.0
  0
LINE
  8
0
  6
CONTINUOUS
 62
     2
 10
224.0
 20
43.75
 30
0.0
 11
223.352952387
 21
46.164814566
 31
0.0
  0
LINE
  8
0
  6
CONTINUOUS
 62
     2
 10
224.0
 20
43.75
 30
0.0
 11
224.0
 21
126.25
 31
0.0
  0
LINE
  8
0
  6
CONTINUOUS
 62
     2
 10
224.0
 20
126.25
 30
0.0
 11
223.352952387
 21
123.835185434
 31
0.0
  0
LINE
  8
0
  6
CONTINUOUS
 62
     2
 10
224.0
 20
126.25
 30
0.0
 11
224.647047613
 21
123.835185434
 31
0.0
  0
TEXT
  8
0
  6
CONTINUOUS
 62
     2
 10
223.0
 20
82.0
 30
0.3
 40
3.0
  1
１６５
 50
90.0
 41
0.6
 51
0.0
  7
KANJI4
  0
LINE
  8
0
  6
CONTINUOUS
 62
     2
 10
212.25
 20
43.75
 30
0.0
 11
226.0
 21
43.75
 31
0.0
  0
LINE
  8
0
  6
CONTINUOUS
 62
     2
 10
212.25
 20
126.25
 30
0.0
 11
226.0
 21
126.25
 31
0.0
  0
TEXT
  8
0
  6
CONTINUOUS
 62
     3
 10
235.0
 20
12.0
 30
0.2
 40
5.8
  1
ＭＳ－１２２０８
 50
0.0
 41
0.827586207
 51
0.0
  7
KANJI11
  0
TEXT
  8
0
  6
CONTINUOUS
 62
     2
 10
202.0
 20
154.7
 30
0.3
 40
3.0
  1
（１７５）
 50
90.0
 41
0.6
 51
0.0
  7
KANJI4
  0
LINE
  8
0
  6
CONTINUOUS
 62
     2
 10
167.04
 20
61.53
 30
0.0
 11
167.04
 21
58.87
 31
0.0
  0
LINE
  8
0
  6
CONTINUOUS
 62
     2
 10
167.35
 20
58.89
 30
0.0
 11
167.04
 21
58.87
 31
0.0
  0
LINE
  8
0
  6
CONTINUOUS
 62
     2
 10
167.04
 20
61.53
 30
0.0
 11
167.35
 21
61.53
 31
0.0
  0
LINE
  8
0
  6
CONTINUOUS
 62
     2
 10
168.09
 20
60.78
 30
0.0
 11
168.09
 21
59.62
 31
0.0
  0
ARC
  8
0
  6
CONTINUOUS
 62
     2
 10
167.34
 20
60.78
 30
0.0
 40
0.75
 50
0.0
 51
90.0
  0
ARC
  8
0
  6
CONTINUOUS
 62
     2
 10
167.34
 20
59.62
 30
0.0
 40
0.75
 50
268.472474559
 51
0.0
  0
LINE
  8
0
  6
CONTINUOUS
 62
     2
 10
167.03
 20
61.55
 30
0.0
 11
166.65
 21
61.55
 31
0.0
  0
LINE
  8
0
  6
CONTINUOUS
 62
     2
 10
166.65
 20
61.55
 30
0.0
 11
166.65
 21
58.87
 31
0.0
  0
LINE
  8
0
  6
CONTINUOUS
 62
     2
 10
166.65
 20
58.87
 30
0.0
 11
167.03
 21
58.87
 31
0.0
  0
LINE
  8
0
  6
CONTINUOUS
 62
     2
 10
166.65
 20
60.08
 30
0.0
 11
167.03
 21
60.39
 31
0.0
  0
LINE
  8
0
  6
CONTINUOUS
 62
     2
 10
166.65
 20
59.84
 30
0.0
 11
167.04
 21
60.13
 31
0.0
  0
LINE
  8
0
  6
CONTINUOUS
 62
     2
 10
168.09
 20
60.41
 30
0.0
 11
168.02
 21
60.41
 31
0.0
  0
LINE
  8
0
  6
CONTINUOUS
 62
     2
 10
168.02
 20
60.42
 30
0.0
 11
168.02
 21
60.04
 31
0.0
  0
LINE
  8
0
  6
CONTINUOUS
 62
     2
 10
168.02
 20
60.04
 30
0.0
 11
168.08
 21
60.04
 31
0.0
  0
LINE
  8
0
  6
CONTINUOUS
 62
     2
 10
167.04
 20
66.53
 30
0.0
 11
167.04
 21
63.87
 31
0.0
  0
LINE
  8
0
  6
CONTINUOUS
 62
     2
 10
167.35
 20
63.89
 30
0.0
 11
167.04
 21
63.87
 31
0.0
  0
LINE
  8
0
  6
CONTINUOUS
 62
     2
 10
167.04
 20
66.53
 30
0.0
 11
167.35
 21
66.53
 31
0.0
  0
LINE
  8
0
  6
CONTINUOUS
 62
     2
 10
168.09
 20
65.78
 30
0.0
 11
168.09
 21
64.62
 31
0.0
  0
ARC
  8
0
  6
CONTINUOUS
 62
     2
 10
167.34
 20
65.78
 30
0.0
 40
0.75
 50
0.0
 51
90.0
  0
ARC
  8
0
  6
CONTINUOUS
 62
     2
 10
167.34
 20
64.62
 30
0.0
 40
0.75
 50
268.472474559
 51
0.0
  0
LINE
  8
0
  6
CONTINUOUS
 62
     2
 10
167.03
 20
66.55
 30
0.0
 11
166.65
 21
66.55
 31
0.0
  0
LINE
  8
0
  6
CONTINUOUS
 62
     2
 10
166.65
 20
66.55
 30
0.0
 11
166.65
 21
63.87
 31
0.0
  0
LINE
  8
0
  6
CONTINUOUS
 62
     2
 10
166.65
 20
63.87
 30
0.0
 11
167.03
 21
63.87
 31
0.0
  0
LINE
  8
0
  6
CONTINUOUS
 62
     2
 10
166.65
 20
65.08
 30
0.0
 11
167.03
 21
65.39
 31
0.0
  0
LINE
  8
0
  6
CONTINUOUS
 62
     2
 10
166.65
 20
64.84
 30
0.0
 11
167.04
 21
65.13
 31
0.0
  0
LINE
  8
0
  6
CONTINUOUS
 62
     2
 10
168.09
 20
65.41
 30
0.0
 11
168.02
 21
65.41
 31
0.0
  0
LINE
  8
0
  6
CONTINUOUS
 62
     2
 10
168.02
 20
65.42
 30
0.0
 11
168.02
 21
65.04
 31
0.0
  0
LINE
  8
0
  6
CONTINUOUS
 62
     2
 10
168.02
 20
65.04
 30
0.0
 11
168.08
 21
65.04
 31
0.0
  0
CIRCLE
  8
0
  6
CONTINUOUS
 62
     2
 10
207.25
 20
60.25
 30
0.0
 40
1.5
  0
LINE
  8
0
  6
CONTINUOUS
 62
     2
 10
207.05
 20
59.375
 30
0.0
 11
207.05
 21
59.85
 31
0.0
  0
ARC
  8
0
  6
CONTINUOUS
 62
     2
 10
206.85
 20
59.85
 30
0.0
 40
0.2
 50
0.0
 51
90.0
  0
LINE
  8
0
  6
CONTINUOUS
 62
     2
 10
206.85
 20
60.05
 30
0.0
 11
206.375
 21
60.05
 31
0.0
  0
LINE
  8
0
  6
CONTINUOUS
 62
     2
 10
206.375
 20
60.05
 30
0.0
 11
206.375
 21
60.45
 31
0.0
  0
LINE
  8
0
  6
CONTINUOUS
 62
     2
 10
206.375
 20
60.45
 30
0.0
 11
206.85
 21
60.45
 31
0.0
  0
ARC
  8
0
  6
CONTINUOUS
 62
     2
 10
206.85
 20
60.65
 30
0.0
 40
0.2
 50
270.0
 51
0.0
  0
LINE
  8
0
  6
CONTINUOUS
 62
     2
 10
207.05
 20
60.65
 30
0.0
 11
207.05
 21
61.125
 31
0.0
  0
LINE
  8
0
  6
CONTINUOUS
 62
     2
 10
207.05
 20
61.125
 30
0.0
 11
207.45
 21
61.125
 31
0.0
  0
LINE
  8
0
  6
CONTINUOUS
 62
     2
 10
207.45
 20
61.125
 30
0.0
 11
207.45
 21
60.65
 31
0.0
  0
ARC
  8
0
  6
CONTINUOUS
 62
     2
 10
207.65
 20
60.65
 30
0.0
 40
0.2
 50
180.0
 51
270.0
  0
LINE
  8
0
  6
CONTINUOUS
 62
     2
 10
207.65
 20
60.45
 30
0.0
 11
208.125
 21
60.45
 31
0.0
  0
LINE
  8
0
  6
CONTINUOUS
 62
     2
 10
208.125
 20
60.45
 30
0.0
 11
208.125
 21
60.05
 31
0.0
  0
LINE
  8
0
  6
CONTINUOUS
 62
     2
 10
208.125
 20
60.05
 30
0.0
 11
207.65
 21
60.05
 31
0.0
  0
ARC
  8
0
  6
CONTINUOUS
 62
     2
 10
207.65
 20
59.85
 30
0.0
 40
0.2
 50
90.0
 51
180.0
  0
LINE
  8
0
  6
CONTINUOUS
 62
     2
 10
207.45
 20
59.85
 30
0.0
 11
207.45
 21
59.375
 31
0.0
  0
LINE
  8
0
  6
CONTINUOUS
 62
     2
 10
207.45
 20
59.375
 30
0.0
 11
207.05
 21
59.375
 31
0.0
  0
CIRCLE
  8
0
  6
CONTINUOUS
 62
     2
 10
207.25
 20
65.25
 30
0.0
 40
1.5
  0
LINE
  8
0
  6
CONTINUOUS
 62
     2
 10
207.05
 20
64.375
 30
0.0
 11
207.05
 21
64.85
 31
0.0
  0
ARC
  8
0
  6
CONTINUOUS
 62
     2
 10
206.85
 20
64.85
 30
0.0
 40
0.2
 50
0.0
 51
90.0
  0
LINE
  8
0
  6
CONTINUOUS
 62
     2
 10
206.85
 20
65.05
 30
0.0
 11
206.375
 21
65.05
 31
0.0
  0
LINE
  8
0
  6
CONTINUOUS
 62
     2
 10
206.375
 20
65.05
 30
0.0
 11
206.375
 21
65.45
 31
0.0
  0
LINE
  8
0
  6
CONTINUOUS
 62
     2
 10
206.375
 20
65.45
 30
0.0
 11
206.85
 21
65.45
 31
0.0
  0
ARC
  8
0
  6
CONTINUOUS
 62
     2
 10
206.85
 20
65.65
 30
0.0
 40
0.2
 50
270.0
 51
0.0
  0
LINE
  8
0
  6
CONTINUOUS
 62
     2
 10
207.05
 20
65.65
 30
0.0
 11
207.05
 21
66.125
 31
0.0
  0
LINE
  8
0
  6
CONTINUOUS
 62
     2
 10
207.05
 20
66.125
 30
0.0
 11
207.45
 21
66.125
 31
0.0
  0
LINE
  8
0
  6
CONTINUOUS
 62
     2
 10
207.45
 20
66.125
 30
0.0
 11
207.45
 21
65.65
 31
0.0
  0
ARC
  8
0
  6
CONTINUOUS
 62
     2
 10
207.65
 20
65.65
 30
0.0
 40
0.2
 50
180.0
 51
270.0
  0
LINE
  8
0
  6
CONTINUOUS
 62
     2
 10
207.65
 20
65.45
 30
0.0
 11
208.125
 21
65.45
 31
0.0
  0
LINE
  8
0
  6
CONTINUOUS
 62
     2
 10
208.125
 20
65.45
 30
0.0
 11
208.125
 21
65.05
 31
0.0
  0
LINE
  8
0
  6
CONTINUOUS
 62
     2
 10
208.125
 20
65.05
 30
0.0
 11
207.65
 21
65.05
 31
0.0
  0
ARC
  8
0
  6
CONTINUOUS
 62
     2
 10
207.65
 20
64.85
 30
0.0
 40
0.2
 50
90.0
 51
180.0
  0
LINE
  8
0
  6
CONTINUOUS
 62
     2
 10
207.45
 20
64.85
 30
0.0
 11
207.45
 21
64.375
 31
0.0
  0
LINE
  8
0
  6
CONTINUOUS
 62
     2
 10
207.45
 20
64.375
 30
0.0
 11
207.05
 21
64.375
 31
0.0
  0
LINE
  8
0
  6
LTYPE3
 62
     2
 10
205.0
 20
42.18
 30
0.0
 11
205.0
 21
130.75
 31
0.0
  0
TEXT
  8
0
  6
CONTINUOUS
 62
     2
 10
195.65
 20
39.05
 30
0.3
 40
3.0
  1
ＴＡＧ　ＮＯ．ラベル　
 50
0.0
 41
0.9
 51
0.0
  7
KANJI2
  0
TEXT
  8
0
  6
CONTINUOUS
 62
     1
 10
239.1
 20
21.8
 30
0.4
 40
4.0
  1
縁　形　計　器
 50
0.0
 41
0.9
 51
0.0
  7
KANJI12
  0
TEXT
  8
0
  6
CONTINUOUS
 62
     2
 10
239.1
 20
26.8
 30
0.3
 40
3.0
  1
端子カバー付
 50
0.0
 41
0.9
 51
0.0
  7
KANJI2
  0
TEXT
  8
0
  6
CONTINUOUS
 62
     6
 10
233.7
 20
35.2
 30
0.6
 40
6.0
  1
□ＥＦ－１５Ｗ
 50
0.0
 41
0.9
 51
0.0
  7
KANJI13
  0
LINE
  8
0
  6
LTYPE3
 62
     2
 10
46.55
 20
85.0
 30
0.0
 11
21.05
 21
85.0
 31
0.0
  0
LINE
  8
0
  6
LTYPE3
 62
     2
 10
171.0
 20
85.0
 30
0.0
 11
54.9
 21
85.0
 31
0.0
  0
LINE
  8
0
  6
LTYPE3
 62
     2
 10
34.0
 20
124.55
 30
0.0
 11
34.0
 21
44.25
 31
0.0
  0
LINE
  8
0
  6
LTYPE3
 62
     2
 10
123.5
 20
128.1
 30
0.0
 11
123.5
 21
42.35
 31
0.0
  0
LINE
  8
0
  6
LTYPE3
 62
     2
 10
123.5
 20
143.35
 30
0.0
 11
123.5
 21
168.5
 31
0.0
  0
LINE
  8
0
  6
LTYPE3
 62
     2
 10
198.8
 20
85.0
 30
0.0
 11
191.45
 21
85.0
 31
0.0
  0
LINE
  8
0
  6
LTYPE3
 62
     2
 10
218.35
 20
85.0
 30
0.0
 11
198.8
 21
85.0
 31
0.0
  0
ENDSEC
  0
EOF
