  0
SECTION
  2
HEADER
  9
$ACADVER
  1
AC1009
  9
$DWGCODEPAGE
  3
dos932
  9
$EXTMIN
 10
0.0
 20
0.0
 30
0.0
  9
$EXTMAX
 10
297.0
 20
210.0
 30
0.0
  9
$LIMMIN
 10
0.0
 20
0.0
  9
$LIMMAX
 10
297.0
 20
210.0
  9
$LTSCALE
 40
1.0
  9
$PDMODE
 70
     0
  0
ENDSEC
  0
SECTION
  2
TABLES
  0
TABLE
  2
VPORT
 70
     1
  0
VPORT
  2
*ACTIVE
 70
     0
 10
0.0
 20
0.0
 11
1.0
 21
1.0
 12
148.5
 22
105.0
 13
0.0
 23
0.0
 14
10.0
 24
10.0
 15
10.0
 25
10.0
 16
0.0
 26
0.0
 36
1.0
 17
0.0
 27
0.0
 37
0.0
 40
297.0
 41
1.414285714
 42
50.0
 43
0.0
 44
0.0
 50
0.0
 51
0.0
 71
     0
 72
  1000
 73
     1
 74
     3
 75
     0
 76
     0
 77
     0
 78
     0
  0
ENDTAB
  0
TABLE
  2
LTYPE
 70
     4
  0
LTYPE
  2
CONTINUOUS
 70
    64
  3
Solid line
 72
    65
 73
     0
 40
0.0
  0
LTYPE
  2
LTYPE1
 70
    64
  3
CENTER
 72
    65
 73
     4
 40
8.0
 49
5.6
 49
-0.8
 49
0.8
 49
-0.8
  0
LTYPE
  2
LTYPE2
 70
    64
  3
CENTER
 72
    65
 73
     4
 40
15.0
 49
10.5
 49
-1.5
 49
1.5
 49
-1.5
  0
LTYPE
  2
LTYPE3
 70
    64
  3
HIDDEN
 72
    65
 73
     2
 40
2.0
 49
1.2
 49
-0.8
  0
ENDTAB
  0
TABLE
  2
LAYER
 70
   128
  0
LAYER
  2
0
 70
     0
 62
     7
  6
CONTINUOUS
  0
LAYER
  2
2
 70
     0
 62
     7
  6
CONTINUOUS
  0
LAYER
  2
3
 70
     0
 62
     7
  6
CONTINUOUS
  0
LAYER
  2
4
 70
     0
 62
     7
  6
CONTINUOUS
  0
LAYER
  2
5
 70
     0
 62
     7
  6
CONTINUOUS
  0
LAYER
  2
6
 70
     0
 62
     7
  6
CONTINUOUS
  0
LAYER
  2
7
 70
     0
 62
     7
  6
CONTINUOUS
  0
LAYER
  2
8
 70
     0
 62
     7
  6
CONTINUOUS
  0
LAYER
  2
9
 70
     0
 62
     7
  6
CONTINUOUS
  0
LAYER
  2
10
 70
     0
 62
     7
  6
CONTINUOUS
  0
LAYER
  2
11
 70
     0
 62
     7
  6
CONTINUOUS
  0
LAYER
  2
12
 70
     0
 62
     7
  6
CONTINUOUS
  0
LAYER
  2
13
 70
     0
 62
     7
  6
CONTINUOUS
  0
LAYER
  2
14
 70
     0
 62
     7
  6
CONTINUOUS
  0
LAYER
  2
15
 70
     0
 62
     7
  6
CONTINUOUS
  0
LAYER
  2
16
 70
     0
 62
     7
  6
CONTINUOUS
  0
LAYER
  2
17
 70
     0
 62
     7
  6
CONTINUOUS
  0
LAYER
  2
18
 70
     0
 62
     7
  6
CONTINUOUS
  0
LAYER
  2
19
 70
     0
 62
     7
  6
CONTINUOUS
  0
LAYER
  2
20
 70
     0
 62
     7
  6
CONTINUOUS
  0
LAYER
  2
21
 70
     0
 62
     7
  6
CONTINUOUS
  0
LAYER
  2
22
 70
     0
 62
     7
  6
CONTINUOUS
  0
LAYER
  2
23
 70
     0
 62
     7
  6
CONTINUOUS
  0
LAYER
  2
24
 70
     0
 62
     7
  6
CONTINUOUS
  0
LAYER
  2
25
 70
     0
 62
     7
  6
CONTINUOUS
  0
LAYER
  2
26
 70
     0
 62
     7
  6
CONTINUOUS
  0
LAYER
  2
27
 70
     0
 62
     7
  6
CONTINUOUS
  0
LAYER
  2
28
 70
     0
 62
     7
  6
CONTINUOUS
  0
LAYER
  2
29
 70
     0
 62
     7
  6
CONTINUOUS
  0
LAYER
  2
30
 70
     0
 62
     7
  6
CONTINUOUS
  0
LAYER
  2
31
 70
     0
 62
     7
  6
CONTINUOUS
  0
LAYER
  2
32
 70
     0
 62
     7
  6
CONTINUOUS
  0
LAYER
  2
33
 70
     0
 62
     7
  6
CONTINUOUS
  0
LAYER
  2
34
 70
     0
 62
     7
  6
CONTINUOUS
  0
LAYER
  2
35
 70
     0
 62
     7
  6
CONTINUOUS
  0
LAYER
  2
36
 70
     0
 62
     7
  6
CONTINUOUS
  0
LAYER
  2
37
 70
     0
 62
     7
  6
CONTINUOUS
  0
LAYER
  2
38
 70
     0
 62
     7
  6
CONTINUOUS
  0
LAYER
  2
39
 70
     0
 62
     7
  6
CONTINUOUS
  0
LAYER
  2
40
 70
     0
 62
     7
  6
CONTINUOUS
  0
LAYER
  2
41
 70
     0
 62
     7
  6
CONTINUOUS
  0
LAYER
  2
42
 70
     0
 62
     7
  6
CONTINUOUS
  0
LAYER
  2
43
 70
     0
 62
     7
  6
CONTINUOUS
  0
LAYER
  2
44
 70
     0
 62
     7
  6
CONTINUOUS
  0
LAYER
  2
45
 70
     0
 62
     7
  6
CONTINUOUS
  0
LAYER
  2
46
 70
     0
 62
     7
  6
CONTINUOUS
  0
LAYER
  2
47
 70
     0
 62
     7
  6
CONTINUOUS
  0
LAYER
  2
48
 70
     0
 62
     7
  6
CONTINUOUS
  0
LAYER
  2
49
 70
     0
 62
     7
  6
CONTINUOUS
  0
LAYER
  2
50
 70
     0
 62
     7
  6
CONTINUOUS
  0
LAYER
  2
51
 70
     0
 62
     7
  6
CONTINUOUS
  0
LAYER
  2
52
 70
     0
 62
     7
  6
CONTINUOUS
  0
LAYER
  2
53
 70
     0
 62
     7
  6
CONTINUOUS
  0
LAYER
  2
54
 70
     0
 62
     7
  6
CONTINUOUS
  0
LAYER
  2
55
 70
     0
 62
     7
  6
CONTINUOUS
  0
LAYER
  2
56
 70
     0
 62
     7
  6
CONTINUOUS
  0
LAYER
  2
57
 70
     0
 62
     7
  6
CONTINUOUS
  0
LAYER
  2
58
 70
     0
 62
     7
  6
CONTINUOUS
  0
LAYER
  2
59
 70
     0
 62
     7
  6
CONTINUOUS
  0
LAYER
  2
60
 70
     0
 62
     7
  6
CONTINUOUS
  0
LAYER
  2
61
 70
     0
 62
     7
  6
CONTINUOUS
  0
LAYER
  2
62
 70
     0
 62
     7
  6
CONTINUOUS
  0
LAYER
  2
63
 70
     0
 62
     7
  6
CONTINUOUS
  0
LAYER
  2
64
 70
     0
 62
     7
  6
CONTINUOUS
  0
LAYER
  2
65
 70
     0
 62
     7
  6
CONTINUOUS
  0
LAYER
  2
66
 70
     0
 62
     7
  6
CONTINUOUS
  0
LAYER
  2
67
 70
     0
 62
     7
  6
CONTINUOUS
  0
LAYER
  2
68
 70
     0
 62
     7
  6
CONTINUOUS
  0
LAYER
  2
69
 70
     0
 62
     7
  6
CONTINUOUS
  0
LAYER
  2
70
 70
     0
 62
     7
  6
CONTINUOUS
  0
LAYER
  2
71
 70
     0
 62
     7
  6
CONTINUOUS
  0
LAYER
  2
72
 70
     0
 62
     7
  6
CONTINUOUS
  0
LAYER
  2
73
 70
     0
 62
     7
  6
CONTINUOUS
  0
LAYER
  2
74
 70
     0
 62
     7
  6
CONTINUOUS
  0
LAYER
  2
75
 70
     0
 62
     7
  6
CONTINUOUS
  0
LAYER
  2
76
 70
     0
 62
     7
  6
CONTINUOUS
  0
LAYER
  2
77
 70
     0
 62
     7
  6
CONTINUOUS
  0
LAYER
  2
78
 70
     0
 62
     7
  6
CONTINUOUS
  0
LAYER
  2
79
 70
     0
 62
     7
  6
CONTINUOUS
  0
LAYER
  2
80
 70
     0
 62
     7
  6
CONTINUOUS
  0
LAYER
  2
81
 70
     0
 62
     7
  6
CONTINUOUS
  0
LAYER
  2
82
 70
     0
 62
     7
  6
CONTINUOUS
  0
LAYER
  2
83
 70
     0
 62
     7
  6
CONTINUOUS
  0
LAYER
  2
84
 70
     0
 62
     7
  6
CONTINUOUS
  0
LAYER
  2
85
 70
     0
 62
     7
  6
CONTINUOUS
  0
LAYER
  2
86
 70
     0
 62
     7
  6
CONTINUOUS
  0
LAYER
  2
87
 70
     0
 62
     7
  6
CONTINUOUS
  0
LAYER
  2
88
 70
     0
 62
     7
  6
CONTINUOUS
  0
LAYER
  2
89
 70
     0
 62
     7
  6
CONTINUOUS
  0
LAYER
  2
90
 70
     0
 62
     7
  6
CONTINUOUS
  0
LAYER
  2
91
 70
     0
 62
     7
  6
CONTINUOUS
  0
LAYER
  2
92
 70
     0
 62
     7
  6
CONTINUOUS
  0
LAYER
  2
93
 70
     0
 62
     7
  6
CONTINUOUS
  0
LAYER
  2
94
 70
     0
 62
     7
  6
CONTINUOUS
  0
LAYER
  2
95
 70
     0
 62
     7
  6
CONTINUOUS
  0
LAYER
  2
96
 70
     0
 62
     7
  6
CONTINUOUS
  0
LAYER
  2
97
 70
     0
 62
     7
  6
CONTINUOUS
  0
LAYER
  2
98
 70
     0
 62
     7
  6
CONTINUOUS
  0
LAYER
  2
99
 70
     0
 62
     7
  6
CONTINUOUS
  0
LAYER
  2
100
 70
     0
 62
     7
  6
CONTINUOUS
  0
LAYER
  2
101
 70
     0
 62
     7
  6
CONTINUOUS
  0
LAYER
  2
102
 70
     0
 62
     7
  6
CONTINUOUS
  0
LAYER
  2
103
 70
     0
 62
     7
  6
CONTINUOUS
  0
LAYER
  2
104
 70
     0
 62
     7
  6
CONTINUOUS
  0
LAYER
  2
105
 70
     0
 62
     7
  6
CONTINUOUS
  0
LAYER
  2
106
 70
     0
 62
     7
  6
CONTINUOUS
  0
LAYER
  2
107
 70
     0
 62
     7
  6
CONTINUOUS
  0
LAYER
  2
108
 70
     0
 62
     7
  6
CONTINUOUS
  0
LAYER
  2
109
 70
     0
 62
     7
  6
CONTINUOUS
  0
LAYER
  2
110
 70
     0
 62
     7
  6
CONTINUOUS
  0
LAYER
  2
111
 70
     0
 62
     7
  6
CONTINUOUS
  0
LAYER
  2
112
 70
     0
 62
     7
  6
CONTINUOUS
  0
LAYER
  2
113
 70
     0
 62
     7
  6
CONTINUOUS
  0
LAYER
  2
114
 70
     0
 62
     7
  6
CONTINUOUS
  0
LAYER
  2
115
 70
     0
 62
     7
  6
CONTINUOUS
  0
LAYER
  2
116
 70
     0
 62
     7
  6
CONTINUOUS
  0
LAYER
  2
117
 70
     0
 62
     7
  6
CONTINUOUS
  0
LAYER
  2
118
 70
     0
 62
     7
  6
CONTINUOUS
  0
LAYER
  2
119
 70
     0
 62
     7
  6
CONTINUOUS
  0
LAYER
  2
120
 70
     0
 62
     7
  6
CONTINUOUS
  0
LAYER
  2
121
 70
     0
 62
     7
  6
CONTINUOUS
  0
LAYER
  2
122
 70
     0
 62
     7
  6
CONTINUOUS
  0
LAYER
  2
123
 70
     0
 62
     7
  6
CONTINUOUS
  0
LAYER
  2
124
 70
     0
 62
     7
  6
CONTINUOUS
  0
LAYER
  2
125
 70
     0
 62
     7
  6
CONTINUOUS
  0
LAYER
  2
126
 70
     0
 62
     7
  6
CONTINUOUS
  0
LAYER
  2
127
 70
     0
 62
     7
  6
CONTINUOUS
  0
LAYER
  2
128
 70
     0
 62
     7
  6
CONTINUOUS
  0
ENDTAB
  0
TABLE
  2
STYLE
 70
    18
  0
STYLE
  2
STANDARD
 70
     0
 40
0.0
 41
1.0
 50
0.0
 71
     0
 42
0.2
  3
txt.shx
  4
extfont.shx
  0
STYLE
  2
KANJI0
 70
     0
 40
3.0
 41
0.6
 50
0.0
 71
     0
 42
3.0
  3
txt.shx
  4
extfont.shx
  0
STYLE
  2
KANJI1
 70
     0
 40
6.0
 41
0.7
 50
0.0
 71
     0
 42
6.0
  3
txt.shx
  4
extfont.shx
  0
STYLE
  2
KANJI2
 70
     0
 40
3.0
 41
0.9
 50
0.0
 71
     0
 42
3.0
  3
txt.shx
  4
extfont.shx
  0
STYLE
  2
KANJI3
 70
     0
 40
4.0
 41
0.9
 50
0.0
 71
     0
 42
4.0
  3
txt.shx
  4
extfont.shx
  0
STYLE
  2
KANJI4
 70
     0
 40
2.5
 41
0.9
 50
0.0
 71
     0
 42
2.5
  3
txt.shx
  4
extfont.shx
  0
STYLE
  2
KANJI5
 70
     0
 40
2.0
 41
0.8
 50
0.0
 71
     0
 42
2.0
  3
txt.shx
  4
extfont.shx
  0
STYLE
  2
KANJI6
 70
     0
 40
3.0
 41
0.9
 50
0.0
 71
     0
 42
3.0
  3
txt.shx
  4
extfont.shx
  0
STYLE
  2
KANJI7
 70
     0
 40
6.0
 41
0.9
 50
0.0
 71
     0
 42
6.0
  3
txt.shx
  4
extfont.shx
  0
STYLE
  2
KANJI8
 70
     0
 40
2.5
 41
0.9
 50
0.0
 71
     0
 42
2.5
  3
txt.shx
  4
extfont.shx
  0
STYLE
  2
KANJI9
 70
     0
 40
3.0
 41
0.5
 50
0.0
 71
     0
 42
3.0
  3
txt.shx
  4
extfont.shx
  0
STYLE
  2
KANJI10
 70
     0
 40
3.0
 41
0.666666667
 50
0.0
 71
     0
 42
3.0
  3
txt.shx
  4
extfont.shx
  0
STYLE
  2
KANJI11
 70
     0
 40
1.5
 41
0.666666667
 50
0.0
 71
     0
 42
1.5
  3
txt.shx
  4
extfont.shx
  0
STYLE
  2
KANJI12
 70
     0
 40
1.0
 41
0.75
 50
0.0
 71
     0
 42
1.0
  3
txt.shx
  4
extfont.shx
  0
STYLE
  2
KANJI13
 70
     0
 40
1.8
 41
0.6
 50
0.0
 71
     0
 42
1.8
  3
txt.shx
  4
extfont.shx
  0
STYLE
  2
KANJI14
 70
     4
 40
3.0
 41
0.9
 50
0.0
 71
     0
 42
3.0
  3
txt.shx
  4
extfont.shx
  0
STYLE
  2
KANJI15
 70
     0
 40
1.5
 41
0.4
 50
0.0
 71
     0
 42
1.5
  3
txt.shx
  4
extfont.shx
  0
STYLE
  2
KANJI16
 70
     0
 40
1.5
 41
0.466666667
 50
0.0
 71
     0
 42
1.5
  3
txt.shx
  4
extfont.shx
  0
ENDTAB
  0
TABLE
  2
VIEW
 70
     0
  0
ENDTAB
  0
ENDSEC
  0
SECTION
  2
BLOCKS
  0
ENDSEC
  0
SECTION
  2
ENTITIES
  0
LINE
  8
0
  6
CONTINUOUS
 62
     2
 10
-11.865334795
 20
-5.0
 30
0.0
 11
-11.218287182
 21
-7.414814566
 31
0.0
  0
LINE
  8
0
  6
CONTINUOUS
 62
     2
 10
-11.865334795
 20
-5.0
 30
0.0
 11
-10.097567842
 21
-6.767766953
 31
0.0
  0
LINE
  8
0
  6
CONTINUOUS
 62
     2
 10
-11.865334795
 20
-5.0
 30
0.0
 11
-12.512382407
 21
-2.585185434
 31
0.0
  0
LINE
  8
0
  6
CONTINUOUS
 62
     2
 10
-11.865334795
 20
-5.0
 30
0.0
 11
-13.633101748
 21
-3.232233047
 31
0.0
  0
LINE
  8
0
  6
CONTINUOUS
 62
     2
 10
-7.535207776
 20
-2.5
 30
0.0
 11
-13.597385602
 21
-6.0
 31
0.0
  0
LINE
  8
0
  6
CONTINUOUS
 62
     2
 10
-7.535207776
 20
-2.5
 30
0.0
 11
-13.597385602
 21
-6.0
 31
0.0
  0
TEXT
  8
0
  6
CONTINUOUS
 62
     2
 10
-11.756360199
 20
-7.188749537
 30
0.3
 40
3.0
  1
０゜
 50
120.0
 41
0.6
 51
0.0
  7
KANJI0
  0
TEXT
  8
0
  6
CONTINUOUS
 62
     6
 10
230.0
 20
92.0
 30
0.6
 40
6.0
  1
□Ｅｆ－１５０ＮＷ□
 50
0.0
 41
0.7
 51
0.0
  7
KANJI1
  0
TEXT
  8
0
  6
CONTINUOUS
 62
     2
 10
230.0
 20
85.8
 30
0.3
 40
3.0
  1
端子カバー付，２指針式
 50
0.0
 41
0.9
 51
0.0
  7
KANJI2
  0
TEXT
  8
0
  6
CONTINUOUS
 62
     1
 10
230.0
 20
80.8
 30
0.4
 40
4.0
  1
エッジワイズ形計器
 50
0.0
 41
0.9
 51
0.0
  7
KANJI3
  0
TEXT
  8
0
  6
CONTINUOUS
 62
     2
 10
10.0
 20
58.0
 30
0.3
 40
3.0
  1
目盛長　１００ｍｍ
 50
0.0
 41
0.9
 51
0.0
  7
KANJI2
  0
TEXT
  8
0
  6
CONTINUOUS
 62
     2
 10
46.0
 20
58.0
 30
0.3
 40
3.0
  1
重量　１．１ｋｇ
 50
0.0
 41
0.9
 51
0.0
  7
KANJI2
  0
TEXT
  8
0
  6
CONTINUOUS
 62
     2
 10
149.0
 20
23.0
 30
0.25
 40
2.5
  1
４　　－
 50
0.0
 41
0.9
 51
0.0
  7
KANJI4
  0
TEXT
  8
0
  6
CONTINUOUS
 62
     2
 10
149.0
 20
30.0
 30
0.25
 40
2.5
  1
３　　＋
 50
0.0
 41
0.9
 51
0.0
  7
KANJI4
  0
TEXT
  8
0
  6
CONTINUOUS
 62
     2
 10
153.6
 20
25.5
 30
0.16
 40
2.0
  1
ＩＮＰＵＴ
 50
0.0
 41
0.8
 51
0.0
  7
KANJI5
  0
TEXT
  8
0
  6
CONTINUOUS
 62
     2
 10
153.6
 20
28.0
 30
0.16
 40
2.0
  1
ＲＩＧＨＴ
 50
0.0
 41
0.8
 51
0.0
  7
KANJI5
  0
ARC
  8
0
  6
CONTINUOUS
 62
     2
 10
163.0
 20
31.7
 30
0.0
 40
1.0
 50
0.0
 51
90.0
  0
ARC
  8
0
  6
CONTINUOUS
 62
     2
 10
163.0
 20
23.7
 30
0.0
 40
1.0
 50
270.0
 51
0.0
  0
ARC
  8
0
  6
CONTINUOUS
 62
     2
 10
165.0
 20
28.7
 30
0.0
 40
1.0
 50
180.0
 51
270.0
  0
ARC
  8
0
  6
CONTINUOUS
 62
     2
 10
165.0
 20
26.7
 30
0.0
 40
1.0
 50
90.0
 51
180.0
  0
LINE
  8
0
  6
CONTINUOUS
 62
     2
 10
164.0
 20
31.7
 30
0.0
 11
164.0
 21
28.7
 31
0.0
  0
LINE
  8
0
  6
CONTINUOUS
 62
     2
 10
164.0
 20
26.7
 30
0.0
 11
164.0
 21
23.7
 31
0.0
  0
TEXT
  8
0
  6
CONTINUOUS
 62
     2
 10
149.0
 20
42.0
 30
0.25
 40
2.5
  1
１　　＋
 50
0.0
 41
0.9
 51
0.0
  7
KANJI4
  0
TEXT
  8
0
  6
CONTINUOUS
 62
     2
 10
149.0
 20
35.0
 30
0.25
 40
2.5
  1
２　　－
 50
0.0
 41
0.9
 51
0.0
  7
KANJI4
  0
TEXT
  8
0
  6
CONTINUOUS
 62
     2
 10
154.6
 20
40.0
 30
0.16
 40
2.0
  1
ＬＥＦＴ
 50
0.0
 41
0.8
 51
0.0
  7
KANJI5
  0
TEXT
  8
0
  6
CONTINUOUS
 62
     2
 10
153.6
 20
37.5
 30
0.16
 40
2.0
  1
ＩＮＰＵＴ
 50
0.0
 41
0.8
 51
0.0
  7
KANJI5
  0
ARC
  8
0
  6
CONTINUOUS
 62
     2
 10
163.0
 20
43.7
 30
0.0
 40
1.0
 50
0.0
 51
90.0
  0
ARC
  8
0
  6
CONTINUOUS
 62
     2
 10
163.0
 20
35.7
 30
0.0
 40
1.0
 50
270.0
 51
0.0
  0
ARC
  8
0
  6
CONTINUOUS
 62
     2
 10
165.0
 20
40.7
 30
0.0
 40
1.0
 50
180.0
 51
270.0
  0
ARC
  8
0
  6
CONTINUOUS
 62
     2
 10
165.0
 20
38.7
 30
0.0
 40
1.0
 50
90.0
 51
180.0
  0
LINE
  8
0
  6
CONTINUOUS
 62
     2
 10
164.0
 20
43.7
 30
0.0
 11
164.0
 21
40.7
 31
0.0
  0
LINE
  8
0
  6
CONTINUOUS
 62
     2
 10
164.0
 20
38.7
 30
0.0
 11
164.0
 21
35.7
 31
0.0
  0
TEXT
  8
0
  6
CONTINUOUS
 62
     2
 10
147.0
 20
46.0
 30
0.3
 40
3.0
  1
端子記号
 50
0.0
 41
0.9
 51
0.0
  7
KANJI6
  0
TEXT
  8
0
  6
CONTINUOUS
 62
     2
 10
167.0
 20
26.2
 30
0.3
 40
3.0
  1
計器前面から見て右側指針
 50
0.0
 41
0.9
 51
0.0
  7
KANJI2
  0
TEXT
  8
0
  6
CONTINUOUS
 62
     2
 10
167.0
 20
38.2
 30
0.3
 40
3.0
  1
計器前面から見て左側指針
 50
0.0
 41
0.9
 51
0.0
  7
KANJI2
  0
TEXT
  8
0
  6
CONTINUOUS
 62
     3
 10
230.0
 20
9.0
 30
0.6
 40
6.0
  1
ＭＳ－１２２５５
 50
0.0
 41
0.9
 51
0.0
  7
KANJI7
  0
LINE
  8
0
  6
CONTINUOUS
 62
     1
 10
18.0
 20
86.0
 30
0.0
 11
18.0
 21
142.5
 31
0.0
  0
LINE
  8
0
  6
CONTINUOUS
 62
     1
 10
22.0
 20
142.5
 30
0.0
 11
22.0
 21
86.0
 31
0.0
  0
LINE
  8
0
  6
CONTINUOUS
 62
     1
 10
10.0
 20
76.5
 30
0.0
 11
30.0
 21
76.5
 31
0.0
  0
LINE
  8
0
  6
CONTINUOUS
 62
     1
 10
30.0
 20
76.5
 30
0.0
 11
30.0
 21
151.5
 31
0.0
  0
LINE
  8
0
  6
CONTINUOUS
 62
     1
 10
30.0
 20
151.5
 30
0.0
 11
10.0
 21
151.5
 31
0.0
  0
LINE
  8
0
  6
CONTINUOUS
 62
     1
 10
10.0
 20
151.5
 30
0.0
 11
10.0
 21
76.5
 31
0.0
  0
LINE
  8
0
  6
CONTINUOUS
 62
     1
 10
9.5
 20
76.5
 30
0.0
 11
10.0
 21
76.5
 31
0.0
  0
ARC
  8
0
  6
CONTINUOUS
 62
     1
 10
9.5
 20
77.5
 30
0.0
 40
1.0
 50
180.0
 51
270.0
  0
LINE
  8
0
  6
CONTINUOUS
 62
     1
 10
10.0
 20
151.5
 30
0.0
 11
9.5
 21
151.5
 31
0.0
  0
LINE
  8
0
  6
CONTINUOUS
 62
     1
 10
8.5
 20
150.5
 30
0.0
 11
8.5
 21
77.5
 31
0.0
  0
ARC
  8
0
  6
CONTINUOUS
 62
     1
 10
9.5
 20
150.5
 30
0.0
 40
1.0
 50
90.0
 51
180.0
  0
LINE
  8
0
  6
CONTINUOUS
 62
     1
 10
30.5
 20
151.5
 30
0.0
 11
30.0
 21
151.5
 31
0.0
  0
ARC
  8
0
  6
CONTINUOUS
 62
     1
 10
30.5
 20
150.5
 30
0.0
 40
1.0
 50
0.0
 51
90.0
  0
LINE
  8
0
  6
CONTINUOUS
 62
     1
 10
30.0
 20
76.5
 30
0.0
 11
30.5
 21
76.5
 31
0.0
  0
LINE
  8
0
  6
CONTINUOUS
 62
     1
 10
31.5
 20
77.5
 30
0.0
 11
31.5
 21
150.5
 31
0.0
  0
ARC
  8
0
  6
CONTINUOUS
 62
     1
 10
30.5
 20
77.5
 30
0.0
 40
1.0
 50
270.0
 51
0.0
  0
LINE
  8
0
  6
CONTINUOUS
 62
     1
 10
10.0
 20
144.0
 30
0.0
 11
30.0
 21
144.0
 31
0.0
  0
LINE
  8
0
  6
CONTINUOUS
 62
     1
 10
10.0
 20
84.0
 30
0.0
 11
30.0
 21
84.0
 31
0.0
  0
LINE
  8
0
  6
CONTINUOUS
 62
     1
 10
28.5
 20
84.0
 30
0.0
 11
28.5
 21
144.0
 31
0.0
  0
LINE
  8
0
  6
CONTINUOUS
 62
     1
 10
11.5
 20
144.0
 30
0.0
 11
11.5
 21
84.0
 31
0.0
  0
LINE
  8
0
  6
CONTINUOUS
 62
     1
 10
11.5
 20
142.5
 30
0.0
 11
28.5
 21
142.5
 31
0.0
  0
LINE
  8
0
  6
CONTINUOUS
 62
     1
 10
11.5
 20
86.0
 30
0.0
 11
28.5
 21
86.0
 31
0.0
  0
POLYLINE
  8
0
  6
CONTINUOUS
 62
     1
 66
     1
 70
     1
  0
VERTEX
  8
0
  6
CONTINUOUS
 62
     1
 10
24.475
 20
81.0
 30
0.0
 42
0.022306592
  0
VERTEX
  8
0
  6
CONTINUOUS
 62
     1
 10
24.471289831
 20
81.083119901
 30
0.0
 42
0.022293235
  0
VERTEX
  8
0
  6
CONTINUOUS
 62
     1
 10
24.460187559
 20
81.16560721
 30
0.0
 42
0.022265065
  0
VERTEX
  8
0
  6
CONTINUOUS
 62
     1
 10
24.441777681
 20
81.246834147
 30
0.0
 42
0.022223045
  0
VERTEX
  8
0
  6
CONTINUOUS
 62
     1
 10
24.416200305
 20
81.326182528
 30
0.0
 42
0.022168599
  0
VERTEX
  8
0
  6
CONTINUOUS
 62
     1
 10
24.383650092
 20
81.403048463
 30
0.0
 42
0.022103553
  0
VERTEX
  8
0
  6
CONTINUOUS
 62
     1
 10
24.344374769
 20
81.476846955
 30
0.0
 42
0.022030052
  0
VERTEX
  8
0
  6
CONTINUOUS
 62
     1
 10
24.298673243
 20
81.547016355
 30
0.0
 42
0.021950477
  0
VERTEX
  8
0
  6
CONTINUOUS
 62
     1
 10
24.246893332
 20
81.613022629
 30
0.0
 42
0.021867356
  0
VERTEX
  8
0
  6
CONTINUOUS
 62
     1
 10
24.189429112
 20
81.674363431
 30
0.0
 42
0.021783272
  0
VERTEX
  8
0
  6
CONTINUOUS
 62
     1
 10
24.126717919
 20
81.730571921
 30
0.0
 42
0.02170078
  0
VERTEX
  8
0
  6
CONTINUOUS
 62
     1
 10
24.059237025
 20
81.781220317
 30
0.0
 42
0.02162233
  0
VERTEX
  8
0
  6
CONTINUOUS
 62
     1
 10
23.9875
 20
81.825923154
 30
0.0
 42
0.021550201
  0
VERTEX
  8
0
  6
CONTINUOUS
 62
     1
 10
23.912052805
 20
81.864340218
 30
0.0
 42
0.021486442
  0
VERTEX
  8
0
  6
CONTINUOUS
 62
     1
 10
23.83346964
 20
81.89617913
 30
0.0
 42
0.021432831
  0
VERTEX
  8
0
  6
CONTINUOUS
 62
     1
 10
23.752348569
 20
81.921197579
 30
0.0
 42
0.021390837
  0
VERTEX
  8
0
  6
CONTINUOUS
 62
     1
 10
23.669306973
 20
81.939205157
 30
0.0
 42
0.021361596
  0
VERTEX
  8
0
  6
CONTINUOUS
 62
     1
 10
23.584976849
 20
81.950064817
 30
0.0
 42
0.02134589
  0
VERTEX
  8
0
  6
CONTINUOUS
 62
     1
 10
23.5
 20
81.953693911
 30
0.0
 42
0.021344135
  0
VERTEX
  8
0
  6
CONTINUOUS
 62
     1
 10
23.415023151
 20
81.950064817
 30
0.0
 42
0.021356378
  0
VERTEX
  8
0
  6
CONTINUOUS
 62
     1
 10
23.330693027
 20
81.939205157
 30
0.0
 42
0.021382295
  0
VERTEX
  8
0
  6
CONTINUOUS
 62
     1
 10
23.247651431
 20
81.921197579
 30
0.0
 42
0.021421193
  0
VERTEX
  8
0
  6
CONTINUOUS
 62
     1
 10
23.16653036
 20
81.89617913
 30
0.0
 42
0.021472024
  0
VERTEX
  8
0
  6
CONTINUOUS
 62
     1
 10
23.087947195
 20
81.864340218
 30
0.0
 42
0.021533402
  0
VERTEX
  8
0
  6
CONTINUOUS
 62
     1
 10
23.0125
 20
81.825923154
 30
0.0
 42
0.021603621
  0
VERTEX
  8
0
  6
CONTINUOUS
 62
     1
 10
22.940762975
 20
81.781220317
 30
0.0
 42
0.021680697
  0
VERTEX
  8
0
  6
CONTINUOUS
 62
     1
 10
22.873282081
 20
81.730571921
 30
0.0
 42
0.021762402
  0
VERTEX
  8
0
  6
CONTINUOUS
 62
     1
 10
22.810570888
 20
81.674363431
 30
0.0
 42
0.021846324
  0
VERTEX
  8
0
  6
CONTINUOUS
 62
     1
 10
22.753106668
 20
81.613022629
 30
0.0
 42
0.021929929
  0
VERTEX
  8
0
  6
CONTINUOUS
 62
     1
 10
22.701326757
 20
81.547016355
 30
0.0
 42
0.022010631
  0
VERTEX
  8
0
  6
CONTINUOUS
 62
     1
 10
22.655625231
 20
81.476846955
 30
0.0
 42
0.022085881
  0
VERTEX
  8
0
  6
CONTINUOUS
 62
     1
 10
22.616349908
 20
81.403048463
 30
0.0
 42
0.022153253
  0
VERTEX
  8
0
  6
CONTINUOUS
 62
     1
 10
22.583799695
 20
81.326182528
 30
0.0
 42
0.022210533
  0
VERTEX
  8
0
  6
CONTINUOUS
 62
     1
 10
22.558222319
 20
81.246834147
 30
0.0
 42
0.02225581
  0
VERTEX
  8
0
  6
CONTINUOUS
 62
     1
 10
22.539812441
 20
81.16560721
 30
0.0
 42
0.022287552
  0
VERTEX
  8
0
  6
CONTINUOUS
 62
     1
 10
22.528710169
 20
81.083119901
 30
0.0
 42
0.022304676
  0
VERTEX
  8
0
  6
CONTINUOUS
 62
     1
 10
22.525
 20
81.0
 30
0.0
 42
0.022306592
  0
VERTEX
  8
0
  6
CONTINUOUS
 62
     1
 10
22.528710169
 20
80.916880099
 30
0.0
 42
0.022293235
  0
VERTEX
  8
0
  6
CONTINUOUS
 62
     1
 10
22.539812441
 20
80.83439279
 30
0.0
 42
0.022265065
  0
VERTEX
  8
0
  6
CONTINUOUS
 62
     1
 10
22.558222319
 20
80.753165853
 30
0.0
 42
0.022223045
  0
VERTEX
  8
0
  6
CONTINUOUS
 62
     1
 10
22.583799695
 20
80.673817472
 30
0.0
 42
0.022168599
  0
VERTEX
  8
0
  6
CONTINUOUS
 62
     1
 10
22.616349908
 20
80.596951537
 30
0.0
 42
0.022103553
  0
VERTEX
  8
0
  6
CONTINUOUS
 62
     1
 10
22.655625231
 20
80.523153045
 30
0.0
 42
0.022030052
  0
VERTEX
  8
0
  6
CONTINUOUS
 62
     1
 10
22.701326757
 20
80.452983645
 30
0.0
 42
0.021950477
  0
VERTEX
  8
0
  6
CONTINUOUS
 62
     1
 10
22.753106668
 20
80.386977371
 30
0.0
 42
0.021867356
  0
VERTEX
  8
0
  6
CONTINUOUS
 62
     1
 10
22.810570888
 20
80.325636569
 30
0.0
 42
0.021783272
  0
VERTEX
  8
0
  6
CONTINUOUS
 62
     1
 10
22.873282081
 20
80.269428079
 30
0.0
 42
0.02170078
  0
VERTEX
  8
0
  6
CONTINUOUS
 62
     1
 10
22.940762975
 20
80.218779683
 30
0.0
 42
0.02162233
  0
VERTEX
  8
0
  6
CONTINUOUS
 62
     1
 10
23.0125
 20
80.174076846
 30
0.0
 42
0.021550201
  0
VERTEX
  8
0
  6
CONTINUOUS
 62
     1
 10
23.087947195
 20
80.135659782
 30
0.0
 42
0.021486442
  0
VERTEX
  8
0
  6
CONTINUOUS
 62
     1
 10
23.16653036
 20
80.10382087
 30
0.0
 42
0.021432831
  0
VERTEX
  8
0
  6
CONTINUOUS
 62
     1
 10
23.247651431
 20
80.078802421
 30
0.0
 42
0.021390837
  0
VERTEX
  8
0
  6
CONTINUOUS
 62
     1
 10
23.330693027
 20
80.060794843
 30
0.0
 42
0.021361596
  0
VERTEX
  8
0
  6
CONTINUOUS
 62
     1
 10
23.415023151
 20
80.049935183
 30
0.0
 42
0.02134589
  0
VERTEX
  8
0
  6
CONTINUOUS
 62
     1
 10
23.5
 20
80.046306089
 30
0.0
 42
0.021344135
  0
VERTEX
  8
0
  6
CONTINUOUS
 62
     1
 10
23.584976849
 20
80.049935183
 30
0.0
 42
0.021356378
  0
VERTEX
  8
0
  6
CONTINUOUS
 62
     1
 10
23.669306973
 20
80.060794843
 30
0.0
 42
0.021382295
  0
VERTEX
  8
0
  6
CONTINUOUS
 62
     1
 10
23.752348569
 20
80.078802421
 30
0.0
 42
0.021421193
  0
VERTEX
  8
0
  6
CONTINUOUS
 62
     1
 10
23.83346964
 20
80.10382087
 30
0.0
 42
0.021472024
  0
VERTEX
  8
0
  6
CONTINUOUS
 62
     1
 10
23.912052805
 20
80.135659782
 30
0.0
 42
0.021533402
  0
VERTEX
  8
0
  6
CONTINUOUS
 62
     1
 10
23.9875
 20
80.174076846
 30
0.0
 42
0.021603621
  0
VERTEX
  8
0
  6
CONTINUOUS
 62
     1
 10
24.059237025
 20
80.218779683
 30
0.0
 42
0.021680697
  0
VERTEX
  8
0
  6
CONTINUOUS
 62
     1
 10
24.126717919
 20
80.269428079
 30
0.0
 42
0.021762402
  0
VERTEX
  8
0
  6
CONTINUOUS
 62
     1
 10
24.189429112
 20
80.325636569
 30
0.0
 42
0.021846324
  0
VERTEX
  8
0
  6
CONTINUOUS
 62
     1
 10
24.246893332
 20
80.386977371
 30
0.0
 42
0.021929929
  0
VERTEX
  8
0
  6
CONTINUOUS
 62
     1
 10
24.298673243
 20
80.452983645
 30
0.0
 42
0.022010631
  0
VERTEX
  8
0
  6
CONTINUOUS
 62
     1
 10
24.344374769
 20
80.523153045
 30
0.0
 42
0.022085881
  0
VERTEX
  8
0
  6
CONTINUOUS
 62
     1
 10
24.383650092
 20
80.596951537
 30
0.0
 42
0.022153253
  0
VERTEX
  8
0
  6
CONTINUOUS
 62
     1
 10
24.416200305
 20
80.673817472
 30
0.0
 42
0.022210533
  0
VERTEX
  8
0
  6
CONTINUOUS
 62
     1
 10
24.441777681
 20
80.753165853
 30
0.0
 42
0.02225581
  0
VERTEX
  8
0
  6
CONTINUOUS
 62
     1
 10
24.460187559
 20
80.83439279
 30
0.0
 42
0.022287552
  0
VERTEX
  8
0
  6
CONTINUOUS
 62
     1
 10
24.471289831
 20
80.916880099
 30
0.0
 42
0.022304676
  0
SEQEND
  8
0
  6
CONTINUOUS
 62
     1
  0
LINE
  8
0
  6
CONTINUOUS
 62
     1
 10
23.3
 20
81.933413717
 30
0.0
 11
23.3
 21
80.066586283
 31
0.0
  0
LINE
  8
0
  6
CONTINUOUS
 62
     1
 10
23.7
 20
80.066586283
 30
0.0
 11
23.7
 21
81.933413717
 31
0.0
  0
POLYLINE
  8
0
  6
CONTINUOUS
 62
     1
 66
     1
 70
     1
  0
VERTEX
  8
0
  6
CONTINUOUS
 62
     1
 10
17.475
 20
81.0
 30
0.0
 42
0.022306592
  0
VERTEX
  8
0
  6
CONTINUOUS
 62
     1
 10
17.471289831
 20
81.083119901
 30
0.0
 42
0.022293235
  0
VERTEX
  8
0
  6
CONTINUOUS
 62
     1
 10
17.460187559
 20
81.16560721
 30
0.0
 42
0.022265065
  0
VERTEX
  8
0
  6
CONTINUOUS
 62
     1
 10
17.441777681
 20
81.246834147
 30
0.0
 42
0.022223045
  0
VERTEX
  8
0
  6
CONTINUOUS
 62
     1
 10
17.416200305
 20
81.326182528
 30
0.0
 42
0.022168599
  0
VERTEX
  8
0
  6
CONTINUOUS
 62
     1
 10
17.383650092
 20
81.403048463
 30
0.0
 42
0.022103553
  0
VERTEX
  8
0
  6
CONTINUOUS
 62
     1
 10
17.344374769
 20
81.476846955
 30
0.0
 42
0.022030052
  0
VERTEX
  8
0
  6
CONTINUOUS
 62
     1
 10
17.298673243
 20
81.547016355
 30
0.0
 42
0.021950477
  0
VERTEX
  8
0
  6
CONTINUOUS
 62
     1
 10
17.246893332
 20
81.613022629
 30
0.0
 42
0.021867356
  0
VERTEX
  8
0
  6
CONTINUOUS
 62
     1
 10
17.189429112
 20
81.674363431
 30
0.0
 42
0.021783272
  0
VERTEX
  8
0
  6
CONTINUOUS
 62
     1
 10
17.126717919
 20
81.730571921
 30
0.0
 42
0.02170078
  0
VERTEX
  8
0
  6
CONTINUOUS
 62
     1
 10
17.059237025
 20
81.781220317
 30
0.0
 42
0.02162233
  0
VERTEX
  8
0
  6
CONTINUOUS
 62
     1
 10
16.9875
 20
81.825923154
 30
0.0
 42
0.021550201
  0
VERTEX
  8
0
  6
CONTINUOUS
 62
     1
 10
16.912052805
 20
81.864340218
 30
0.0
 42
0.021486442
  0
VERTEX
  8
0
  6
CONTINUOUS
 62
     1
 10
16.83346964
 20
81.89617913
 30
0.0
 42
0.021432831
  0
VERTEX
  8
0
  6
CONTINUOUS
 62
     1
 10
16.752348569
 20
81.921197579
 30
0.0
 42
0.021390837
  0
VERTEX
  8
0
  6
CONTINUOUS
 62
     1
 10
16.669306973
 20
81.939205157
 30
0.0
 42
0.021361596
  0
VERTEX
  8
0
  6
CONTINUOUS
 62
     1
 10
16.584976849
 20
81.950064817
 30
0.0
 42
0.02134589
  0
VERTEX
  8
0
  6
CONTINUOUS
 62
     1
 10
16.5
 20
81.953693911
 30
0.0
 42
0.021344135
  0
VERTEX
  8
0
  6
CONTINUOUS
 62
     1
 10
16.415023151
 20
81.950064817
 30
0.0
 42
0.021356378
  0
VERTEX
  8
0
  6
CONTINUOUS
 62
     1
 10
16.330693027
 20
81.939205157
 30
0.0
 42
0.021382295
  0
VERTEX
  8
0
  6
CONTINUOUS
 62
     1
 10
16.247651431
 20
81.921197579
 30
0.0
 42
0.021421193
  0
VERTEX
  8
0
  6
CONTINUOUS
 62
     1
 10
16.16653036
 20
81.89617913
 30
0.0
 42
0.021472024
  0
VERTEX
  8
0
  6
CONTINUOUS
 62
     1
 10
16.087947195
 20
81.864340218
 30
0.0
 42
0.021533402
  0
VERTEX
  8
0
  6
CONTINUOUS
 62
     1
 10
16.0125
 20
81.825923154
 30
0.0
 42
0.021603621
  0
VERTEX
  8
0
  6
CONTINUOUS
 62
     1
 10
15.940762975
 20
81.781220317
 30
0.0
 42
0.021680697
  0
VERTEX
  8
0
  6
CONTINUOUS
 62
     1
 10
15.873282081
 20
81.730571921
 30
0.0
 42
0.021762402
  0
VERTEX
  8
0
  6
CONTINUOUS
 62
     1
 10
15.810570888
 20
81.674363431
 30
0.0
 42
0.021846324
  0
VERTEX
  8
0
  6
CONTINUOUS
 62
     1
 10
15.753106668
 20
81.613022629
 30
0.0
 42
0.021929929
  0
VERTEX
  8
0
  6
CONTINUOUS
 62
     1
 10
15.701326757
 20
81.547016355
 30
0.0
 42
0.022010631
  0
VERTEX
  8
0
  6
CONTINUOUS
 62
     1
 10
15.655625231
 20
81.476846955
 30
0.0
 42
0.022085881
  0
VERTEX
  8
0
  6
CONTINUOUS
 62
     1
 10
15.616349908
 20
81.403048463
 30
0.0
 42
0.022153253
  0
VERTEX
  8
0
  6
CONTINUOUS
 62
     1
 10
15.583799695
 20
81.326182528
 30
0.0
 42
0.022210533
  0
VERTEX
  8
0
  6
CONTINUOUS
 62
     1
 10
15.558222319
 20
81.246834147
 30
0.0
 42
0.02225581
  0
VERTEX
  8
0
  6
CONTINUOUS
 62
     1
 10
15.539812441
 20
81.16560721
 30
0.0
 42
0.022287552
  0
VERTEX
  8
0
  6
CONTINUOUS
 62
     1
 10
15.528710169
 20
81.083119901
 30
0.0
 42
0.022304676
  0
VERTEX
  8
0
  6
CONTINUOUS
 62
     1
 10
15.525
 20
81.0
 30
0.0
 42
0.022306592
  0
VERTEX
  8
0
  6
CONTINUOUS
 62
     1
 10
15.528710169
 20
80.916880099
 30
0.0
 42
0.022293235
  0
VERTEX
  8
0
  6
CONTINUOUS
 62
     1
 10
15.539812441
 20
80.83439279
 30
0.0
 42
0.022265065
  0
VERTEX
  8
0
  6
CONTINUOUS
 62
     1
 10
15.558222319
 20
80.753165853
 30
0.0
 42
0.022223045
  0
VERTEX
  8
0
  6
CONTINUOUS
 62
     1
 10
15.583799695
 20
80.673817472
 30
0.0
 42
0.022168599
  0
VERTEX
  8
0
  6
CONTINUOUS
 62
     1
 10
15.616349908
 20
80.596951537
 30
0.0
 42
0.022103553
  0
VERTEX
  8
0
  6
CONTINUOUS
 62
     1
 10
15.655625231
 20
80.523153045
 30
0.0
 42
0.022030052
  0
VERTEX
  8
0
  6
CONTINUOUS
 62
     1
 10
15.701326757
 20
80.452983645
 30
0.0
 42
0.021950477
  0
VERTEX
  8
0
  6
CONTINUOUS
 62
     1
 10
15.753106668
 20
80.386977371
 30
0.0
 42
0.021867356
  0
VERTEX
  8
0
  6
CONTINUOUS
 62
     1
 10
15.810570888
 20
80.325636569
 30
0.0
 42
0.021783272
  0
VERTEX
  8
0
  6
CONTINUOUS
 62
     1
 10
15.873282081
 20
80.269428079
 30
0.0
 42
0.02170078
  0
VERTEX
  8
0
  6
CONTINUOUS
 62
     1
 10
15.940762975
 20
80.218779683
 30
0.0
 42
0.02162233
  0
VERTEX
  8
0
  6
CONTINUOUS
 62
     1
 10
16.0125
 20
80.174076846
 30
0.0
 42
0.021550201
  0
VERTEX
  8
0
  6
CONTINUOUS
 62
     1
 10
16.087947195
 20
80.135659782
 30
0.0
 42
0.021486442
  0
VERTEX
  8
0
  6
CONTINUOUS
 62
     1
 10
16.16653036
 20
80.10382087
 30
0.0
 42
0.021432831
  0
VERTEX
  8
0
  6
CONTINUOUS
 62
     1
 10
16.247651431
 20
80.078802421
 30
0.0
 42
0.021390837
  0
VERTEX
  8
0
  6
CONTINUOUS
 62
     1
 10
16.330693027
 20
80.060794843
 30
0.0
 42
0.021361596
  0
VERTEX
  8
0
  6
CONTINUOUS
 62
     1
 10
16.415023151
 20
80.049935183
 30
0.0
 42
0.02134589
  0
VERTEX
  8
0
  6
CONTINUOUS
 62
     1
 10
16.5
 20
80.046306089
 30
0.0
 42
0.021344135
  0
VERTEX
  8
0
  6
CONTINUOUS
 62
     1
 10
16.584976849
 20
80.049935183
 30
0.0
 42
0.021356378
  0
VERTEX
  8
0
  6
CONTINUOUS
 62
     1
 10
16.669306973
 20
80.060794843
 30
0.0
 42
0.021382295
  0
VERTEX
  8
0
  6
CONTINUOUS
 62
     1
 10
16.752348569
 20
80.078802421
 30
0.0
 42
0.021421193
  0
VERTEX
  8
0
  6
CONTINUOUS
 62
     1
 10
16.83346964
 20
80.10382087
 30
0.0
 42
0.021472024
  0
VERTEX
  8
0
  6
CONTINUOUS
 62
     1
 10
16.912052805
 20
80.135659782
 30
0.0
 42
0.021533402
  0
VERTEX
  8
0
  6
CONTINUOUS
 62
     1
 10
16.9875
 20
80.174076846
 30
0.0
 42
0.021603621
  0
VERTEX
  8
0
  6
CONTINUOUS
 62
     1
 10
17.059237025
 20
80.218779683
 30
0.0
 42
0.021680697
  0
VERTEX
  8
0
  6
CONTINUOUS
 62
     1
 10
17.126717919
 20
80.269428079
 30
0.0
 42
0.021762402
  0
VERTEX
  8
0
  6
CONTINUOUS
 62
     1
 10
17.189429112
 20
80.325636569
 30
0.0
 42
0.021846324
  0
VERTEX
  8
0
  6
CONTINUOUS
 62
     1
 10
17.246893332
 20
80.386977371
 30
0.0
 42
0.021929929
  0
VERTEX
  8
0
  6
CONTINUOUS
 62
     1
 10
17.298673243
 20
80.452983645
 30
0.0
 42
0.022010631
  0
VERTEX
  8
0
  6
CONTINUOUS
 62
     1
 10
17.344374769
 20
80.523153045
 30
0.0
 42
0.022085881
  0
VERTEX
  8
0
  6
CONTINUOUS
 62
     1
 10
17.383650092
 20
80.596951537
 30
0.0
 42
0.022153253
  0
VERTEX
  8
0
  6
CONTINUOUS
 62
     1
 10
17.416200305
 20
80.673817472
 30
0.0
 42
0.022210533
  0
VERTEX
  8
0
  6
CONTINUOUS
 62
     1
 10
17.441777681
 20
80.753165853
 30
0.0
 42
0.02225581
  0
VERTEX
  8
0
  6
CONTINUOUS
 62
     1
 10
17.460187559
 20
80.83439279
 30
0.0
 42
0.022287552
  0
VERTEX
  8
0
  6
CONTINUOUS
 62
     1
 10
17.471289831
 20
80.916880099
 30
0.0
 42
0.022304676
  0
SEQEND
  8
0
  6
CONTINUOUS
 62
     1
  0
LINE
  8
0
  6
CONTINUOUS
 62
     1
 10
16.3
 20
81.933413717
 30
0.0
 11
16.3
 21
80.066586283
 31
0.0
  0
LINE
  8
0
  6
CONTINUOUS
 62
     1
 10
16.7
 20
80.066586283
 30
0.0
 11
16.7
 21
81.933413717
 31
0.0
  0
CIRCLE
  8
0
  6
CONTINUOUS
 62
     2
 10
21.75
 20
88.0
 30
0.0
 40
0.1
  0
CIRCLE
  8
0
  6
CONTINUOUS
 62
     2
 10
18.25
 20
88.0
 30
0.0
 40
0.1
  0
LINE
  8
0
  6
CONTINUOUS
 62
     2
 10
19.6625
 20
89.325
 30
0.0
 11
19.6625
 21
89.175
 31
0.0
  0
LINE
  8
0
  6
CONTINUOUS
 62
     2
 10
18.125
 20
89.25
 30
0.0
 11
19.5375
 21
89.25
 31
0.0
  0
LINE
  8
0
  6
CONTINUOUS
 62
     2
 10
18.0
 20
89.325
 30
0.0
 11
19.6625
 21
89.325
 31
0.0
  0
LINE
  8
0
  6
CONTINUOUS
 62
     2
 10
19.6625
 20
89.175
 30
0.0
 11
18.0
 21
89.175
 31
0.0
  0
LINE
  8
0
  6
CONTINUOUS
 62
     2
 10
18.0
 20
90.25
 30
0.0
 11
19.1625
 21
90.25
 31
0.0
  0
LINE
  8
0
  6
CONTINUOUS
 62
     2
 10
19.1625
 20
90.25
 30
0.0
 11
18.0
 21
90.25
 31
0.0
  0
LINE
  8
0
  6
CONTINUOUS
 62
     2
 10
18.0
 20
91.25
 30
0.0
 11
19.1625
 21
91.25
 31
0.0
  0
LINE
  8
0
  6
CONTINUOUS
 62
     2
 10
19.1625
 20
91.25
 30
0.0
 11
18.0
 21
91.25
 31
0.0
  0
LINE
  8
0
  6
CONTINUOUS
 62
     2
 10
18.0
 20
92.25
 30
0.0
 11
19.1625
 21
92.25
 31
0.0
  0
LINE
  8
0
  6
CONTINUOUS
 62
     2
 10
19.1625
 20
92.25
 30
0.0
 11
18.0
 21
92.25
 31
0.0
  0
LINE
  8
0
  6
CONTINUOUS
 62
     2
 10
18.0
 20
93.25
 30
0.0
 11
19.1625
 21
93.25
 31
0.0
  0
LINE
  8
0
  6
CONTINUOUS
 62
     2
 10
19.1625
 20
93.25
 30
0.0
 11
18.0
 21
93.25
 31
0.0
  0
LINE
  8
0
  6
CONTINUOUS
 62
     2
 10
19.6625
 20
94.325
 30
0.0
 11
19.6625
 21
94.175
 31
0.0
  0
LINE
  8
0
  6
CONTINUOUS
 62
     2
 10
18.125
 20
94.25
 30
0.0
 11
19.5375
 21
94.25
 31
0.0
  0
LINE
  8
0
  6
CONTINUOUS
 62
     2
 10
18.0
 20
94.325
 30
0.0
 11
19.6625
 21
94.325
 31
0.0
  0
LINE
  8
0
  6
CONTINUOUS
 62
     2
 10
19.6625
 20
94.175
 30
0.0
 11
18.0
 21
94.175
 31
0.0
  0
LINE
  8
0
  6
CONTINUOUS
 62
     2
 10
18.0
 20
95.25
 30
0.0
 11
19.1625
 21
95.25
 31
0.0
  0
LINE
  8
0
  6
CONTINUOUS
 62
     2
 10
19.1625
 20
95.25
 30
0.0
 11
18.0
 21
95.25
 31
0.0
  0
LINE
  8
0
  6
CONTINUOUS
 62
     2
 10
18.0
 20
96.25
 30
0.0
 11
19.1625
 21
96.25
 31
0.0
  0
LINE
  8
0
  6
CONTINUOUS
 62
     2
 10
19.1625
 20
96.25
 30
0.0
 11
18.0
 21
96.25
 31
0.0
  0
LINE
  8
0
  6
CONTINUOUS
 62
     2
 10
18.0
 20
97.25
 30
0.0
 11
19.1625
 21
97.25
 31
0.0
  0
LINE
  8
0
  6
CONTINUOUS
 62
     2
 10
19.1625
 20
97.25
 30
0.0
 11
18.0
 21
97.25
 31
0.0
  0
LINE
  8
0
  6
CONTINUOUS
 62
     2
 10
18.0
 20
98.25
 30
0.0
 11
19.1625
 21
98.25
 31
0.0
  0
LINE
  8
0
  6
CONTINUOUS
 62
     2
 10
19.1625
 20
98.25
 30
0.0
 11
18.0
 21
98.25
 31
0.0
  0
LINE
  8
0
  6
CONTINUOUS
 62
     2
 10
19.6625
 20
99.325
 30
0.0
 11
19.6625
 21
99.175
 31
0.0
  0
LINE
  8
0
  6
CONTINUOUS
 62
     2
 10
18.125
 20
99.25
 30
0.0
 11
19.5375
 21
99.25
 31
0.0
  0
LINE
  8
0
  6
CONTINUOUS
 62
     2
 10
18.0
 20
99.325
 30
0.0
 11
19.6625
 21
99.325
 31
0.0
  0
LINE
  8
0
  6
CONTINUOUS
 62
     2
 10
19.6625
 20
99.175
 30
0.0
 11
18.0
 21
99.175
 31
0.0
  0
LINE
  8
0
  6
CONTINUOUS
 62
     2
 10
18.0
 20
100.25
 30
0.0
 11
19.1625
 21
100.25
 31
0.0
  0
LINE
  8
0
  6
CONTINUOUS
 62
     2
 10
19.1625
 20
100.25
 30
0.0
 11
18.0
 21
100.25
 31
0.0
  0
LINE
  8
0
  6
CONTINUOUS
 62
     2
 10
18.0
 20
101.25
 30
0.0
 11
19.1625
 21
101.25
 31
0.0
  0
LINE
  8
0
  6
CONTINUOUS
 62
     2
 10
19.1625
 20
101.25
 30
0.0
 11
18.0
 21
101.25
 31
0.0
  0
LINE
  8
0
  6
CONTINUOUS
 62
     2
 10
18.0
 20
102.25
 30
0.0
 11
19.1625
 21
102.25
 31
0.0
  0
LINE
  8
0
  6
CONTINUOUS
 62
     2
 10
19.1625
 20
102.25
 30
0.0
 11
18.0
 21
102.25
 31
0.0
  0
LINE
  8
0
  6
CONTINUOUS
 62
     2
 10
18.0
 20
103.25
 30
0.0
 11
19.1625
 21
103.25
 31
0.0
  0
LINE
  8
0
  6
CONTINUOUS
 62
     2
 10
19.1625
 20
103.25
 30
0.0
 11
18.0
 21
103.25
 31
0.0
  0
LINE
  8
0
  6
CONTINUOUS
 62
     2
 10
19.6625
 20
104.325
 30
0.0
 11
19.6625
 21
104.175
 31
0.0
  0
LINE
  8
0
  6
CONTINUOUS
 62
     2
 10
18.125
 20
104.25
 30
0.0
 11
19.5375
 21
104.25
 31
0.0
  0
LINE
  8
0
  6
CONTINUOUS
 62
     2
 10
18.0
 20
104.325
 30
0.0
 11
19.6625
 21
104.325
 31
0.0
  0
LINE
  8
0
  6
CONTINUOUS
 62
     2
 10
19.6625
 20
104.175
 30
0.0
 11
18.0
 21
104.175
 31
0.0
  0
LINE
  8
0
  6
CONTINUOUS
 62
     2
 10
18.0
 20
105.25
 30
0.0
 11
19.1625
 21
105.25
 31
0.0
  0
LINE
  8
0
  6
CONTINUOUS
 62
     2
 10
19.1625
 20
105.25
 30
0.0
 11
18.0
 21
105.25
 31
0.0
  0
LINE
  8
0
  6
CONTINUOUS
 62
     2
 10
18.0
 20
106.25
 30
0.0
 11
19.1625
 21
106.25
 31
0.0
  0
LINE
  8
0
  6
CONTINUOUS
 62
     2
 10
19.1625
 20
106.25
 30
0.0
 11
18.0
 21
106.25
 31
0.0
  0
LINE
  8
0
  6
CONTINUOUS
 62
     2
 10
18.0
 20
107.25
 30
0.0
 11
19.1625
 21
107.25
 31
0.0
  0
LINE
  8
0
  6
CONTINUOUS
 62
     2
 10
19.1625
 20
107.25
 30
0.0
 11
18.0
 21
107.25
 31
0.0
  0
LINE
  8
0
  6
CONTINUOUS
 62
     2
 10
18.0
 20
108.25
 30
0.0
 11
19.1625
 21
108.25
 31
0.0
  0
LINE
  8
0
  6
CONTINUOUS
 62
     2
 10
19.1625
 20
108.25
 30
0.0
 11
18.0
 21
108.25
 31
0.0
  0
LINE
  8
0
  6
CONTINUOUS
 62
     2
 10
19.6625
 20
109.325
 30
0.0
 11
19.6625
 21
109.175
 31
0.0
  0
LINE
  8
0
  6
CONTINUOUS
 62
     2
 10
18.125
 20
109.25
 30
0.0
 11
19.5375
 21
109.25
 31
0.0
  0
LINE
  8
0
  6
CONTINUOUS
 62
     2
 10
18.0
 20
109.325
 30
0.0
 11
19.6625
 21
109.325
 31
0.0
  0
LINE
  8
0
  6
CONTINUOUS
 62
     2
 10
19.6625
 20
109.175
 30
0.0
 11
18.0
 21
109.175
 31
0.0
  0
LINE
  8
0
  6
CONTINUOUS
 62
     2
 10
18.0
 20
110.25
 30
0.0
 11
19.1625
 21
110.25
 31
0.0
  0
LINE
  8
0
  6
CONTINUOUS
 62
     2
 10
19.1625
 20
110.25
 30
0.0
 11
18.0
 21
110.25
 31
0.0
  0
LINE
  8
0
  6
CONTINUOUS
 62
     2
 10
18.0
 20
111.25
 30
0.0
 11
19.1625
 21
111.25
 31
0.0
  0
LINE
  8
0
  6
CONTINUOUS
 62
     2
 10
19.1625
 20
111.25
 30
0.0
 11
18.0
 21
111.25
 31
0.0
  0
LINE
  8
0
  6
CONTINUOUS
 62
     2
 10
18.0
 20
112.25
 30
0.0
 11
19.1625
 21
112.25
 31
0.0
  0
LINE
  8
0
  6
CONTINUOUS
 62
     2
 10
19.1625
 20
112.25
 30
0.0
 11
18.0
 21
112.25
 31
0.0
  0
LINE
  8
0
  6
CONTINUOUS
 62
     2
 10
18.0
 20
113.25
 30
0.0
 11
19.1625
 21
113.25
 31
0.0
  0
LINE
  8
0
  6
CONTINUOUS
 62
     2
 10
19.1625
 20
113.25
 30
0.0
 11
18.0
 21
113.25
 31
0.0
  0
LINE
  8
0
  6
CONTINUOUS
 62
     2
 10
19.6625
 20
114.325
 30
0.0
 11
19.6625
 21
114.175
 31
0.0
  0
LINE
  8
0
  6
CONTINUOUS
 62
     2
 10
18.125
 20
114.25
 30
0.0
 11
19.5375
 21
114.25
 31
0.0
  0
LINE
  8
0
  6
CONTINUOUS
 62
     2
 10
18.0
 20
114.325
 30
0.0
 11
19.6625
 21
114.325
 31
0.0
  0
LINE
  8
0
  6
CONTINUOUS
 62
     2
 10
19.6625
 20
114.175
 30
0.0
 11
18.0
 21
114.175
 31
0.0
  0
LINE
  8
0
  6
CONTINUOUS
 62
     2
 10
18.0
 20
115.25
 30
0.0
 11
19.1625
 21
115.25
 31
0.0
  0
LINE
  8
0
  6
CONTINUOUS
 62
     2
 10
19.1625
 20
115.25
 30
0.0
 11
18.0
 21
115.25
 31
0.0
  0
LINE
  8
0
  6
CONTINUOUS
 62
     2
 10
18.0
 20
116.25
 30
0.0
 11
19.1625
 21
116.25
 31
0.0
  0
LINE
  8
0
  6
CONTINUOUS
 62
     2
 10
19.1625
 20
116.25
 30
0.0
 11
18.0
 21
116.25
 31
0.0
  0
LINE
  8
0
  6
CONTINUOUS
 62
     2
 10
18.0
 20
117.25
 30
0.0
 11
19.1625
 21
117.25
 31
0.0
  0
LINE
  8
0
  6
CONTINUOUS
 62
     2
 10
19.1625
 20
117.25
 30
0.0
 11
18.0
 21
117.25
 31
0.0
  0
LINE
  8
0
  6
CONTINUOUS
 62
     2
 10
18.0
 20
118.25
 30
0.0
 11
19.1625
 21
118.25
 31
0.0
  0
LINE
  8
0
  6
CONTINUOUS
 62
     2
 10
19.1625
 20
118.25
 30
0.0
 11
18.0
 21
118.25
 31
0.0
  0
LINE
  8
0
  6
CONTINUOUS
 62
     2
 10
19.6625
 20
119.325
 30
0.0
 11
19.6625
 21
119.175
 31
0.0
  0
LINE
  8
0
  6
CONTINUOUS
 62
     2
 10
18.125
 20
119.25
 30
0.0
 11
19.5375
 21
119.25
 31
0.0
  0
LINE
  8
0
  6
CONTINUOUS
 62
     2
 10
18.0
 20
119.325
 30
0.0
 11
19.6625
 21
119.325
 31
0.0
  0
LINE
  8
0
  6
CONTINUOUS
 62
     2
 10
19.6625
 20
119.175
 30
0.0
 11
18.0
 21
119.175
 31
0.0
  0
LINE
  8
0
  6
CONTINUOUS
 62
     2
 10
18.0
 20
120.25
 30
0.0
 11
19.1625
 21
120.25
 31
0.0
  0
LINE
  8
0
  6
CONTINUOUS
 62
     2
 10
19.1625
 20
120.25
 30
0.0
 11
18.0
 21
120.25
 31
0.0
  0
LINE
  8
0
  6
CONTINUOUS
 62
     2
 10
18.0
 20
121.25
 30
0.0
 11
19.1625
 21
121.25
 31
0.0
  0
LINE
  8
0
  6
CONTINUOUS
 62
     2
 10
19.1625
 20
121.25
 30
0.0
 11
18.0
 21
121.25
 31
0.0
  0
LINE
  8
0
  6
CONTINUOUS
 62
     2
 10
18.0
 20
122.25
 30
0.0
 11
19.1625
 21
122.25
 31
0.0
  0
LINE
  8
0
  6
CONTINUOUS
 62
     2
 10
19.1625
 20
122.25
 30
0.0
 11
18.0
 21
122.25
 31
0.0
  0
LINE
  8
0
  6
CONTINUOUS
 62
     2
 10
18.0
 20
123.25
 30
0.0
 11
19.1625
 21
123.25
 31
0.0
  0
LINE
  8
0
  6
CONTINUOUS
 62
     2
 10
19.1625
 20
123.25
 30
0.0
 11
18.0
 21
123.25
 31
0.0
  0
LINE
  8
0
  6
CONTINUOUS
 62
     2
 10
19.6625
 20
124.325
 30
0.0
 11
19.6625
 21
124.175
 31
0.0
  0
LINE
  8
0
  6
CONTINUOUS
 62
     2
 10
18.125
 20
124.25
 30
0.0
 11
19.5375
 21
124.25
 31
0.0
  0
LINE
  8
0
  6
CONTINUOUS
 62
     2
 10
18.0
 20
124.325
 30
0.0
 11
19.6625
 21
124.325
 31
0.0
  0
LINE
  8
0
  6
CONTINUOUS
 62
     2
 10
19.6625
 20
124.175
 30
0.0
 11
18.0
 21
124.175
 31
0.0
  0
LINE
  8
0
  6
CONTINUOUS
 62
     2
 10
18.0
 20
125.25
 30
0.0
 11
19.1625
 21
125.25
 31
0.0
  0
LINE
  8
0
  6
CONTINUOUS
 62
     2
 10
19.1625
 20
125.25
 30
0.0
 11
18.0
 21
125.25
 31
0.0
  0
LINE
  8
0
  6
CONTINUOUS
 62
     2
 10
18.0
 20
126.25
 30
0.0
 11
19.1625
 21
126.25
 31
0.0
  0
LINE
  8
0
  6
CONTINUOUS
 62
     2
 10
19.1625
 20
126.25
 30
0.0
 11
18.0
 21
126.25
 31
0.0
  0
LINE
  8
0
  6
CONTINUOUS
 62
     2
 10
18.0
 20
127.25
 30
0.0
 11
19.1625
 21
127.25
 31
0.0
  0
LINE
  8
0
  6
CONTINUOUS
 62
     2
 10
19.1625
 20
127.25
 30
0.0
 11
18.0
 21
127.25
 31
0.0
  0
LINE
  8
0
  6
CONTINUOUS
 62
     2
 10
18.0
 20
128.25
 30
0.0
 11
19.1625
 21
128.25
 31
0.0
  0
LINE
  8
0
  6
CONTINUOUS
 62
     2
 10
19.1625
 20
128.25
 30
0.0
 11
18.0
 21
128.25
 31
0.0
  0
LINE
  8
0
  6
CONTINUOUS
 62
     2
 10
19.6625
 20
129.325
 30
0.0
 11
19.6625
 21
129.175
 31
0.0
  0
LINE
  8
0
  6
CONTINUOUS
 62
     2
 10
18.125
 20
129.25
 30
0.0
 11
19.5375
 21
129.25
 31
0.0
  0
LINE
  8
0
  6
CONTINUOUS
 62
     2
 10
18.0
 20
129.325
 30
0.0
 11
19.6625
 21
129.325
 31
0.0
  0
LINE
  8
0
  6
CONTINUOUS
 62
     2
 10
19.6625
 20
129.175
 30
0.0
 11
18.0
 21
129.175
 31
0.0
  0
LINE
  8
0
  6
CONTINUOUS
 62
     2
 10
18.0
 20
130.25
 30
0.0
 11
19.1625
 21
130.25
 31
0.0
  0
LINE
  8
0
  6
CONTINUOUS
 62
     2
 10
19.1625
 20
130.25
 30
0.0
 11
18.0
 21
130.25
 31
0.0
  0
LINE
  8
0
  6
CONTINUOUS
 62
     2
 10
18.0
 20
131.25
 30
0.0
 11
19.1625
 21
131.25
 31
0.0
  0
LINE
  8
0
  6
CONTINUOUS
 62
     2
 10
19.1625
 20
131.25
 30
0.0
 11
18.0
 21
131.25
 31
0.0
  0
LINE
  8
0
  6
CONTINUOUS
 62
     2
 10
18.0
 20
132.25
 30
0.0
 11
19.1625
 21
132.25
 31
0.0
  0
LINE
  8
0
  6
CONTINUOUS
 62
     2
 10
19.1625
 20
132.25
 30
0.0
 11
18.0
 21
132.25
 31
0.0
  0
LINE
  8
0
  6
CONTINUOUS
 62
     2
 10
18.0
 20
133.25
 30
0.0
 11
19.1625
 21
133.25
 31
0.0
  0
LINE
  8
0
  6
CONTINUOUS
 62
     2
 10
19.1625
 20
133.25
 30
0.0
 11
18.0
 21
133.25
 31
0.0
  0
LINE
  8
0
  6
CONTINUOUS
 62
     2
 10
19.6625
 20
134.325
 30
0.0
 11
19.6625
 21
134.175
 31
0.0
  0
LINE
  8
0
  6
CONTINUOUS
 62
     2
 10
18.125
 20
134.25
 30
0.0
 11
19.5375
 21
134.25
 31
0.0
  0
LINE
  8
0
  6
CONTINUOUS
 62
     2
 10
18.0
 20
134.325
 30
0.0
 11
19.6625
 21
134.325
 31
0.0
  0
LINE
  8
0
  6
CONTINUOUS
 62
     2
 10
19.6625
 20
134.175
 30
0.0
 11
18.0
 21
134.175
 31
0.0
  0
LINE
  8
0
  6
CONTINUOUS
 62
     2
 10
18.0
 20
135.25
 30
0.0
 11
19.1625
 21
135.25
 31
0.0
  0
LINE
  8
0
  6
CONTINUOUS
 62
     2
 10
19.1625
 20
135.25
 30
0.0
 11
18.0
 21
135.25
 31
0.0
  0
LINE
  8
0
  6
CONTINUOUS
 62
     2
 10
18.0
 20
136.25
 30
0.0
 11
19.1625
 21
136.25
 31
0.0
  0
LINE
  8
0
  6
CONTINUOUS
 62
     2
 10
19.1625
 20
136.25
 30
0.0
 11
18.0
 21
136.25
 31
0.0
  0
LINE
  8
0
  6
CONTINUOUS
 62
     2
 10
18.0
 20
137.25
 30
0.0
 11
19.1625
 21
137.25
 31
0.0
  0
LINE
  8
0
  6
CONTINUOUS
 62
     2
 10
19.1625
 20
137.25
 30
0.0
 11
18.0
 21
137.25
 31
0.0
  0
LINE
  8
0
  6
CONTINUOUS
 62
     2
 10
18.0
 20
138.25
 30
0.0
 11
19.1625
 21
138.25
 31
0.0
  0
LINE
  8
0
  6
CONTINUOUS
 62
     2
 10
19.1625
 20
138.25
 30
0.0
 11
18.0
 21
138.25
 31
0.0
  0
LINE
  8
0
  6
CONTINUOUS
 62
     2
 10
19.6625
 20
139.325
 30
0.0
 11
19.6625
 21
139.175
 31
0.0
  0
LINE
  8
0
  6
CONTINUOUS
 62
     2
 10
18.125
 20
139.25
 30
0.0
 11
19.5375
 21
139.25
 31
0.0
  0
LINE
  8
0
  6
CONTINUOUS
 62
     2
 10
18.0
 20
139.325
 30
0.0
 11
19.6625
 21
139.325
 31
0.0
  0
LINE
  8
0
  6
CONTINUOUS
 62
     2
 10
19.6625
 20
139.175
 30
0.0
 11
18.0
 21
139.175
 31
0.0
  0
LINE
  8
0
  6
CONTINUOUS
 62
     2
 10
20.3375
 20
89.2
 30
0.0
 11
20.3375
 21
89.3
 31
0.0
  0
LINE
  8
0
  6
CONTINUOUS
 62
     2
 10
20.3625
 20
89.175
 30
0.0
 11
21.975
 21
89.175
 31
0.0
  0
LINE
  8
0
  6
CONTINUOUS
 62
     2
 10
20.3625
 20
89.325
 30
0.0
 11
21.975
 21
89.325
 31
0.0
  0
LINE
  8
0
  6
CONTINUOUS
 62
     2
 10
21.925
 20
89.25
 30
0.0
 11
20.4625
 21
89.25
 31
0.0
  0
LINE
  8
0
  6
CONTINUOUS
 62
     2
 10
20.8625
 20
90.25
 30
0.0
 11
21.975
 21
90.25
 31
0.0
  0
LINE
  8
0
  6
CONTINUOUS
 62
     2
 10
20.8625
 20
91.25
 30
0.0
 11
21.975
 21
91.25
 31
0.0
  0
LINE
  8
0
  6
CONTINUOUS
 62
     2
 10
20.8625
 20
92.25
 30
0.0
 11
21.975
 21
92.25
 31
0.0
  0
LINE
  8
0
  6
CONTINUOUS
 62
     2
 10
20.8625
 20
93.25
 30
0.0
 11
21.975
 21
93.25
 31
0.0
  0
LINE
  8
0
  6
CONTINUOUS
 62
     2
 10
20.3375
 20
94.2
 30
0.0
 11
20.3375
 21
94.3
 31
0.0
  0
LINE
  8
0
  6
CONTINUOUS
 62
     2
 10
20.3625
 20
94.175
 30
0.0
 11
21.975
 21
94.175
 31
0.0
  0
LINE
  8
0
  6
CONTINUOUS
 62
     2
 10
20.3625
 20
94.325
 30
0.0
 11
21.975
 21
94.325
 31
0.0
  0
LINE
  8
0
  6
CONTINUOUS
 62
     2
 10
21.925
 20
94.25
 30
0.0
 11
20.4625
 21
94.25
 31
0.0
  0
LINE
  8
0
  6
CONTINUOUS
 62
     2
 10
20.8625
 20
95.25
 30
0.0
 11
21.975
 21
95.25
 31
0.0
  0
LINE
  8
0
  6
CONTINUOUS
 62
     2
 10
20.8625
 20
96.25
 30
0.0
 11
21.975
 21
96.25
 31
0.0
  0
LINE
  8
0
  6
CONTINUOUS
 62
     2
 10
20.8625
 20
97.25
 30
0.0
 11
21.975
 21
97.25
 31
0.0
  0
LINE
  8
0
  6
CONTINUOUS
 62
     2
 10
20.8625
 20
98.25
 30
0.0
 11
21.975
 21
98.25
 31
0.0
  0
LINE
  8
0
  6
CONTINUOUS
 62
     2
 10
20.3375
 20
99.2
 30
0.0
 11
20.3375
 21
99.3
 31
0.0
  0
LINE
  8
0
  6
CONTINUOUS
 62
     2
 10
20.3625
 20
99.175
 30
0.0
 11
21.975
 21
99.175
 31
0.0
  0
LINE
  8
0
  6
CONTINUOUS
 62
     2
 10
20.3625
 20
99.325
 30
0.0
 11
21.975
 21
99.325
 31
0.0
  0
LINE
  8
0
  6
CONTINUOUS
 62
     2
 10
21.925
 20
99.25
 30
0.0
 11
20.4625
 21
99.25
 31
0.0
  0
LINE
  8
0
  6
CONTINUOUS
 62
     2
 10
20.8625
 20
100.25
 30
0.0
 11
21.975
 21
100.25
 31
0.0
  0
LINE
  8
0
  6
CONTINUOUS
 62
     2
 10
20.8625
 20
101.25
 30
0.0
 11
21.975
 21
101.25
 31
0.0
  0
LINE
  8
0
  6
CONTINUOUS
 62
     2
 10
20.8625
 20
102.25
 30
0.0
 11
21.975
 21
102.25
 31
0.0
  0
LINE
  8
0
  6
CONTINUOUS
 62
     2
 10
20.8625
 20
103.25
 30
0.0
 11
21.975
 21
103.25
 31
0.0
  0
LINE
  8
0
  6
CONTINUOUS
 62
     2
 10
20.3375
 20
104.2
 30
0.0
 11
20.3375
 21
104.3
 31
0.0
  0
LINE
  8
0
  6
CONTINUOUS
 62
     2
 10
20.3625
 20
104.175
 30
0.0
 11
21.975
 21
104.175
 31
0.0
  0
LINE
  8
0
  6
CONTINUOUS
 62
     2
 10
20.3625
 20
104.325
 30
0.0
 11
21.975
 21
104.325
 31
0.0
  0
LINE
  8
0
  6
CONTINUOUS
 62
     2
 10
21.925
 20
104.25
 30
0.0
 11
20.4625
 21
104.25
 31
0.0
  0
LINE
  8
0
  6
CONTINUOUS
 62
     2
 10
20.8625
 20
105.25
 30
0.0
 11
21.975
 21
105.25
 31
0.0
  0
LINE
  8
0
  6
CONTINUOUS
 62
     2
 10
20.8625
 20
106.25
 30
0.0
 11
21.975
 21
106.25
 31
0.0
  0
LINE
  8
0
  6
CONTINUOUS
 62
     2
 10
20.8625
 20
107.25
 30
0.0
 11
21.975
 21
107.25
 31
0.0
  0
LINE
  8
0
  6
CONTINUOUS
 62
     2
 10
20.8625
 20
108.25
 30
0.0
 11
21.975
 21
108.25
 31
0.0
  0
LINE
  8
0
  6
CONTINUOUS
 62
     2
 10
20.3375
 20
109.2
 30
0.0
 11
20.3375
 21
109.3
 31
0.0
  0
LINE
  8
0
  6
CONTINUOUS
 62
     2
 10
20.3625
 20
109.175
 30
0.0
 11
21.975
 21
109.175
 31
0.0
  0
LINE
  8
0
  6
CONTINUOUS
 62
     2
 10
20.3625
 20
109.325
 30
0.0
 11
21.975
 21
109.325
 31
0.0
  0
LINE
  8
0
  6
CONTINUOUS
 62
     2
 10
21.925
 20
109.25
 30
0.0
 11
20.4625
 21
109.25
 31
0.0
  0
LINE
  8
0
  6
CONTINUOUS
 62
     2
 10
20.8625
 20
110.25
 30
0.0
 11
21.975
 21
110.25
 31
0.0
  0
LINE
  8
0
  6
CONTINUOUS
 62
     2
 10
20.8625
 20
111.25
 30
0.0
 11
21.975
 21
111.25
 31
0.0
  0
LINE
  8
0
  6
CONTINUOUS
 62
     2
 10
20.8625
 20
112.25
 30
0.0
 11
21.975
 21
112.25
 31
0.0
  0
LINE
  8
0
  6
CONTINUOUS
 62
     2
 10
20.8625
 20
113.25
 30
0.0
 11
21.975
 21
113.25
 31
0.0
  0
LINE
  8
0
  6
CONTINUOUS
 62
     2
 10
20.3375
 20
114.2
 30
0.0
 11
20.3375
 21
114.3
 31
0.0
  0
LINE
  8
0
  6
CONTINUOUS
 62
     2
 10
20.3625
 20
114.175
 30
0.0
 11
21.975
 21
114.175
 31
0.0
  0
LINE
  8
0
  6
CONTINUOUS
 62
     2
 10
20.3625
 20
114.325
 30
0.0
 11
21.975
 21
114.325
 31
0.0
  0
LINE
  8
0
  6
CONTINUOUS
 62
     2
 10
21.925
 20
114.25
 30
0.0
 11
20.4625
 21
114.25
 31
0.0
  0
LINE
  8
0
  6
CONTINUOUS
 62
     2
 10
20.8625
 20
115.25
 30
0.0
 11
21.975
 21
115.25
 31
0.0
  0
LINE
  8
0
  6
CONTINUOUS
 62
     2
 10
20.8625
 20
116.25
 30
0.0
 11
21.975
 21
116.25
 31
0.0
  0
LINE
  8
0
  6
CONTINUOUS
 62
     2
 10
20.8625
 20
117.25
 30
0.0
 11
21.975
 21
117.25
 31
0.0
  0
LINE
  8
0
  6
CONTINUOUS
 62
     2
 10
20.8625
 20
118.25
 30
0.0
 11
21.975
 21
118.25
 31
0.0
  0
LINE
  8
0
  6
CONTINUOUS
 62
     2
 10
20.3375
 20
119.2
 30
0.0
 11
20.3375
 21
119.3
 31
0.0
  0
LINE
  8
0
  6
CONTINUOUS
 62
     2
 10
20.3625
 20
119.175
 30
0.0
 11
21.975
 21
119.175
 31
0.0
  0
LINE
  8
0
  6
CONTINUOUS
 62
     2
 10
20.3625
 20
119.325
 30
0.0
 11
21.975
 21
119.325
 31
0.0
  0
LINE
  8
0
  6
CONTINUOUS
 62
     2
 10
21.925
 20
119.25
 30
0.0
 11
20.4625
 21
119.25
 31
0.0
  0
LINE
  8
0
  6
CONTINUOUS
 62
     2
 10
20.8625
 20
120.25
 30
0.0
 11
21.975
 21
120.25
 31
0.0
  0
LINE
  8
0
  6
CONTINUOUS
 62
     2
 10
20.8625
 20
121.25
 30
0.0
 11
21.975
 21
121.25
 31
0.0
  0
LINE
  8
0
  6
CONTINUOUS
 62
     2
 10
20.8625
 20
122.25
 30
0.0
 11
21.975
 21
122.25
 31
0.0
  0
LINE
  8
0
  6
CONTINUOUS
 62
     2
 10
20.8625
 20
123.25
 30
0.0
 11
21.975
 21
123.25
 31
0.0
  0
LINE
  8
0
  6
CONTINUOUS
 62
     2
 10
20.3375
 20
124.2
 30
0.0
 11
20.3375
 21
124.3
 31
0.0
  0
LINE
  8
0
  6
CONTINUOUS
 62
     2
 10
20.3625
 20
124.175
 30
0.0
 11
21.975
 21
124.175
 31
0.0
  0
LINE
  8
0
  6
CONTINUOUS
 62
     2
 10
20.3625
 20
124.325
 30
0.0
 11
21.975
 21
124.325
 31
0.0
  0
LINE
  8
0
  6
CONTINUOUS
 62
     2
 10
21.925
 20
124.25
 30
0.0
 11
20.4625
 21
124.25
 31
0.0
  0
LINE
  8
0
  6
CONTINUOUS
 62
     2
 10
20.8625
 20
125.25
 30
0.0
 11
21.975
 21
125.25
 31
0.0
  0
LINE
  8
0
  6
CONTINUOUS
 62
     2
 10
20.8625
 20
126.25
 30
0.0
 11
21.975
 21
126.25
 31
0.0
  0
LINE
  8
0
  6
CONTINUOUS
 62
     2
 10
20.8625
 20
127.25
 30
0.0
 11
21.975
 21
127.25
 31
0.0
  0
LINE
  8
0
  6
CONTINUOUS
 62
     2
 10
20.8625
 20
128.25
 30
0.0
 11
21.975
 21
128.25
 31
0.0
  0
LINE
  8
0
  6
CONTINUOUS
 62
     2
 10
20.3375
 20
129.2
 30
0.0
 11
20.3375
 21
129.3
 31
0.0
  0
LINE
  8
0
  6
CONTINUOUS
 62
     2
 10
20.3625
 20
129.175
 30
0.0
 11
21.975
 21
129.175
 31
0.0
  0
LINE
  8
0
  6
CONTINUOUS
 62
     2
 10
20.3625
 20
129.325
 30
0.0
 11
21.975
 21
129.325
 31
0.0
  0
LINE
  8
0
  6
CONTINUOUS
 62
     2
 10
21.925
 20
129.25
 30
0.0
 11
20.4625
 21
129.25
 31
0.0
  0
LINE
  8
0
  6
CONTINUOUS
 62
     2
 10
20.8625
 20
130.25
 30
0.0
 11
21.975
 21
130.25
 31
0.0
  0
LINE
  8
0
  6
CONTINUOUS
 62
     2
 10
20.8625
 20
131.25
 30
0.0
 11
21.975
 21
131.25
 31
0.0
  0
LINE
  8
0
  6
CONTINUOUS
 62
     2
 10
20.8625
 20
132.25
 30
0.0
 11
21.975
 21
132.25
 31
0.0
  0
LINE
  8
0
  6
CONTINUOUS
 62
     2
 10
20.8625
 20
133.25
 30
0.0
 11
21.975
 21
133.25
 31
0.0
  0
LINE
  8
0
  6
CONTINUOUS
 62
     2
 10
20.3375
 20
134.2
 30
0.0
 11
20.3375
 21
134.3
 31
0.0
  0
LINE
  8
0
  6
CONTINUOUS
 62
     2
 10
20.3625
 20
134.175
 30
0.0
 11
21.975
 21
134.175
 31
0.0
  0
LINE
  8
0
  6
CONTINUOUS
 62
     2
 10
20.3625
 20
134.325
 30
0.0
 11
21.975
 21
134.325
 31
0.0
  0
LINE
  8
0
  6
CONTINUOUS
 62
     2
 10
21.925
 20
134.25
 30
0.0
 11
20.4625
 21
134.25
 31
0.0
  0
LINE
  8
0
  6
CONTINUOUS
 62
     2
 10
20.8625
 20
135.25
 30
0.0
 11
21.975
 21
135.25
 31
0.0
  0
LINE
  8
0
  6
CONTINUOUS
 62
     2
 10
20.8625
 20
136.25
 30
0.0
 11
21.975
 21
136.25
 31
0.0
  0
LINE
  8
0
  6
CONTINUOUS
 62
     2
 10
20.8625
 20
137.25
 30
0.0
 11
21.975
 21
137.25
 31
0.0
  0
LINE
  8
0
  6
CONTINUOUS
 62
     2
 10
20.8625
 20
138.25
 30
0.0
 11
21.975
 21
138.25
 31
0.0
  0
LINE
  8
0
  6
CONTINUOUS
 62
     2
 10
20.3375
 20
139.2
 30
0.0
 11
20.3375
 21
139.3
 31
0.0
  0
LINE
  8
0
  6
CONTINUOUS
 62
     2
 10
20.3625
 20
139.175
 30
0.0
 11
21.975
 21
139.175
 31
0.0
  0
LINE
  8
0
  6
CONTINUOUS
 62
     2
 10
20.3625
 20
139.325
 30
0.0
 11
21.975
 21
139.325
 31
0.0
  0
LINE
  8
0
  6
CONTINUOUS
 62
     2
 10
21.925
 20
139.25
 30
0.0
 11
20.4625
 21
139.25
 31
0.0
  0
LINE
  8
0
  6
CONTINUOUS
 62
     2
 10
22.765
 20
99.77
 30
0.0
 11
22.774003244
 21
99.850007985
 31
0.0
  0
LINE
  8
0
  6
CONTINUOUS
 62
     2
 10
22.774003244
 20
99.850007985
 30
0.0
 11
22.799881783
 21
99.924590249
 31
0.0
  0
LINE
  8
0
  6
CONTINUOUS
 62
     2
 10
22.799881783
 20
99.924590249
 30
0.0
 11
22.836121182
 21
99.984823249
 31
0.0
  0
LINE
  8
0
  6
CONTINUOUS
 62
     2
 10
22.836121182
 20
99.984823249
 30
0.0
 11
22.883872872
 21
100.037315746
 31
0.0
  0
LINE
  8
0
  6
CONTINUOUS
 62
     2
 10
22.883872872
 20
100.037315746
 30
0.0
 11
22.939254659
 21
100.07838072
 31
0.0
  0
LINE
  8
0
  6
CONTINUOUS
 62
     2
 10
22.939254659
 20
100.07838072
 30
0.0
 11
23.011509985
 21
100.111643113
 31
0.0
  0
LINE
  8
0
  6
CONTINUOUS
 62
     2
 10
23.011509985
 20
100.111643113
 30
0.0
 11
23.111763364
 21
100.129756573
 31
0.0
  0
LINE
  8
0
  6
CONTINUOUS
 62
     2
 10
23.111763364
 20
100.129756573
 30
0.0
 11
23.215321623
 21
100.1184853
 31
0.0
  0
LINE
  8
0
  6
CONTINUOUS
 62
     2
 10
23.215321623
 20
100.1184853
 30
0.0
 11
23.288827953
 21
100.090562633
 31
0.0
  0
LINE
  8
0
  6
CONTINUOUS
 62
     2
 10
23.288827953
 20
100.090562633
 30
0.0
 11
23.348217173
 21
100.052443081
 31
0.0
  0
LINE
  8
0
  6
CONTINUOUS
 62
     2
 10
23.348217173
 20
100.052443081
 30
0.0
 11
23.399194879
 21
100.003274877
 31
0.0
  0
LINE
  8
0
  6
CONTINUOUS
 62
     2
 10
23.399194879
 20
100.003274877
 30
0.0
 11
23.43838842
 21
99.947165736
 31
0.0
  0
LINE
  8
0
  6
CONTINUOUS
 62
     2
 10
23.43838842
 20
99.947165736
 30
0.0
 11
23.469634949
 21
99.874051679
 31
0.0
  0
LINE
  8
0
  6
CONTINUOUS
 62
     2
 10
23.469634949
 20
99.874051679
 30
0.0
 11
23.483893217
 21
99.798207426
 31
0.0
  0
LINE
  8
0
  6
CONTINUOUS
 62
     2
 10
23.483893217
 20
99.798207426
 30
0.0
 11
23.481978646
 21
99.723457048
 31
0.0
  0
LINE
  8
0
  6
CONTINUOUS
 62
     2
 10
23.481978646
 20
99.723457048
 30
0.0
 11
23.463055517
 21
99.646232204
 31
0.0
  0
LINE
  8
0
  6
CONTINUOUS
 62
     2
 10
23.463055517
 20
99.646232204
 30
0.0
 11
23.428938272
 21
99.576534244
 31
0.0
  0
LINE
  8
0
  6
CONTINUOUS
 62
     2
 10
23.428938272
 20
99.576534244
 30
0.0
 11
23.385651652
 21
99.50209975
 31
0.0
  0
LINE
  8
0
  6
CONTINUOUS
 62
     2
 10
23.385651652
 20
99.50209975
 30
0.0
 11
23.320465793
 21
99.39000792
 31
0.0
  0
LINE
  8
0
  6
CONTINUOUS
 62
     2
 10
23.320465793
 20
99.39000792
 30
0.0
 11
23.255279934
 21
99.277916091
 31
0.0
  0
LINE
  8
0
  6
CONTINUOUS
 62
     2
 10
23.255279934
 20
99.277916091
 30
0.0
 11
23.190094075
 21
99.165824262
 31
0.0
  0
LINE
  8
0
  6
CONTINUOUS
 62
     2
 10
23.190094075
 20
99.165824262
 30
0.0
 11
23.124908216
 21
99.053732433
 31
0.0
  0
LINE
  8
0
  6
CONTINUOUS
 62
     2
 10
23.124908216
 20
99.053732433
 30
0.0
 11
23.059722357
 21
98.941640603
 31
0.0
  0
LINE
  8
0
  6
CONTINUOUS
 62
     2
 10
23.059722357
 20
98.941640603
 30
0.0
 11
22.994536499
 21
98.829548774
 31
0.0
  0
LINE
  8
0
  6
CONTINUOUS
 62
     2
 10
22.994536499
 20
98.829548774
 30
0.0
 11
22.92935064
 21
98.717456945
 31
0.0
  0
LINE
  8
0
  6
CONTINUOUS
 62
     2
 10
22.92935064
 20
98.717456945
 30
0.0
 11
22.864164781
 21
98.605365116
 31
0.0
  0
LINE
  8
0
  6
CONTINUOUS
 62
     2
 10
22.864164781
 20
98.605365116
 30
0.0
 11
22.798978922
 21
98.493273286
 31
0.0
  0
LINE
  8
0
  6
CONTINUOUS
 62
     2
 10
22.798978922
 20
98.493273286
 30
0.0
 11
22.727290601
 21
98.37
 31
0.0
  0
LINE
  8
0
  6
CONTINUOUS
 62
     2
 10
22.727290601
 20
98.37
 30
0.0
 11
22.877290601
 21
98.37
 31
0.0
  0
LINE
  8
0
  6
CONTINUOUS
 62
     2
 10
22.877290601
 20
98.37
 30
0.0
 11
23.027290601
 21
98.37
 31
0.0
  0
LINE
  8
0
  6
CONTINUOUS
 62
     2
 10
23.027290601
 20
98.37
 30
0.0
 11
23.177290601
 21
98.37
 31
0.0
  0
LINE
  8
0
  6
CONTINUOUS
 62
     2
 10
23.177290601
 20
98.37
 30
0.0
 11
23.327290601
 21
98.37
 31
0.0
  0
LINE
  8
0
  6
CONTINUOUS
 62
     2
 10
23.327290601
 20
98.37
 30
0.0
 11
23.48500001
 21
98.37
 31
0.0
  0
LINE
  8
0
  6
CONTINUOUS
 62
     2
 10
24.119692979
 20
99.977631895
 30
0.0
 11
24.085314642
 21
99.834954116
 31
0.0
  0
LINE
  8
0
  6
CONTINUOUS
 62
     2
 10
24.085314642
 20
99.834954116
 30
0.0
 11
24.058340333
 21
99.689200479
 31
0.0
  0
LINE
  8
0
  6
CONTINUOUS
 62
     2
 10
24.058340333
 20
99.689200479
 30
0.0
 11
24.039123205
 21
99.541168417
 31
0.0
  0
LINE
  8
0
  6
CONTINUOUS
 62
     2
 10
24.039123205
 20
99.541168417
 30
0.0
 11
24.027908353
 21
99.391704187
 31
0.0
  0
LINE
  8
0
  6
CONTINUOUS
 62
     2
 10
24.027908353
 20
99.391704187
 30
0.0
 11
24.024824949
 21
99.241683724
 31
0.0
  0
LINE
  8
0
  6
CONTINUOUS
 62
     2
 10
24.024824949
 20
99.241683724
 30
0.0
 11
24.029882439
 21
99.091992158
 31
0.0
  0
LINE
  8
0
  6
CONTINUOUS
 62
     2
 10
24.029882439
 20
99.091992158
 30
0.0
 11
24.042971024
 21
98.94350303
 31
0.0
  0
LINE
  8
0
  6
CONTINUOUS
 62
     2
 10
24.042971024
 20
98.94350303
 30
0.0
 11
24.063866358
 21
98.797058225
 31
0.0
  0
LINE
  8
0
  6
CONTINUOUS
 62
     2
 10
24.063866358
 20
98.797058225
 30
0.0
 11
24.09223811
 21
98.653449583
 31
0.0
  0
LINE
  8
0
  6
CONTINUOUS
 62
     2
 10
24.09223811
 20
98.653449583
 30
0.0
 11
24.127661819
 21
98.513402995
 31
0.0
  0
LINE
  8
0
  6
CONTINUOUS
 62
     2
 10
24.127661819
 20
98.513402995
 30
0.0
 11
24.186749623
 21
98.448126835
 31
0.0
  0
LINE
  8
0
  6
CONTINUOUS
 62
     2
 10
24.186749623
 20
98.448126835
 30
0.0
 11
24.261463496
 21
98.397517728
 31
0.0
  0
LINE
  8
0
  6
CONTINUOUS
 62
     2
 10
24.261463496
 20
98.397517728
 30
0.0
 11
24.386478348
 21
98.370005066
 31
0.0
  0
LINE
  8
0
  6
CONTINUOUS
 62
     2
 10
24.386478348
 20
98.370005066
 30
0.0
 11
24.488683888
 21
98.389258994
 31
0.0
  0
LINE
  8
0
  6
CONTINUOUS
 62
     2
 10
24.488683888
 20
98.389258994
 30
0.0
 11
24.581548122
 21
98.446983388
 31
0.0
  0
LINE
  8
0
  6
CONTINUOUS
 62
     2
 10
24.581548122
 20
98.446983388
 30
0.0
 11
24.631231228
 21
98.507179876
 31
0.0
  0
LINE
  8
0
  6
CONTINUOUS
 62
     2
 10
24.631231228
 20
98.507179876
 30
0.0
 11
24.677208452
 21
98.653086664
 31
0.0
  0
LINE
  8
0
  6
CONTINUOUS
 62
     2
 10
24.677208452
 20
98.653086664
 30
0.0
 11
24.704903738
 21
98.792623558
 31
0.0
  0
LINE
  8
0
  6
CONTINUOUS
 62
     2
 10
24.704903738
 20
98.792623558
 30
0.0
 11
24.726501165
 21
98.943016943
 31
0.0
  0
LINE
  8
0
  6
CONTINUOUS
 62
     2
 10
24.726501165
 20
98.943016943
 30
0.0
 11
24.73965952
 21
99.092215545
 31
0.0
  0
LINE
  8
0
  6
CONTINUOUS
 62
     2
 10
24.73965952
 20
99.092215545
 30
0.0
 11
24.744706871
 21
99.24221524
 31
0.0
  0
LINE
  8
0
  6
CONTINUOUS
 62
     2
 10
24.744706871
 20
99.24221524
 30
0.0
 11
24.741359467
 21
99.397048818
 31
0.0
  0
LINE
  8
0
  6
CONTINUOUS
 62
     2
 10
24.741359467
 20
99.397048818
 30
0.0
 11
24.730429494
 21
99.540930487
 31
0.0
  0
LINE
  8
0
  6
CONTINUOUS
 62
     2
 10
24.730429494
 20
99.540930487
 30
0.0
 11
24.711024891
 21
99.69023539
 31
0.0
  0
LINE
  8
0
  6
CONTINUOUS
 62
     2
 10
24.711024891
 20
99.69023539
 30
0.0
 11
24.684451161
 21
99.833838096
 31
0.0
  0
LINE
  8
0
  6
CONTINUOUS
 62
     2
 10
24.684451161
 20
99.833838096
 30
0.0
 11
24.648464121
 21
99.980674508
 31
0.0
  0
LINE
  8
0
  6
CONTINUOUS
 62
     2
 10
24.648464121
 20
99.980674508
 30
0.0
 11
24.596320702
 21
100.058352803
 31
0.0
  0
LINE
  8
0
  6
CONTINUOUS
 62
     2
 10
24.596320702
 20
100.058352803
 30
0.0
 11
24.51021188
 21
100.121462947
 31
0.0
  0
LINE
  8
0
  6
CONTINUOUS
 62
     2
 10
24.51021188
 20
100.121462947
 30
0.0
 11
24.395333854
 21
100.149807318
 31
0.0
  0
LINE
  8
0
  6
CONTINUOUS
 62
     2
 10
24.395333854
 20
100.149807318
 30
0.0
 11
24.261433084
 21
100.122467984
 31
0.0
  0
LINE
  8
0
  6
CONTINUOUS
 62
     2
 10
24.261433084
 20
100.122467984
 30
0.0
 11
24.171943341
 21
100.056995669
 31
0.0
  0
LINE
  8
0
  6
CONTINUOUS
 62
     2
 10
24.171943341
 20
100.056995669
 30
0.0
 11
24.119692979
 21
99.977631895
 31
0.0
  0
LINE
  8
0
  6
CONTINUOUS
 62
     2
 10
24.119692979
 20
109.977631895
 30
0.0
 11
24.085314642
 21
109.834954116
 31
0.0
  0
LINE
  8
0
  6
CONTINUOUS
 62
     2
 10
24.085314642
 20
109.834954116
 30
0.0
 11
24.058340333
 21
109.689200479
 31
0.0
  0
LINE
  8
0
  6
CONTINUOUS
 62
     2
 10
24.058340333
 20
109.689200479
 30
0.0
 11
24.039123205
 21
109.541168417
 31
0.0
  0
LINE
  8
0
  6
CONTINUOUS
 62
     2
 10
24.039123205
 20
109.541168417
 30
0.0
 11
24.027908353
 21
109.391704187
 31
0.0
  0
LINE
  8
0
  6
CONTINUOUS
 62
     2
 10
24.027908353
 20
109.391704187
 30
0.0
 11
24.024824949
 21
109.241683724
 31
0.0
  0
LINE
  8
0
  6
CONTINUOUS
 62
     2
 10
24.024824949
 20
109.241683724
 30
0.0
 11
24.029882439
 21
109.091992158
 31
0.0
  0
LINE
  8
0
  6
CONTINUOUS
 62
     2
 10
24.029882439
 20
109.091992158
 30
0.0
 11
24.042971024
 21
108.94350303
 31
0.0
  0
LINE
  8
0
  6
CONTINUOUS
 62
     2
 10
24.042971024
 20
108.94350303
 30
0.0
 11
24.063866358
 21
108.797058225
 31
0.0
  0
LINE
  8
0
  6
CONTINUOUS
 62
     2
 10
24.063866358
 20
108.797058225
 30
0.0
 11
24.09223811
 21
108.653449583
 31
0.0
  0
LINE
  8
0
  6
CONTINUOUS
 62
     2
 10
24.09223811
 20
108.653449583
 30
0.0
 11
24.127661819
 21
108.513402995
 31
0.0
  0
LINE
  8
0
  6
CONTINUOUS
 62
     2
 10
24.127661819
 20
108.513402995
 30
0.0
 11
24.186749623
 21
108.448126835
 31
0.0
  0
LINE
  8
0
  6
CONTINUOUS
 62
     2
 10
24.186749623
 20
108.448126835
 30
0.0
 11
24.261463496
 21
108.397517728
 31
0.0
  0
LINE
  8
0
  6
CONTINUOUS
 62
     2
 10
24.261463496
 20
108.397517728
 30
0.0
 11
24.386478348
 21
108.370005066
 31
0.0
  0
LINE
  8
0
  6
CONTINUOUS
 62
     2
 10
24.386478348
 20
108.370005066
 30
0.0
 11
24.488683888
 21
108.389258994
 31
0.0
  0
LINE
  8
0
  6
CONTINUOUS
 62
     2
 10
24.488683888
 20
108.389258994
 30
0.0
 11
24.581548122
 21
108.446983388
 31
0.0
  0
LINE
  8
0
  6
CONTINUOUS
 62
     2
 10
24.581548122
 20
108.446983388
 30
0.0
 11
24.631231228
 21
108.507179876
 31
0.0
  0
LINE
  8
0
  6
CONTINUOUS
 62
     2
 10
24.631231228
 20
108.507179876
 30
0.0
 11
24.677208452
 21
108.653086664
 31
0.0
  0
LINE
  8
0
  6
CONTINUOUS
 62
     2
 10
24.677208452
 20
108.653086664
 30
0.0
 11
24.704903738
 21
108.792623558
 31
0.0
  0
LINE
  8
0
  6
CONTINUOUS
 62
     2
 10
24.704903738
 20
108.792623558
 30
0.0
 11
24.726501165
 21
108.943016943
 31
0.0
  0
LINE
  8
0
  6
CONTINUOUS
 62
     2
 10
24.726501165
 20
108.943016943
 30
0.0
 11
24.73965952
 21
109.092215545
 31
0.0
  0
LINE
  8
0
  6
CONTINUOUS
 62
     2
 10
24.73965952
 20
109.092215545
 30
0.0
 11
24.744706871
 21
109.24221524
 31
0.0
  0
LINE
  8
0
  6
CONTINUOUS
 62
     2
 10
24.744706871
 20
109.24221524
 30
0.0
 11
24.741359467
 21
109.397048818
 31
0.0
  0
LINE
  8
0
  6
CONTINUOUS
 62
     2
 10
24.741359467
 20
109.397048818
 30
0.0
 11
24.730429494
 21
109.540930487
 31
0.0
  0
LINE
  8
0
  6
CONTINUOUS
 62
     2
 10
24.730429494
 20
109.540930487
 30
0.0
 11
24.711024891
 21
109.69023539
 31
0.0
  0
LINE
  8
0
  6
CONTINUOUS
 62
     2
 10
24.711024891
 20
109.69023539
 30
0.0
 11
24.684451161
 21
109.833838096
 31
0.0
  0
LINE
  8
0
  6
CONTINUOUS
 62
     2
 10
24.684451161
 20
109.833838096
 30
0.0
 11
24.648464121
 21
109.980674508
 31
0.0
  0
LINE
  8
0
  6
CONTINUOUS
 62
     2
 10
24.648464121
 20
109.980674508
 30
0.0
 11
24.596320702
 21
110.058352803
 31
0.0
  0
LINE
  8
0
  6
CONTINUOUS
 62
     2
 10
24.596320702
 20
110.058352803
 30
0.0
 11
24.51021188
 21
110.121462947
 31
0.0
  0
LINE
  8
0
  6
CONTINUOUS
 62
     2
 10
24.51021188
 20
110.121462947
 30
0.0
 11
24.395333854
 21
110.149807318
 31
0.0
  0
LINE
  8
0
  6
CONTINUOUS
 62
     2
 10
24.395333854
 20
110.149807318
 30
0.0
 11
24.261433084
 21
110.122467984
 31
0.0
  0
LINE
  8
0
  6
CONTINUOUS
 62
     2
 10
24.261433084
 20
110.122467984
 30
0.0
 11
24.171943341
 21
110.056995669
 31
0.0
  0
LINE
  8
0
  6
CONTINUOUS
 62
     2
 10
24.171943341
 20
110.056995669
 30
0.0
 11
24.119692979
 21
109.977631895
 31
0.0
  0
LINE
  8
0
  6
CONTINUOUS
 62
     2
 10
23.285
 20
108.37
 30
0.0
 11
23.285
 21
108.52
 31
0.0
  0
LINE
  8
0
  6
CONTINUOUS
 62
     2
 10
23.285
 20
108.52
 30
0.0
 11
23.285
 21
108.67
 31
0.0
  0
LINE
  8
0
  6
CONTINUOUS
 62
     2
 10
23.285
 20
108.67
 30
0.0
 11
23.285
 21
108.82
 31
0.0
  0
LINE
  8
0
  6
CONTINUOUS
 62
     2
 10
23.285
 20
108.82
 30
0.0
 11
23.285
 21
108.97
 31
0.0
  0
LINE
  8
0
  6
CONTINUOUS
 62
     2
 10
23.285
 20
108.97
 30
0.0
 11
23.285
 21
109.12
 31
0.0
  0
LINE
  8
0
  6
CONTINUOUS
 62
     2
 10
23.285
 20
109.12
 30
0.0
 11
23.285
 21
109.27
 31
0.0
  0
LINE
  8
0
  6
CONTINUOUS
 62
     2
 10
23.285
 20
109.27
 30
0.0
 11
23.285
 21
109.47
 31
0.0
  0
LINE
  8
0
  6
CONTINUOUS
 62
     2
 10
23.285
 20
109.47
 30
0.0
 11
23.285
 21
109.32
 31
0.0
  0
LINE
  8
0
  6
CONTINUOUS
 62
     2
 10
23.285
 20
109.32
 30
0.0
 11
23.285
 21
109.17
 31
0.0
  0
LINE
  8
0
  6
CONTINUOUS
 62
     2
 10
23.285
 20
109.17
 30
0.0
 11
23.285
 21
109.02
 31
0.0
  0
LINE
  8
0
  6
CONTINUOUS
 62
     2
 10
23.285
 20
109.02
 30
0.0
 11
23.285
 21
108.87
 31
0.0
  0
LINE
  8
0
  6
CONTINUOUS
 62
     2
 10
23.285
 20
108.87
 30
0.0
 11
23.285
 21
108.77
 31
0.0
  0
LINE
  8
0
  6
CONTINUOUS
 62
     2
 10
23.285
 20
108.77
 30
0.0
 11
23.485
 21
108.77
 31
0.0
  0
LINE
  8
0
  6
CONTINUOUS
 62
     2
 10
23.485
 20
108.77
 30
0.0
 11
23.335
 21
108.77
 31
0.0
  0
LINE
  8
0
  6
CONTINUOUS
 62
     2
 10
23.335
 20
108.77
 30
0.0
 11
23.185
 21
108.77
 31
0.0
  0
LINE
  8
0
  6
CONTINUOUS
 62
     2
 10
23.185
 20
108.77
 30
0.0
 11
23.035
 21
108.77
 31
0.0
  0
LINE
  8
0
  6
CONTINUOUS
 62
     2
 10
23.035
 20
108.77
 30
0.0
 11
22.885
 21
108.77
 31
0.0
  0
LINE
  8
0
  6
CONTINUOUS
 62
     2
 10
22.885
 20
108.77
 30
0.0
 11
22.765
 21
108.77
 31
0.0
  0
LINE
  8
0
  6
CONTINUOUS
 62
     2
 10
22.765
 20
108.77
 30
0.0
 11
22.799448276
 21
108.91162069
 31
0.0
  0
LINE
  8
0
  6
CONTINUOUS
 62
     2
 10
22.799448276
 20
108.91162069
 30
0.0
 11
22.833896552
 21
109.053241379
 31
0.0
  0
LINE
  8
0
  6
CONTINUOUS
 62
     2
 10
22.833896552
 20
109.053241379
 30
0.0
 11
22.868344828
 21
109.194862069
 31
0.0
  0
LINE
  8
0
  6
CONTINUOUS
 62
     2
 10
22.868344828
 20
109.194862069
 30
0.0
 11
22.902793103
 21
109.336482759
 31
0.0
  0
LINE
  8
0
  6
CONTINUOUS
 62
     2
 10
22.902793103
 20
109.336482759
 30
0.0
 11
22.937241379
 21
109.478103448
 31
0.0
  0
LINE
  8
0
  6
CONTINUOUS
 62
     2
 10
22.937241379
 20
109.478103448
 30
0.0
 11
22.971689655
 21
109.619724138
 31
0.0
  0
LINE
  8
0
  6
CONTINUOUS
 62
     2
 10
22.971689655
 20
109.619724138
 30
0.0
 11
23.006137931
 21
109.761344828
 31
0.0
  0
LINE
  8
0
  6
CONTINUOUS
 62
     2
 10
23.006137931
 20
109.761344828
 30
0.0
 11
23.040586207
 21
109.902965517
 31
0.0
  0
LINE
  8
0
  6
CONTINUOUS
 62
     2
 10
23.040586207
 20
109.902965517
 30
0.0
 11
23.075034483
 21
110.044586207
 31
0.0
  0
LINE
  8
0
  6
CONTINUOUS
 62
     2
 10
23.075034483
 20
110.044586207
 30
0.0
 11
23.096637811
 21
110.133399888
 31
0.0
  0
LINE
  8
0
  6
CONTINUOUS
 62
     2
 10
24.119692979
 20
119.977631895
 30
0.0
 11
24.085314642
 21
119.834954116
 31
0.0
  0
LINE
  8
0
  6
CONTINUOUS
 62
     2
 10
24.085314642
 20
119.834954116
 30
0.0
 11
24.058340333
 21
119.689200479
 31
0.0
  0
LINE
  8
0
  6
CONTINUOUS
 62
     2
 10
24.058340333
 20
119.689200479
 30
0.0
 11
24.039123205
 21
119.541168417
 31
0.0
  0
LINE
  8
0
  6
CONTINUOUS
 62
     2
 10
24.039123205
 20
119.541168417
 30
0.0
 11
24.027908353
 21
119.391704187
 31
0.0
  0
LINE
  8
0
  6
CONTINUOUS
 62
     2
 10
24.027908353
 20
119.391704187
 30
0.0
 11
24.024824949
 21
119.241683724
 31
0.0
  0
LINE
  8
0
  6
CONTINUOUS
 62
     2
 10
24.024824949
 20
119.241683724
 30
0.0
 11
24.029882439
 21
119.091992158
 31
0.0
  0
LINE
  8
0
  6
CONTINUOUS
 62
     2
 10
24.029882439
 20
119.091992158
 30
0.0
 11
24.042971024
 21
118.94350303
 31
0.0
  0
LINE
  8
0
  6
CONTINUOUS
 62
     2
 10
24.042971024
 20
118.94350303
 30
0.0
 11
24.063866358
 21
118.797058225
 31
0.0
  0
LINE
  8
0
  6
CONTINUOUS
 62
     2
 10
24.063866358
 20
118.797058225
 30
0.0
 11
24.09223811
 21
118.653449583
 31
0.0
  0
LINE
  8
0
  6
CONTINUOUS
 62
     2
 10
24.09223811
 20
118.653449583
 30
0.0
 11
24.127661819
 21
118.513402995
 31
0.0
  0
LINE
  8
0
  6
CONTINUOUS
 62
     2
 10
24.127661819
 20
118.513402995
 30
0.0
 11
24.186749623
 21
118.448126835
 31
0.0
  0
LINE
  8
0
  6
CONTINUOUS
 62
     2
 10
24.186749623
 20
118.448126835
 30
0.0
 11
24.261463496
 21
118.397517728
 31
0.0
  0
LINE
  8
0
  6
CONTINUOUS
 62
     2
 10
24.261463496
 20
118.397517728
 30
0.0
 11
24.386478348
 21
118.370005066
 31
0.0
  0
LINE
  8
0
  6
CONTINUOUS
 62
     2
 10
24.386478348
 20
118.370005066
 30
0.0
 11
24.488683888
 21
118.389258994
 31
0.0
  0
LINE
  8
0
  6
CONTINUOUS
 62
     2
 10
24.488683888
 20
118.389258994
 30
0.0
 11
24.581548122
 21
118.446983388
 31
0.0
  0
LINE
  8
0
  6
CONTINUOUS
 62
     2
 10
24.581548122
 20
118.446983388
 30
0.0
 11
24.631231228
 21
118.507179876
 31
0.0
  0
LINE
  8
0
  6
CONTINUOUS
 62
     2
 10
24.631231228
 20
118.507179876
 30
0.0
 11
24.677208452
 21
118.653086664
 31
0.0
  0
LINE
  8
0
  6
CONTINUOUS
 62
     2
 10
24.677208452
 20
118.653086664
 30
0.0
 11
24.704903738
 21
118.792623558
 31
0.0
  0
LINE
  8
0
  6
CONTINUOUS
 62
     2
 10
24.704903738
 20
118.792623558
 30
0.0
 11
24.726501165
 21
118.943016943
 31
0.0
  0
LINE
  8
0
  6
CONTINUOUS
 62
     2
 10
24.726501165
 20
118.943016943
 30
0.0
 11
24.73965952
 21
119.092215545
 31
0.0
  0
LINE
  8
0
  6
CONTINUOUS
 62
     2
 10
24.73965952
 20
119.092215545
 30
0.0
 11
24.744706871
 21
119.24221524
 31
0.0
  0
LINE
  8
0
  6
CONTINUOUS
 62
     2
 10
24.744706871
 20
119.24221524
 30
0.0
 11
24.741359467
 21
119.397048818
 31
0.0
  0
LINE
  8
0
  6
CONTINUOUS
 62
     2
 10
24.741359467
 20
119.397048818
 30
0.0
 11
24.730429494
 21
119.540930487
 31
0.0
  0
LINE
  8
0
  6
CONTINUOUS
 62
     2
 10
24.730429494
 20
119.540930487
 30
0.0
 11
24.711024891
 21
119.69023539
 31
0.0
  0
LINE
  8
0
  6
CONTINUOUS
 62
     2
 10
24.711024891
 20
119.69023539
 30
0.0
 11
24.684451161
 21
119.833838096
 31
0.0
  0
LINE
  8
0
  6
CONTINUOUS
 62
     2
 10
24.684451161
 20
119.833838096
 30
0.0
 11
24.648464121
 21
119.980674508
 31
0.0
  0
LINE
  8
0
  6
CONTINUOUS
 62
     2
 10
24.648464121
 20
119.980674508
 30
0.0
 11
24.596320702
 21
120.058352803
 31
0.0
  0
LINE
  8
0
  6
CONTINUOUS
 62
     2
 10
24.596320702
 20
120.058352803
 30
0.0
 11
24.51021188
 21
120.121462947
 31
0.0
  0
LINE
  8
0
  6
CONTINUOUS
 62
     2
 10
24.51021188
 20
120.121462947
 30
0.0
 11
24.395333854
 21
120.149807318
 31
0.0
  0
LINE
  8
0
  6
CONTINUOUS
 62
     2
 10
24.395333854
 20
120.149807318
 30
0.0
 11
24.261433084
 21
120.122467984
 31
0.0
  0
LINE
  8
0
  6
CONTINUOUS
 62
     2
 10
24.261433084
 20
120.122467984
 30
0.0
 11
24.171943341
 21
120.056995669
 31
0.0
  0
LINE
  8
0
  6
CONTINUOUS
 62
     2
 10
24.171943341
 20
120.056995669
 30
0.0
 11
24.119692979
 21
119.977631895
 31
0.0
  0
LINE
  8
0
  6
CONTINUOUS
 62
     2
 10
22.745
 20
118.85
 30
0.0
 11
22.763210375
 21
118.996810616
 31
0.0
  0
LINE
  8
0
  6
CONTINUOUS
 62
     2
 10
22.763210375
 20
118.996810616
 30
0.0
 11
22.812252328
 21
119.122645817
 31
0.0
  0
LINE
  8
0
  6
CONTINUOUS
 62
     2
 10
22.812252328
 20
119.122645817
 30
0.0
 11
22.886554138
 21
119.223740162
 31
0.0
  0
LINE
  8
0
  6
CONTINUOUS
 62
     2
 10
22.886554138
 20
119.223740162
 30
0.0
 11
22.98701761
 21
119.297237923
 31
0.0
  0
LINE
  8
0
  6
CONTINUOUS
 62
     2
 10
22.98701761
 20
119.297237923
 30
0.0
 11
23.11181217
 21
119.329710851
 31
0.0
  0
LINE
  8
0
  6
CONTINUOUS
 62
     2
 10
23.11181217
 20
119.329710851
 30
0.0
 11
23.274051808
 21
119.291533872
 31
0.0
  0
LINE
  8
0
  6
CONTINUOUS
 62
     2
 10
23.274051808
 20
119.291533872
 30
0.0
 11
23.359672227
 21
119.22753198
 31
0.0
  0
LINE
  8
0
  6
CONTINUOUS
 62
     2
 10
23.359672227
 20
119.22753198
 30
0.0
 11
23.438406606
 21
119.121435848
 31
0.0
  0
LINE
  8
0
  6
CONTINUOUS
 62
     2
 10
23.438406606
 20
119.121435848
 30
0.0
 11
23.486069872
 21
118.999611162
 31
0.0
  0
LINE
  8
0
  6
CONTINUOUS
 62
     2
 10
23.486069872
 20
118.999611162
 30
0.0
 11
23.504999873
 21
118.849607098
 31
0.0
  0
LINE
  8
0
  6
CONTINUOUS
 62
     2
 10
23.504999873
 20
118.849607098
 30
0.0
 11
23.493629721
 21
118.733459539
 31
0.0
  0
LINE
  8
0
  6
CONTINUOUS
 62
     2
 10
23.493629721
 20
118.733459539
 30
0.0
 11
23.450828498
 21
118.603002434
 31
0.0
  0
LINE
  8
0
  6
CONTINUOUS
 62
     2
 10
23.450828498
 20
118.603002434
 30
0.0
 11
23.362525369
 21
118.475325779
 31
0.0
  0
LINE
  8
0
  6
CONTINUOUS
 62
     2
 10
23.362525369
 20
118.475325779
 30
0.0
 11
23.28047554
 21
118.412014947
 31
0.0
  0
LINE
  8
0
  6
CONTINUOUS
 62
     2
 10
23.28047554
 20
118.412014947
 30
0.0
 11
23.115537341
 21
118.370148846
 31
0.0
  0
LINE
  8
0
  6
CONTINUOUS
 62
     2
 10
23.115537341
 20
118.370148846
 30
0.0
 11
22.994040431
 21
118.399405549
 31
0.0
  0
LINE
  8
0
  6
CONTINUOUS
 62
     2
 10
22.994040431
 20
118.399405549
 30
0.0
 11
22.884885651
 21
118.477968156
 31
0.0
  0
LINE
  8
0
  6
CONTINUOUS
 62
     2
 10
22.884885651
 20
118.477968156
 30
0.0
 11
22.807601555
 21
118.586068827
 31
0.0
  0
LINE
  8
0
  6
CONTINUOUS
 62
     2
 10
22.807601555
 20
118.586068827
 30
0.0
 11
22.759609201
 21
118.718185592
 31
0.0
  0
LINE
  8
0
  6
CONTINUOUS
 62
     2
 10
22.759609201
 20
118.718185592
 30
0.0
 11
22.750782971
 21
118.996557868
 31
0.0
  0
LINE
  8
0
  6
CONTINUOUS
 62
     2
 10
22.750782971
 20
118.996557868
 30
0.0
 11
22.764948535
 21
119.121681071
 31
0.0
  0
LINE
  8
0
  6
CONTINUOUS
 62
     2
 10
22.764948535
 20
119.121681071
 30
0.0
 11
22.79294074
 21
119.269572686
 31
0.0
  0
LINE
  8
0
  6
CONTINUOUS
 62
     2
 10
22.79294074
 20
119.269572686
 30
0.0
 11
22.83516461
 21
119.422086263
 31
0.0
  0
LINE
  8
0
  6
CONTINUOUS
 62
     2
 10
22.83516461
 20
119.422086263
 30
0.0
 11
22.882822786
 21
119.552641904
 31
0.0
  0
LINE
  8
0
  6
CONTINUOUS
 62
     2
 10
22.882822786
 20
119.552641904
 30
0.0
 11
22.938108063
 21
119.675270422
 31
0.0
  0
LINE
  8
0
  6
CONTINUOUS
 62
     2
 10
22.938108063
 20
119.675270422
 30
0.0
 11
22.999595268
 21
119.789295292
 31
0.0
  0
LINE
  8
0
  6
CONTINUOUS
 62
     2
 10
22.999595268
 20
119.789295292
 30
0.0
 11
23.065856534
 21
119.894335861
 31
0.0
  0
LINE
  8
0
  6
CONTINUOUS
 62
     2
 10
23.065856534
 20
119.894335861
 30
0.0
 11
23.13552153
 21
119.99027761
 31
0.0
  0
LINE
  8
0
  6
CONTINUOUS
 62
     2
 10
23.13552153
 20
119.99027761
 30
0.0
 11
23.257975723
 21
120.132624496
 31
0.0
  0
LINE
  8
0
  6
CONTINUOUS
 62
     2
 10
24.119692979
 20
129.977631895
 30
0.0
 11
24.085314642
 21
129.834954116
 31
0.0
  0
LINE
  8
0
  6
CONTINUOUS
 62
     2
 10
24.085314642
 20
129.834954116
 30
0.0
 11
24.058340333
 21
129.689200479
 31
0.0
  0
LINE
  8
0
  6
CONTINUOUS
 62
     2
 10
24.058340333
 20
129.689200479
 30
0.0
 11
24.039123205
 21
129.541168417
 31
0.0
  0
LINE
  8
0
  6
CONTINUOUS
 62
     2
 10
24.039123205
 20
129.541168417
 30
0.0
 11
24.027908353
 21
129.391704187
 31
0.0
  0
LINE
  8
0
  6
CONTINUOUS
 62
     2
 10
24.027908353
 20
129.391704187
 30
0.0
 11
24.024824949
 21
129.241683724
 31
0.0
  0
LINE
  8
0
  6
CONTINUOUS
 62
     2
 10
24.024824949
 20
129.241683724
 30
0.0
 11
24.029882439
 21
129.091992158
 31
0.0
  0
LINE
  8
0
  6
CONTINUOUS
 62
     2
 10
24.029882439
 20
129.091992158
 30
0.0
 11
24.042971024
 21
128.94350303
 31
0.0
  0
LINE
  8
0
  6
CONTINUOUS
 62
     2
 10
24.042971024
 20
128.94350303
 30
0.0
 11
24.063866358
 21
128.797058225
 31
0.0
  0
LINE
  8
0
  6
CONTINUOUS
 62
     2
 10
24.063866358
 20
128.797058225
 30
0.0
 11
24.09223811
 21
128.653449583
 31
0.0
  0
LINE
  8
0
  6
CONTINUOUS
 62
     2
 10
24.09223811
 20
128.653449583
 30
0.0
 11
24.127661819
 21
128.513402995
 31
0.0
  0
LINE
  8
0
  6
CONTINUOUS
 62
     2
 10
24.127661819
 20
128.513402995
 30
0.0
 11
24.186749623
 21
128.448126835
 31
0.0
  0
LINE
  8
0
  6
CONTINUOUS
 62
     2
 10
24.186749623
 20
128.448126835
 30
0.0
 11
24.261463496
 21
128.397517728
 31
0.0
  0
LINE
  8
0
  6
CONTINUOUS
 62
     2
 10
24.261463496
 20
128.397517728
 30
0.0
 11
24.386478348
 21
128.370005066
 31
0.0
  0
LINE
  8
0
  6
CONTINUOUS
 62
     2
 10
24.386478348
 20
128.370005066
 30
0.0
 11
24.488683888
 21
128.389258994
 31
0.0
  0
LINE
  8
0
  6
CONTINUOUS
 62
     2
 10
24.488683888
 20
128.389258994
 30
0.0
 11
24.581548122
 21
128.446983388
 31
0.0
  0
LINE
  8
0
  6
CONTINUOUS
 62
     2
 10
24.581548122
 20
128.446983388
 30
0.0
 11
24.631231228
 21
128.507179876
 31
0.0
  0
LINE
  8
0
  6
CONTINUOUS
 62
     2
 10
24.631231228
 20
128.507179876
 30
0.0
 11
24.677208452
 21
128.653086664
 31
0.0
  0
LINE
  8
0
  6
CONTINUOUS
 62
     2
 10
24.677208452
 20
128.653086664
 30
0.0
 11
24.704903738
 21
128.792623558
 31
0.0
  0
LINE
  8
0
  6
CONTINUOUS
 62
     2
 10
24.704903738
 20
128.792623558
 30
0.0
 11
24.726501165
 21
128.943016943
 31
0.0
  0
LINE
  8
0
  6
CONTINUOUS
 62
     2
 10
24.726501165
 20
128.943016943
 30
0.0
 11
24.73965952
 21
129.092215545
 31
0.0
  0
LINE
  8
0
  6
CONTINUOUS
 62
     2
 10
24.73965952
 20
129.092215545
 30
0.0
 11
24.744706871
 21
129.24221524
 31
0.0
  0
LINE
  8
0
  6
CONTINUOUS
 62
     2
 10
24.744706871
 20
129.24221524
 30
0.0
 11
24.741359467
 21
129.397048818
 31
0.0
  0
LINE
  8
0
  6
CONTINUOUS
 62
     2
 10
24.741359467
 20
129.397048818
 30
0.0
 11
24.730429494
 21
129.540930487
 31
0.0
  0
LINE
  8
0
  6
CONTINUOUS
 62
     2
 10
24.730429494
 20
129.540930487
 30
0.0
 11
24.711024891
 21
129.69023539
 31
0.0
  0
LINE
  8
0
  6
CONTINUOUS
 62
     2
 10
24.711024891
 20
129.69023539
 30
0.0
 11
24.684451161
 21
129.833838096
 31
0.0
  0
LINE
  8
0
  6
CONTINUOUS
 62
     2
 10
24.684451161
 20
129.833838096
 30
0.0
 11
24.648464121
 21
129.980674508
 31
0.0
  0
LINE
  8
0
  6
CONTINUOUS
 62
     2
 10
24.648464121
 20
129.980674508
 30
0.0
 11
24.596320702
 21
130.058352803
 31
0.0
  0
LINE
  8
0
  6
CONTINUOUS
 62
     2
 10
24.596320702
 20
130.058352803
 30
0.0
 11
24.51021188
 21
130.121462947
 31
0.0
  0
LINE
  8
0
  6
CONTINUOUS
 62
     2
 10
24.51021188
 20
130.121462947
 30
0.0
 11
24.395333854
 21
130.149807318
 31
0.0
  0
LINE
  8
0
  6
CONTINUOUS
 62
     2
 10
24.395333854
 20
130.149807318
 30
0.0
 11
24.261433084
 21
130.122467984
 31
0.0
  0
LINE
  8
0
  6
CONTINUOUS
 62
     2
 10
24.261433084
 20
130.122467984
 30
0.0
 11
24.171943341
 21
130.056995669
 31
0.0
  0
LINE
  8
0
  6
CONTINUOUS
 62
     2
 10
24.171943341
 20
130.056995669
 30
0.0
 11
24.119692979
 21
129.977631895
 31
0.0
  0
LINE
  8
0
  6
CONTINUOUS
 62
     2
 10
23.12500005
 20
129.33
 30
0.0
 11
23.221707499
 21
129.314195763
 31
0.0
  0
LINE
  8
0
  6
CONTINUOUS
 62
     2
 10
23.221707499
 20
129.314195763
 30
0.0
 11
23.301280563
 21
129.275226985
 31
0.0
  0
LINE
  8
0
  6
CONTINUOUS
 62
     2
 10
23.301280563
 20
129.275226985
 30
0.0
 11
23.380183482
 21
129.205666753
 31
0.0
  0
LINE
  8
0
  6
CONTINUOUS
 62
     2
 10
23.380183482
 20
129.205666753
 30
0.0
 11
23.448974344
 21
129.10085891
 31
0.0
  0
LINE
  8
0
  6
CONTINUOUS
 62
     2
 10
23.448974344
 20
129.10085891
 30
0.0
 11
23.492190825
 21
128.973575956
 31
0.0
  0
LINE
  8
0
  6
CONTINUOUS
 62
     2
 10
23.492190825
 20
128.973575956
 30
0.0
 11
23.504998209
 21
128.848526286
 31
0.0
  0
LINE
  8
0
  6
CONTINUOUS
 62
     2
 10
23.504998209
 20
128.848526286
 30
0.0
 11
23.490801853
 21
128.720017403
 31
0.0
  0
LINE
  8
0
  6
CONTINUOUS
 62
     2
 10
23.490801853
 20
128.720017403
 30
0.0
 11
23.453264421
 21
128.608203499
 31
0.0
  0
LINE
  8
0
  6
CONTINUOUS
 62
     2
 10
23.453264421
 20
128.608203499
 30
0.0
 11
23.382656455
 21
128.49718946
 31
0.0
  0
LINE
  8
0
  6
CONTINUOUS
 62
     2
 10
23.382656455
 20
128.49718946
 30
0.0
 11
23.304805795
 21
128.427134663
 31
0.0
  0
LINE
  8
0
  6
CONTINUOUS
 62
     2
 10
23.304805795
 20
128.427134663
 30
0.0
 11
23.220181332
 21
128.385301199
 31
0.0
  0
LINE
  8
0
  6
CONTINUOUS
 62
     2
 10
23.220181332
 20
128.385301199
 30
0.0
 11
23.125181446
 21
128.370000055
 31
0.0
  0
LINE
  8
0
  6
CONTINUOUS
 62
     2
 10
23.125181446
 20
128.370000055
 30
0.0
 11
23.016369619
 21
128.390031081
 31
0.0
  0
LINE
  8
0
  6
CONTINUOUS
 62
     2
 10
23.016369619
 20
128.390031081
 30
0.0
 11
22.941280539
 21
128.429827354
 31
0.0
  0
LINE
  8
0
  6
CONTINUOUS
 62
     2
 10
22.941280539
 20
128.429827354
 30
0.0
 11
22.871232577
 21
128.492720317
 31
0.0
  0
LINE
  8
0
  6
CONTINUOUS
 62
     2
 10
22.871232577
 20
128.492720317
 30
0.0
 11
22.799398223
 21
128.602525856
 31
0.0
  0
LINE
  8
0
  6
CONTINUOUS
 62
     2
 10
22.799398223
 20
128.602525856
 30
0.0
 11
22.759731343
 21
128.71764656
 31
0.0
  0
LINE
  8
0
  6
CONTINUOUS
 62
     2
 10
22.759731343
 20
128.71764656
 30
0.0
 11
22.745004683
 21
128.847616918
 31
0.0
  0
LINE
  8
0
  6
CONTINUOUS
 62
     2
 10
22.745004683
 20
128.847616918
 30
0.0
 11
22.757765587
 21
128.973369122
 31
0.0
  0
LINE
  8
0
  6
CONTINUOUS
 62
     2
 10
22.757765587
 20
128.973369122
 30
0.0
 11
22.802009722
 21
129.102875504
 31
0.0
  0
LINE
  8
0
  6
CONTINUOUS
 62
     2
 10
22.802009722
 20
129.102875504
 30
0.0
 11
22.867188973
 21
129.202630326
 31
0.0
  0
LINE
  8
0
  6
CONTINUOUS
 62
     2
 10
22.867188973
 20
129.202630326
 30
0.0
 11
22.954636755
 21
129.279058061
 31
0.0
  0
LINE
  8
0
  6
CONTINUOUS
 62
     2
 10
22.954636755
 20
129.279058061
 30
0.0
 11
23.0535188
 21
129.321431169
 31
0.0
  0
LINE
  8
0
  6
CONTINUOUS
 62
     2
 10
23.0535188
 20
129.321431169
 30
0.0
 11
23.224992233
 21
129.350029703
 31
0.0
  0
LINE
  8
0
  6
CONTINUOUS
 62
     2
 10
23.224992233
 20
129.350029703
 30
0.0
 11
23.309062679
 21
129.402793714
 31
0.0
  0
LINE
  8
0
  6
CONTINUOUS
 62
     2
 10
23.309062679
 20
129.402793714
 30
0.0
 11
23.375527897
 21
129.481140812
 31
0.0
  0
LINE
  8
0
  6
CONTINUOUS
 62
     2
 10
23.375527897
 20
129.481140812
 30
0.0
 11
23.42515087
 21
129.591315018
 31
0.0
  0
LINE
  8
0
  6
CONTINUOUS
 62
     2
 10
23.42515087
 20
129.591315018
 30
0.0
 11
23.444998272
 21
129.731314391
 31
0.0
  0
LINE
  8
0
  6
CONTINUOUS
 62
     2
 10
23.444998272
 20
129.731314391
 30
0.0
 11
23.425746376
 21
129.866654317
 31
0.0
  0
LINE
  8
0
  6
CONTINUOUS
 62
     2
 10
23.425746376
 20
129.866654317
 30
0.0
 11
23.374525037
 21
129.980428557
 31
0.0
  0
LINE
  8
0
  6
CONTINUOUS
 62
     2
 10
23.374525037
 20
129.980428557
 30
0.0
 11
23.304782977
 21
130.060903312
 31
0.0
  0
LINE
  8
0
  6
CONTINUOUS
 62
     2
 10
23.304782977
 20
130.060903312
 30
0.0
 11
23.22577657
 21
130.109646387
 31
0.0
  0
LINE
  8
0
  6
CONTINUOUS
 62
     2
 10
23.22577657
 20
130.109646387
 30
0.0
 11
23.125807566
 21
130.129998726
 31
0.0
  0
LINE
  8
0
  6
CONTINUOUS
 62
     2
 10
23.125807566
 20
130.129998726
 30
0.0
 11
23.025737029
 21
130.110268948
 31
0.0
  0
LINE
  8
0
  6
CONTINUOUS
 62
     2
 10
23.025737029
 20
130.110268948
 30
0.0
 11
22.945337311
 21
130.061005377
 31
0.0
  0
LINE
  8
0
  6
CONTINUOUS
 62
     2
 10
22.945337311
 20
130.061005377
 30
0.0
 11
22.875646165
 21
129.980694862
 31
0.0
  0
LINE
  8
0
  6
CONTINUOUS
 62
     2
 10
22.875646165
 20
129.980694862
 30
0.0
 11
22.824766528
 21
129.868405329
 31
0.0
  0
LINE
  8
0
  6
CONTINUOUS
 62
     2
 10
22.824766528
 20
129.868405329
 30
0.0
 11
22.805002539
 21
129.728406504
 31
0.0
  0
LINE
  8
0
  6
CONTINUOUS
 62
     2
 10
22.805002539
 20
129.728406504
 30
0.0
 11
22.824925856
 21
129.591055834
 31
0.0
  0
LINE
  8
0
  6
CONTINUOUS
 62
     2
 10
22.824925856
 20
129.591055834
 30
0.0
 11
22.874681192
 21
129.480812275
 31
0.0
  0
LINE
  8
0
  6
CONTINUOUS
 62
     2
 10
22.874681192
 20
129.480812275
 30
0.0
 11
22.951220188
 21
129.394122937
 31
0.0
  0
LINE
  8
0
  6
CONTINUOUS
 62
     2
 10
22.951220188
 20
129.394122937
 30
0.0
 11
23.040162297
 21
129.34431359
 31
0.0
  0
LINE
  8
0
  6
CONTINUOUS
 62
     2
 10
23.040162297
 20
129.34431359
 30
0.0
 11
23.12500005
 21
129.33
 31
0.0
  0
LINE
  8
0
  6
CONTINUOUS
 62
     2
 10
22.5
 20
140.13
 30
0.0
 11
22.5
 21
139.98
 31
0.0
  0
LINE
  8
0
  6
CONTINUOUS
 62
     2
 10
22.5
 20
139.98
 30
0.0
 11
22.5
 21
139.83
 31
0.0
  0
LINE
  8
0
  6
CONTINUOUS
 62
     2
 10
22.5
 20
139.83
 30
0.0
 11
22.5
 21
139.68
 31
0.0
  0
LINE
  8
0
  6
CONTINUOUS
 62
     2
 10
22.5
 20
139.68
 30
0.0
 11
22.5
 21
139.53
 31
0.0
  0
LINE
  8
0
  6
CONTINUOUS
 62
     2
 10
22.5
 20
139.53
 30
0.0
 11
22.5
 21
139.38
 31
0.0
  0
LINE
  8
0
  6
CONTINUOUS
 62
     2
 10
22.5
 20
139.38
 30
0.0
 11
22.5
 21
139.23
 31
0.0
  0
LINE
  8
0
  6
CONTINUOUS
 62
     2
 10
22.5
 20
139.23
 30
0.0
 11
22.5
 21
139.08
 31
0.0
  0
LINE
  8
0
  6
CONTINUOUS
 62
     2
 10
22.5
 20
139.08
 30
0.0
 11
22.5
 21
138.93
 31
0.0
  0
LINE
  8
0
  6
CONTINUOUS
 62
     2
 10
22.5
 20
138.93
 30
0.0
 11
22.5
 21
138.78
 31
0.0
  0
LINE
  8
0
  6
CONTINUOUS
 62
     2
 10
22.5
 20
138.78
 30
0.0
 11
22.5
 21
138.63
 31
0.0
  0
LINE
  8
0
  6
CONTINUOUS
 62
     2
 10
22.5
 20
138.63
 30
0.0
 11
22.5
 21
138.48
 31
0.0
  0
LINE
  8
0
  6
CONTINUOUS
 62
     2
 10
22.5
 20
138.48
 30
0.0
 11
22.5
 21
138.37
 31
0.0
  0
LINE
  8
0
  6
CONTINUOUS
 62
     2
 10
23.494692979
 20
139.977631895
 30
0.0
 11
23.460314642
 21
139.834954116
 31
0.0
  0
LINE
  8
0
  6
CONTINUOUS
 62
     2
 10
23.460314642
 20
139.834954116
 30
0.0
 11
23.433340333
 21
139.689200479
 31
0.0
  0
LINE
  8
0
  6
CONTINUOUS
 62
     2
 10
23.433340333
 20
139.689200479
 30
0.0
 11
23.414123205
 21
139.541168417
 31
0.0
  0
LINE
  8
0
  6
CONTINUOUS
 62
     2
 10
23.414123205
 20
139.541168417
 30
0.0
 11
23.402908353
 21
139.391704187
 31
0.0
  0
LINE
  8
0
  6
CONTINUOUS
 62
     2
 10
23.402908353
 20
139.391704187
 30
0.0
 11
23.399824949
 21
139.241683724
 31
0.0
  0
LINE
  8
0
  6
CONTINUOUS
 62
     2
 10
23.399824949
 20
139.241683724
 30
0.0
 11
23.404882439
 21
139.091992158
 31
0.0
  0
LINE
  8
0
  6
CONTINUOUS
 62
     2
 10
23.404882439
 20
139.091992158
 30
0.0
 11
23.417971024
 21
138.94350303
 31
0.0
  0
LINE
  8
0
  6
CONTINUOUS
 62
     2
 10
23.417971024
 20
138.94350303
 30
0.0
 11
23.438866358
 21
138.797058225
 31
0.0
  0
LINE
  8
0
  6
CONTINUOUS
 62
     2
 10
23.438866358
 20
138.797058225
 30
0.0
 11
23.46723811
 21
138.653449583
 31
0.0
  0
LINE
  8
0
  6
CONTINUOUS
 62
     2
 10
23.46723811
 20
138.653449583
 30
0.0
 11
23.502661819
 21
138.513402995
 31
0.0
  0
LINE
  8
0
  6
CONTINUOUS
 62
     2
 10
23.502661819
 20
138.513402995
 30
0.0
 11
23.561749623
 21
138.448126835
 31
0.0
  0
LINE
  8
0
  6
CONTINUOUS
 62
     2
 10
23.561749623
 20
138.448126835
 30
0.0
 11
23.636463496
 21
138.397517728
 31
0.0
  0
LINE
  8
0
  6
CONTINUOUS
 62
     2
 10
23.636463496
 20
138.397517728
 30
0.0
 11
23.761478348
 21
138.370005066
 31
0.0
  0
LINE
  8
0
  6
CONTINUOUS
 62
     2
 10
23.761478348
 20
138.370005066
 30
0.0
 11
23.863683888
 21
138.389258994
 31
0.0
  0
LINE
  8
0
  6
CONTINUOUS
 62
     2
 10
23.863683888
 20
138.389258994
 30
0.0
 11
23.956548122
 21
138.446983388
 31
0.0
  0
LINE
  8
0
  6
CONTINUOUS
 62
     2
 10
23.956548122
 20
138.446983388
 30
0.0
 11
24.006231228
 21
138.507179876
 31
0.0
  0
LINE
  8
0
  6
CONTINUOUS
 62
     2
 10
24.006231228
 20
138.507179876
 30
0.0
 11
24.052208452
 21
138.653086664
 31
0.0
  0
LINE
  8
0
  6
CONTINUOUS
 62
     2
 10
24.052208452
 20
138.653086664
 30
0.0
 11
24.079903738
 21
138.792623558
 31
0.0
  0
LINE
  8
0
  6
CONTINUOUS
 62
     2
 10
24.079903738
 20
138.792623558
 30
0.0
 11
24.101501165
 21
138.943016943
 31
0.0
  0
LINE
  8
0
  6
CONTINUOUS
 62
     2
 10
24.101501165
 20
138.943016943
 30
0.0
 11
24.11465952
 21
139.092215545
 31
0.0
  0
LINE
  8
0
  6
CONTINUOUS
 62
     2
 10
24.11465952
 20
139.092215545
 30
0.0
 11
24.119706871
 21
139.24221524
 31
0.0
  0
LINE
  8
0
  6
CONTINUOUS
 62
     2
 10
24.119706871
 20
139.24221524
 30
0.0
 11
24.116359467
 21
139.397048818
 31
0.0
  0
LINE
  8
0
  6
CONTINUOUS
 62
     2
 10
24.116359467
 20
139.397048818
 30
0.0
 11
24.105429494
 21
139.540930487
 31
0.0
  0
LINE
  8
0
  6
CONTINUOUS
 62
     2
 10
24.105429494
 20
139.540930487
 30
0.0
 11
24.086024891
 21
139.69023539
 31
0.0
  0
LINE
  8
0
  6
CONTINUOUS
 62
     2
 10
24.086024891
 20
139.69023539
 30
0.0
 11
24.059451161
 21
139.833838096
 31
0.0
  0
LINE
  8
0
  6
CONTINUOUS
 62
     2
 10
24.059451161
 20
139.833838096
 30
0.0
 11
24.023464121
 21
139.980674508
 31
0.0
  0
LINE
  8
0
  6
CONTINUOUS
 62
     2
 10
24.023464121
 20
139.980674508
 30
0.0
 11
23.971320702
 21
140.058352803
 31
0.0
  0
LINE
  8
0
  6
CONTINUOUS
 62
     2
 10
23.971320702
 20
140.058352803
 30
0.0
 11
23.88521188
 21
140.121462947
 31
0.0
  0
LINE
  8
0
  6
CONTINUOUS
 62
     2
 10
23.88521188
 20
140.121462947
 30
0.0
 11
23.770333854
 21
140.149807318
 31
0.0
  0
LINE
  8
0
  6
CONTINUOUS
 62
     2
 10
23.770333854
 20
140.149807318
 30
0.0
 11
23.636433084
 21
140.122467984
 31
0.0
  0
LINE
  8
0
  6
CONTINUOUS
 62
     2
 10
23.636433084
 20
140.122467984
 30
0.0
 11
23.546943341
 21
140.056995669
 31
0.0
  0
LINE
  8
0
  6
CONTINUOUS
 62
     2
 10
23.546943341
 20
140.056995669
 30
0.0
 11
23.494692979
 21
139.977631895
 31
0.0
  0
LINE
  8
0
  6
CONTINUOUS
 62
     2
 10
24.744692979
 20
139.977631895
 30
0.0
 11
24.710314642
 21
139.834954116
 31
0.0
  0
LINE
  8
0
  6
CONTINUOUS
 62
     2
 10
24.710314642
 20
139.834954116
 30
0.0
 11
24.683340333
 21
139.689200479
 31
0.0
  0
LINE
  8
0
  6
CONTINUOUS
 62
     2
 10
24.683340333
 20
139.689200479
 30
0.0
 11
24.664123205
 21
139.541168417
 31
0.0
  0
LINE
  8
0
  6
CONTINUOUS
 62
     2
 10
24.664123205
 20
139.541168417
 30
0.0
 11
24.652908353
 21
139.391704187
 31
0.0
  0
LINE
  8
0
  6
CONTINUOUS
 62
     2
 10
24.652908353
 20
139.391704187
 30
0.0
 11
24.649824949
 21
139.241683724
 31
0.0
  0
LINE
  8
0
  6
CONTINUOUS
 62
     2
 10
24.649824949
 20
139.241683724
 30
0.0
 11
24.654882439
 21
139.091992158
 31
0.0
  0
LINE
  8
0
  6
CONTINUOUS
 62
     2
 10
24.654882439
 20
139.091992158
 30
0.0
 11
24.667971024
 21
138.94350303
 31
0.0
  0
LINE
  8
0
  6
CONTINUOUS
 62
     2
 10
24.667971024
 20
138.94350303
 30
0.0
 11
24.688866358
 21
138.797058225
 31
0.0
  0
LINE
  8
0
  6
CONTINUOUS
 62
     2
 10
24.688866358
 20
138.797058225
 30
0.0
 11
24.71723811
 21
138.653449583
 31
0.0
  0
LINE
  8
0
  6
CONTINUOUS
 62
     2
 10
24.71723811
 20
138.653449583
 30
0.0
 11
24.752661819
 21
138.513402995
 31
0.0
  0
LINE
  8
0
  6
CONTINUOUS
 62
     2
 10
24.752661819
 20
138.513402995
 30
0.0
 11
24.811749623
 21
138.448126835
 31
0.0
  0
LINE
  8
0
  6
CONTINUOUS
 62
     2
 10
24.811749623
 20
138.448126835
 30
0.0
 11
24.886463496
 21
138.397517728
 31
0.0
  0
LINE
  8
0
  6
CONTINUOUS
 62
     2
 10
24.886463496
 20
138.397517728
 30
0.0
 11
25.011478348
 21
138.370005066
 31
0.0
  0
LINE
  8
0
  6
CONTINUOUS
 62
     2
 10
25.011478348
 20
138.370005066
 30
0.0
 11
25.113683888
 21
138.389258994
 31
0.0
  0
LINE
  8
0
  6
CONTINUOUS
 62
     2
 10
25.113683888
 20
138.389258994
 30
0.0
 11
25.206548122
 21
138.446983388
 31
0.0
  0
LINE
  8
0
  6
CONTINUOUS
 62
     2
 10
25.206548122
 20
138.446983388
 30
0.0
 11
25.256231228
 21
138.507179876
 31
0.0
  0
LINE
  8
0
  6
CONTINUOUS
 62
     2
 10
25.256231228
 20
138.507179876
 30
0.0
 11
25.302208452
 21
138.653086664
 31
0.0
  0
LINE
  8
0
  6
CONTINUOUS
 62
     2
 10
25.302208452
 20
138.653086664
 30
0.0
 11
25.329903738
 21
138.792623558
 31
0.0
  0
LINE
  8
0
  6
CONTINUOUS
 62
     2
 10
25.329903738
 20
138.792623558
 30
0.0
 11
25.351501165
 21
138.943016943
 31
0.0
  0
LINE
  8
0
  6
CONTINUOUS
 62
     2
 10
25.351501165
 20
138.943016943
 30
0.0
 11
25.36465952
 21
139.092215545
 31
0.0
  0
LINE
  8
0
  6
CONTINUOUS
 62
     2
 10
25.36465952
 20
139.092215545
 30
0.0
 11
25.369706871
 21
139.24221524
 31
0.0
  0
LINE
  8
0
  6
CONTINUOUS
 62
     2
 10
25.369706871
 20
139.24221524
 30
0.0
 11
25.366359467
 21
139.397048818
 31
0.0
  0
LINE
  8
0
  6
CONTINUOUS
 62
     2
 10
25.366359467
 20
139.397048818
 30
0.0
 11
25.355429494
 21
139.540930487
 31
0.0
  0
LINE
  8
0
  6
CONTINUOUS
 62
     2
 10
25.355429494
 20
139.540930487
 30
0.0
 11
25.336024891
 21
139.69023539
 31
0.0
  0
LINE
  8
0
  6
CONTINUOUS
 62
     2
 10
25.336024891
 20
139.69023539
 30
0.0
 11
25.309451161
 21
139.833838096
 31
0.0
  0
LINE
  8
0
  6
CONTINUOUS
 62
     2
 10
25.309451161
 20
139.833838096
 30
0.0
 11
25.273464121
 21
139.980674508
 31
0.0
  0
LINE
  8
0
  6
CONTINUOUS
 62
     2
 10
25.273464121
 20
139.980674508
 30
0.0
 11
25.221320702
 21
140.058352803
 31
0.0
  0
LINE
  8
0
  6
CONTINUOUS
 62
     2
 10
25.221320702
 20
140.058352803
 30
0.0
 11
25.13521188
 21
140.121462947
 31
0.0
  0
LINE
  8
0
  6
CONTINUOUS
 62
     2
 10
25.13521188
 20
140.121462947
 30
0.0
 11
25.020333854
 21
140.149807318
 31
0.0
  0
LINE
  8
0
  6
CONTINUOUS
 62
     2
 10
25.020333854
 20
140.149807318
 30
0.0
 11
24.886433084
 21
140.122467984
 31
0.0
  0
LINE
  8
0
  6
CONTINUOUS
 62
     2
 10
24.886433084
 20
140.122467984
 30
0.0
 11
24.796943341
 21
140.056995669
 31
0.0
  0
LINE
  8
0
  6
CONTINUOUS
 62
     2
 10
24.796943341
 20
140.056995669
 30
0.0
 11
24.744692979
 21
139.977631895
 31
0.0
  0
ARC
  8
0
  6
CONTINUOUS
 62
     2
 10
22.39
 20
114.65
 30
0.0
 40
1.056
 50
337.467174552
 51
22.511176732
  0
ARC
  8
0
  6
CONTINUOUS
 62
     2
 10
22.39
 20
114.65
 30
0.0
 40
1.032
 50
337.684584171
 51
22.324706219
  0
ARC
  8
0
  6
CONTINUOUS
 62
     2
 10
22.39
 20
114.65
 30
0.0
 40
1.008
 50
337.549614612
 51
22.453599418
  0
ARC
  8
0
  6
CONTINUOUS
 62
     2
 10
22.39
 20
114.65
 30
0.0
 40
0.984
 50
337.442033402
 51
22.554911701
  0
ARC
  8
0
  6
CONTINUOUS
 62
     2
 10
22.39
 20
114.65
 30
0.0
 40
0.96
 50
337.452380695
 51
22.564315364
  0
ARC
  8
0
  6
CONTINUOUS
 62
     2
 10
23.83
 20
114.65
 30
0.0
 40
1.056
 50
157.488823268
 51
202.532825448
  0
ARC
  8
0
  6
CONTINUOUS
 62
     2
 10
23.83
 20
114.65
 30
0.0
 40
1.032
 50
157.675293781
 51
202.315415829
  0
ARC
  8
0
  6
CONTINUOUS
 62
     2
 10
23.83
 20
114.65
 30
0.0
 40
1.008
 50
157.546400582
 51
202.450385388
  0
ARC
  8
0
  6
CONTINUOUS
 62
     2
 10
23.83
 20
114.65
 30
0.0
 40
0.984
 50
157.445088299
 51
202.557966598
  0
ARC
  8
0
  6
CONTINUOUS
 62
     2
 10
23.83
 20
114.65
 30
0.0
 40
0.96
 50
157.435684636
 51
202.547619305
  0
ARC
  8
0
  6
CONTINUOUS
 62
     2
 10
23.11
 20
114.95
 30
0.0
 40
0.18
 50
22.323602445
 51
157.676397555
  0
ARC
  8
0
  6
CONTINUOUS
 62
     2
 10
23.11
 20
114.95
 30
0.0
 40
0.204
 50
22.306563269
 51
157.693436731
  0
ARC
  8
0
  6
CONTINUOUS
 62
     2
 10
23.11
 20
114.95
 30
0.0
 40
0.228
 50
21.884823963
 51
158.115176037
  0
ARC
  8
0
  6
CONTINUOUS
 62
     2
 10
23.11
 20
114.95
 30
0.0
 40
0.252
 50
21.411238642
 51
158.588761358
  0
ARC
  8
0
  6
CONTINUOUS
 62
     2
 10
23.11
 20
114.95
 30
0.0
 40
0.276
 50
22.204019072
 51
157.795980928
  0
ARC
  8
0
  6
CONTINUOUS
 62
     2
 10
23.11
 20
114.35
 30
0.0
 40
0.18
 50
202.234559129
 51
337.765440871
  0
ARC
  8
0
  6
CONTINUOUS
 62
     2
 10
23.11
 20
114.35
 30
0.0
 40
0.204
 50
202.321298355
 51
337.678701645
  0
ARC
  8
0
  6
CONTINUOUS
 62
     2
 10
23.11
 20
114.35
 30
0.0
 40
0.228
 50
201.870616205
 51
338.129383795
  0
ARC
  8
0
  6
CONTINUOUS
 62
     2
 10
23.11
 20
114.35
 30
0.0
 40
0.252
 50
201.373203871
 51
338.626796129
  0
ARC
  8
0
  6
CONTINUOUS
 62
     2
 10
23.11
 20
114.35
 30
0.0
 40
0.276
 50
202.286846658
 51
337.713153342
  0
ARC
  8
0
  6
CONTINUOUS
 62
     2
 10
23.67
 20
113.85
 30
0.0
 40
1.056
 50
337.467174552
 51
22.511176732
  0
ARC
  8
0
  6
CONTINUOUS
 62
     2
 10
23.67
 20
113.85
 30
0.0
 40
1.032
 50
337.684584171
 51
22.324706219
  0
ARC
  8
0
  6
CONTINUOUS
 62
     2
 10
23.67
 20
113.85
 30
0.0
 40
1.008
 50
337.549614612
 51
22.453599418
  0
ARC
  8
0
  6
CONTINUOUS
 62
     2
 10
23.67
 20
113.85
 30
0.0
 40
0.984
 50
337.442033402
 51
22.554911701
  0
ARC
  8
0
  6
CONTINUOUS
 62
     2
 10
23.67
 20
113.85
 30
0.0
 40
0.96
 50
337.452380695
 51
22.564315364
  0
ARC
  8
0
  6
CONTINUOUS
 62
     2
 10
25.11
 20
113.85
 30
0.0
 40
1.056
 50
157.488823268
 51
202.532825448
  0
ARC
  8
0
  6
CONTINUOUS
 62
     2
 10
25.11
 20
113.85
 30
0.0
 40
1.032
 50
157.675293781
 51
202.315415829
  0
ARC
  8
0
  6
CONTINUOUS
 62
     2
 10
25.11
 20
113.85
 30
0.0
 40
1.008
 50
157.546400582
 51
202.450385388
  0
ARC
  8
0
  6
CONTINUOUS
 62
     2
 10
25.11
 20
113.85
 30
0.0
 40
0.984
 50
157.445088299
 51
202.557966598
  0
ARC
  8
0
  6
CONTINUOUS
 62
     2
 10
25.11
 20
113.85
 30
0.0
 40
0.96
 50
157.435684636
 51
202.547619305
  0
ARC
  8
0
  6
CONTINUOUS
 62
     2
 10
24.39
 20
114.15
 30
0.0
 40
0.18
 50
22.323602445
 51
157.676397555
  0
ARC
  8
0
  6
CONTINUOUS
 62
     2
 10
24.39
 20
114.15
 30
0.0
 40
0.204
 50
22.306563269
 51
157.693436731
  0
ARC
  8
0
  6
CONTINUOUS
 62
     2
 10
24.39
 20
114.15
 30
0.0
 40
0.228
 50
21.884823963
 51
158.115176037
  0
ARC
  8
0
  6
CONTINUOUS
 62
     2
 10
24.39
 20
114.15
 30
0.0
 40
0.252
 50
21.411238642
 51
158.588761358
  0
ARC
  8
0
  6
CONTINUOUS
 62
     2
 10
24.39
 20
114.15
 30
0.0
 40
0.276
 50
22.204019072
 51
157.795980928
  0
ARC
  8
0
  6
CONTINUOUS
 62
     2
 10
24.39
 20
113.55
 30
0.0
 40
0.18
 50
202.234559129
 51
337.765440871
  0
ARC
  8
0
  6
CONTINUOUS
 62
     2
 10
24.39
 20
113.55
 30
0.0
 40
0.204
 50
202.321298355
 51
337.678701645
  0
ARC
  8
0
  6
CONTINUOUS
 62
     2
 10
24.39
 20
113.55
 30
0.0
 40
0.228
 50
201.870616205
 51
338.129383795
  0
ARC
  8
0
  6
CONTINUOUS
 62
     2
 10
24.39
 20
113.55
 30
0.0
 40
0.252
 50
201.373203871
 51
338.626796129
  0
ARC
  8
0
  6
CONTINUOUS
 62
     2
 10
24.39
 20
113.55
 30
0.0
 40
0.276
 50
202.286846658
 51
337.713153342
  0
LINE
  8
0
  6
CONTINUOUS
 62
     2
 10
24.565454591
 20
115.147146195
 30
0.0
 11
23.008085676
 21
113.291146195
 31
0.0
  0
LINE
  8
0
  6
CONTINUOUS
 62
     2
 10
24.491914324
 20
115.208853805
 30
0.0
 11
22.934545409
 21
113.352853805
 31
0.0
  0
LINE
  8
0
  6
CONTINUOUS
 62
     2
 10
22.989700609
 20
113.306573097
 30
0.0
 11
24.547069524
 21
115.162573097
 31
0.0
  0
LINE
  8
0
  6
CONTINUOUS
 62
     2
 10
22.952930476
 20
113.337426903
 30
0.0
 11
24.510299391
 21
115.193426903
 31
0.0
  0
LINE
  8
0
  6
CONTINUOUS
 62
     2
 10
24.528684458
 20
115.178
 30
0.0
 11
22.971315542
 21
113.322
 31
0.0
  0
ARC
  8
0
  6
CONTINUOUS
 62
     2
 10
22.971315542
 20
113.322
 30
0.0
 40
0.024
 50
140.0
 51
320.0
  0
ARC
  8
0
  6
CONTINUOUS
 62
     2
 10
22.971315542
 20
113.322
 30
0.0
 40
0.048
 50
140.0
 51
320.0
  0
ARC
  8
0
  6
CONTINUOUS
 62
     2
 10
24.528684458
 20
115.178
 30
0.0
 40
0.024
 50
320.0
 51
140.0
  0
ARC
  8
0
  6
CONTINUOUS
 62
     2
 10
24.528684458
 20
115.178
 30
0.0
 40
0.048
 50
320.0
 51
140.0
  0
LINE
  8
0
  6
CONTINUOUS
 62
     2
 10
18.0
 20
89.175
 30
0.0
 11
18.0
 21
89.325
 31
0.0
  0
LINE
  8
0
  6
CONTINUOUS
 62
     2
 10
18.0
 20
94.175
 30
0.0
 11
18.0
 21
94.325
 31
0.0
  0
LINE
  8
0
  6
CONTINUOUS
 62
     2
 10
18.0
 20
99.175
 30
0.0
 11
18.0
 21
99.325
 31
0.0
  0
LINE
  8
0
  6
CONTINUOUS
 62
     2
 10
18.0
 20
104.175
 30
0.0
 11
18.0
 21
104.325
 31
0.0
  0
LINE
  8
0
  6
CONTINUOUS
 62
     2
 10
18.0
 20
109.175
 30
0.0
 11
18.0
 21
109.325
 31
0.0
  0
LINE
  8
0
  6
CONTINUOUS
 62
     2
 10
18.0
 20
114.175
 30
0.0
 11
18.0
 21
114.325
 31
0.0
  0
LINE
  8
0
  6
CONTINUOUS
 62
     2
 10
18.0
 20
119.175
 30
0.0
 11
18.0
 21
119.325
 31
0.0
  0
LINE
  8
0
  6
CONTINUOUS
 62
     2
 10
18.0
 20
124.175
 30
0.0
 11
18.0
 21
124.325
 31
0.0
  0
LINE
  8
0
  6
CONTINUOUS
 62
     2
 10
18.0
 20
129.175
 30
0.0
 11
18.0
 21
129.325
 31
0.0
  0
LINE
  8
0
  6
CONTINUOUS
 62
     2
 10
18.0
 20
134.175
 30
0.0
 11
18.0
 21
134.325
 31
0.0
  0
LINE
  8
0
  6
CONTINUOUS
 62
     2
 10
18.0
 20
139.175
 30
0.0
 11
18.0
 21
139.325
 31
0.0
  0
LINE
  8
0
  6
CONTINUOUS
 62
     2
 10
15.994692979
 20
89.977631895
 30
0.0
 11
15.960314642
 21
89.834954116
 31
0.0
  0
LINE
  8
0
  6
CONTINUOUS
 62
     2
 10
15.960314642
 20
89.834954116
 30
0.0
 11
15.933340333
 21
89.689200479
 31
0.0
  0
LINE
  8
0
  6
CONTINUOUS
 62
     2
 10
15.933340333
 20
89.689200479
 30
0.0
 11
15.914123205
 21
89.541168417
 31
0.0
  0
LINE
  8
0
  6
CONTINUOUS
 62
     2
 10
15.914123205
 20
89.541168417
 30
0.0
 11
15.902908353
 21
89.391704187
 31
0.0
  0
LINE
  8
0
  6
CONTINUOUS
 62
     2
 10
15.902908353
 20
89.391704187
 30
0.0
 11
15.899824949
 21
89.241683724
 31
0.0
  0
LINE
  8
0
  6
CONTINUOUS
 62
     2
 10
15.899824949
 20
89.241683724
 30
0.0
 11
15.904882439
 21
89.091992158
 31
0.0
  0
LINE
  8
0
  6
CONTINUOUS
 62
     2
 10
15.904882439
 20
89.091992158
 30
0.0
 11
15.917971024
 21
88.94350303
 31
0.0
  0
LINE
  8
0
  6
CONTINUOUS
 62
     2
 10
15.917971024
 20
88.94350303
 30
0.0
 11
15.938866358
 21
88.797058225
 31
0.0
  0
LINE
  8
0
  6
CONTINUOUS
 62
     2
 10
15.938866358
 20
88.797058225
 30
0.0
 11
15.96723811
 21
88.653449583
 31
0.0
  0
LINE
  8
0
  6
CONTINUOUS
 62
     2
 10
15.96723811
 20
88.653449583
 30
0.0
 11
16.002661819
 21
88.513402995
 31
0.0
  0
LINE
  8
0
  6
CONTINUOUS
 62
     2
 10
16.456548122
 20
88.446983388
 30
0.0
 11
16.506231228
 21
88.507179876
 31
0.0
  0
LINE
  8
0
  6
CONTINUOUS
 62
     2
 10
16.506231228
 20
88.507179876
 30
0.0
 11
16.552208452
 21
88.653086664
 31
0.0
  0
LINE
  8
0
  6
CONTINUOUS
 62
     2
 10
16.552208452
 20
88.653086664
 30
0.0
 11
16.579903738
 21
88.792623558
 31
0.0
  0
LINE
  8
0
  6
CONTINUOUS
 62
     2
 10
16.579903738
 20
88.792623558
 30
0.0
 11
16.601501165
 21
88.943016943
 31
0.0
  0
LINE
  8
0
  6
CONTINUOUS
 62
     2
 10
16.601501165
 20
88.943016943
 30
0.0
 11
16.61465952
 21
89.092215545
 31
0.0
  0
LINE
  8
0
  6
CONTINUOUS
 62
     2
 10
16.61465952
 20
89.092215545
 30
0.0
 11
16.619706871
 21
89.24221524
 31
0.0
  0
LINE
  8
0
  6
CONTINUOUS
 62
     2
 10
16.619706871
 20
89.24221524
 30
0.0
 11
16.616359467
 21
89.397048818
 31
0.0
  0
LINE
  8
0
  6
CONTINUOUS
 62
     2
 10
16.616359467
 20
89.397048818
 30
0.0
 11
16.605429494
 21
89.540930487
 31
0.0
  0
LINE
  8
0
  6
CONTINUOUS
 62
     2
 10
16.605429494
 20
89.540930487
 30
0.0
 11
16.586024891
 21
89.69023539
 31
0.0
  0
LINE
  8
0
  6
CONTINUOUS
 62
     2
 10
16.586024891
 20
89.69023539
 30
0.0
 11
16.559451161
 21
89.833838096
 31
0.0
  0
LINE
  8
0
  6
CONTINUOUS
 62
     2
 10
16.559451161
 20
89.833838096
 30
0.0
 11
16.523464121
 21
89.980674508
 31
0.0
  0
LINE
  8
0
  6
CONTINUOUS
 62
     2
 10
16.523464121
 20
89.980674508
 30
0.0
 11
16.471320702
 21
90.058352803
 31
0.0
  0
LINE
  8
0
  6
CONTINUOUS
 62
     2
 10
16.471320702
 20
90.058352803
 30
0.0
 11
16.38521188
 21
90.121462947
 31
0.0
  0
LINE
  8
0
  6
CONTINUOUS
 62
     2
 10
16.38521188
 20
90.121462947
 30
0.0
 11
16.270333854
 21
90.149807318
 31
0.0
  0
LINE
  8
0
  6
CONTINUOUS
 62
     2
 10
16.270333854
 20
90.149807318
 30
0.0
 11
16.136433084
 21
90.122467984
 31
0.0
  0
LINE
  8
0
  6
CONTINUOUS
 62
     2
 10
16.136433084
 20
90.122467984
 30
0.0
 11
16.046943341
 21
90.056995669
 31
0.0
  0
LINE
  8
0
  6
CONTINUOUS
 62
     2
 10
16.046943341
 20
90.056995669
 30
0.0
 11
15.994692979
 21
89.977631895
 31
0.0
  0
LINE
  8
0
  6
CONTINUOUS
 62
     2
 10
15.265
 20
99.77
 30
0.0
 11
15.274003244
 21
99.850007985
 31
0.0
  0
LINE
  8
0
  6
CONTINUOUS
 62
     2
 10
15.274003244
 20
99.850007985
 30
0.0
 11
15.299881783
 21
99.924590249
 31
0.0
  0
LINE
  8
0
  6
CONTINUOUS
 62
     2
 10
15.299881783
 20
99.924590249
 30
0.0
 11
15.336121182
 21
99.984823249
 31
0.0
  0
LINE
  8
0
  6
CONTINUOUS
 62
     2
 10
15.336121182
 20
99.984823249
 30
0.0
 11
15.383872872
 21
100.037315746
 31
0.0
  0
LINE
  8
0
  6
CONTINUOUS
 62
     2
 10
15.383872872
 20
100.037315746
 30
0.0
 11
15.439254659
 21
100.07838072
 31
0.0
  0
LINE
  8
0
  6
CONTINUOUS
 62
     2
 10
15.439254659
 20
100.07838072
 30
0.0
 11
15.511509985
 21
100.111643113
 31
0.0
  0
LINE
  8
0
  6
CONTINUOUS
 62
     2
 10
15.511509985
 20
100.111643113
 30
0.0
 11
15.611763364
 21
100.129756573
 31
0.0
  0
LINE
  8
0
  6
CONTINUOUS
 62
     2
 10
15.611763364
 20
100.129756573
 30
0.0
 11
15.715321623
 21
100.1184853
 31
0.0
  0
LINE
  8
0
  6
CONTINUOUS
 62
     2
 10
15.715321623
 20
100.1184853
 30
0.0
 11
15.788827953
 21
100.090562633
 31
0.0
  0
LINE
  8
0
  6
CONTINUOUS
 62
     2
 10
15.788827953
 20
100.090562633
 30
0.0
 11
15.848217173
 21
100.052443081
 31
0.0
  0
LINE
  8
0
  6
CONTINUOUS
 62
     2
 10
15.848217173
 20
100.052443081
 30
0.0
 11
15.899194879
 21
100.003274877
 31
0.0
  0
LINE
  8
0
  6
CONTINUOUS
 62
     2
 10
15.899194879
 20
100.003274877
 30
0.0
 11
15.93838842
 21
99.947165736
 31
0.0
  0
LINE
  8
0
  6
CONTINUOUS
 62
     2
 10
15.93838842
 20
99.947165736
 30
0.0
 11
15.969634949
 21
99.874051679
 31
0.0
  0
LINE
  8
0
  6
CONTINUOUS
 62
     2
 10
15.969634949
 20
99.874051679
 30
0.0
 11
15.983893217
 21
99.798207426
 31
0.0
  0
LINE
  8
0
  6
CONTINUOUS
 62
     2
 10
15.983893217
 20
99.798207426
 30
0.0
 11
15.981978646
 21
99.723457048
 31
0.0
  0
LINE
  8
0
  6
CONTINUOUS
 62
     2
 10
15.981978646
 20
99.723457048
 30
0.0
 11
15.963055517
 21
99.646232204
 31
0.0
  0
LINE
  8
0
  6
CONTINUOUS
 62
     2
 10
15.963055517
 20
99.646232204
 30
0.0
 11
15.928938272
 21
99.576534244
 31
0.0
  0
LINE
  8
0
  6
CONTINUOUS
 62
     2
 10
15.928938272
 20
99.576534244
 30
0.0
 11
15.885651652
 21
99.50209975
 31
0.0
  0
LINE
  8
0
  6
CONTINUOUS
 62
     2
 10
15.885651652
 20
99.50209975
 30
0.0
 11
15.820465793
 21
99.39000792
 31
0.0
  0
LINE
  8
0
  6
CONTINUOUS
 62
     2
 10
15.820465793
 20
99.39000792
 30
0.0
 11
15.755279934
 21
99.277916091
 31
0.0
  0
LINE
  8
0
  6
CONTINUOUS
 62
     2
 10
15.755279934
 20
99.277916091
 30
0.0
 11
15.690094075
 21
99.165824262
 31
0.0
  0
LINE
  8
0
  6
CONTINUOUS
 62
     2
 10
15.690094075
 20
99.165824262
 30
0.0
 11
15.624908216
 21
99.053732433
 31
0.0
  0
LINE
  8
0
  6
CONTINUOUS
 62
     2
 10
15.624908216
 20
99.053732433
 30
0.0
 11
15.559722357
 21
98.941640603
 31
0.0
  0
LINE
  8
0
  6
CONTINUOUS
 62
     2
 10
15.559722357
 20
98.941640603
 30
0.0
 11
15.494536499
 21
98.829548774
 31
0.0
  0
LINE
  8
0
  6
CONTINUOUS
 62
     2
 10
15.494536499
 20
98.829548774
 30
0.0
 11
15.42935064
 21
98.717456945
 31
0.0
  0
LINE
  8
0
  6
CONTINUOUS
 62
     2
 10
15.42935064
 20
98.717456945
 30
0.0
 11
15.364164781
 21
98.605365116
 31
0.0
  0
LINE
  8
0
  6
CONTINUOUS
 62
     2
 10
15.364164781
 20
98.605365116
 30
0.0
 11
15.298978922
 21
98.493273286
 31
0.0
  0
LINE
  8
0
  6
CONTINUOUS
 62
     2
 10
15.298978922
 20
98.493273286
 30
0.0
 11
15.227290601
 21
98.37
 31
0.0
  0
LINE
  8
0
  6
CONTINUOUS
 62
     2
 10
15.227290601
 20
98.37
 30
0.0
 11
15.377290601
 21
98.37
 31
0.0
  0
LINE
  8
0
  6
CONTINUOUS
 62
     2
 10
15.377290601
 20
98.37
 30
0.0
 11
15.527290601
 21
98.37
 31
0.0
  0
LINE
  8
0
  6
CONTINUOUS
 62
     2
 10
15.527290601
 20
98.37
 30
0.0
 11
15.677290601
 21
98.37
 31
0.0
  0
LINE
  8
0
  6
CONTINUOUS
 62
     2
 10
15.677290601
 20
98.37
 30
0.0
 11
15.827290601
 21
98.37
 31
0.0
  0
LINE
  8
0
  6
CONTINUOUS
 62
     2
 10
15.827290601
 20
98.37
 30
0.0
 11
15.98500001
 21
98.37
 31
0.0
  0
LINE
  8
0
  6
CONTINUOUS
 62
     2
 10
16.619692979
 20
99.977631895
 30
0.0
 11
16.585314642
 21
99.834954116
 31
0.0
  0
LINE
  8
0
  6
CONTINUOUS
 62
     2
 10
16.585314642
 20
99.834954116
 30
0.0
 11
16.558340333
 21
99.689200479
 31
0.0
  0
LINE
  8
0
  6
CONTINUOUS
 62
     2
 10
16.558340333
 20
99.689200479
 30
0.0
 11
16.539123205
 21
99.541168417
 31
0.0
  0
LINE
  8
0
  6
CONTINUOUS
 62
     2
 10
16.539123205
 20
99.541168417
 30
0.0
 11
16.527908353
 21
99.391704187
 31
0.0
  0
LINE
  8
0
  6
CONTINUOUS
 62
     2
 10
16.527908353
 20
99.391704187
 30
0.0
 11
16.524824949
 21
99.241683724
 31
0.0
  0
LINE
  8
0
  6
CONTINUOUS
 62
     2
 10
16.524824949
 20
99.241683724
 30
0.0
 11
16.529882439
 21
99.091992158
 31
0.0
  0
LINE
  8
0
  6
CONTINUOUS
 62
     2
 10
16.529882439
 20
99.091992158
 30
0.0
 11
16.542971024
 21
98.94350303
 31
0.0
  0
LINE
  8
0
  6
CONTINUOUS
 62
     2
 10
16.542971024
 20
98.94350303
 30
0.0
 11
16.563866358
 21
98.797058225
 31
0.0
  0
LINE
  8
0
  6
CONTINUOUS
 62
     2
 10
16.563866358
 20
98.797058225
 30
0.0
 11
16.59223811
 21
98.653449583
 31
0.0
  0
LINE
  8
0
  6
CONTINUOUS
 62
     2
 10
16.59223811
 20
98.653449583
 30
0.0
 11
16.627661819
 21
98.513402995
 31
0.0
  0
LINE
  8
0
  6
CONTINUOUS
 62
     2
 10
16.627661819
 20
98.513402995
 30
0.0
 11
16.686749623
 21
98.448126835
 31
0.0
  0
LINE
  8
0
  6
CONTINUOUS
 62
     2
 10
16.686749623
 20
98.448126835
 30
0.0
 11
16.761463496
 21
98.397517728
 31
0.0
  0
LINE
  8
0
  6
CONTINUOUS
 62
     2
 10
16.761463496
 20
98.397517728
 30
0.0
 11
16.886478348
 21
98.370005066
 31
0.0
  0
LINE
  8
0
  6
CONTINUOUS
 62
     2
 10
16.886478348
 20
98.370005066
 30
0.0
 11
16.988683888
 21
98.389258994
 31
0.0
  0
LINE
  8
0
  6
CONTINUOUS
 62
     2
 10
16.988683888
 20
98.389258994
 30
0.0
 11
17.081548122
 21
98.446983388
 31
0.0
  0
LINE
  8
0
  6
CONTINUOUS
 62
     2
 10
17.081548122
 20
98.446983388
 30
0.0
 11
17.131231228
 21
98.507179876
 31
0.0
  0
LINE
  8
0
  6
CONTINUOUS
 62
     2
 10
17.131231228
 20
98.507179876
 30
0.0
 11
17.177208452
 21
98.653086664
 31
0.0
  0
LINE
  8
0
  6
CONTINUOUS
 62
     2
 10
17.177208452
 20
98.653086664
 30
0.0
 11
17.204903738
 21
98.792623558
 31
0.0
  0
LINE
  8
0
  6
CONTINUOUS
 62
     2
 10
17.204903738
 20
98.792623558
 30
0.0
 11
17.226501165
 21
98.943016943
 31
0.0
  0
LINE
  8
0
  6
CONTINUOUS
 62
     2
 10
17.226501165
 20
98.943016943
 30
0.0
 11
17.23965952
 21
99.092215545
 31
0.0
  0
LINE
  8
0
  6
CONTINUOUS
 62
     2
 10
17.23965952
 20
99.092215545
 30
0.0
 11
17.244706871
 21
99.24221524
 31
0.0
  0
LINE
  8
0
  6
CONTINUOUS
 62
     2
 10
17.244706871
 20
99.24221524
 30
0.0
 11
17.241359467
 21
99.397048818
 31
0.0
  0
LINE
  8
0
  6
CONTINUOUS
 62
     2
 10
17.241359467
 20
99.397048818
 30
0.0
 11
17.230429494
 21
99.540930487
 31
0.0
  0
LINE
  8
0
  6
CONTINUOUS
 62
     2
 10
17.230429494
 20
99.540930487
 30
0.0
 11
17.211024891
 21
99.69023539
 31
0.0
  0
LINE
  8
0
  6
CONTINUOUS
 62
     2
 10
17.211024891
 20
99.69023539
 30
0.0
 11
17.184451161
 21
99.833838096
 31
0.0
  0
LINE
  8
0
  6
CONTINUOUS
 62
     2
 10
17.184451161
 20
99.833838096
 30
0.0
 11
17.148464121
 21
99.980674508
 31
0.0
  0
LINE
  8
0
  6
CONTINUOUS
 62
     2
 10
17.148464121
 20
99.980674508
 30
0.0
 11
17.096320702
 21
100.058352803
 31
0.0
  0
LINE
  8
0
  6
CONTINUOUS
 62
     2
 10
17.096320702
 20
100.058352803
 30
0.0
 11
17.01021188
 21
100.121462947
 31
0.0
  0
LINE
  8
0
  6
CONTINUOUS
 62
     2
 10
17.01021188
 20
100.121462947
 30
0.0
 11
16.895333854
 21
100.149807318
 31
0.0
  0
LINE
  8
0
  6
CONTINUOUS
 62
     2
 10
16.895333854
 20
100.149807318
 30
0.0
 11
16.761433084
 21
100.122467984
 31
0.0
  0
LINE
  8
0
  6
CONTINUOUS
 62
     2
 10
16.761433084
 20
100.122467984
 30
0.0
 11
16.671943341
 21
100.056995669
 31
0.0
  0
LINE
  8
0
  6
CONTINUOUS
 62
     2
 10
16.671943341
 20
100.056995669
 30
0.0
 11
16.619692979
 21
99.977631895
 31
0.0
  0
LINE
  8
0
  6
CONTINUOUS
 62
     2
 10
16.619692979
 20
109.977631895
 30
0.0
 11
16.585314642
 21
109.834954116
 31
0.0
  0
LINE
  8
0
  6
CONTINUOUS
 62
     2
 10
16.585314642
 20
109.834954116
 30
0.0
 11
16.558340333
 21
109.689200479
 31
0.0
  0
LINE
  8
0
  6
CONTINUOUS
 62
     2
 10
16.558340333
 20
109.689200479
 30
0.0
 11
16.539123205
 21
109.541168417
 31
0.0
  0
LINE
  8
0
  6
CONTINUOUS
 62
     2
 10
16.539123205
 20
109.541168417
 30
0.0
 11
16.527908353
 21
109.391704187
 31
0.0
  0
LINE
  8
0
  6
CONTINUOUS
 62
     2
 10
16.527908353
 20
109.391704187
 30
0.0
 11
16.524824949
 21
109.241683724
 31
0.0
  0
LINE
  8
0
  6
CONTINUOUS
 62
     2
 10
16.524824949
 20
109.241683724
 30
0.0
 11
16.529882439
 21
109.091992158
 31
0.0
  0
LINE
  8
0
  6
CONTINUOUS
 62
     2
 10
16.529882439
 20
109.091992158
 30
0.0
 11
16.542971024
 21
108.94350303
 31
0.0
  0
LINE
  8
0
  6
CONTINUOUS
 62
     2
 10
16.542971024
 20
108.94350303
 30
0.0
 11
16.563866358
 21
108.797058225
 31
0.0
  0
LINE
  8
0
  6
CONTINUOUS
 62
     2
 10
16.563866358
 20
108.797058225
 30
0.0
 11
16.59223811
 21
108.653449583
 31
0.0
  0
LINE
  8
0
  6
CONTINUOUS
 62
     2
 10
16.59223811
 20
108.653449583
 30
0.0
 11
16.627661819
 21
108.513402995
 31
0.0
  0
LINE
  8
0
  6
CONTINUOUS
 62
     2
 10
16.627661819
 20
108.513402995
 30
0.0
 11
16.686749623
 21
108.448126835
 31
0.0
  0
LINE
  8
0
  6
CONTINUOUS
 62
     2
 10
16.686749623
 20
108.448126835
 30
0.0
 11
16.761463496
 21
108.397517728
 31
0.0
  0
LINE
  8
0
  6
CONTINUOUS
 62
     2
 10
16.761463496
 20
108.397517728
 30
0.0
 11
16.886478348
 21
108.370005066
 31
0.0
  0
LINE
  8
0
  6
CONTINUOUS
 62
     2
 10
16.886478348
 20
108.370005066
 30
0.0
 11
16.988683888
 21
108.389258994
 31
0.0
  0
LINE
  8
0
  6
CONTINUOUS
 62
     2
 10
16.988683888
 20
108.389258994
 30
0.0
 11
17.081548122
 21
108.446983388
 31
0.0
  0
LINE
  8
0
  6
CONTINUOUS
 62
     2
 10
17.081548122
 20
108.446983388
 30
0.0
 11
17.131231228
 21
108.507179876
 31
0.0
  0
LINE
  8
0
  6
CONTINUOUS
 62
     2
 10
17.131231228
 20
108.507179876
 30
0.0
 11
17.177208452
 21
108.653086664
 31
0.0
  0
LINE
  8
0
  6
CONTINUOUS
 62
     2
 10
17.177208452
 20
108.653086664
 30
0.0
 11
17.204903738
 21
108.792623558
 31
0.0
  0
LINE
  8
0
  6
CONTINUOUS
 62
     2
 10
17.204903738
 20
108.792623558
 30
0.0
 11
17.226501165
 21
108.943016943
 31
0.0
  0
LINE
  8
0
  6
CONTINUOUS
 62
     2
 10
17.226501165
 20
108.943016943
 30
0.0
 11
17.23965952
 21
109.092215545
 31
0.0
  0
LINE
  8
0
  6
CONTINUOUS
 62
     2
 10
17.23965952
 20
109.092215545
 30
0.0
 11
17.244706871
 21
109.24221524
 31
0.0
  0
LINE
  8
0
  6
CONTINUOUS
 62
     2
 10
17.244706871
 20
109.24221524
 30
0.0
 11
17.241359467
 21
109.397048818
 31
0.0
  0
LINE
  8
0
  6
CONTINUOUS
 62
     2
 10
17.241359467
 20
109.397048818
 30
0.0
 11
17.230429494
 21
109.540930487
 31
0.0
  0
LINE
  8
0
  6
CONTINUOUS
 62
     2
 10
17.230429494
 20
109.540930487
 30
0.0
 11
17.211024891
 21
109.69023539
 31
0.0
  0
LINE
  8
0
  6
CONTINUOUS
 62
     2
 10
17.211024891
 20
109.69023539
 30
0.0
 11
17.184451161
 21
109.833838096
 31
0.0
  0
LINE
  8
0
  6
CONTINUOUS
 62
     2
 10
17.184451161
 20
109.833838096
 30
0.0
 11
17.148464121
 21
109.980674508
 31
0.0
  0
LINE
  8
0
  6
CONTINUOUS
 62
     2
 10
17.148464121
 20
109.980674508
 30
0.0
 11
17.096320702
 21
110.058352803
 31
0.0
  0
LINE
  8
0
  6
CONTINUOUS
 62
     2
 10
17.096320702
 20
110.058352803
 30
0.0
 11
17.01021188
 21
110.121462947
 31
0.0
  0
LINE
  8
0
  6
CONTINUOUS
 62
     2
 10
17.01021188
 20
110.121462947
 30
0.0
 11
16.895333854
 21
110.149807318
 31
0.0
  0
LINE
  8
0
  6
CONTINUOUS
 62
     2
 10
16.895333854
 20
110.149807318
 30
0.0
 11
16.761433084
 21
110.122467984
 31
0.0
  0
LINE
  8
0
  6
CONTINUOUS
 62
     2
 10
16.761433084
 20
110.122467984
 30
0.0
 11
16.671943341
 21
110.056995669
 31
0.0
  0
LINE
  8
0
  6
CONTINUOUS
 62
     2
 10
16.671943341
 20
110.056995669
 30
0.0
 11
16.619692979
 21
109.977631895
 31
0.0
  0
LINE
  8
0
  6
CONTINUOUS
 62
     2
 10
15.785
 20
108.37
 30
0.0
 11
15.785
 21
108.52
 31
0.0
  0
LINE
  8
0
  6
CONTINUOUS
 62
     2
 10
15.785
 20
108.52
 30
0.0
 11
15.785
 21
108.67
 31
0.0
  0
LINE
  8
0
  6
CONTINUOUS
 62
     2
 10
15.785
 20
108.67
 30
0.0
 11
15.785
 21
108.82
 31
0.0
  0
LINE
  8
0
  6
CONTINUOUS
 62
     2
 10
15.785
 20
108.82
 30
0.0
 11
15.785
 21
108.97
 31
0.0
  0
LINE
  8
0
  6
CONTINUOUS
 62
     2
 10
15.785
 20
108.97
 30
0.0
 11
15.785
 21
109.12
 31
0.0
  0
LINE
  8
0
  6
CONTINUOUS
 62
     2
 10
15.785
 20
109.12
 30
0.0
 11
15.785
 21
109.27
 31
0.0
  0
LINE
  8
0
  6
CONTINUOUS
 62
     2
 10
15.785
 20
109.27
 30
0.0
 11
15.785
 21
109.47
 31
0.0
  0
LINE
  8
0
  6
CONTINUOUS
 62
     2
 10
15.785
 20
109.47
 30
0.0
 11
15.785
 21
109.32
 31
0.0
  0
LINE
  8
0
  6
CONTINUOUS
 62
     2
 10
15.785
 20
109.32
 30
0.0
 11
15.785
 21
109.17
 31
0.0
  0
LINE
  8
0
  6
CONTINUOUS
 62
     2
 10
15.785
 20
109.17
 30
0.0
 11
15.785
 21
109.02
 31
0.0
  0
LINE
  8
0
  6
CONTINUOUS
 62
     2
 10
15.785
 20
109.02
 30
0.0
 11
15.785
 21
108.87
 31
0.0
  0
LINE
  8
0
  6
CONTINUOUS
 62
     2
 10
15.785
 20
108.87
 30
0.0
 11
15.785
 21
108.77
 31
0.0
  0
LINE
  8
0
  6
CONTINUOUS
 62
     2
 10
15.785
 20
108.77
 30
0.0
 11
15.985
 21
108.77
 31
0.0
  0
LINE
  8
0
  6
CONTINUOUS
 62
     2
 10
15.985
 20
108.77
 30
0.0
 11
15.835
 21
108.77
 31
0.0
  0
LINE
  8
0
  6
CONTINUOUS
 62
     2
 10
15.835
 20
108.77
 30
0.0
 11
15.685
 21
108.77
 31
0.0
  0
LINE
  8
0
  6
CONTINUOUS
 62
     2
 10
15.685
 20
108.77
 30
0.0
 11
15.535
 21
108.77
 31
0.0
  0
LINE
  8
0
  6
CONTINUOUS
 62
     2
 10
15.535
 20
108.77
 30
0.0
 11
15.385
 21
108.77
 31
0.0
  0
LINE
  8
0
  6
CONTINUOUS
 62
     2
 10
15.385
 20
108.77
 30
0.0
 11
15.265
 21
108.77
 31
0.0
  0
LINE
  8
0
  6
CONTINUOUS
 62
     2
 10
15.265
 20
108.77
 30
0.0
 11
15.299448276
 21
108.91162069
 31
0.0
  0
LINE
  8
0
  6
CONTINUOUS
 62
     2
 10
15.299448276
 20
108.91162069
 30
0.0
 11
15.333896552
 21
109.053241379
 31
0.0
  0
LINE
  8
0
  6
CONTINUOUS
 62
     2
 10
15.333896552
 20
109.053241379
 30
0.0
 11
15.368344828
 21
109.194862069
 31
0.0
  0
LINE
  8
0
  6
CONTINUOUS
 62
     2
 10
15.368344828
 20
109.194862069
 30
0.0
 11
15.402793103
 21
109.336482759
 31
0.0
  0
LINE
  8
0
  6
CONTINUOUS
 62
     2
 10
15.402793103
 20
109.336482759
 30
0.0
 11
15.437241379
 21
109.478103448
 31
0.0
  0
LINE
  8
0
  6
CONTINUOUS
 62
     2
 10
15.437241379
 20
109.478103448
 30
0.0
 11
15.471689655
 21
109.619724138
 31
0.0
  0
LINE
  8
0
  6
CONTINUOUS
 62
     2
 10
15.471689655
 20
109.619724138
 30
0.0
 11
15.506137931
 21
109.761344828
 31
0.0
  0
LINE
  8
0
  6
CONTINUOUS
 62
     2
 10
15.506137931
 20
109.761344828
 30
0.0
 11
15.540586207
 21
109.902965517
 31
0.0
  0
LINE
  8
0
  6
CONTINUOUS
 62
     2
 10
15.540586207
 20
109.902965517
 30
0.0
 11
15.575034483
 21
110.044586207
 31
0.0
  0
LINE
  8
0
  6
CONTINUOUS
 62
     2
 10
15.575034483
 20
110.044586207
 30
0.0
 11
15.596637811
 21
110.133399888
 31
0.0
  0
LINE
  8
0
  6
CONTINUOUS
 62
     2
 10
15.245
 20
118.85
 30
0.0
 11
15.263210375
 21
118.996810616
 31
0.0
  0
LINE
  8
0
  6
CONTINUOUS
 62
     2
 10
15.263210375
 20
118.996810616
 30
0.0
 11
15.312252328
 21
119.122645817
 31
0.0
  0
LINE
  8
0
  6
CONTINUOUS
 62
     2
 10
15.312252328
 20
119.122645817
 30
0.0
 11
15.386554138
 21
119.223740162
 31
0.0
  0
LINE
  8
0
  6
CONTINUOUS
 62
     2
 10
15.386554138
 20
119.223740162
 30
0.0
 11
15.48701761
 21
119.297237923
 31
0.0
  0
LINE
  8
0
  6
CONTINUOUS
 62
     2
 10
15.48701761
 20
119.297237923
 30
0.0
 11
15.61181217
 21
119.329710851
 31
0.0
  0
LINE
  8
0
  6
CONTINUOUS
 62
     2
 10
15.61181217
 20
119.329710851
 30
0.0
 11
15.774051808
 21
119.291533872
 31
0.0
  0
LINE
  8
0
  6
CONTINUOUS
 62
     2
 10
15.774051808
 20
119.291533872
 30
0.0
 11
15.859672227
 21
119.22753198
 31
0.0
  0
LINE
  8
0
  6
CONTINUOUS
 62
     2
 10
15.859672227
 20
119.22753198
 30
0.0
 11
15.938406606
 21
119.121435848
 31
0.0
  0
LINE
  8
0
  6
CONTINUOUS
 62
     2
 10
15.938406606
 20
119.121435848
 30
0.0
 11
15.986069872
 21
118.999611162
 31
0.0
  0
LINE
  8
0
  6
CONTINUOUS
 62
     2
 10
15.986069872
 20
118.999611162
 30
0.0
 11
16.004999873
 21
118.849607098
 31
0.0
  0
LINE
  8
0
  6
CONTINUOUS
 62
     2
 10
16.004999873
 20
118.849607098
 30
0.0
 11
15.993629721
 21
118.733459539
 31
0.0
  0
LINE
  8
0
  6
CONTINUOUS
 62
     2
 10
15.993629721
 20
118.733459539
 30
0.0
 11
15.950828498
 21
118.603002434
 31
0.0
  0
LINE
  8
0
  6
CONTINUOUS
 62
     2
 10
15.950828498
 20
118.603002434
 30
0.0
 11
15.862525369
 21
118.475325779
 31
0.0
  0
LINE
  8
0
  6
CONTINUOUS
 62
     2
 10
15.862525369
 20
118.475325779
 30
0.0
 11
15.78047554
 21
118.412014947
 31
0.0
  0
LINE
  8
0
  6
CONTINUOUS
 62
     2
 10
15.78047554
 20
118.412014947
 30
0.0
 11
15.615537341
 21
118.370148846
 31
0.0
  0
LINE
  8
0
  6
CONTINUOUS
 62
     2
 10
15.615537341
 20
118.370148846
 30
0.0
 11
15.494040431
 21
118.399405549
 31
0.0
  0
LINE
  8
0
  6
CONTINUOUS
 62
     2
 10
15.494040431
 20
118.399405549
 30
0.0
 11
15.384885651
 21
118.477968156
 31
0.0
  0
LINE
  8
0
  6
CONTINUOUS
 62
     2
 10
15.384885651
 20
118.477968156
 30
0.0
 11
15.307601555
 21
118.586068827
 31
0.0
  0
LINE
  8
0
  6
CONTINUOUS
 62
     2
 10
15.307601555
 20
118.586068827
 30
0.0
 11
15.259609201
 21
118.718185592
 31
0.0
  0
LINE
  8
0
  6
CONTINUOUS
 62
     2
 10
15.259609201
 20
118.718185592
 30
0.0
 11
15.250782971
 21
118.996557868
 31
0.0
  0
LINE
  8
0
  6
CONTINUOUS
 62
     2
 10
15.250782971
 20
118.996557868
 30
0.0
 11
15.264948535
 21
119.121681071
 31
0.0
  0
LINE
  8
0
  6
CONTINUOUS
 62
     2
 10
15.264948535
 20
119.121681071
 30
0.0
 11
15.29294074
 21
119.269572686
 31
0.0
  0
LINE
  8
0
  6
CONTINUOUS
 62
     2
 10
15.29294074
 20
119.269572686
 30
0.0
 11
15.33516461
 21
119.422086263
 31
0.0
  0
LINE
  8
0
  6
CONTINUOUS
 62
     2
 10
15.33516461
 20
119.422086263
 30
0.0
 11
15.382822786
 21
119.552641904
 31
0.0
  0
LINE
  8
0
  6
CONTINUOUS
 62
     2
 10
15.382822786
 20
119.552641904
 30
0.0
 11
15.438108063
 21
119.675270422
 31
0.0
  0
LINE
  8
0
  6
CONTINUOUS
 62
     2
 10
15.438108063
 20
119.675270422
 30
0.0
 11
15.499595268
 21
119.789295292
 31
0.0
  0
LINE
  8
0
  6
CONTINUOUS
 62
     2
 10
15.499595268
 20
119.789295292
 30
0.0
 11
15.565856534
 21
119.894335861
 31
0.0
  0
LINE
  8
0
  6
CONTINUOUS
 62
     2
 10
15.565856534
 20
119.894335861
 30
0.0
 11
15.63552153
 21
119.99027761
 31
0.0
  0
LINE
  8
0
  6
CONTINUOUS
 62
     2
 10
15.63552153
 20
119.99027761
 30
0.0
 11
15.757975723
 21
120.132624496
 31
0.0
  0
LINE
  8
0
  6
CONTINUOUS
 62
     2
 10
16.619692979
 20
119.977631895
 30
0.0
 11
16.585314642
 21
119.834954116
 31
0.0
  0
LINE
  8
0
  6
CONTINUOUS
 62
     2
 10
16.585314642
 20
119.834954116
 30
0.0
 11
16.558340333
 21
119.689200479
 31
0.0
  0
LINE
  8
0
  6
CONTINUOUS
 62
     2
 10
16.558340333
 20
119.689200479
 30
0.0
 11
16.539123205
 21
119.541168417
 31
0.0
  0
LINE
  8
0
  6
CONTINUOUS
 62
     2
 10
16.539123205
 20
119.541168417
 30
0.0
 11
16.527908353
 21
119.391704187
 31
0.0
  0
LINE
  8
0
  6
CONTINUOUS
 62
     2
 10
16.527908353
 20
119.391704187
 30
0.0
 11
16.524824949
 21
119.241683724
 31
0.0
  0
LINE
  8
0
  6
CONTINUOUS
 62
     2
 10
16.524824949
 20
119.241683724
 30
0.0
 11
16.529882439
 21
119.091992158
 31
0.0
  0
LINE
  8
0
  6
CONTINUOUS
 62
     2
 10
16.529882439
 20
119.091992158
 30
0.0
 11
16.542971024
 21
118.94350303
 31
0.0
  0
LINE
  8
0
  6
CONTINUOUS
 62
     2
 10
16.542971024
 20
118.94350303
 30
0.0
 11
16.563866358
 21
118.797058225
 31
0.0
  0
LINE
  8
0
  6
CONTINUOUS
 62
     2
 10
16.563866358
 20
118.797058225
 30
0.0
 11
16.59223811
 21
118.653449583
 31
0.0
  0
LINE
  8
0
  6
CONTINUOUS
 62
     2
 10
16.59223811
 20
118.653449583
 30
0.0
 11
16.627661819
 21
118.513402995
 31
0.0
  0
LINE
  8
0
  6
CONTINUOUS
 62
     2
 10
16.627661819
 20
118.513402995
 30
0.0
 11
16.686749623
 21
118.448126835
 31
0.0
  0
LINE
  8
0
  6
CONTINUOUS
 62
     2
 10
16.686749623
 20
118.448126835
 30
0.0
 11
16.761463496
 21
118.397517728
 31
0.0
  0
LINE
  8
0
  6
CONTINUOUS
 62
     2
 10
16.761463496
 20
118.397517728
 30
0.0
 11
16.886478348
 21
118.370005066
 31
0.0
  0
LINE
  8
0
  6
CONTINUOUS
 62
     2
 10
16.886478348
 20
118.370005066
 30
0.0
 11
16.988683888
 21
118.389258994
 31
0.0
  0
LINE
  8
0
  6
CONTINUOUS
 62
     2
 10
16.988683888
 20
118.389258994
 30
0.0
 11
17.081548122
 21
118.446983388
 31
0.0
  0
LINE
  8
0
  6
CONTINUOUS
 62
     2
 10
17.081548122
 20
118.446983388
 30
0.0
 11
17.131231228
 21
118.507179876
 31
0.0
  0
LINE
  8
0
  6
CONTINUOUS
 62
     2
 10
17.131231228
 20
118.507179876
 30
0.0
 11
17.177208452
 21
118.653086664
 31
0.0
  0
LINE
  8
0
  6
CONTINUOUS
 62
     2
 10
17.177208452
 20
118.653086664
 30
0.0
 11
17.204903738
 21
118.792623558
 31
0.0
  0
LINE
  8
0
  6
CONTINUOUS
 62
     2
 10
17.204903738
 20
118.792623558
 30
0.0
 11
17.226501165
 21
118.943016943
 31
0.0
  0
LINE
  8
0
  6
CONTINUOUS
 62
     2
 10
17.226501165
 20
118.943016943
 30
0.0
 11
17.23965952
 21
119.092215545
 31
0.0
  0
LINE
  8
0
  6
CONTINUOUS
 62
     2
 10
17.23965952
 20
119.092215545
 30
0.0
 11
17.244706871
 21
119.24221524
 31
0.0
  0
LINE
  8
0
  6
CONTINUOUS
 62
     2
 10
17.244706871
 20
119.24221524
 30
0.0
 11
17.241359467
 21
119.397048818
 31
0.0
  0
LINE
  8
0
  6
CONTINUOUS
 62
     2
 10
17.241359467
 20
119.397048818
 30
0.0
 11
17.230429494
 21
119.540930487
 31
0.0
  0
LINE
  8
0
  6
CONTINUOUS
 62
     2
 10
17.230429494
 20
119.540930487
 30
0.0
 11
17.211024891
 21
119.69023539
 31
0.0
  0
LINE
  8
0
  6
CONTINUOUS
 62
     2
 10
17.211024891
 20
119.69023539
 30
0.0
 11
17.184451161
 21
119.833838096
 31
0.0
  0
LINE
  8
0
  6
CONTINUOUS
 62
     2
 10
17.184451161
 20
119.833838096
 30
0.0
 11
17.148464121
 21
119.980674508
 31
0.0
  0
LINE
  8
0
  6
CONTINUOUS
 62
     2
 10
17.148464121
 20
119.980674508
 30
0.0
 11
17.096320702
 21
120.058352803
 31
0.0
  0
LINE
  8
0
  6
CONTINUOUS
 62
     2
 10
17.096320702
 20
120.058352803
 30
0.0
 11
17.01021188
 21
120.121462947
 31
0.0
  0
LINE
  8
0
  6
CONTINUOUS
 62
     2
 10
17.01021188
 20
120.121462947
 30
0.0
 11
16.895333854
 21
120.149807318
 31
0.0
  0
LINE
  8
0
  6
CONTINUOUS
 62
     2
 10
16.895333854
 20
120.149807318
 30
0.0
 11
16.761433084
 21
120.122467984
 31
0.0
  0
LINE
  8
0
  6
CONTINUOUS
 62
     2
 10
16.761433084
 20
120.122467984
 30
0.0
 11
16.671943341
 21
120.056995669
 31
0.0
  0
LINE
  8
0
  6
CONTINUOUS
 62
     2
 10
16.671943341
 20
120.056995669
 30
0.0
 11
16.619692979
 21
119.977631895
 31
0.0
  0
LINE
  8
0
  6
CONTINUOUS
 62
     2
 10
16.619692979
 20
129.977631895
 30
0.0
 11
16.585314642
 21
129.834954116
 31
0.0
  0
LINE
  8
0
  6
CONTINUOUS
 62
     2
 10
16.585314642
 20
129.834954116
 30
0.0
 11
16.558340333
 21
129.689200479
 31
0.0
  0
LINE
  8
0
  6
CONTINUOUS
 62
     2
 10
16.558340333
 20
129.689200479
 30
0.0
 11
16.539123205
 21
129.541168417
 31
0.0
  0
LINE
  8
0
  6
CONTINUOUS
 62
     2
 10
16.539123205
 20
129.541168417
 30
0.0
 11
16.527908353
 21
129.391704187
 31
0.0
  0
LINE
  8
0
  6
CONTINUOUS
 62
     2
 10
16.527908353
 20
129.391704187
 30
0.0
 11
16.524824949
 21
129.241683724
 31
0.0
  0
LINE
  8
0
  6
CONTINUOUS
 62
     2
 10
16.524824949
 20
129.241683724
 30
0.0
 11
16.529882439
 21
129.091992158
 31
0.0
  0
LINE
  8
0
  6
CONTINUOUS
 62
     2
 10
16.529882439
 20
129.091992158
 30
0.0
 11
16.542971024
 21
128.94350303
 31
0.0
  0
LINE
  8
0
  6
CONTINUOUS
 62
     2
 10
16.542971024
 20
128.94350303
 30
0.0
 11
16.563866358
 21
128.797058225
 31
0.0
  0
LINE
  8
0
  6
CONTINUOUS
 62
     2
 10
16.563866358
 20
128.797058225
 30
0.0
 11
16.59223811
 21
128.653449583
 31
0.0
  0
LINE
  8
0
  6
CONTINUOUS
 62
     2
 10
16.59223811
 20
128.653449583
 30
0.0
 11
16.627661819
 21
128.513402995
 31
0.0
  0
LINE
  8
0
  6
CONTINUOUS
 62
     2
 10
16.627661819
 20
128.513402995
 30
0.0
 11
16.686749623
 21
128.448126835
 31
0.0
  0
LINE
  8
0
  6
CONTINUOUS
 62
     2
 10
16.686749623
 20
128.448126835
 30
0.0
 11
16.761463496
 21
128.397517728
 31
0.0
  0
LINE
  8
0
  6
CONTINUOUS
 62
     2
 10
16.761463496
 20
128.397517728
 30
0.0
 11
16.886478348
 21
128.370005066
 31
0.0
  0
LINE
  8
0
  6
CONTINUOUS
 62
     2
 10
16.886478348
 20
128.370005066
 30
0.0
 11
16.988683888
 21
128.389258994
 31
0.0
  0
LINE
  8
0
  6
CONTINUOUS
 62
     2
 10
16.988683888
 20
128.389258994
 30
0.0
 11
17.081548122
 21
128.446983388
 31
0.0
  0
LINE
  8
0
  6
CONTINUOUS
 62
     2
 10
17.081548122
 20
128.446983388
 30
0.0
 11
17.131231228
 21
128.507179876
 31
0.0
  0
LINE
  8
0
  6
CONTINUOUS
 62
     2
 10
17.131231228
 20
128.507179876
 30
0.0
 11
17.177208452
 21
128.653086664
 31
0.0
  0
LINE
  8
0
  6
CONTINUOUS
 62
     2
 10
17.177208452
 20
128.653086664
 30
0.0
 11
17.204903738
 21
128.792623558
 31
0.0
  0
LINE
  8
0
  6
CONTINUOUS
 62
     2
 10
17.204903738
 20
128.792623558
 30
0.0
 11
17.226501165
 21
128.943016943
 31
0.0
  0
LINE
  8
0
  6
CONTINUOUS
 62
     2
 10
17.226501165
 20
128.943016943
 30
0.0
 11
17.23965952
 21
129.092215545
 31
0.0
  0
LINE
  8
0
  6
CONTINUOUS
 62
     2
 10
17.23965952
 20
129.092215545
 30
0.0
 11
17.244706871
 21
129.24221524
 31
0.0
  0
LINE
  8
0
  6
CONTINUOUS
 62
     2
 10
17.244706871
 20
129.24221524
 30
0.0
 11
17.241359467
 21
129.397048818
 31
0.0
  0
LINE
  8
0
  6
CONTINUOUS
 62
     2
 10
17.241359467
 20
129.397048818
 30
0.0
 11
17.230429494
 21
129.540930487
 31
0.0
  0
LINE
  8
0
  6
CONTINUOUS
 62
     2
 10
17.230429494
 20
129.540930487
 30
0.0
 11
17.211024891
 21
129.69023539
 31
0.0
  0
LINE
  8
0
  6
CONTINUOUS
 62
     2
 10
17.211024891
 20
129.69023539
 30
0.0
 11
17.184451161
 21
129.833838096
 31
0.0
  0
LINE
  8
0
  6
CONTINUOUS
 62
     2
 10
17.184451161
 20
129.833838096
 30
0.0
 11
17.148464121
 21
129.980674508
 31
0.0
  0
LINE
  8
0
  6
CONTINUOUS
 62
     2
 10
17.148464121
 20
129.980674508
 30
0.0
 11
17.096320702
 21
130.058352803
 31
0.0
  0
LINE
  8
0
  6
CONTINUOUS
 62
     2
 10
17.096320702
 20
130.058352803
 30
0.0
 11
17.01021188
 21
130.121462947
 31
0.0
  0
LINE
  8
0
  6
CONTINUOUS
 62
     2
 10
17.01021188
 20
130.121462947
 30
0.0
 11
16.895333854
 21
130.149807318
 31
0.0
  0
LINE
  8
0
  6
CONTINUOUS
 62
     2
 10
16.895333854
 20
130.149807318
 30
0.0
 11
16.761433084
 21
130.122467984
 31
0.0
  0
LINE
  8
0
  6
CONTINUOUS
 62
     2
 10
16.761433084
 20
130.122467984
 30
0.0
 11
16.671943341
 21
130.056995669
 31
0.0
  0
LINE
  8
0
  6
CONTINUOUS
 62
     2
 10
16.671943341
 20
130.056995669
 30
0.0
 11
16.619692979
 21
129.977631895
 31
0.0
  0
LINE
  8
0
  6
CONTINUOUS
 62
     2
 10
15.62500005
 20
129.33
 30
0.0
 11
15.721707499
 21
129.314195763
 31
0.0
  0
LINE
  8
0
  6
CONTINUOUS
 62
     2
 10
15.721707499
 20
129.314195763
 30
0.0
 11
15.801280563
 21
129.275226985
 31
0.0
  0
LINE
  8
0
  6
CONTINUOUS
 62
     2
 10
15.801280563
 20
129.275226985
 30
0.0
 11
15.880183482
 21
129.205666753
 31
0.0
  0
LINE
  8
0
  6
CONTINUOUS
 62
     2
 10
15.880183482
 20
129.205666753
 30
0.0
 11
15.948974344
 21
129.10085891
 31
0.0
  0
LINE
  8
0
  6
CONTINUOUS
 62
     2
 10
15.948974344
 20
129.10085891
 30
0.0
 11
15.992190825
 21
128.973575956
 31
0.0
  0
LINE
  8
0
  6
CONTINUOUS
 62
     2
 10
15.992190825
 20
128.973575956
 30
0.0
 11
16.004998209
 21
128.848526286
 31
0.0
  0
LINE
  8
0
  6
CONTINUOUS
 62
     2
 10
16.004998209
 20
128.848526286
 30
0.0
 11
15.990801853
 21
128.720017403
 31
0.0
  0
LINE
  8
0
  6
CONTINUOUS
 62
     2
 10
15.990801853
 20
128.720017403
 30
0.0
 11
15.953264421
 21
128.608203499
 31
0.0
  0
LINE
  8
0
  6
CONTINUOUS
 62
     2
 10
15.953264421
 20
128.608203499
 30
0.0
 11
15.882656455
 21
128.49718946
 31
0.0
  0
LINE
  8
0
  6
CONTINUOUS
 62
     2
 10
15.882656455
 20
128.49718946
 30
0.0
 11
15.804805795
 21
128.427134663
 31
0.0
  0
LINE
  8
0
  6
CONTINUOUS
 62
     2
 10
15.804805795
 20
128.427134663
 30
0.0
 11
15.720181332
 21
128.385301199
 31
0.0
  0
LINE
  8
0
  6
CONTINUOUS
 62
     2
 10
15.720181332
 20
128.385301199
 30
0.0
 11
15.625181446
 21
128.370000055
 31
0.0
  0
LINE
  8
0
  6
CONTINUOUS
 62
     2
 10
15.625181446
 20
128.370000055
 30
0.0
 11
15.516369619
 21
128.390031081
 31
0.0
  0
LINE
  8
0
  6
CONTINUOUS
 62
     2
 10
15.516369619
 20
128.390031081
 30
0.0
 11
15.441280539
 21
128.429827354
 31
0.0
  0
LINE
  8
0
  6
CONTINUOUS
 62
     2
 10
15.441280539
 20
128.429827354
 30
0.0
 11
15.371232577
 21
128.492720317
 31
0.0
  0
LINE
  8
0
  6
CONTINUOUS
 62
     2
 10
15.371232577
 20
128.492720317
 30
0.0
 11
15.299398223
 21
128.602525856
 31
0.0
  0
LINE
  8
0
  6
CONTINUOUS
 62
     2
 10
15.299398223
 20
128.602525856
 30
0.0
 11
15.259731343
 21
128.71764656
 31
0.0
  0
LINE
  8
0
  6
CONTINUOUS
 62
     2
 10
15.259731343
 20
128.71764656
 30
0.0
 11
15.245004683
 21
128.847616918
 31
0.0
  0
LINE
  8
0
  6
CONTINUOUS
 62
     2
 10
15.245004683
 20
128.847616918
 30
0.0
 11
15.257765587
 21
128.973369122
 31
0.0
  0
LINE
  8
0
  6
CONTINUOUS
 62
     2
 10
15.257765587
 20
128.973369122
 30
0.0
 11
15.302009722
 21
129.102875504
 31
0.0
  0
LINE
  8
0
  6
CONTINUOUS
 62
     2
 10
15.302009722
 20
129.102875504
 30
0.0
 11
15.367188973
 21
129.202630326
 31
0.0
  0
LINE
  8
0
  6
CONTINUOUS
 62
     2
 10
15.367188973
 20
129.202630326
 30
0.0
 11
15.454636755
 21
129.279058061
 31
0.0
  0
LINE
  8
0
  6
CONTINUOUS
 62
     2
 10
15.454636755
 20
129.279058061
 30
0.0
 11
15.5535188
 21
129.321431169
 31
0.0
  0
LINE
  8
0
  6
CONTINUOUS
 62
     2
 10
15.5535188
 20
129.321431169
 30
0.0
 11
15.724992233
 21
129.350029703
 31
0.0
  0
LINE
  8
0
  6
CONTINUOUS
 62
     2
 10
15.724992233
 20
129.350029703
 30
0.0
 11
15.809062679
 21
129.402793714
 31
0.0
  0
LINE
  8
0
  6
CONTINUOUS
 62
     2
 10
15.809062679
 20
129.402793714
 30
0.0
 11
15.875527897
 21
129.481140812
 31
0.0
  0
LINE
  8
0
  6
CONTINUOUS
 62
     2
 10
15.875527897
 20
129.481140812
 30
0.0
 11
15.92515087
 21
129.591315018
 31
0.0
  0
LINE
  8
0
  6
CONTINUOUS
 62
     2
 10
15.92515087
 20
129.591315018
 30
0.0
 11
15.944998272
 21
129.731314391
 31
0.0
  0
LINE
  8
0
  6
CONTINUOUS
 62
     2
 10
15.944998272
 20
129.731314391
 30
0.0
 11
15.925746376
 21
129.866654317
 31
0.0
  0
LINE
  8
0
  6
CONTINUOUS
 62
     2
 10
15.925746376
 20
129.866654317
 30
0.0
 11
15.874525037
 21
129.980428557
 31
0.0
  0
LINE
  8
0
  6
CONTINUOUS
 62
     2
 10
15.874525037
 20
129.980428557
 30
0.0
 11
15.804782977
 21
130.060903312
 31
0.0
  0
LINE
  8
0
  6
CONTINUOUS
 62
     2
 10
15.804782977
 20
130.060903312
 30
0.0
 11
15.72577657
 21
130.109646387
 31
0.0
  0
LINE
  8
0
  6
CONTINUOUS
 62
     2
 10
15.72577657
 20
130.109646387
 30
0.0
 11
15.625807566
 21
130.129998726
 31
0.0
  0
LINE
  8
0
  6
CONTINUOUS
 62
     2
 10
15.625807566
 20
130.129998726
 30
0.0
 11
15.525737029
 21
130.110268948
 31
0.0
  0
LINE
  8
0
  6
CONTINUOUS
 62
     2
 10
15.525737029
 20
130.110268948
 30
0.0
 11
15.445337311
 21
130.061005377
 31
0.0
  0
LINE
  8
0
  6
CONTINUOUS
 62
     2
 10
15.445337311
 20
130.061005377
 30
0.0
 11
15.375646165
 21
129.980694862
 31
0.0
  0
LINE
  8
0
  6
CONTINUOUS
 62
     2
 10
15.375646165
 20
129.980694862
 30
0.0
 11
15.324766528
 21
129.868405329
 31
0.0
  0
LINE
  8
0
  6
CONTINUOUS
 62
     2
 10
15.324766528
 20
129.868405329
 30
0.0
 11
15.305002539
 21
129.728406504
 31
0.0
  0
LINE
  8
0
  6
CONTINUOUS
 62
     2
 10
15.305002539
 20
129.728406504
 30
0.0
 11
15.324925856
 21
129.591055834
 31
0.0
  0
LINE
  8
0
  6
CONTINUOUS
 62
     2
 10
15.324925856
 20
129.591055834
 30
0.0
 11
15.374681192
 21
129.480812275
 31
0.0
  0
LINE
  8
0
  6
CONTINUOUS
 62
     2
 10
15.374681192
 20
129.480812275
 30
0.0
 11
15.451220188
 21
129.394122937
 31
0.0
  0
LINE
  8
0
  6
CONTINUOUS
 62
     2
 10
15.451220188
 20
129.394122937
 30
0.0
 11
15.540162297
 21
129.34431359
 31
0.0
  0
LINE
  8
0
  6
CONTINUOUS
 62
     2
 10
15.540162297
 20
129.34431359
 30
0.0
 11
15.62500005
 21
129.33
 31
0.0
  0
LINE
  8
0
  6
CONTINUOUS
 62
     2
 10
15.0
 20
140.13
 30
0.0
 11
15.0
 21
139.98
 31
0.0
  0
LINE
  8
0
  6
CONTINUOUS
 62
     2
 10
15.0
 20
139.98
 30
0.0
 11
15.0
 21
139.83
 31
0.0
  0
LINE
  8
0
  6
CONTINUOUS
 62
     2
 10
15.0
 20
139.83
 30
0.0
 11
15.0
 21
139.68
 31
0.0
  0
LINE
  8
0
  6
CONTINUOUS
 62
     2
 10
15.0
 20
139.68
 30
0.0
 11
15.0
 21
139.53
 31
0.0
  0
LINE
  8
0
  6
CONTINUOUS
 62
     2
 10
15.0
 20
139.53
 30
0.0
 11
15.0
 21
139.38
 31
0.0
  0
LINE
  8
0
  6
CONTINUOUS
 62
     2
 10
15.0
 20
139.38
 30
0.0
 11
15.0
 21
139.23
 31
0.0
  0
LINE
  8
0
  6
CONTINUOUS
 62
     2
 10
15.0
 20
139.23
 30
0.0
 11
15.0
 21
139.08
 31
0.0
  0
LINE
  8
0
  6
CONTINUOUS
 62
     2
 10
15.0
 20
139.08
 30
0.0
 11
15.0
 21
138.93
 31
0.0
  0
LINE
  8
0
  6
CONTINUOUS
 62
     2
 10
15.0
 20
138.93
 30
0.0
 11
15.0
 21
138.78
 31
0.0
  0
LINE
  8
0
  6
CONTINUOUS
 62
     2
 10
15.0
 20
138.78
 30
0.0
 11
15.0
 21
138.63
 31
0.0
  0
LINE
  8
0
  6
CONTINUOUS
 62
     2
 10
15.0
 20
138.63
 30
0.0
 11
15.0
 21
138.48
 31
0.0
  0
LINE
  8
0
  6
CONTINUOUS
 62
     2
 10
15.0
 20
138.48
 30
0.0
 11
15.0
 21
138.37
 31
0.0
  0
LINE
  8
0
  6
CONTINUOUS
 62
     2
 10
15.994692979
 20
139.977631895
 30
0.0
 11
15.960314642
 21
139.834954116
 31
0.0
  0
LINE
  8
0
  6
CONTINUOUS
 62
     2
 10
15.960314642
 20
139.834954116
 30
0.0
 11
15.933340333
 21
139.689200479
 31
0.0
  0
LINE
  8
0
  6
CONTINUOUS
 62
     2
 10
15.933340333
 20
139.689200479
 30
0.0
 11
15.914123205
 21
139.541168417
 31
0.0
  0
LINE
  8
0
  6
CONTINUOUS
 62
     2
 10
15.914123205
 20
139.541168417
 30
0.0
 11
15.902908353
 21
139.391704187
 31
0.0
  0
LINE
  8
0
  6
CONTINUOUS
 62
     2
 10
15.902908353
 20
139.391704187
 30
0.0
 11
15.899824949
 21
139.241683724
 31
0.0
  0
LINE
  8
0
  6
CONTINUOUS
 62
     2
 10
15.899824949
 20
139.241683724
 30
0.0
 11
15.904882439
 21
139.091992158
 31
0.0
  0
LINE
  8
0
  6
CONTINUOUS
 62
     2
 10
15.904882439
 20
139.091992158
 30
0.0
 11
15.917971024
 21
138.94350303
 31
0.0
  0
LINE
  8
0
  6
CONTINUOUS
 62
     2
 10
15.917971024
 20
138.94350303
 30
0.0
 11
15.938866358
 21
138.797058225
 31
0.0
  0
LINE
  8
0
  6
CONTINUOUS
 62
     2
 10
15.938866358
 20
138.797058225
 30
0.0
 11
15.96723811
 21
138.653449583
 31
0.0
  0
LINE
  8
0
  6
CONTINUOUS
 62
     2
 10
15.96723811
 20
138.653449583
 30
0.0
 11
16.002661819
 21
138.513402995
 31
0.0
  0
LINE
  8
0
  6
CONTINUOUS
 62
     2
 10
16.002661819
 20
138.513402995
 30
0.0
 11
16.061749623
 21
138.448126835
 31
0.0
  0
LINE
  8
0
  6
CONTINUOUS
 62
     2
 10
16.061749623
 20
138.448126835
 30
0.0
 11
16.136463496
 21
138.397517728
 31
0.0
  0
LINE
  8
0
  6
CONTINUOUS
 62
     2
 10
16.136463496
 20
138.397517728
 30
0.0
 11
16.261478348
 21
138.370005066
 31
0.0
  0
LINE
  8
0
  6
CONTINUOUS
 62
     2
 10
16.261478348
 20
138.370005066
 30
0.0
 11
16.363683888
 21
138.389258994
 31
0.0
  0
LINE
  8
0
  6
CONTINUOUS
 62
     2
 10
16.363683888
 20
138.389258994
 30
0.0
 11
16.456548122
 21
138.446983388
 31
0.0
  0
LINE
  8
0
  6
CONTINUOUS
 62
     2
 10
16.456548122
 20
138.446983388
 30
0.0
 11
16.506231228
 21
138.507179876
 31
0.0
  0
LINE
  8
0
  6
CONTINUOUS
 62
     2
 10
16.506231228
 20
138.507179876
 30
0.0
 11
16.552208452
 21
138.653086664
 31
0.0
  0
LINE
  8
0
  6
CONTINUOUS
 62
     2
 10
16.552208452
 20
138.653086664
 30
0.0
 11
16.579903738
 21
138.792623558
 31
0.0
  0
LINE
  8
0
  6
CONTINUOUS
 62
     2
 10
16.579903738
 20
138.792623558
 30
0.0
 11
16.601501165
 21
138.943016943
 31
0.0
  0
LINE
  8
0
  6
CONTINUOUS
 62
     2
 10
16.601501165
 20
138.943016943
 30
0.0
 11
16.61465952
 21
139.092215545
 31
0.0
  0
LINE
  8
0
  6
CONTINUOUS
 62
     2
 10
16.61465952
 20
139.092215545
 30
0.0
 11
16.619706871
 21
139.24221524
 31
0.0
  0
LINE
  8
0
  6
CONTINUOUS
 62
     2
 10
16.619706871
 20
139.24221524
 30
0.0
 11
16.616359467
 21
139.397048818
 31
0.0
  0
LINE
  8
0
  6
CONTINUOUS
 62
     2
 10
16.616359467
 20
139.397048818
 30
0.0
 11
16.605429494
 21
139.540930487
 31
0.0
  0
LINE
  8
0
  6
CONTINUOUS
 62
     2
 10
16.605429494
 20
139.540930487
 30
0.0
 11
16.586024891
 21
139.69023539
 31
0.0
  0
LINE
  8
0
  6
CONTINUOUS
 62
     2
 10
16.586024891
 20
139.69023539
 30
0.0
 11
16.559451161
 21
139.833838096
 31
0.0
  0
LINE
  8
0
  6
CONTINUOUS
 62
     2
 10
16.559451161
 20
139.833838096
 30
0.0
 11
16.523464121
 21
139.980674508
 31
0.0
  0
LINE
  8
0
  6
CONTINUOUS
 62
     2
 10
16.523464121
 20
139.980674508
 30
0.0
 11
16.471320702
 21
140.058352803
 31
0.0
  0
LINE
  8
0
  6
CONTINUOUS
 62
     2
 10
16.471320702
 20
140.058352803
 30
0.0
 11
16.38521188
 21
140.121462947
 31
0.0
  0
LINE
  8
0
  6
CONTINUOUS
 62
     2
 10
16.38521188
 20
140.121462947
 30
0.0
 11
16.270333854
 21
140.149807318
 31
0.0
  0
LINE
  8
0
  6
CONTINUOUS
 62
     2
 10
16.270333854
 20
140.149807318
 30
0.0
 11
16.136433084
 21
140.122467984
 31
0.0
  0
LINE
  8
0
  6
CONTINUOUS
 62
     2
 10
16.136433084
 20
140.122467984
 30
0.0
 11
16.046943341
 21
140.056995669
 31
0.0
  0
LINE
  8
0
  6
CONTINUOUS
 62
     2
 10
16.046943341
 20
140.056995669
 30
0.0
 11
15.994692979
 21
139.977631895
 31
0.0
  0
LINE
  8
0
  6
CONTINUOUS
 62
     2
 10
17.244692979
 20
139.977631895
 30
0.0
 11
17.210314642
 21
139.834954116
 31
0.0
  0
LINE
  8
0
  6
CONTINUOUS
 62
     2
 10
17.210314642
 20
139.834954116
 30
0.0
 11
17.183340333
 21
139.689200479
 31
0.0
  0
LINE
  8
0
  6
CONTINUOUS
 62
     2
 10
17.183340333
 20
139.689200479
 30
0.0
 11
17.164123205
 21
139.541168417
 31
0.0
  0
LINE
  8
0
  6
CONTINUOUS
 62
     2
 10
17.164123205
 20
139.541168417
 30
0.0
 11
17.152908353
 21
139.391704187
 31
0.0
  0
LINE
  8
0
  6
CONTINUOUS
 62
     2
 10
17.152908353
 20
139.391704187
 30
0.0
 11
17.149824949
 21
139.241683724
 31
0.0
  0
LINE
  8
0
  6
CONTINUOUS
 62
     2
 10
17.149824949
 20
139.241683724
 30
0.0
 11
17.154882439
 21
139.091992158
 31
0.0
  0
LINE
  8
0
  6
CONTINUOUS
 62
     2
 10
17.154882439
 20
139.091992158
 30
0.0
 11
17.167971024
 21
138.94350303
 31
0.0
  0
LINE
  8
0
  6
CONTINUOUS
 62
     2
 10
17.167971024
 20
138.94350303
 30
0.0
 11
17.188866358
 21
138.797058225
 31
0.0
  0
LINE
  8
0
  6
CONTINUOUS
 62
     2
 10
17.188866358
 20
138.797058225
 30
0.0
 11
17.21723811
 21
138.653449583
 31
0.0
  0
LINE
  8
0
  6
CONTINUOUS
 62
     2
 10
17.21723811
 20
138.653449583
 30
0.0
 11
17.252661819
 21
138.513402995
 31
0.0
  0
LINE
  8
0
  6
CONTINUOUS
 62
     2
 10
17.252661819
 20
138.513402995
 30
0.0
 11
17.311749623
 21
138.448126835
 31
0.0
  0
LINE
  8
0
  6
CONTINUOUS
 62
     2
 10
17.311749623
 20
138.448126835
 30
0.0
 11
17.386463496
 21
138.397517728
 31
0.0
  0
LINE
  8
0
  6
CONTINUOUS
 62
     2
 10
17.386463496
 20
138.397517728
 30
0.0
 11
17.511478348
 21
138.370005066
 31
0.0
  0
LINE
  8
0
  6
CONTINUOUS
 62
     2
 10
17.511478348
 20
138.370005066
 30
0.0
 11
17.613683888
 21
138.389258994
 31
0.0
  0
LINE
  8
0
  6
CONTINUOUS
 62
     2
 10
17.613683888
 20
138.389258994
 30
0.0
 11
17.706548122
 21
138.446983388
 31
0.0
  0
LINE
  8
0
  6
CONTINUOUS
 62
     2
 10
17.706548122
 20
138.446983388
 30
0.0
 11
17.756231228
 21
138.507179876
 31
0.0
  0
LINE
  8
0
  6
CONTINUOUS
 62
     2
 10
17.756231228
 20
138.507179876
 30
0.0
 11
17.802208452
 21
138.653086664
 31
0.0
  0
LINE
  8
0
  6
CONTINUOUS
 62
     2
 10
17.802208452
 20
138.653086664
 30
0.0
 11
17.829903738
 21
138.792623558
 31
0.0
  0
LINE
  8
0
  6
CONTINUOUS
 62
     2
 10
17.829903738
 20
138.792623558
 30
0.0
 11
17.851501165
 21
138.943016943
 31
0.0
  0
LINE
  8
0
  6
CONTINUOUS
 62
     2
 10
17.851501165
 20
138.943016943
 30
0.0
 11
17.86465952
 21
139.092215545
 31
0.0
  0
LINE
  8
0
  6
CONTINUOUS
 62
     2
 10
17.86465952
 20
139.092215545
 30
0.0
 11
17.869706871
 21
139.24221524
 31
0.0
  0
LINE
  8
0
  6
CONTINUOUS
 62
     2
 10
17.869706871
 20
139.24221524
 30
0.0
 11
17.866359467
 21
139.397048818
 31
0.0
  0
LINE
  8
0
  6
CONTINUOUS
 62
     2
 10
17.866359467
 20
139.397048818
 30
0.0
 11
17.855429494
 21
139.540930487
 31
0.0
  0
LINE
  8
0
  6
CONTINUOUS
 62
     2
 10
17.855429494
 20
139.540930487
 30
0.0
 11
17.836024891
 21
139.69023539
 31
0.0
  0
LINE
  8
0
  6
CONTINUOUS
 62
     2
 10
17.836024891
 20
139.69023539
 30
0.0
 11
17.809451161
 21
139.833838096
 31
0.0
  0
LINE
  8
0
  6
CONTINUOUS
 62
     2
 10
17.809451161
 20
139.833838096
 30
0.0
 11
17.773464121
 21
139.980674508
 31
0.0
  0
LINE
  8
0
  6
CONTINUOUS
 62
     2
 10
17.773464121
 20
139.980674508
 30
0.0
 11
17.721320702
 21
140.058352803
 31
0.0
  0
LINE
  8
0
  6
CONTINUOUS
 62
     2
 10
17.721320702
 20
140.058352803
 30
0.0
 11
17.63521188
 21
140.121462947
 31
0.0
  0
LINE
  8
0
  6
CONTINUOUS
 62
     2
 10
17.63521188
 20
140.121462947
 30
0.0
 11
17.520333854
 21
140.149807318
 31
0.0
  0
LINE
  8
0
  6
CONTINUOUS
 62
     2
 10
17.520333854
 20
140.149807318
 30
0.0
 11
17.386433084
 21
140.122467984
 31
0.0
  0
LINE
  8
0
  6
CONTINUOUS
 62
     2
 10
17.386433084
 20
140.122467984
 30
0.0
 11
17.296943341
 21
140.056995669
 31
0.0
  0
LINE
  8
0
  6
CONTINUOUS
 62
     2
 10
17.296943341
 20
140.056995669
 30
0.0
 11
17.244692979
 21
139.977631895
 31
0.0
  0
ARC
  8
0
  6
CONTINUOUS
 62
     2
 10
14.89
 20
114.65
 30
0.0
 40
1.056
 50
337.467174552
 51
22.511176732
  0
ARC
  8
0
  6
CONTINUOUS
 62
     2
 10
14.89
 20
114.65
 30
0.0
 40
1.032
 50
337.684584171
 51
22.324706219
  0
ARC
  8
0
  6
CONTINUOUS
 62
     2
 10
14.89
 20
114.65
 30
0.0
 40
1.008
 50
337.549614612
 51
22.453599418
  0
ARC
  8
0
  6
CONTINUOUS
 62
     2
 10
14.89
 20
114.65
 30
0.0
 40
0.984
 50
337.442033402
 51
22.554911701
  0
ARC
  8
0
  6
CONTINUOUS
 62
     2
 10
14.89
 20
114.65
 30
0.0
 40
0.96
 50
337.452380695
 51
22.564315364
  0
ARC
  8
0
  6
CONTINUOUS
 62
     2
 10
16.33
 20
114.65
 30
0.0
 40
1.056
 50
157.488823268
 51
202.532825448
  0
ARC
  8
0
  6
CONTINUOUS
 62
     2
 10
16.33
 20
114.65
 30
0.0
 40
1.032
 50
157.675293781
 51
202.315415829
  0
ARC
  8
0
  6
CONTINUOUS
 62
     2
 10
16.33
 20
114.65
 30
0.0
 40
1.008
 50
157.546400582
 51
202.450385388
  0
ARC
  8
0
  6
CONTINUOUS
 62
     2
 10
16.33
 20
114.65
 30
0.0
 40
0.984
 50
157.445088299
 51
202.557966598
  0
ARC
  8
0
  6
CONTINUOUS
 62
     2
 10
16.33
 20
114.65
 30
0.0
 40
0.96
 50
157.435684636
 51
202.547619305
  0
ARC
  8
0
  6
CONTINUOUS
 62
     2
 10
15.61
 20
114.95
 30
0.0
 40
0.18
 50
22.323602445
 51
157.676397555
  0
ARC
  8
0
  6
CONTINUOUS
 62
     2
 10
15.61
 20
114.95
 30
0.0
 40
0.204
 50
22.306563269
 51
157.693436731
  0
ARC
  8
0
  6
CONTINUOUS
 62
     2
 10
15.61
 20
114.95
 30
0.0
 40
0.228
 50
21.884823963
 51
158.115176037
  0
ARC
  8
0
  6
CONTINUOUS
 62
     2
 10
15.61
 20
114.95
 30
0.0
 40
0.252
 50
21.411238642
 51
158.588761358
  0
ARC
  8
0
  6
CONTINUOUS
 62
     2
 10
15.61
 20
114.95
 30
0.0
 40
0.276
 50
22.204019072
 51
157.795980928
  0
ARC
  8
0
  6
CONTINUOUS
 62
     2
 10
15.61
 20
114.35
 30
0.0
 40
0.18
 50
202.234559129
 51
337.765440871
  0
ARC
  8
0
  6
CONTINUOUS
 62
     2
 10
15.61
 20
114.35
 30
0.0
 40
0.204
 50
202.321298355
 51
337.678701645
  0
ARC
  8
0
  6
CONTINUOUS
 62
     2
 10
15.61
 20
114.35
 30
0.0
 40
0.228
 50
201.870616205
 51
338.129383795
  0
ARC
  8
0
  6
CONTINUOUS
 62
     2
 10
15.61
 20
114.35
 30
0.0
 40
0.252
 50
201.373203871
 51
338.626796129
  0
ARC
  8
0
  6
CONTINUOUS
 62
     2
 10
15.61
 20
114.35
 30
0.0
 40
0.276
 50
202.286846658
 51
337.713153342
  0
ARC
  8
0
  6
CONTINUOUS
 62
     2
 10
16.17
 20
113.85
 30
0.0
 40
1.056
 50
337.467174552
 51
22.511176732
  0
ARC
  8
0
  6
CONTINUOUS
 62
     2
 10
16.17
 20
113.85
 30
0.0
 40
1.032
 50
337.684584171
 51
22.324706219
  0
ARC
  8
0
  6
CONTINUOUS
 62
     2
 10
16.17
 20
113.85
 30
0.0
 40
1.008
 50
337.549614612
 51
22.453599418
  0
ARC
  8
0
  6
CONTINUOUS
 62
     2
 10
16.17
 20
113.85
 30
0.0
 40
0.984
 50
337.442033402
 51
22.554911701
  0
ARC
  8
0
  6
CONTINUOUS
 62
     2
 10
16.17
 20
113.85
 30
0.0
 40
0.96
 50
337.452380695
 51
22.564315364
  0
ARC
  8
0
  6
CONTINUOUS
 62
     2
 10
17.61
 20
113.85
 30
0.0
 40
1.056
 50
157.488823268
 51
202.532825448
  0
ARC
  8
0
  6
CONTINUOUS
 62
     2
 10
17.61
 20
113.85
 30
0.0
 40
1.032
 50
157.675293781
 51
202.315415829
  0
ARC
  8
0
  6
CONTINUOUS
 62
     2
 10
17.61
 20
113.85
 30
0.0
 40
1.008
 50
157.546400582
 51
202.450385388
  0
ARC
  8
0
  6
CONTINUOUS
 62
     2
 10
17.61
 20
113.85
 30
0.0
 40
0.984
 50
157.445088299
 51
202.557966598
  0
ARC
  8
0
  6
CONTINUOUS
 62
     2
 10
17.61
 20
113.85
 30
0.0
 40
0.96
 50
157.435684636
 51
202.547619305
  0
ARC
  8
0
  6
CONTINUOUS
 62
     2
 10
16.89
 20
114.15
 30
0.0
 40
0.18
 50
22.323602445
 51
157.676397555
  0
ARC
  8
0
  6
CONTINUOUS
 62
     2
 10
16.89
 20
114.15
 30
0.0
 40
0.204
 50
22.306563269
 51
157.693436731
  0
ARC
  8
0
  6
CONTINUOUS
 62
     2
 10
16.89
 20
114.15
 30
0.0
 40
0.228
 50
21.884823963
 51
158.115176037
  0
ARC
  8
0
  6
CONTINUOUS
 62
     2
 10
16.89
 20
114.15
 30
0.0
 40
0.252
 50
21.411238642
 51
158.588761358
  0
ARC
  8
0
  6
CONTINUOUS
 62
     2
 10
16.89
 20
114.15
 30
0.0
 40
0.276
 50
22.204019072
 51
157.795980928
  0
ARC
  8
0
  6
CONTINUOUS
 62
     2
 10
16.89
 20
113.55
 30
0.0
 40
0.18
 50
202.234559129
 51
337.765440871
  0
ARC
  8
0
  6
CONTINUOUS
 62
     2
 10
16.89
 20
113.55
 30
0.0
 40
0.204
 50
202.321298355
 51
337.678701645
  0
ARC
  8
0
  6
CONTINUOUS
 62
     2
 10
16.89
 20
113.55
 30
0.0
 40
0.228
 50
201.870616205
 51
338.129383795
  0
ARC
  8
0
  6
CONTINUOUS
 62
     2
 10
16.89
 20
113.55
 30
0.0
 40
0.252
 50
201.373203871
 51
338.626796129
  0
ARC
  8
0
  6
CONTINUOUS
 62
     2
 10
16.89
 20
113.55
 30
0.0
 40
0.276
 50
202.286846658
 51
337.713153342
  0
LINE
  8
0
  6
CONTINUOUS
 62
     2
 10
17.065454591
 20
115.147146195
 30
0.0
 11
15.508085676
 21
113.291146195
 31
0.0
  0
LINE
  8
0
  6
CONTINUOUS
 62
     2
 10
16.991914324
 20
115.208853805
 30
0.0
 11
15.434545409
 21
113.352853805
 31
0.0
  0
LINE
  8
0
  6
CONTINUOUS
 62
     2
 10
15.489700609
 20
113.306573097
 30
0.0
 11
17.047069524
 21
115.162573097
 31
0.0
  0
LINE
  8
0
  6
CONTINUOUS
 62
     2
 10
15.452930476
 20
113.337426903
 30
0.0
 11
17.010299391
 21
115.193426903
 31
0.0
  0
LINE
  8
0
  6
CONTINUOUS
 62
     2
 10
17.028684458
 20
115.178
 30
0.0
 11
15.471315542
 21
113.322
 31
0.0
  0
ARC
  8
0
  6
CONTINUOUS
 62
     2
 10
15.471315542
 20
113.322
 30
0.0
 40
0.024
 50
140.0
 51
320.0
  0
ARC
  8
0
  6
CONTINUOUS
 62
     2
 10
15.471315542
 20
113.322
 30
0.0
 40
0.048
 50
140.0
 51
320.0
  0
ARC
  8
0
  6
CONTINUOUS
 62
     2
 10
17.028684458
 20
115.178
 30
0.0
 40
0.024
 50
320.0
 51
140.0
  0
ARC
  8
0
  6
CONTINUOUS
 62
     2
 10
17.028684458
 20
115.178
 30
0.0
 40
0.048
 50
320.0
 51
140.0
  0
LINE
  8
0
  6
LTYPE1
 62
     2
 10
20.0
 20
71.5
 30
0.0
 11
20.0
 21
156.5
 31
0.0
  0
LINE
  8
0
  6
CONTINUOUS
 62
     2
 10
30.0
 20
145.260832731
 30
0.0
 11
10.0
 21
145.260832731
 31
0.0
  0
LINE
  8
0
  6
CONTINUOUS
 62
     2
 10
10.0
 20
146.516738665
 30
0.0
 11
30.0
 21
146.516738665
 31
0.0
  0
LINE
  8
0
  6
CONTINUOUS
 62
     2
 10
10.0
 20
149.012979214
 30
0.0
 11
30.0
 21
149.012979214
 31
0.0
  0
LINE
  8
0
  6
CONTINUOUS
 62
     2
 10
30.0
 20
149.012979214
 30
0.0
 11
10.0
 21
149.012979214
 31
0.0
  0
LINE
  8
0
  6
CONTINUOUS
 62
     2
 10
30.0
 20
150.252920414
 30
0.0
 11
10.0
 21
150.252920414
 31
0.0
  0
LINE
  8
0
  6
CONTINUOUS
 62
     2
 10
10.0
 20
147.767519869
 30
0.0
 11
30.0
 21
147.767519869
 31
0.0
  0
LINE
  8
0
  6
CONTINUOUS
 62
     2
 10
30.0
 20
147.767519869
 30
0.0
 11
10.0
 21
147.767519869
 31
0.0
  0
LINE
  8
0
  6
CONTINUOUS
 62
     2
 10
10.0
 20
82.739167269
 30
0.0
 11
30.0
 21
82.739167269
 31
0.0
  0
LINE
  8
0
  6
CONTINUOUS
 62
     2
 10
30.0
 20
78.987020786
 30
0.0
 11
10.0
 21
78.987020786
 31
0.0
  0
LINE
  8
0
  6
CONTINUOUS
 62
     2
 10
30.0
 20
77.747079586
 30
0.0
 11
10.0
 21
77.747079586
 31
0.0
  0
LINE
  8
0
  6
CONTINUOUS
 62
     2
 10
15.659445416
 20
81.483261335
 30
0.0
 11
10.0
 21
81.483261335
 31
0.0
  0
LINE
  8
0
  6
CONTINUOUS
 62
     2
 10
10.0
 20
80.232480131
 30
0.0
 11
15.921274556
 21
80.232480131
 31
0.0
  0
LINE
  8
0
  6
CONTINUOUS
 62
     2
 10
22.659445416
 20
81.483261335
 30
0.0
 11
17.340554584
 21
81.483261335
 31
0.0
  0
LINE
  8
0
  6
CONTINUOUS
 62
     2
 10
30.0
 20
81.483261335
 30
0.0
 11
24.340554584
 21
81.483261335
 31
0.0
  0
LINE
  8
0
  6
CONTINUOUS
 62
     2
 10
24.078725444
 20
80.232480131
 30
0.0
 11
30.0
 21
80.232480131
 31
0.0
  0
LINE
  8
0
  6
CONTINUOUS
 62
     2
 10
17.078725444
 20
80.232480131
 30
0.0
 11
22.921274556
 21
80.232480131
 31
0.0
  0
LINE
  8
0
  6
CONTINUOUS
 62
     2
 10
8.5
 20
151.5
 30
0.0
 11
8.5
 21
160.25
 31
0.0
  0
LINE
  8
0
  6
CONTINUOUS
 62
     2
 10
10.0
 20
152.5
 30
0.0
 11
10.0
 21
160.25
 31
0.0
  0
TEXT
  8
0
  6
CONTINUOUS
 62
     2
 10
8.35
 20
159.25
 30
0.3
 40
3.0
  1
３
 50
0.0
 41
0.6
 51
0.0
  7
KANJI0
  0
LINE
  8
0
  6
CONTINUOUS
 62
     2
 10
10.0
 20
158.25
 30
0.0
 11
12.414814566
 21
157.602952387
 31
0.0
  0
LINE
  8
0
  6
CONTINUOUS
 62
     2
 10
10.0
 20
158.25
 30
0.0
 11
12.414814566
 21
158.897047613
 31
0.0
  0
LINE
  8
0
  6
CONTINUOUS
 62
     2
 10
10.0
 20
158.25
 30
0.0
 11
30.0
 21
158.25
 31
0.0
  0
LINE
  8
0
  6
CONTINUOUS
 62
     2
 10
30.0
 20
158.25
 30
0.0
 11
27.585185434
 21
158.897047613
 31
0.0
  0
LINE
  8
0
  6
CONTINUOUS
 62
     2
 10
30.0
 20
158.25
 30
0.0
 11
27.585185434
 21
157.602952387
 31
0.0
  0
LINE
  8
0
  6
CONTINUOUS
 62
     2
 10
30.0
 20
152.5
 30
0.0
 11
30.0
 21
160.25
 31
0.0
  0
TEXT
  8
0
  6
CONTINUOUS
 62
     2
 10
18.05
 20
159.25
 30
0.3
 40
3.0
  1
４０
 50
0.0
 41
0.6
 51
0.0
  7
KANJI0
  0
LINE
  8
0
  6
CONTINUOUS
 62
     2
 10
31.5
 20
151.25
 30
0.0
 11
31.5
 21
160.25
 31
0.0
  0
TEXT
  8
0
  6
CONTINUOUS
 62
     2
 10
29.85
 20
159.25
 30
0.3
 40
3.0
  1
３
 50
0.0
 41
0.6
 51
0.0
  7
KANJI0
  0
LINE
  8
0
  6
CONTINUOUS
 62
     2
 10
31.5
 20
158.25
 30
0.0
 11
33.914814566
 21
157.602952387
 31
0.0
  0
LINE
  8
0
  6
CONTINUOUS
 62
     2
 10
31.5
 20
158.25
 30
0.0
 11
33.914814566
 21
158.897047613
 31
0.0
  0
LINE
  8
0
  6
CONTINUOUS
 62
     2
 10
8.5
 20
158.25
 30
0.0
 11
6.085185434
 21
158.897047613
 31
0.0
  0
LINE
  8
0
  6
CONTINUOUS
 62
     2
 10
8.5
 20
158.25
 30
0.0
 11
6.085185434
 21
157.602952387
 31
0.0
  0
LINE
  8
0
  6
CONTINUOUS
 62
     2
 10
10.0
 20
158.25
 30
0.0
 11
5.5
 21
158.25
 31
0.0
  0
LINE
  8
0
  6
CONTINUOUS
 62
     2
 10
30.0
 20
158.25
 30
0.0
 11
34.5
 21
158.25
 31
0.0
  0
LINE
  8
0
  6
CONTINUOUS
 62
     2
 10
17.7
 20
87.925
 30
0.0
 11
12.95
 21
86.625
 31
0.0
  0
LINE
  8
0
  6
CONTINUOUS
 62
     2
 10
17.7
 20
88.075
 30
0.0
 11
12.95
 21
89.375
 31
0.0
  0
LINE
  8
0
  6
CONTINUOUS
 62
     2
 10
17.7
 20
87.925
 30
0.0
 11
17.7
 21
88.075
 31
0.0
  0
LINE
  8
0
  6
CONTINUOUS
 62
     2
 10
12.95
 20
86.625
 30
0.0
 11
12.7
 21
88.0
 31
0.0
  0
LINE
  8
0
  6
CONTINUOUS
 62
     2
 10
12.7
 20
88.0
 30
0.0
 11
12.95
 21
89.375
 31
0.0
  0
LINE
  8
0
  6
CONTINUOUS
 62
     2
 10
17.7
 20
88.0
 30
0.0
 11
12.7
 21
88.0
 31
0.0
  0
LINE
  8
0
  6
CONTINUOUS
 62
     2
 10
24.005307021
 20
89.977631895
 30
0.0
 11
24.039685358
 21
89.834954116
 31
0.0
  0
LINE
  8
0
  6
CONTINUOUS
 62
     2
 10
24.039685358
 20
89.834954116
 30
0.0
 11
24.066659667
 21
89.689200479
 31
0.0
  0
LINE
  8
0
  6
CONTINUOUS
 62
     2
 10
24.066659667
 20
89.689200479
 30
0.0
 11
24.085876795
 21
89.541168417
 31
0.0
  0
LINE
  8
0
  6
CONTINUOUS
 62
     2
 10
24.085876795
 20
89.541168417
 30
0.0
 11
24.097091647
 21
89.391704187
 31
0.0
  0
LINE
  8
0
  6
CONTINUOUS
 62
     2
 10
24.097091647
 20
89.391704187
 30
0.0
 11
24.100175051
 21
89.241683724
 31
0.0
  0
LINE
  8
0
  6
CONTINUOUS
 62
     2
 10
24.100175051
 20
89.241683724
 30
0.0
 11
24.095117561
 21
89.091992158
 31
0.0
  0
LINE
  8
0
  6
CONTINUOUS
 62
     2
 10
24.095117561
 20
89.091992158
 30
0.0
 11
24.082028976
 21
88.94350303
 31
0.0
  0
LINE
  8
0
  6
CONTINUOUS
 62
     2
 10
24.082028976
 20
88.94350303
 30
0.0
 11
24.061133642
 21
88.797058225
 31
0.0
  0
LINE
  8
0
  6
CONTINUOUS
 62
     2
 10
24.061133642
 20
88.797058225
 30
0.0
 11
24.03276189
 21
88.653449583
 31
0.0
  0
LINE
  8
0
  6
CONTINUOUS
 62
     2
 10
24.03276189
 20
88.653449583
 30
0.0
 11
23.997338181
 21
88.513402995
 31
0.0
  0
LINE
  8
0
  6
CONTINUOUS
 62
     2
 10
23.543451878
 20
88.446983388
 30
0.0
 11
23.493768772
 21
88.507179876
 31
0.0
  0
LINE
  8
0
  6
CONTINUOUS
 62
     2
 10
23.493768772
 20
88.507179876
 30
0.0
 11
23.447791548
 21
88.653086664
 31
0.0
  0
LINE
  8
0
  6
CONTINUOUS
 62
     2
 10
23.447791548
 20
88.653086664
 30
0.0
 11
23.420096262
 21
88.792623558
 31
0.0
  0
LINE
  8
0
  6
CONTINUOUS
 62
     2
 10
23.420096262
 20
88.792623558
 30
0.0
 11
23.398498835
 21
88.943016943
 31
0.0
  0
LINE
  8
0
  6
CONTINUOUS
 62
     2
 10
23.398498835
 20
88.943016943
 30
0.0
 11
23.38534048
 21
89.092215545
 31
0.0
  0
LINE
  8
0
  6
CONTINUOUS
 62
     2
 10
23.38534048
 20
89.092215545
 30
0.0
 11
23.380293129
 21
89.24221524
 31
0.0
  0
LINE
  8
0
  6
CONTINUOUS
 62
     2
 10
23.380293129
 20
89.24221524
 30
0.0
 11
23.383640533
 21
89.397048818
 31
0.0
  0
LINE
  8
0
  6
CONTINUOUS
 62
     2
 10
23.383640533
 20
89.397048818
 30
0.0
 11
23.394570506
 21
89.540930487
 31
0.0
  0
LINE
  8
0
  6
CONTINUOUS
 62
     2
 10
23.394570506
 20
89.540930487
 30
0.0
 11
23.413975109
 21
89.69023539
 31
0.0
  0
LINE
  8
0
  6
CONTINUOUS
 62
     2
 10
23.413975109
 20
89.69023539
 30
0.0
 11
23.440548839
 21
89.833838096
 31
0.0
  0
LINE
  8
0
  6
CONTINUOUS
 62
     2
 10
23.440548839
 20
89.833838096
 30
0.0
 11
23.476535879
 21
89.980674508
 31
0.0
  0
LINE
  8
0
  6
CONTINUOUS
 62
     2
 10
23.476535879
 20
89.980674508
 30
0.0
 11
23.528679298
 21
90.058352803
 31
0.0
  0
LINE
  8
0
  6
CONTINUOUS
 62
     2
 10
23.528679298
 20
90.058352803
 30
0.0
 11
23.61478812
 21
90.121462947
 31
0.0
  0
LINE
  8
0
  6
CONTINUOUS
 62
     2
 10
23.61478812
 20
90.121462947
 30
0.0
 11
23.729666146
 21
90.149807318
 31
0.0
  0
LINE
  8
0
  6
CONTINUOUS
 62
     2
 10
23.729666146
 20
90.149807318
 30
0.0
 11
23.863566916
 21
90.122467984
 31
0.0
  0
LINE
  8
0
  6
CONTINUOUS
 62
     2
 10
23.863566916
 20
90.122467984
 30
0.0
 11
23.953056659
 21
90.056995669
 31
0.0
  0
LINE
  8
0
  6
CONTINUOUS
 62
     2
 10
23.953056659
 20
90.056995669
 30
0.0
 11
24.005307021
 21
89.977631895
 31
0.0
  0
LINE
  8
0
  6
CONTINUOUS
 62
     2
 10
22.3
 20
87.925
 30
0.0
 11
27.05
 21
86.625
 31
0.0
  0
LINE
  8
0
  6
CONTINUOUS
 62
     2
 10
22.3
 20
88.075
 30
0.0
 11
27.05
 21
89.375
 31
0.0
  0
LINE
  8
0
  6
CONTINUOUS
 62
     2
 10
22.3
 20
87.925
 30
0.0
 11
22.3
 21
88.075
 31
0.0
  0
LINE
  8
0
  6
CONTINUOUS
 62
     2
 10
27.05
 20
86.625
 30
0.0
 11
27.3
 21
88.0
 31
0.0
  0
LINE
  8
0
  6
CONTINUOUS
 62
     2
 10
27.3
 20
88.0
 30
0.0
 11
27.05
 21
89.375
 31
0.0
  0
LINE
  8
0
  6
CONTINUOUS
 62
     2
 10
22.3
 20
88.0
 30
0.0
 11
27.3
 21
88.0
 31
0.0
  0
LINE
  8
0
  6
CONTINUOUS
 62
     1
 10
14.5
 20
88.950789474
 30
0.0
 11
14.5
 21
142.5
 31
0.0
  0
LINE
  8
0
  6
CONTINUOUS
 62
     1
 10
14.5
 20
86.0
 30
0.0
 11
14.5
 21
87.049210526
 31
0.0
  0
LINE
  8
0
  6
CONTINUOUS
 62
     1
 10
25.5
 20
87.049210526
 30
0.0
 11
25.5
 21
86.0
 31
0.0
  0
LINE
  8
0
  6
CONTINUOUS
 62
     1
 10
25.5
 20
142.5
 30
0.0
 11
25.5
 21
88.950789474
 31
0.0
  0
LINE
  8
0
  6
CONTINUOUS
 62
     2
 10
9.417698401
 20
151.5
 30
0.0
 11
10.694379756
 21
153.649438233
 31
0.0
  0
LINE
  8
0
  6
CONTINUOUS
 62
     2
 10
9.417698401
 20
151.5
 30
0.0
 11
9.448617771
 21
153.999808791
 31
0.0
  0
LINE
  8
0
  6
CONTINUOUS
 62
     2
 10
9.417698401
 20
151.5
 30
0.0
 11
14.817698401
 21
170.7
 31
0.0
  0
LINE
  8
0
  6
CONTINUOUS
 62
     2
 10
14.817698401
 20
170.7
 30
0.0
 11
35.517698401
 21
170.7
 31
0.0
  0
TEXT
  8
0
  6
CONTINUOUS
 62
     2
 10
14.817698401
 20
171.7
 30
0.3
 40
3.0
  1
エスカッション
 50
0.0
 41
0.9
 51
0.0
  7
KANJI2
  0
LINE
  8
0
  6
CONTINUOUS
 62
     2
 10
30.517698401
 20
151.3
 30
0.0
 11
29.501554528
 21
153.584174168
 31
0.0
  0
LINE
  8
0
  6
CONTINUOUS
 62
     2
 10
30.517698401
 20
151.3
 30
0.0
 11
28.495604909
 21
152.77008092
 31
0.0
  0
LINE
  8
0
  6
CONTINUOUS
 62
     2
 10
30.517698401
 20
151.3
 30
0.0
 11
14.817698401
 21
170.7
 31
0.0
  0
TEXT
  8
0
  6
CONTINUOUS
 62
     2
 10
22.817698401
 20
167.5
 30
0.25
 40
2.5
  1
（連結の場合は
 50
0.0
 41
0.9
 51
0.0
  7
KANJI8
  0
TEXT
  8
0
  6
CONTINUOUS
 62
     2
 10
25.217698401
 20
164.5
 30
0.25
 40
2.5
  1
両端のみ付属）
 50
0.0
 41
0.9
 51
0.0
  7
KANJI8
  0
LINE
  8
0
  6
CONTINUOUS
 62
     2
 10
31.0
 20
151.5
 30
0.0
 11
41.0
 21
151.5
 31
0.0
  0
LINE
  8
0
  6
CONTINUOUS
 62
     2
 10
39.0
 20
151.5
 30
0.0
 11
38.352952387
 21
149.085185434
 31
0.0
  0
LINE
  8
0
  6
CONTINUOUS
 62
     2
 10
39.0
 20
151.5
 30
0.0
 11
39.647047613
 21
149.085185434
 31
0.0
  0
LINE
  8
0
  6
CONTINUOUS
 62
     2
 10
39.0
 20
151.5
 30
0.0
 11
39.0
 21
76.5
 31
0.0
  0
LINE
  8
0
  6
CONTINUOUS
 62
     2
 10
39.0
 20
76.5
 30
0.0
 11
39.647047613
 21
78.914814566
 31
0.0
  0
LINE
  8
0
  6
CONTINUOUS
 62
     2
 10
39.0
 20
76.5
 30
0.0
 11
38.352952387
 21
78.914814566
 31
0.0
  0
LINE
  8
0
  6
CONTINUOUS
 62
     2
 10
31.0
 20
76.5
 30
0.0
 11
41.0
 21
76.5
 31
0.0
  0
TEXT
  8
0
  6
CONTINUOUS
 62
     2
 10
38.0
 20
111.0
 30
0.3
 40
3.0
  1
１５０
 50
90.0
 41
0.6
 51
0.0
  7
KANJI0
  0
LINE
  8
0
  6
LTYPE1
 62
     2
 10
33.7
 20
112.0
 30
0.0
 11
7.0
 21
112.0
 31
0.0
  0
LINE
  8
0
  6
CONTINUOUS
 62
     1
 10
151.0
 20
79.5
 30
0.0
 11
151.0
 21
144.5
 31
0.0
  0
LINE
  8
0
  6
CONTINUOUS
 62
     1
 10
150.35
 20
143.875
 30
0.0
 11
150.35
 21
80.125
 31
0.0
  0
LINE
  8
0
  6
CONTINUOUS
 62
     1
 10
69.0
 20
79.5
 30
0.0
 11
151.0
 21
79.5
 31
0.0
  0
LINE
  8
0
  6
CONTINUOUS
 62
     1
 10
151.0
 20
144.5
 30
0.0
 11
69.0
 21
144.5
 31
0.0
  0
LINE
  8
0
  6
CONTINUOUS
 62
     2
 10
151.0
 20
145.5
 30
0.0
 11
151.0
 21
168.0
 31
0.0
  0
CIRCLE
  8
0
  6
CONTINUOUS
 62
     2
 10
76.0
 20
142.0
 30
0.0
 40
0.99999
  0
LINE
  8
0
  6
CONTINUOUS
 62
     2
 10
75.68180513
 20
142.506754792
 30
0.0
 11
75.905720039
 21
142.282839884
 31
0.0
  0
ARC
  8
0
  6
CONTINUOUS
 62
     2
 10
76.0
 20
142.377119845
 30
0.0
 40
0.133332
 50
225.0
 51
315.0
  0
LINE
  8
0
  6
CONTINUOUS
 62
     2
 10
76.094279961
 20
142.282839884
 30
0.0
 11
76.31819487
 21
142.506754792
 31
0.0
  0
LINE
  8
0
  6
CONTINUOUS
 62
     2
 10
76.31819487
 20
142.506754792
 30
0.0
 11
76.506754792
 21
142.31819487
 31
0.0
  0
LINE
  8
0
  6
CONTINUOUS
 62
     2
 10
76.506754792
 20
142.31819487
 30
0.0
 11
76.282839884
 21
142.094279961
 31
0.0
  0
ARC
  8
0
  6
CONTINUOUS
 62
     2
 10
76.377119845
 20
142.0
 30
0.0
 40
0.133332
 50
135.0
 51
225.0
  0
LINE
  8
0
  6
CONTINUOUS
 62
     2
 10
76.282839884
 20
141.905720039
 30
0.0
 11
76.506754792
 21
141.68180513
 31
0.0
  0
LINE
  8
0
  6
CONTINUOUS
 62
     2
 10
76.506754792
 20
141.68180513
 30
0.0
 11
76.31819487
 21
141.493245208
 31
0.0
  0
LINE
  8
0
  6
CONTINUOUS
 62
     2
 10
76.31819487
 20
141.493245208
 30
0.0
 11
76.094279961
 21
141.717160116
 31
0.0
  0
ARC
  8
0
  6
CONTINUOUS
 62
     2
 10
76.0
 20
141.622880155
 30
0.0
 40
0.133332
 50
45.0
 51
135.0
  0
LINE
  8
0
  6
CONTINUOUS
 62
     2
 10
75.905720039
 20
141.717160116
 30
0.0
 11
75.68180513
 21
141.493245208
 31
0.0
  0
LINE
  8
0
  6
CONTINUOUS
 62
     2
 10
75.68180513
 20
141.493245208
 30
0.0
 11
75.493245208
 21
141.68180513
 31
0.0
  0
LINE
  8
0
  6
CONTINUOUS
 62
     2
 10
75.493245208
 20
141.68180513
 30
0.0
 11
75.717160116
 21
141.905720039
 31
0.0
  0
ARC
  8
0
  6
CONTINUOUS
 62
     2
 10
75.622880155
 20
142.0
 30
0.0
 40
0.133332
 50
315.0
 51
45.0
  0
LINE
  8
0
  6
CONTINUOUS
 62
     2
 10
75.717160116
 20
142.094279961
 30
0.0
 11
75.493245208
 21
142.31819487
 31
0.0
  0
LINE
  8
0
  6
CONTINUOUS
 62
     2
 10
75.493245208
 20
142.31819487
 30
0.0
 11
75.68180513
 21
142.506754792
 31
0.0
  0
CIRCLE
  8
0
  6
CONTINUOUS
 62
     2
 10
76.0
 20
82.0
 30
0.0
 40
0.99999
  0
LINE
  8
0
  6
CONTINUOUS
 62
     2
 10
75.68180513
 20
82.506754792
 30
0.0
 11
75.905720039
 21
82.282839884
 31
0.0
  0
ARC
  8
0
  6
CONTINUOUS
 62
     2
 10
76.0
 20
82.377119845
 30
0.0
 40
0.133332
 50
225.0
 51
315.0
  0
LINE
  8
0
  6
CONTINUOUS
 62
     2
 10
76.094279961
 20
82.282839884
 30
0.0
 11
76.31819487
 21
82.506754792
 31
0.0
  0
LINE
  8
0
  6
CONTINUOUS
 62
     2
 10
76.31819487
 20
82.506754792
 30
0.0
 11
76.506754792
 21
82.31819487
 31
0.0
  0
LINE
  8
0
  6
CONTINUOUS
 62
     2
 10
76.506754792
 20
82.31819487
 30
0.0
 11
76.282839884
 21
82.094279961
 31
0.0
  0
ARC
  8
0
  6
CONTINUOUS
 62
     2
 10
76.377119845
 20
82.0
 30
0.0
 40
0.133332
 50
135.0
 51
225.0
  0
LINE
  8
0
  6
CONTINUOUS
 62
     2
 10
76.282839884
 20
81.905720039
 30
0.0
 11
76.506754792
 21
81.68180513
 31
0.0
  0
LINE
  8
0
  6
CONTINUOUS
 62
     2
 10
76.506754792
 20
81.68180513
 30
0.0
 11
76.31819487
 21
81.493245208
 31
0.0
  0
LINE
  8
0
  6
CONTINUOUS
 62
     2
 10
76.31819487
 20
81.493245208
 30
0.0
 11
76.094279961
 21
81.717160116
 31
0.0
  0
ARC
  8
0
  6
CONTINUOUS
 62
     2
 10
76.0
 20
81.622880155
 30
0.0
 40
0.133332
 50
45.0
 51
135.0
  0
LINE
  8
0
  6
CONTINUOUS
 62
     2
 10
75.905720039
 20
81.717160116
 30
0.0
 11
75.68180513
 21
81.493245208
 31
0.0
  0
LINE
  8
0
  6
CONTINUOUS
 62
     2
 10
75.68180513
 20
81.493245208
 30
0.0
 11
75.493245208
 21
81.68180513
 31
0.0
  0
LINE
  8
0
  6
CONTINUOUS
 62
     2
 10
75.493245208
 20
81.68180513
 30
0.0
 11
75.717160116
 21
81.905720039
 31
0.0
  0
ARC
  8
0
  6
CONTINUOUS
 62
     2
 10
75.622880155
 20
82.0
 30
0.0
 40
0.133332
 50
315.0
 51
45.0
  0
LINE
  8
0
  6
CONTINUOUS
 62
     2
 10
75.717160116
 20
82.094279961
 30
0.0
 11
75.493245208
 21
82.31819487
 31
0.0
  0
LINE
  8
0
  6
CONTINUOUS
 62
     2
 10
75.493245208
 20
82.31819487
 30
0.0
 11
75.68180513
 21
82.506754792
 31
0.0
  0
CIRCLE
  8
0
  6
CONTINUOUS
 62
     2
 10
146.0
 20
82.0
 30
0.0
 40
0.99999
  0
LINE
  8
0
  6
CONTINUOUS
 62
     2
 10
145.68180513
 20
82.506754792
 30
0.0
 11
145.905720039
 21
82.282839884
 31
0.0
  0
ARC
  8
0
  6
CONTINUOUS
 62
     2
 10
146.0
 20
82.377119845
 30
0.0
 40
0.133332
 50
225.0
 51
315.0
  0
LINE
  8
0
  6
CONTINUOUS
 62
     2
 10
146.094279961
 20
82.282839884
 30
0.0
 11
146.31819487
 21
82.506754792
 31
0.0
  0
LINE
  8
0
  6
CONTINUOUS
 62
     2
 10
146.31819487
 20
82.506754792
 30
0.0
 11
146.506754792
 21
82.31819487
 31
0.0
  0
LINE
  8
0
  6
CONTINUOUS
 62
     2
 10
146.506754792
 20
82.31819487
 30
0.0
 11
146.282839884
 21
82.094279961
 31
0.0
  0
ARC
  8
0
  6
CONTINUOUS
 62
     2
 10
146.377119845
 20
82.0
 30
0.0
 40
0.133332
 50
135.0
 51
225.0
  0
LINE
  8
0
  6
CONTINUOUS
 62
     2
 10
146.282839884
 20
81.905720039
 30
0.0
 11
146.506754792
 21
81.68180513
 31
0.0
  0
LINE
  8
0
  6
CONTINUOUS
 62
     2
 10
146.506754792
 20
81.68180513
 30
0.0
 11
146.31819487
 21
81.493245208
 31
0.0
  0
LINE
  8
0
  6
CONTINUOUS
 62
     2
 10
146.31819487
 20
81.493245208
 30
0.0
 11
146.094279961
 21
81.717160116
 31
0.0
  0
ARC
  8
0
  6
CONTINUOUS
 62
     2
 10
146.0
 20
81.622880155
 30
0.0
 40
0.133332
 50
45.0
 51
135.0
  0
LINE
  8
0
  6
CONTINUOUS
 62
     2
 10
145.905720039
 20
81.717160116
 30
0.0
 11
145.68180513
 21
81.493245208
 31
0.0
  0
LINE
  8
0
  6
CONTINUOUS
 62
     2
 10
145.68180513
 20
81.493245208
 30
0.0
 11
145.493245208
 21
81.68180513
 31
0.0
  0
LINE
  8
0
  6
CONTINUOUS
 62
     2
 10
145.493245208
 20
81.68180513
 30
0.0
 11
145.717160116
 21
81.905720039
 31
0.0
  0
ARC
  8
0
  6
CONTINUOUS
 62
     2
 10
145.622880155
 20
82.0
 30
0.0
 40
0.133332
 50
315.0
 51
45.0
  0
LINE
  8
0
  6
CONTINUOUS
 62
     2
 10
145.717160116
 20
82.094279961
 30
0.0
 11
145.493245208
 21
82.31819487
 31
0.0
  0
LINE
  8
0
  6
CONTINUOUS
 62
     2
 10
145.493245208
 20
82.31819487
 30
0.0
 11
145.68180513
 21
82.506754792
 31
0.0
  0
CIRCLE
  8
0
  6
CONTINUOUS
 62
     2
 10
146.0
 20
142.0
 30
0.0
 40
0.99999
  0
LINE
  8
0
  6
CONTINUOUS
 62
     2
 10
145.68180513
 20
142.506754792
 30
0.0
 11
145.905720039
 21
142.282839884
 31
0.0
  0
ARC
  8
0
  6
CONTINUOUS
 62
     2
 10
146.0
 20
142.377119845
 30
0.0
 40
0.133332
 50
225.0
 51
315.0
  0
LINE
  8
0
  6
CONTINUOUS
 62
     2
 10
146.094279961
 20
142.282839884
 30
0.0
 11
146.31819487
 21
142.506754792
 31
0.0
  0
LINE
  8
0
  6
CONTINUOUS
 62
     2
 10
146.31819487
 20
142.506754792
 30
0.0
 11
146.506754792
 21
142.31819487
 31
0.0
  0
LINE
  8
0
  6
CONTINUOUS
 62
     2
 10
146.506754792
 20
142.31819487
 30
0.0
 11
146.282839884
 21
142.094279961
 31
0.0
  0
ARC
  8
0
  6
CONTINUOUS
 62
     2
 10
146.377119845
 20
142.0
 30
0.0
 40
0.133332
 50
135.0
 51
225.0
  0
LINE
  8
0
  6
CONTINUOUS
 62
     2
 10
146.282839884
 20
141.905720039
 30
0.0
 11
146.506754792
 21
141.68180513
 31
0.0
  0
LINE
  8
0
  6
CONTINUOUS
 62
     2
 10
146.506754792
 20
141.68180513
 30
0.0
 11
146.31819487
 21
141.493245208
 31
0.0
  0
LINE
  8
0
  6
CONTINUOUS
 62
     2
 10
146.31819487
 20
141.493245208
 30
0.0
 11
146.094279961
 21
141.717160116
 31
0.0
  0
ARC
  8
0
  6
CONTINUOUS
 62
     2
 10
146.0
 20
141.622880155
 30
0.0
 40
0.133332
 50
45.0
 51
135.0
  0
LINE
  8
0
  6
CONTINUOUS
 62
     2
 10
145.905720039
 20
141.717160116
 30
0.0
 11
145.68180513
 21
141.493245208
 31
0.0
  0
LINE
  8
0
  6
CONTINUOUS
 62
     2
 10
145.68180513
 20
141.493245208
 30
0.0
 11
145.493245208
 21
141.68180513
 31
0.0
  0
LINE
  8
0
  6
CONTINUOUS
 62
     2
 10
145.493245208
 20
141.68180513
 30
0.0
 11
145.717160116
 21
141.905720039
 31
0.0
  0
ARC
  8
0
  6
CONTINUOUS
 62
     2
 10
145.622880155
 20
142.0
 30
0.0
 40
0.133332
 50
315.0
 51
45.0
  0
LINE
  8
0
  6
CONTINUOUS
 62
     2
 10
145.717160116
 20
142.094279961
 30
0.0
 11
145.493245208
 21
142.31819487
 31
0.0
  0
LINE
  8
0
  6
CONTINUOUS
 62
     2
 10
145.493245208
 20
142.31819487
 30
0.0
 11
145.68180513
 21
142.506754792
 31
0.0
  0
LINE
  8
0
  6
LTYPE2
 62
     2
 10
66.5
 20
84.0
 30
0.0
 11
66.5
 21
80.0
 31
0.0
  0
LINE
  8
0
  6
LTYPE2
 62
     2
 10
64.5
 20
82.0
 30
0.0
 11
68.5
 21
82.0
 31
0.0
  0
LINE
  8
0
  6
LTYPE2
 62
     2
 10
74.00001
 20
82.0
 30
0.0
 11
78.00001
 21
82.0
 31
0.0
  0
LINE
  8
0
  6
LTYPE2
 62
     2
 10
76.00001
 20
84.0
 30
0.0
 11
76.00001
 21
80.0
 31
0.0
  0
LINE
  8
0
  6
LTYPE2
 62
     2
 10
76.00001
 20
140.0
 30
0.0
 11
76.00001
 21
144.0
 31
0.0
  0
LINE
  8
0
  6
LTYPE2
 62
     2
 10
74.00001
 20
142.0
 30
0.0
 11
78.00001
 21
142.0
 31
0.0
  0
LINE
  8
0
  6
LTYPE2
 62
     2
 10
64.5
 20
142.0
 30
0.0
 11
68.5
 21
142.0
 31
0.0
  0
LINE
  8
0
  6
LTYPE2
 62
     2
 10
66.5
 20
144.0
 30
0.0
 11
66.5
 21
140.0
 31
0.0
  0
LINE
  8
0
  6
LTYPE2
 62
     2
 10
146.0
 20
84.0
 30
0.0
 11
146.0
 21
80.0
 31
0.0
  0
LINE
  8
0
  6
LTYPE2
 62
     2
 10
144.0
 20
82.0
 30
0.0
 11
148.0
 21
82.0
 31
0.0
  0
LINE
  8
0
  6
LTYPE2
 62
     2
 10
146.0
 20
144.0
 30
0.0
 11
146.0
 21
140.0
 31
0.0
  0
LINE
  8
0
  6
LTYPE2
 62
     2
 10
144.0
 20
142.0
 30
0.0
 11
148.0
 21
142.0
 31
0.0
  0
LINE
  8
0
  6
CONTINUOUS
 62
     1
 10
153.75
 20
126.55
 30
0.0
 11
153.75
 21
122.45
 31
0.0
  0
LINE
  8
0
  6
CONTINUOUS
 62
     1
 10
153.75
 20
122.45
 30
0.0
 11
160.25
 21
122.45
 31
0.0
  0
LINE
  8
0
  6
CONTINUOUS
 62
     1
 10
160.25
 20
122.45
 30
0.0
 11
160.25
 21
121.55
 31
0.0
  0
LINE
  8
0
  6
CONTINUOUS
 62
     1
 10
160.25
 20
121.55
 30
0.0
 11
153.75
 21
121.55
 31
0.0
  0
LINE
  8
0
  6
CONTINUOUS
 62
     1
 10
153.75
 20
121.55
 30
0.0
 11
153.75
 21
117.45
 31
0.0
  0
LINE
  8
0
  6
CONTINUOUS
 62
     1
 10
153.75
 20
117.45
 30
0.0
 11
160.25
 21
117.45
 31
0.0
  0
LINE
  8
0
  6
CONTINUOUS
 62
     1
 10
160.25
 20
117.45
 30
0.0
 11
160.25
 21
116.55
 31
0.0
  0
LINE
  8
0
  6
CONTINUOUS
 62
     1
 10
160.25
 20
116.55
 30
0.0
 11
153.75
 21
116.55
 31
0.0
  0
LINE
  8
0
  6
CONTINUOUS
 62
     1
 10
153.75
 20
116.55
 30
0.0
 11
153.75
 21
112.45
 31
0.0
  0
LINE
  8
0
  6
CONTINUOUS
 62
     1
 10
153.75
 20
112.45
 30
0.0
 11
160.25
 21
112.45
 31
0.0
  0
LINE
  8
0
  6
CONTINUOUS
 62
     1
 10
160.25
 20
112.45
 30
0.0
 11
160.25
 21
111.55
 31
0.0
  0
LINE
  8
0
  6
CONTINUOUS
 62
     1
 10
160.25
 20
111.55
 30
0.0
 11
153.75
 21
111.55
 31
0.0
  0
LINE
  8
0
  6
CONTINUOUS
 62
     1
 10
153.75
 20
111.55
 30
0.0
 11
153.75
 21
107.45
 31
0.0
  0
LINE
  8
0
  6
CONTINUOUS
 62
     1
 10
153.75
 20
107.45
 30
0.0
 11
160.25
 21
107.45
 31
0.0
  0
LINE
  8
0
  6
CONTINUOUS
 62
     1
 10
160.25
 20
107.45
 30
0.0
 11
160.25
 21
106.55
 31
0.0
  0
LINE
  8
0
  6
CONTINUOUS
 62
     1
 10
160.25
 20
106.55
 30
0.0
 11
153.75
 21
106.55
 31
0.0
  0
LINE
  8
0
  6
CONTINUOUS
 62
     1
 10
153.75
 20
106.55
 30
0.0
 11
153.75
 21
102.45
 31
0.0
  0
LINE
  8
0
  6
CONTINUOUS
 62
     1
 10
153.75
 20
102.45
 30
0.0
 11
160.25
 21
102.45
 31
0.0
  0
LINE
  8
0
  6
CONTINUOUS
 62
     1
 10
160.25
 20
102.45
 30
0.0
 11
160.25
 21
101.55
 31
0.0
  0
LINE
  8
0
  6
CONTINUOUS
 62
     1
 10
160.25
 20
101.55
 30
0.0
 11
153.75
 21
101.55
 31
0.0
  0
LINE
  8
0
  6
CONTINUOUS
 62
     1
 10
153.75
 20
101.55
 30
0.0
 11
153.75
 21
97.45
 31
0.0
  0
LINE
  8
0
  6
CONTINUOUS
 62
     2
 10
155.75
 20
126.55
 30
0.0
 11
155.75
 21
122.45
 31
0.0
  0
LINE
  8
0
  6
CONTINUOUS
 62
     2
 10
156.15
 20
122.45
 30
0.0
 11
156.15
 21
126.55
 31
0.0
  0
LINE
  8
0
  6
CONTINUOUS
 62
     2
 10
156.15
 20
126.55
 30
0.0
 11
155.75
 21
126.55
 31
0.0
  0
LINE
  8
0
  6
CONTINUOUS
 62
     2
 10
155.75
 20
125.75
 30
0.0
 11
156.15
 21
125.75
 31
0.0
  0
LINE
  8
0
  6
CONTINUOUS
 62
     2
 10
155.75
 20
123.25
 30
0.0
 11
156.15
 21
123.25
 31
0.0
  0
LINE
  8
0
  6
CONTINUOUS
 62
     2
 10
155.75
 20
121.55
 30
0.0
 11
155.75
 21
117.45
 31
0.0
  0
LINE
  8
0
  6
CONTINUOUS
 62
     2
 10
156.15
 20
117.45
 30
0.0
 11
156.15
 21
121.55
 31
0.0
  0
LINE
  8
0
  6
CONTINUOUS
 62
     2
 10
155.75
 20
120.75
 30
0.0
 11
156.15
 21
120.75
 31
0.0
  0
LINE
  8
0
  6
CONTINUOUS
 62
     2
 10
155.75
 20
118.25
 30
0.0
 11
156.15
 21
118.25
 31
0.0
  0
LINE
  8
0
  6
CONTINUOUS
 62
     2
 10
155.75
 20
116.55
 30
0.0
 11
155.75
 21
112.45
 31
0.0
  0
LINE
  8
0
  6
CONTINUOUS
 62
     2
 10
156.15
 20
112.45
 30
0.0
 11
156.15
 21
116.55
 31
0.0
  0
LINE
  8
0
  6
CONTINUOUS
 62
     2
 10
155.75
 20
115.75
 30
0.0
 11
156.15
 21
115.75
 31
0.0
  0
LINE
  8
0
  6
CONTINUOUS
 62
     2
 10
155.75
 20
113.25
 30
0.0
 11
156.15
 21
113.25
 31
0.0
  0
LINE
  8
0
  6
CONTINUOUS
 62
     2
 10
155.75
 20
111.55
 30
0.0
 11
155.75
 21
107.45
 31
0.0
  0
LINE
  8
0
  6
CONTINUOUS
 62
     2
 10
155.75
 20
110.75
 30
0.0
 11
156.15
 21
110.75
 31
0.0
  0
LINE
  8
0
  6
CONTINUOUS
 62
     2
 10
155.75
 20
108.25
 30
0.0
 11
156.15
 21
108.25
 31
0.0
  0
LINE
  8
0
  6
CONTINUOUS
 62
     2
 10
155.75
 20
106.55
 30
0.0
 11
155.75
 21
102.45
 31
0.0
  0
LINE
  8
0
  6
CONTINUOUS
 62
     2
 10
155.75
 20
105.75
 30
0.0
 11
156.15
 21
105.75
 31
0.0
  0
LINE
  8
0
  6
CONTINUOUS
 62
     2
 10
155.75
 20
103.25
 30
0.0
 11
156.15
 21
103.25
 31
0.0
  0
LINE
  8
0
  6
CONTINUOUS
 62
     2
 10
155.75
 20
101.55
 30
0.0
 11
155.75
 21
97.45
 31
0.0
  0
LINE
  8
0
  6
CONTINUOUS
 62
     2
 10
156.15
 20
97.45
 30
0.0
 11
156.15
 21
101.55
 31
0.0
  0
LINE
  8
0
  6
CONTINUOUS
 62
     2
 10
155.75
 20
100.75
 30
0.0
 11
156.15
 21
100.75
 31
0.0
  0
LINE
  8
0
  6
CONTINUOUS
 62
     2
 10
155.75
 20
98.25
 30
0.0
 11
156.15
 21
98.25
 31
0.0
  0
LINE
  8
0
  6
CONTINUOUS
 62
     2
 10
158.85
 20
122.45
 30
0.0
 11
158.85
 21
121.55
 31
0.0
  0
LINE
  8
0
  6
CONTINUOUS
 62
     2
 10
159.35
 20
121.55
 30
0.0
 11
159.35
 21
122.45
 31
0.0
  0
LINE
  8
0
  6
CONTINUOUS
 62
     2
 10
158.25
 20
122.45
 30
0.0
 11
158.25
 21
121.55
 31
0.0
  0
LINE
  8
0
  6
CONTINUOUS
 62
     2
 10
158.85
 20
117.45
 30
0.0
 11
158.85
 21
116.55
 31
0.0
  0
LINE
  8
0
  6
CONTINUOUS
 62
     2
 10
159.35
 20
116.55
 30
0.0
 11
159.35
 21
117.45
 31
0.0
  0
LINE
  8
0
  6
CONTINUOUS
 62
     2
 10
158.25
 20
117.45
 30
0.0
 11
158.25
 21
116.55
 31
0.0
  0
LINE
  8
0
  6
CONTINUOUS
 62
     2
 10
158.85
 20
112.45
 30
0.0
 11
158.85
 21
111.55
 31
0.0
  0
LINE
  8
0
  6
CONTINUOUS
 62
     2
 10
159.35
 20
111.55
 30
0.0
 11
159.35
 21
112.45
 31
0.0
  0
LINE
  8
0
  6
CONTINUOUS
 62
     2
 10
158.25
 20
112.45
 30
0.0
 11
158.25
 21
111.55
 31
0.0
  0
LINE
  8
0
  6
CONTINUOUS
 62
     2
 10
158.85
 20
107.45
 30
0.0
 11
158.85
 21
106.55
 31
0.0
  0
LINE
  8
0
  6
CONTINUOUS
 62
     2
 10
159.35
 20
106.55
 30
0.0
 11
159.35
 21
107.45
 31
0.0
  0
LINE
  8
0
  6
CONTINUOUS
 62
     2
 10
158.25
 20
107.45
 30
0.0
 11
158.25
 21
106.55
 31
0.0
  0
LINE
  8
0
  6
CONTINUOUS
 62
     2
 10
158.85
 20
102.45
 30
0.0
 11
158.85
 21
101.55
 31
0.0
  0
LINE
  8
0
  6
CONTINUOUS
 62
     2
 10
159.35
 20
101.55
 30
0.0
 11
159.35
 21
102.45
 31
0.0
  0
LINE
  8
0
  6
CONTINUOUS
 62
     2
 10
158.25
 20
102.45
 30
0.0
 11
158.25
 21
101.55
 31
0.0
  0
LINE
  8
0
  6
CONTINUOUS
 62
     2
 10
156.54
 20
125.83
 30
0.0
 11
156.54
 21
123.17
 31
0.0
  0
LINE
  8
0
  6
CONTINUOUS
 62
     2
 10
156.85
 20
123.19
 30
0.0
 11
156.54
 21
123.17
 31
0.0
  0
LINE
  8
0
  6
CONTINUOUS
 62
     2
 10
156.54
 20
125.83
 30
0.0
 11
156.85
 21
125.83
 31
0.0
  0
LINE
  8
0
  6
CONTINUOUS
 62
     2
 10
157.59
 20
125.08
 30
0.0
 11
157.59
 21
123.92
 31
0.0
  0
ARC
  8
0
  6
CONTINUOUS
 62
     2
 10
156.84
 20
125.08
 30
0.0
 40
0.75
 50
0.0
 51
90.0
  0
ARC
  8
0
  6
CONTINUOUS
 62
     2
 10
156.84
 20
123.92
 30
0.0
 40
0.75
 50
268.472474559
 51
0.0
  0
LINE
  8
0
  6
CONTINUOUS
 62
     2
 10
156.53
 20
125.85
 30
0.0
 11
156.15
 21
125.85
 31
0.0
  0
LINE
  8
0
  6
CONTINUOUS
 62
     2
 10
156.15
 20
125.85
 30
0.0
 11
156.15
 21
123.17
 31
0.0
  0
LINE
  8
0
  6
CONTINUOUS
 62
     2
 10
156.15
 20
123.17
 30
0.0
 11
156.53
 21
123.17
 31
0.0
  0
LINE
  8
0
  6
CONTINUOUS
 62
     2
 10
156.15
 20
124.38
 30
0.0
 11
156.53
 21
124.69
 31
0.0
  0
LINE
  8
0
  6
CONTINUOUS
 62
     2
 10
156.15
 20
124.14
 30
0.0
 11
156.54
 21
124.43
 31
0.0
  0
LINE
  8
0
  6
CONTINUOUS
 62
     2
 10
157.59
 20
124.71
 30
0.0
 11
157.52
 21
124.71
 31
0.0
  0
LINE
  8
0
  6
CONTINUOUS
 62
     2
 10
157.52
 20
124.72
 30
0.0
 11
157.52
 21
124.34
 31
0.0
  0
LINE
  8
0
  6
CONTINUOUS
 62
     2
 10
157.52
 20
124.34
 30
0.0
 11
157.58
 21
124.34
 31
0.0
  0
LINE
  8
0
  6
CONTINUOUS
 62
     2
 10
156.54
 20
120.83
 30
0.0
 11
156.54
 21
118.17
 31
0.0
  0
LINE
  8
0
  6
CONTINUOUS
 62
     2
 10
156.85
 20
118.19
 30
0.0
 11
156.54
 21
118.17
 31
0.0
  0
LINE
  8
0
  6
CONTINUOUS
 62
     2
 10
156.54
 20
120.83
 30
0.0
 11
156.85
 21
120.83
 31
0.0
  0
LINE
  8
0
  6
CONTINUOUS
 62
     2
 10
157.59
 20
120.08
 30
0.0
 11
157.59
 21
118.92
 31
0.0
  0
ARC
  8
0
  6
CONTINUOUS
 62
     2
 10
156.84
 20
120.08
 30
0.0
 40
0.75
 50
0.0
 51
90.0
  0
ARC
  8
0
  6
CONTINUOUS
 62
     2
 10
156.84
 20
118.92
 30
0.0
 40
0.75
 50
268.472474559
 51
0.0
  0
LINE
  8
0
  6
CONTINUOUS
 62
     2
 10
156.53
 20
120.85
 30
0.0
 11
156.15
 21
120.85
 31
0.0
  0
LINE
  8
0
  6
CONTINUOUS
 62
     2
 10
156.15
 20
120.85
 30
0.0
 11
156.15
 21
118.17
 31
0.0
  0
LINE
  8
0
  6
CONTINUOUS
 62
     2
 10
156.15
 20
118.17
 30
0.0
 11
156.53
 21
118.17
 31
0.0
  0
LINE
  8
0
  6
CONTINUOUS
 62
     2
 10
156.15
 20
119.38
 30
0.0
 11
156.53
 21
119.69
 31
0.0
  0
LINE
  8
0
  6
CONTINUOUS
 62
     2
 10
156.15
 20
119.14
 30
0.0
 11
156.54
 21
119.43
 31
0.0
  0
LINE
  8
0
  6
CONTINUOUS
 62
     2
 10
157.59
 20
119.71
 30
0.0
 11
157.52
 21
119.71
 31
0.0
  0
LINE
  8
0
  6
CONTINUOUS
 62
     2
 10
157.52
 20
119.72
 30
0.0
 11
157.52
 21
119.34
 31
0.0
  0
LINE
  8
0
  6
CONTINUOUS
 62
     2
 10
157.52
 20
119.34
 30
0.0
 11
157.58
 21
119.34
 31
0.0
  0
LINE
  8
0
  6
CONTINUOUS
 62
     2
 10
156.54
 20
115.83
 30
0.0
 11
156.54
 21
113.17
 31
0.0
  0
LINE
  8
0
  6
CONTINUOUS
 62
     2
 10
156.85
 20
113.19
 30
0.0
 11
156.54
 21
113.17
 31
0.0
  0
LINE
  8
0
  6
CONTINUOUS
 62
     2
 10
156.54
 20
115.83
 30
0.0
 11
156.85
 21
115.83
 31
0.0
  0
LINE
  8
0
  6
CONTINUOUS
 62
     2
 10
157.59
 20
115.08
 30
0.0
 11
157.59
 21
113.92
 31
0.0
  0
ARC
  8
0
  6
CONTINUOUS
 62
     2
 10
156.84
 20
115.08
 30
0.0
 40
0.75
 50
0.0
 51
90.0
  0
ARC
  8
0
  6
CONTINUOUS
 62
     2
 10
156.84
 20
113.92
 30
0.0
 40
0.75
 50
268.472474559
 51
0.0
  0
LINE
  8
0
  6
CONTINUOUS
 62
     2
 10
156.53
 20
115.85
 30
0.0
 11
156.15
 21
115.85
 31
0.0
  0
LINE
  8
0
  6
CONTINUOUS
 62
     2
 10
156.15
 20
115.85
 30
0.0
 11
156.15
 21
113.17
 31
0.0
  0
LINE
  8
0
  6
CONTINUOUS
 62
     2
 10
156.15
 20
113.17
 30
0.0
 11
156.53
 21
113.17
 31
0.0
  0
LINE
  8
0
  6
CONTINUOUS
 62
     2
 10
156.15
 20
114.38
 30
0.0
 11
156.53
 21
114.69
 31
0.0
  0
LINE
  8
0
  6
CONTINUOUS
 62
     2
 10
156.15
 20
114.14
 30
0.0
 11
156.54
 21
114.43
 31
0.0
  0
LINE
  8
0
  6
CONTINUOUS
 62
     2
 10
157.59
 20
114.71
 30
0.0
 11
157.52
 21
114.71
 31
0.0
  0
LINE
  8
0
  6
CONTINUOUS
 62
     2
 10
157.52
 20
114.72
 30
0.0
 11
157.52
 21
114.34
 31
0.0
  0
LINE
  8
0
  6
CONTINUOUS
 62
     2
 10
157.52
 20
114.34
 30
0.0
 11
157.58
 21
114.34
 31
0.0
  0
LINE
  8
0
  6
CONTINUOUS
 62
     2
 10
156.54
 20
110.83
 30
0.0
 11
156.54
 21
108.17
 31
0.0
  0
LINE
  8
0
  6
CONTINUOUS
 62
     2
 10
156.85
 20
108.19
 30
0.0
 11
156.54
 21
108.17
 31
0.0
  0
LINE
  8
0
  6
CONTINUOUS
 62
     2
 10
156.54
 20
110.83
 30
0.0
 11
156.85
 21
110.83
 31
0.0
  0
LINE
  8
0
  6
CONTINUOUS
 62
     2
 10
157.59
 20
110.08
 30
0.0
 11
157.59
 21
108.92
 31
0.0
  0
ARC
  8
0
  6
CONTINUOUS
 62
     2
 10
156.84
 20
110.08
 30
0.0
 40
0.75
 50
0.0
 51
90.0
  0
ARC
  8
0
  6
CONTINUOUS
 62
     2
 10
156.84
 20
108.92
 30
0.0
 40
0.75
 50
268.472474559
 51
0.0
  0
LINE
  8
0
  6
CONTINUOUS
 62
     2
 10
156.53
 20
110.85
 30
0.0
 11
156.15
 21
110.85
 31
0.0
  0
LINE
  8
0
  6
CONTINUOUS
 62
     2
 10
156.15
 20
110.85
 30
0.0
 11
156.15
 21
108.17
 31
0.0
  0
LINE
  8
0
  6
CONTINUOUS
 62
     2
 10
156.15
 20
108.17
 30
0.0
 11
156.53
 21
108.17
 31
0.0
  0
LINE
  8
0
  6
CONTINUOUS
 62
     2
 10
156.15
 20
109.38
 30
0.0
 11
156.53
 21
109.69
 31
0.0
  0
LINE
  8
0
  6
CONTINUOUS
 62
     2
 10
156.15
 20
109.14
 30
0.0
 11
156.54
 21
109.43
 31
0.0
  0
LINE
  8
0
  6
CONTINUOUS
 62
     2
 10
157.59
 20
109.71
 30
0.0
 11
157.52
 21
109.71
 31
0.0
  0
LINE
  8
0
  6
CONTINUOUS
 62
     2
 10
157.52
 20
109.72
 30
0.0
 11
157.52
 21
109.34
 31
0.0
  0
LINE
  8
0
  6
CONTINUOUS
 62
     2
 10
157.52
 20
109.34
 30
0.0
 11
157.58
 21
109.34
 31
0.0
  0
LINE
  8
0
  6
CONTINUOUS
 62
     2
 10
156.54
 20
105.83
 30
0.0
 11
156.54
 21
103.17
 31
0.0
  0
LINE
  8
0
  6
CONTINUOUS
 62
     2
 10
156.85
 20
103.19
 30
0.0
 11
156.54
 21
103.17
 31
0.0
  0
LINE
  8
0
  6
CONTINUOUS
 62
     2
 10
156.54
 20
105.83
 30
0.0
 11
156.85
 21
105.83
 31
0.0
  0
LINE
  8
0
  6
CONTINUOUS
 62
     2
 10
157.59
 20
105.08
 30
0.0
 11
157.59
 21
103.92
 31
0.0
  0
ARC
  8
0
  6
CONTINUOUS
 62
     2
 10
156.84
 20
105.08
 30
0.0
 40
0.75
 50
0.0
 51
90.0
  0
ARC
  8
0
  6
CONTINUOUS
 62
     2
 10
156.84
 20
103.92
 30
0.0
 40
0.75
 50
268.472474559
 51
0.0
  0
LINE
  8
0
  6
CONTINUOUS
 62
     2
 10
156.53
 20
105.85
 30
0.0
 11
156.15
 21
105.85
 31
0.0
  0
LINE
  8
0
  6
CONTINUOUS
 62
     2
 10
156.15
 20
105.85
 30
0.0
 11
156.15
 21
103.17
 31
0.0
  0
LINE
  8
0
  6
CONTINUOUS
 62
     2
 10
156.15
 20
103.17
 30
0.0
 11
156.53
 21
103.17
 31
0.0
  0
LINE
  8
0
  6
CONTINUOUS
 62
     2
 10
156.15
 20
104.38
 30
0.0
 11
156.53
 21
104.69
 31
0.0
  0
LINE
  8
0
  6
CONTINUOUS
 62
     2
 10
156.15
 20
104.14
 30
0.0
 11
156.54
 21
104.43
 31
0.0
  0
LINE
  8
0
  6
CONTINUOUS
 62
     2
 10
157.59
 20
104.71
 30
0.0
 11
157.52
 21
104.71
 31
0.0
  0
LINE
  8
0
  6
CONTINUOUS
 62
     2
 10
157.52
 20
104.72
 30
0.0
 11
157.52
 21
104.34
 31
0.0
  0
LINE
  8
0
  6
CONTINUOUS
 62
     2
 10
157.52
 20
104.34
 30
0.0
 11
157.58
 21
104.34
 31
0.0
  0
LINE
  8
0
  6
CONTINUOUS
 62
     2
 10
156.54
 20
100.83
 30
0.0
 11
156.54
 21
98.17
 31
0.0
  0
LINE
  8
0
  6
CONTINUOUS
 62
     2
 10
156.85
 20
98.19
 30
0.0
 11
156.54
 21
98.17
 31
0.0
  0
LINE
  8
0
  6
CONTINUOUS
 62
     2
 10
156.54
 20
100.83
 30
0.0
 11
156.85
 21
100.83
 31
0.0
  0
LINE
  8
0
  6
CONTINUOUS
 62
     2
 10
157.59
 20
100.08
 30
0.0
 11
157.59
 21
98.92
 31
0.0
  0
ARC
  8
0
  6
CONTINUOUS
 62
     2
 10
156.84
 20
100.08
 30
0.0
 40
0.75
 50
0.0
 51
90.0
  0
ARC
  8
0
  6
CONTINUOUS
 62
     2
 10
156.84
 20
98.92
 30
0.0
 40
0.75
 50
268.472474559
 51
0.0
  0
LINE
  8
0
  6
CONTINUOUS
 62
     2
 10
156.53
 20
100.85
 30
0.0
 11
156.15
 21
100.85
 31
0.0
  0
LINE
  8
0
  6
CONTINUOUS
 62
     2
 10
156.15
 20
100.85
 30
0.0
 11
156.15
 21
98.17
 31
0.0
  0
LINE
  8
0
  6
CONTINUOUS
 62
     2
 10
156.15
 20
98.17
 30
0.0
 11
156.53
 21
98.17
 31
0.0
  0
LINE
  8
0
  6
CONTINUOUS
 62
     2
 10
156.15
 20
99.38
 30
0.0
 11
156.53
 21
99.69
 31
0.0
  0
LINE
  8
0
  6
CONTINUOUS
 62
     2
 10
156.15
 20
99.14
 30
0.0
 11
156.54
 21
99.43
 31
0.0
  0
LINE
  8
0
  6
CONTINUOUS
 62
     2
 10
157.59
 20
99.71
 30
0.0
 11
157.52
 21
99.71
 31
0.0
  0
LINE
  8
0
  6
CONTINUOUS
 62
     2
 10
157.52
 20
99.72
 30
0.0
 11
157.52
 21
99.34
 31
0.0
  0
LINE
  8
0
  6
CONTINUOUS
 62
     2
 10
157.52
 20
99.34
 30
0.0
 11
157.58
 21
99.34
 31
0.0
  0
LINE
  8
0
  6
CONTINUOUS
 62
     2
 10
155.75
 20
97.45
 30
0.0
 11
156.15
 21
97.45
 31
0.0
  0
LINE
  8
0
  6
CONTINUOUS
 62
     1
 10
153.75
 20
97.45
 30
0.0
 11
151.0
 21
97.45
 31
0.0
  0
LINE
  8
0
  6
CONTINUOUS
 62
     1
 10
151.0
 20
97.45
 30
0.0
 11
151.0
 21
126.55
 31
0.0
  0
LINE
  8
0
  6
CONTINUOUS
 62
     1
 10
151.0
 20
126.55
 30
0.0
 11
153.75
 21
126.55
 31
0.0
  0
LINE
  8
0
  6
CONTINUOUS
 62
     2
 10
153.75
 20
126.55
 30
0.0
 11
155.75
 21
126.55
 31
0.0
  0
LINE
  8
0
  6
CONTINUOUS
 62
     2
 10
153.75
 20
97.45
 30
0.0
 11
155.75
 21
97.45
 31
0.0
  0
LINE
  8
0
  6
CONTINUOUS
 62
     2
 10
160.7
 20
101.4
 30
0.0
 11
159.0
 21
101.4
 31
0.0
  0
LINE
  8
0
  6
CONTINUOUS
 62
     2
 10
160.7
 20
122.6
 30
0.0
 11
160.7
 21
101.4
 31
0.0
  0
LINE
  8
0
  6
CONTINUOUS
 62
     2
 10
159.0
 20
101.4
 30
0.0
 11
159.0
 21
122.6
 31
0.0
  0
LINE
  8
0
  6
CONTINUOUS
 62
     2
 10
159.0
 20
122.6
 30
0.0
 11
160.7
 21
122.6
 31
0.0
  0
LINE
  8
0
  6
CONTINUOUS
 62
     2
 10
161.25
 20
121.55
 30
0.0
 11
167.25
 21
121.55
 31
0.0
  0
LINE
  8
0
  6
CONTINUOUS
 62
     2
 10
165.25
 20
121.55
 30
0.0
 11
165.897047613
 21
123.964814566
 31
0.0
  0
LINE
  8
0
  6
CONTINUOUS
 62
     2
 10
165.25
 20
121.55
 30
0.0
 11
164.602952387
 21
123.964814566
 31
0.0
  0
LINE
  8
0
  6
CONTINUOUS
 62
     2
 10
165.25
 20
125.3
 30
0.0
 11
165.25
 21
121.55
 31
0.0
  0
LINE
  8
0
  6
CONTINUOUS
 62
     2
 10
165.25
 20
121.55
 30
0.0
 11
165.25
 21
117.45
 31
0.0
  0
LINE
  8
0
  6
CONTINUOUS
 62
     2
 10
165.25
 20
117.45
 30
0.0
 11
165.25
 21
113.7
 31
0.0
  0
LINE
  8
0
  6
CONTINUOUS
 62
     2
 10
165.25
 20
117.45
 30
0.0
 11
164.602952387
 21
115.035185434
 31
0.0
  0
LINE
  8
0
  6
CONTINUOUS
 62
     2
 10
165.25
 20
117.45
 30
0.0
 11
165.897047613
 21
115.035185434
 31
0.0
  0
LINE
  8
0
  6
CONTINUOUS
 62
     2
 10
161.25
 20
117.45
 30
0.0
 11
167.25
 21
117.45
 31
0.0
  0
TEXT
  8
0
  6
CONTINUOUS
 62
     2
 10
164.25
 20
117.5
 30
0.2
 40
3.0
  1
８．２
 50
90.0
 41
0.5
 51
0.0
  7
KANJI9
  0
LINE
  8
0
  6
CONTINUOUS
 62
     2
 10
157.59
 20
114.568282402
 30
0.0
 11
158.237047613
 21
112.153467837
 31
0.0
  0
LINE
  8
0
  6
CONTINUOUS
 62
     2
 10
157.59
 20
114.568282402
 30
0.0
 11
159.357766953
 21
112.800515449
 31
0.0
  0
LINE
  8
0
  6
CONTINUOUS
 62
     2
 10
157.59
 20
114.568282402
 30
0.0
 11
161.631451884
 21
107.568282402
 31
0.0
  0
TEXT
  8
0
  6
CONTINUOUS
 62
     2
 10
161.631451884
 20
108.568282402
 30
0.3
 40
3.0
  1
Ｍ３ネジ
 50
0.0
 41
0.6
 51
0.0
  7
KANJI0
  0
LINE
  8
0
  6
CONTINUOUS
 62
     2
 10
161.631451884
 20
107.568282402
 30
0.0
 11
169.631451884
 21
107.568282402
 31
0.0
  0
LINE
  8
0
  6
CONTINUOUS
 62
     2
 10
160.7
 20
103.650961894
 30
0.0
 11
161.347047613
 21
101.236147329
 31
0.0
  0
LINE
  8
0
  6
CONTINUOUS
 62
     2
 10
160.7
 20
103.650961894
 30
0.0
 11
162.467766953
 21
101.883194941
 31
0.0
  0
TEXT
  8
0
  6
CONTINUOUS
 62
     2
 10
163.586751346
 20
99.650961894
 30
0.3
 40
3.0
  1
端子カバー
 50
0.0
 41
0.666666667
 51
0.0
  7
KANJI10
  0
LINE
  8
0
  6
CONTINUOUS
 62
     2
 10
163.586751346
 20
98.650961894
 30
0.0
 11
174.786751346
 21
98.650961894
 31
0.0
  0
LINE
  8
0
  6
CONTINUOUS
 62
     2
 10
160.7
 20
103.650961894
 30
0.0
 11
163.586751346
 21
98.650961894
 31
0.0
  0
LINE
  8
0
  6
CONTINUOUS
 62
     2
 10
175.281803249
 20
79.5
 30
0.0
 11
175.928850862
 21
81.914814566
 31
0.0
  0
LINE
  8
0
  6
CONTINUOUS
 62
     2
 10
175.281803249
 20
79.5
 30
0.0
 11
174.634755636
 21
81.914814566
 31
0.0
  0
LINE
  8
0
  6
CONTINUOUS
 62
     2
 10
175.281803249
 20
79.5
 30
0.0
 11
175.281803249
 21
144.5
 31
0.0
  0
LINE
  8
0
  6
CONTINUOUS
 62
     2
 10
152.0
 20
79.5
 30
0.0
 11
177.281803249
 21
79.5
 31
0.0
  0
LINE
  8
0
  6
CONTINUOUS
 62
     2
 10
175.281803249
 20
144.5
 30
0.0
 11
174.634755636
 21
142.085185434
 31
0.0
  0
LINE
  8
0
  6
CONTINUOUS
 62
     2
 10
175.281803249
 20
144.5
 30
0.0
 11
175.928850862
 21
142.085185434
 31
0.0
  0
LINE
  8
0
  6
CONTINUOUS
 62
     2
 10
152.0
 20
144.5
 30
0.0
 11
177.281803249
 21
144.5
 31
0.0
  0
TEXT
  8
0
  6
CONTINUOUS
 62
     2
 10
174.281803249
 20
116.0
 30
0.3
 40
3.0
  1
１３０
 50
90.0
 41
0.6
 51
0.0
  7
KANJI0
  0
LINE
  8
0
  6
CONTINUOUS
 62
     2
 10
160.7
 20
123.5
 30
0.0
 11
160.7
 21
168.0
 31
0.0
  0
TEXT
  8
0
  6
CONTINUOUS
 62
     2
 10
152.75
 20
167.0
 30
0.3
 40
3.0
  1
１９．５
 50
0.0
 41
0.6
 51
0.0
  7
KANJI0
  0
LINE
  8
0
  6
CONTINUOUS
 62
     1
 10
182.0
 20
79.5
 30
0.0
 11
200.0
 21
79.5
 31
0.0
  0
LINE
  8
0
  6
CONTINUOUS
 62
     1
 10
200.0
 20
79.5
 30
0.0
 11
200.0
 21
144.5
 31
0.0
  0
LINE
  8
0
  6
CONTINUOUS
 62
     1
 10
200.0
 20
144.5
 30
0.0
 11
182.0
 21
144.5
 31
0.0
  0
LINE
  8
0
  6
CONTINUOUS
 62
     1
 10
182.0
 20
144.5
 30
0.0
 11
182.0
 21
79.5
 31
0.0
  0
LINE
  8
0
  6
CONTINUOUS
 62
     2
 10
183.0
 20
144.0
 30
0.0
 11
199.0
 21
144.0
 31
0.0
  0
LINE
  8
0
  6
CONTINUOUS
 62
     2
 10
183.0
 20
144.0
 30
0.0
 11
183.0
 21
130.5
 31
0.0
  0
LINE
  8
0
  6
CONTINUOUS
 62
     2
 10
183.0
 20
130.5
 30
0.0
 11
199.0
 21
130.5
 31
0.0
  0
LINE
  8
0
  6
CONTINUOUS
 62
     2
 10
199.0
 20
130.5
 30
0.0
 11
199.0
 21
144.0
 31
0.0
  0
TEXT
  8
0
  6
CONTINUOUS
 62
     2
 10
185.0
 20
138.0
 30
0.3
 40
3.0
  1
貼　銘　板
 50
0.0
 41
0.9
 51
0.0
  7
KANJI2
  0
TEXT
  8
0
  6
CONTINUOUS
 62
     2
 10
182.4
 20
134.0
 30
0.3
 40
3.0
  1
（表示事項）
 50
0.0
 41
0.9
 51
0.0
  7
KANJI2
  0
LINE
  8
0
  6
CONTINUOUS
 62
     1
 10
188.0
 20
97.45
 30
0.0
 11
188.0
 21
101.55
 31
0.0
  0
LINE
  8
0
  6
CONTINUOUS
 62
     1
 10
194.0
 20
101.55
 30
0.0
 11
194.0
 21
97.45
 31
0.0
  0
LINE
  8
0
  6
CONTINUOUS
 62
     1
 10
195.25
 20
101.55
 30
0.0
 11
186.75
 21
101.55
 31
0.0
  0
LINE
  8
0
  6
CONTINUOUS
 62
     1
 10
186.75
 20
102.45
 30
0.0
 11
195.25
 21
102.45
 31
0.0
  0
LINE
  8
0
  6
CONTINUOUS
 62
     1
 10
195.25
 20
102.45
 30
0.0
 11
195.25
 21
101.55
 31
0.0
  0
LINE
  8
0
  6
CONTINUOUS
 62
     1
 10
186.75
 20
102.45
 30
0.0
 11
186.75
 21
101.55
 31
0.0
  0
LINE
  8
0
  6
CONTINUOUS
 62
     1
 10
186.75
 20
101.55
 30
0.0
 11
186.75
 21
97.45
 31
0.0
  0
LINE
  8
0
  6
CONTINUOUS
 62
     1
 10
195.25
 20
97.45
 30
0.0
 11
195.25
 21
101.55
 31
0.0
  0
LINE
  8
0
  6
CONTINUOUS
 62
     1
 10
188.0
 20
102.45
 30
0.0
 11
188.0
 21
106.55
 31
0.0
  0
LINE
  8
0
  6
CONTINUOUS
 62
     1
 10
194.0
 20
106.55
 30
0.0
 11
194.0
 21
102.45
 31
0.0
  0
LINE
  8
0
  6
CONTINUOUS
 62
     1
 10
195.25
 20
106.55
 30
0.0
 11
186.75
 21
106.55
 31
0.0
  0
LINE
  8
0
  6
CONTINUOUS
 62
     1
 10
186.75
 20
107.45
 30
0.0
 11
195.25
 21
107.45
 31
0.0
  0
LINE
  8
0
  6
CONTINUOUS
 62
     1
 10
195.25
 20
107.45
 30
0.0
 11
195.25
 21
106.55
 31
0.0
  0
LINE
  8
0
  6
CONTINUOUS
 62
     1
 10
186.75
 20
107.45
 30
0.0
 11
186.75
 21
106.55
 31
0.0
  0
LINE
  8
0
  6
CONTINUOUS
 62
     1
 10
186.75
 20
106.55
 30
0.0
 11
186.75
 21
102.45
 31
0.0
  0
LINE
  8
0
  6
CONTINUOUS
 62
     1
 10
195.25
 20
102.45
 30
0.0
 11
195.25
 21
106.55
 31
0.0
  0
LINE
  8
0
  6
CONTINUOUS
 62
     1
 10
188.0
 20
107.45
 30
0.0
 11
188.0
 21
111.55
 31
0.0
  0
LINE
  8
0
  6
CONTINUOUS
 62
     1
 10
194.0
 20
111.55
 30
0.0
 11
194.0
 21
107.45
 31
0.0
  0
LINE
  8
0
  6
CONTINUOUS
 62
     1
 10
195.25
 20
111.55
 30
0.0
 11
186.75
 21
111.55
 31
0.0
  0
LINE
  8
0
  6
CONTINUOUS
 62
     1
 10
186.75
 20
112.45
 30
0.0
 11
195.25
 21
112.45
 31
0.0
  0
LINE
  8
0
  6
CONTINUOUS
 62
     1
 10
195.25
 20
112.45
 30
0.0
 11
195.25
 21
111.55
 31
0.0
  0
LINE
  8
0
  6
CONTINUOUS
 62
     1
 10
186.75
 20
112.45
 30
0.0
 11
186.75
 21
111.55
 31
0.0
  0
LINE
  8
0
  6
CONTINUOUS
 62
     1
 10
186.75
 20
111.55
 30
0.0
 11
186.75
 21
107.45
 31
0.0
  0
LINE
  8
0
  6
CONTINUOUS
 62
     1
 10
195.25
 20
107.45
 30
0.0
 11
195.25
 21
111.55
 31
0.0
  0
LINE
  8
0
  6
CONTINUOUS
 62
     1
 10
188.0
 20
112.45
 30
0.0
 11
188.0
 21
116.55
 31
0.0
  0
LINE
  8
0
  6
CONTINUOUS
 62
     1
 10
194.0
 20
116.55
 30
0.0
 11
194.0
 21
112.45
 31
0.0
  0
LINE
  8
0
  6
CONTINUOUS
 62
     1
 10
195.25
 20
116.55
 30
0.0
 11
186.75
 21
116.55
 31
0.0
  0
LINE
  8
0
  6
CONTINUOUS
 62
     1
 10
186.75
 20
117.45
 30
0.0
 11
195.25
 21
117.45
 31
0.0
  0
LINE
  8
0
  6
CONTINUOUS
 62
     1
 10
195.25
 20
117.45
 30
0.0
 11
195.25
 21
116.55
 31
0.0
  0
LINE
  8
0
  6
CONTINUOUS
 62
     1
 10
186.75
 20
117.45
 30
0.0
 11
186.75
 21
116.55
 31
0.0
  0
LINE
  8
0
  6
CONTINUOUS
 62
     1
 10
186.75
 20
116.55
 30
0.0
 11
186.75
 21
112.45
 31
0.0
  0
LINE
  8
0
  6
CONTINUOUS
 62
     1
 10
195.25
 20
112.45
 30
0.0
 11
195.25
 21
116.55
 31
0.0
  0
LINE
  8
0
  6
CONTINUOUS
 62
     1
 10
188.0
 20
117.45
 30
0.0
 11
188.0
 21
121.55
 31
0.0
  0
LINE
  8
0
  6
CONTINUOUS
 62
     1
 10
194.0
 20
121.55
 30
0.0
 11
194.0
 21
117.45
 31
0.0
  0
LINE
  8
0
  6
CONTINUOUS
 62
     1
 10
195.25
 20
121.55
 30
0.0
 11
186.75
 21
121.55
 31
0.0
  0
LINE
  8
0
  6
CONTINUOUS
 62
     1
 10
186.75
 20
122.45
 30
0.0
 11
195.25
 21
122.45
 31
0.0
  0
LINE
  8
0
  6
CONTINUOUS
 62
     1
 10
195.25
 20
122.45
 30
0.0
 11
195.25
 21
121.55
 31
0.0
  0
LINE
  8
0
  6
CONTINUOUS
 62
     1
 10
186.75
 20
122.45
 30
0.0
 11
186.75
 21
121.55
 31
0.0
  0
LINE
  8
0
  6
CONTINUOUS
 62
     1
 10
186.75
 20
121.55
 30
0.0
 11
186.75
 21
117.45
 31
0.0
  0
LINE
  8
0
  6
CONTINUOUS
 62
     1
 10
195.25
 20
117.45
 30
0.0
 11
195.25
 21
121.55
 31
0.0
  0
LINE
  8
0
  6
CONTINUOUS
 62
     1
 10
188.0
 20
122.45
 30
0.0
 11
188.0
 21
126.55
 31
0.0
  0
LINE
  8
0
  6
CONTINUOUS
 62
     1
 10
194.0
 20
126.55
 30
0.0
 11
194.0
 21
122.45
 31
0.0
  0
LINE
  8
0
  6
CONTINUOUS
 62
     1
 10
195.25
 20
126.55
 30
0.0
 11
186.75
 21
126.55
 31
0.0
  0
LINE
  8
0
  6
CONTINUOUS
 62
     1
 10
186.75
 20
126.55
 30
0.0
 11
186.75
 21
122.45
 31
0.0
  0
LINE
  8
0
  6
CONTINUOUS
 62
     1
 10
195.25
 20
122.45
 30
0.0
 11
195.25
 21
126.55
 31
0.0
  0
LINE
  8
0
  6
CONTINUOUS
 62
     1
 10
186.75
 20
97.45
 30
0.0
 11
195.25
 21
97.45
 31
0.0
  0
LINE
  8
0
  6
CONTINUOUS
 62
     2
 10
189.25
 20
97.7
 30
0.0
 11
189.25
 21
98.25
 31
0.0
  0
LINE
  8
0
  6
CONTINUOUS
 62
     2
 10
189.25
 20
97.7
 30
0.0
 11
189.5
 21
97.45
 31
0.0
  0
LINE
  8
0
  6
CONTINUOUS
 62
     2
 10
189.25
 20
100.75
 30
0.0
 11
189.25
 21
101.3
 31
0.0
  0
LINE
  8
0
  6
CONTINUOUS
 62
     2
 10
189.25
 20
101.3
 30
0.0
 11
189.5
 21
101.55
 31
0.0
  0
LINE
  8
0
  6
CONTINUOUS
 62
     2
 10
192.5
 20
101.55
 30
0.0
 11
189.5
 21
101.55
 31
0.0
  0
LINE
  8
0
  6
CONTINUOUS
 62
     2
 10
192.75
 20
100.75
 30
0.0
 11
192.75
 21
101.3
 31
0.0
  0
LINE
  8
0
  6
CONTINUOUS
 62
     2
 10
192.5
 20
101.55
 30
0.0
 11
192.75
 21
101.3
 31
0.0
  0
LINE
  8
0
  6
CONTINUOUS
 62
     2
 10
192.75
 20
97.7
 30
0.0
 11
192.75
 21
98.25
 31
0.0
  0
LINE
  8
0
  6
CONTINUOUS
 62
     2
 10
189.5
 20
97.45
 30
0.0
 11
192.5
 21
97.45
 31
0.0
  0
LINE
  8
0
  6
CONTINUOUS
 62
     2
 10
192.75
 20
97.7
 30
0.0
 11
192.5
 21
97.45
 31
0.0
  0
LINE
  8
0
  6
CONTINUOUS
 62
     2
 10
188.85
 20
98.25
 30
0.0
 11
189.25
 21
98.25
 31
0.0
  0
LINE
  8
0
  6
CONTINUOUS
 62
     2
 10
188.85
 20
98.25
 30
0.0
 11
188.85
 21
100.75
 31
0.0
  0
LINE
  8
0
  6
CONTINUOUS
 62
     2
 10
188.85
 20
100.75
 30
0.0
 11
189.25
 21
100.75
 31
0.0
  0
LINE
  8
0
  6
CONTINUOUS
 62
     2
 10
193.15
 20
98.25
 30
0.0
 11
192.75
 21
98.25
 31
0.0
  0
LINE
  8
0
  6
CONTINUOUS
 62
     2
 10
193.15
 20
98.25
 30
0.0
 11
193.15
 21
100.75
 31
0.0
  0
LINE
  8
0
  6
CONTINUOUS
 62
     2
 10
193.15
 20
100.75
 30
0.0
 11
192.75
 21
100.75
 31
0.0
  0
LINE
  8
0
  6
CONTINUOUS
 62
     2
 10
193.15
 20
100.85
 30
0.0
 11
192.75
 21
100.85
 31
0.0
  0
ARC
  8
0
  6
CONTINUOUS
 62
     2
 10
193.15
 20
100.75
 30
0.0
 40
0.1
 50
0.0
 51
90.0
  0
LINE
  8
0
  6
CONTINUOUS
 62
     2
 10
192.75
 20
98.15
 30
0.0
 11
193.15
 21
98.15
 31
0.0
  0
LINE
  8
0
  6
CONTINUOUS
 62
     2
 10
193.25
 20
98.25
 30
0.0
 11
193.25
 21
100.75
 31
0.0
  0
ARC
  8
0
  6
CONTINUOUS
 62
     2
 10
193.15
 20
98.25
 30
0.0
 40
0.1
 50
270.0
 51
0.0
  0
LINE
  8
0
  6
CONTINUOUS
 62
     2
 10
188.85
 20
100.85
 30
0.0
 11
189.25
 21
100.85
 31
0.0
  0
ARC
  8
0
  6
CONTINUOUS
 62
     2
 10
188.85
 20
100.75
 30
0.0
 40
0.1
 50
90.0
 51
180.0
  0
LINE
  8
0
  6
CONTINUOUS
 62
     2
 10
189.25
 20
98.15
 30
0.0
 11
188.85
 21
98.15
 31
0.0
  0
ARC
  8
0
  6
CONTINUOUS
 62
     2
 10
188.85
 20
98.25
 30
0.0
 40
0.1
 50
180.0
 51
270.0
  0
LINE
  8
0
  6
CONTINUOUS
 62
     2
 10
188.75
 20
98.25
 30
0.0
 11
188.75
 21
100.75
 31
0.0
  0
LINE
  8
0
  6
CONTINUOUS
 62
     2
 10
189.25
 20
102.7
 30
0.0
 11
189.25
 21
103.25
 31
0.0
  0
LINE
  8
0
  6
CONTINUOUS
 62
     2
 10
189.25
 20
102.7
 30
0.0
 11
189.5
 21
102.45
 31
0.0
  0
LINE
  8
0
  6
CONTINUOUS
 62
     2
 10
189.25
 20
105.75
 30
0.0
 11
189.25
 21
106.3
 31
0.0
  0
LINE
  8
0
  6
CONTINUOUS
 62
     2
 10
189.25
 20
106.3
 30
0.0
 11
189.5
 21
106.55
 31
0.0
  0
LINE
  8
0
  6
CONTINUOUS
 62
     2
 10
192.5
 20
106.55
 30
0.0
 11
189.5
 21
106.55
 31
0.0
  0
LINE
  8
0
  6
CONTINUOUS
 62
     2
 10
192.75
 20
105.75
 30
0.0
 11
192.75
 21
106.3
 31
0.0
  0
LINE
  8
0
  6
CONTINUOUS
 62
     2
 10
192.5
 20
106.55
 30
0.0
 11
192.75
 21
106.3
 31
0.0
  0
LINE
  8
0
  6
CONTINUOUS
 62
     2
 10
192.75
 20
102.7
 30
0.0
 11
192.75
 21
103.25
 31
0.0
  0
LINE
  8
0
  6
CONTINUOUS
 62
     2
 10
189.5
 20
102.45
 30
0.0
 11
192.5
 21
102.45
 31
0.0
  0
LINE
  8
0
  6
CONTINUOUS
 62
     2
 10
192.75
 20
102.7
 30
0.0
 11
192.5
 21
102.45
 31
0.0
  0
LINE
  8
0
  6
CONTINUOUS
 62
     2
 10
188.85
 20
103.25
 30
0.0
 11
189.25
 21
103.25
 31
0.0
  0
LINE
  8
0
  6
CONTINUOUS
 62
     2
 10
188.85
 20
103.25
 30
0.0
 11
188.85
 21
105.75
 31
0.0
  0
LINE
  8
0
  6
CONTINUOUS
 62
     2
 10
188.85
 20
105.75
 30
0.0
 11
189.25
 21
105.75
 31
0.0
  0
LINE
  8
0
  6
CONTINUOUS
 62
     2
 10
193.15
 20
103.25
 30
0.0
 11
192.75
 21
103.25
 31
0.0
  0
LINE
  8
0
  6
CONTINUOUS
 62
     2
 10
193.15
 20
103.25
 30
0.0
 11
193.15
 21
105.75
 31
0.0
  0
LINE
  8
0
  6
CONTINUOUS
 62
     2
 10
193.15
 20
105.75
 30
0.0
 11
192.75
 21
105.75
 31
0.0
  0
LINE
  8
0
  6
CONTINUOUS
 62
     2
 10
193.15
 20
105.85
 30
0.0
 11
192.75
 21
105.85
 31
0.0
  0
ARC
  8
0
  6
CONTINUOUS
 62
     2
 10
193.15
 20
105.75
 30
0.0
 40
0.1
 50
0.0
 51
90.0
  0
LINE
  8
0
  6
CONTINUOUS
 62
     2
 10
192.75
 20
103.15
 30
0.0
 11
193.15
 21
103.15
 31
0.0
  0
LINE
  8
0
  6
CONTINUOUS
 62
     2
 10
193.25
 20
103.25
 30
0.0
 11
193.25
 21
105.75
 31
0.0
  0
ARC
  8
0
  6
CONTINUOUS
 62
     2
 10
193.15
 20
103.25
 30
0.0
 40
0.1
 50
270.0
 51
0.0
  0
LINE
  8
0
  6
CONTINUOUS
 62
     2
 10
188.85
 20
105.85
 30
0.0
 11
189.25
 21
105.85
 31
0.0
  0
ARC
  8
0
  6
CONTINUOUS
 62
     2
 10
188.85
 20
105.75
 30
0.0
 40
0.1
 50
90.0
 51
180.0
  0
LINE
  8
0
  6
CONTINUOUS
 62
     2
 10
189.25
 20
103.15
 30
0.0
 11
188.85
 21
103.15
 31
0.0
  0
ARC
  8
0
  6
CONTINUOUS
 62
     2
 10
188.85
 20
103.25
 30
0.0
 40
0.1
 50
180.0
 51
270.0
  0
LINE
  8
0
  6
CONTINUOUS
 62
     2
 10
188.75
 20
103.25
 30
0.0
 11
188.75
 21
105.75
 31
0.0
  0
LINE
  8
0
  6
CONTINUOUS
 62
     2
 10
189.25
 20
107.7
 30
0.0
 11
189.25
 21
108.25
 31
0.0
  0
LINE
  8
0
  6
CONTINUOUS
 62
     2
 10
189.25
 20
107.7
 30
0.0
 11
189.5
 21
107.45
 31
0.0
  0
LINE
  8
0
  6
CONTINUOUS
 62
     2
 10
189.25
 20
110.75
 30
0.0
 11
189.25
 21
111.3
 31
0.0
  0
LINE
  8
0
  6
CONTINUOUS
 62
     2
 10
189.25
 20
111.3
 30
0.0
 11
189.5
 21
111.55
 31
0.0
  0
LINE
  8
0
  6
CONTINUOUS
 62
     2
 10
192.5
 20
111.55
 30
0.0
 11
189.5
 21
111.55
 31
0.0
  0
LINE
  8
0
  6
CONTINUOUS
 62
     2
 10
192.75
 20
110.75
 30
0.0
 11
192.75
 21
111.3
 31
0.0
  0
LINE
  8
0
  6
CONTINUOUS
 62
     2
 10
192.5
 20
111.55
 30
0.0
 11
192.75
 21
111.3
 31
0.0
  0
LINE
  8
0
  6
CONTINUOUS
 62
     2
 10
192.75
 20
107.7
 30
0.0
 11
192.75
 21
108.25
 31
0.0
  0
LINE
  8
0
  6
CONTINUOUS
 62
     2
 10
189.5
 20
107.45
 30
0.0
 11
192.5
 21
107.45
 31
0.0
  0
LINE
  8
0
  6
CONTINUOUS
 62
     2
 10
192.75
 20
107.7
 30
0.0
 11
192.5
 21
107.45
 31
0.0
  0
LINE
  8
0
  6
CONTINUOUS
 62
     2
 10
188.85
 20
108.25
 30
0.0
 11
189.25
 21
108.25
 31
0.0
  0
LINE
  8
0
  6
CONTINUOUS
 62
     2
 10
188.85
 20
108.25
 30
0.0
 11
188.85
 21
110.75
 31
0.0
  0
LINE
  8
0
  6
CONTINUOUS
 62
     2
 10
188.85
 20
110.75
 30
0.0
 11
189.25
 21
110.75
 31
0.0
  0
LINE
  8
0
  6
CONTINUOUS
 62
     2
 10
193.15
 20
108.25
 30
0.0
 11
192.75
 21
108.25
 31
0.0
  0
LINE
  8
0
  6
CONTINUOUS
 62
     2
 10
193.15
 20
108.25
 30
0.0
 11
193.15
 21
110.75
 31
0.0
  0
LINE
  8
0
  6
CONTINUOUS
 62
     2
 10
193.15
 20
110.75
 30
0.0
 11
192.75
 21
110.75
 31
0.0
  0
LINE
  8
0
  6
CONTINUOUS
 62
     2
 10
193.15
 20
110.85
 30
0.0
 11
192.75
 21
110.85
 31
0.0
  0
ARC
  8
0
  6
CONTINUOUS
 62
     2
 10
193.15
 20
110.75
 30
0.0
 40
0.1
 50
0.0
 51
90.0
  0
LINE
  8
0
  6
CONTINUOUS
 62
     2
 10
192.75
 20
108.15
 30
0.0
 11
193.15
 21
108.15
 31
0.0
  0
LINE
  8
0
  6
CONTINUOUS
 62
     2
 10
193.25
 20
108.25
 30
0.0
 11
193.25
 21
110.75
 31
0.0
  0
ARC
  8
0
  6
CONTINUOUS
 62
     2
 10
193.15
 20
108.25
 30
0.0
 40
0.1
 50
270.0
 51
0.0
  0
LINE
  8
0
  6
CONTINUOUS
 62
     2
 10
188.85
 20
110.85
 30
0.0
 11
189.25
 21
110.85
 31
0.0
  0
ARC
  8
0
  6
CONTINUOUS
 62
     2
 10
188.85
 20
110.75
 30
0.0
 40
0.1
 50
90.0
 51
180.0
  0
LINE
  8
0
  6
CONTINUOUS
 62
     2
 10
189.25
 20
108.15
 30
0.0
 11
188.85
 21
108.15
 31
0.0
  0
ARC
  8
0
  6
CONTINUOUS
 62
     2
 10
188.85
 20
108.25
 30
0.0
 40
0.1
 50
180.0
 51
270.0
  0
LINE
  8
0
  6
CONTINUOUS
 62
     2
 10
188.75
 20
108.25
 30
0.0
 11
188.75
 21
110.75
 31
0.0
  0
LINE
  8
0
  6
CONTINUOUS
 62
     2
 10
189.25
 20
112.7
 30
0.0
 11
189.25
 21
113.25
 31
0.0
  0
LINE
  8
0
  6
CONTINUOUS
 62
     2
 10
189.25
 20
112.7
 30
0.0
 11
189.5
 21
112.45
 31
0.0
  0
LINE
  8
0
  6
CONTINUOUS
 62
     2
 10
189.25
 20
115.75
 30
0.0
 11
189.25
 21
116.3
 31
0.0
  0
LINE
  8
0
  6
CONTINUOUS
 62
     2
 10
189.25
 20
116.3
 30
0.0
 11
189.5
 21
116.55
 31
0.0
  0
LINE
  8
0
  6
CONTINUOUS
 62
     2
 10
192.5
 20
116.55
 30
0.0
 11
189.5
 21
116.55
 31
0.0
  0
LINE
  8
0
  6
CONTINUOUS
 62
     2
 10
192.75
 20
115.75
 30
0.0
 11
192.75
 21
116.3
 31
0.0
  0
LINE
  8
0
  6
CONTINUOUS
 62
     2
 10
192.5
 20
116.55
 30
0.0
 11
192.75
 21
116.3
 31
0.0
  0
LINE
  8
0
  6
CONTINUOUS
 62
     2
 10
192.75
 20
112.7
 30
0.0
 11
192.75
 21
113.25
 31
0.0
  0
LINE
  8
0
  6
CONTINUOUS
 62
     2
 10
189.5
 20
112.45
 30
0.0
 11
192.5
 21
112.45
 31
0.0
  0
LINE
  8
0
  6
CONTINUOUS
 62
     2
 10
192.75
 20
112.7
 30
0.0
 11
192.5
 21
112.45
 31
0.0
  0
LINE
  8
0
  6
CONTINUOUS
 62
     2
 10
188.85
 20
113.25
 30
0.0
 11
189.25
 21
113.25
 31
0.0
  0
LINE
  8
0
  6
CONTINUOUS
 62
     2
 10
188.85
 20
113.25
 30
0.0
 11
188.85
 21
115.75
 31
0.0
  0
LINE
  8
0
  6
CONTINUOUS
 62
     2
 10
188.85
 20
115.75
 30
0.0
 11
189.25
 21
115.75
 31
0.0
  0
LINE
  8
0
  6
CONTINUOUS
 62
     2
 10
193.15
 20
113.25
 30
0.0
 11
192.75
 21
113.25
 31
0.0
  0
LINE
  8
0
  6
CONTINUOUS
 62
     2
 10
193.15
 20
113.25
 30
0.0
 11
193.15
 21
115.75
 31
0.0
  0
LINE
  8
0
  6
CONTINUOUS
 62
     2
 10
193.15
 20
115.75
 30
0.0
 11
192.75
 21
115.75
 31
0.0
  0
LINE
  8
0
  6
CONTINUOUS
 62
     2
 10
193.15
 20
115.85
 30
0.0
 11
192.75
 21
115.85
 31
0.0
  0
ARC
  8
0
  6
CONTINUOUS
 62
     2
 10
193.15
 20
115.75
 30
0.0
 40
0.1
 50
0.0
 51
90.0
  0
LINE
  8
0
  6
CONTINUOUS
 62
     2
 10
192.75
 20
113.15
 30
0.0
 11
193.15
 21
113.15
 31
0.0
  0
LINE
  8
0
  6
CONTINUOUS
 62
     2
 10
193.25
 20
113.25
 30
0.0
 11
193.25
 21
115.75
 31
0.0
  0
ARC
  8
0
  6
CONTINUOUS
 62
     2
 10
193.15
 20
113.25
 30
0.0
 40
0.1
 50
270.0
 51
0.0
  0
LINE
  8
0
  6
CONTINUOUS
 62
     2
 10
188.85
 20
115.85
 30
0.0
 11
189.25
 21
115.85
 31
0.0
  0
ARC
  8
0
  6
CONTINUOUS
 62
     2
 10
188.85
 20
115.75
 30
0.0
 40
0.1
 50
90.0
 51
180.0
  0
LINE
  8
0
  6
CONTINUOUS
 62
     2
 10
189.25
 20
113.15
 30
0.0
 11
188.85
 21
113.15
 31
0.0
  0
ARC
  8
0
  6
CONTINUOUS
 62
     2
 10
188.85
 20
113.25
 30
0.0
 40
0.1
 50
180.0
 51
270.0
  0
LINE
  8
0
  6
CONTINUOUS
 62
     2
 10
188.75
 20
113.25
 30
0.0
 11
188.75
 21
115.75
 31
0.0
  0
LINE
  8
0
  6
CONTINUOUS
 62
     2
 10
189.25
 20
117.7
 30
0.0
 11
189.25
 21
118.25
 31
0.0
  0
LINE
  8
0
  6
CONTINUOUS
 62
     2
 10
189.25
 20
117.7
 30
0.0
 11
189.5
 21
117.45
 31
0.0
  0
LINE
  8
0
  6
CONTINUOUS
 62
     2
 10
189.25
 20
120.75
 30
0.0
 11
189.25
 21
121.3
 31
0.0
  0
LINE
  8
0
  6
CONTINUOUS
 62
     2
 10
189.25
 20
121.3
 30
0.0
 11
189.5
 21
121.55
 31
0.0
  0
LINE
  8
0
  6
CONTINUOUS
 62
     2
 10
192.5
 20
121.55
 30
0.0
 11
189.5
 21
121.55
 31
0.0
  0
LINE
  8
0
  6
CONTINUOUS
 62
     2
 10
192.75
 20
120.75
 30
0.0
 11
192.75
 21
121.3
 31
0.0
  0
LINE
  8
0
  6
CONTINUOUS
 62
     2
 10
192.5
 20
121.55
 30
0.0
 11
192.75
 21
121.3
 31
0.0
  0
LINE
  8
0
  6
CONTINUOUS
 62
     2
 10
192.75
 20
117.7
 30
0.0
 11
192.75
 21
118.25
 31
0.0
  0
LINE
  8
0
  6
CONTINUOUS
 62
     2
 10
189.5
 20
117.45
 30
0.0
 11
192.5
 21
117.45
 31
0.0
  0
LINE
  8
0
  6
CONTINUOUS
 62
     2
 10
192.75
 20
117.7
 30
0.0
 11
192.5
 21
117.45
 31
0.0
  0
LINE
  8
0
  6
CONTINUOUS
 62
     2
 10
188.85
 20
118.25
 30
0.0
 11
189.25
 21
118.25
 31
0.0
  0
LINE
  8
0
  6
CONTINUOUS
 62
     2
 10
188.85
 20
118.25
 30
0.0
 11
188.85
 21
120.75
 31
0.0
  0
LINE
  8
0
  6
CONTINUOUS
 62
     2
 10
188.85
 20
120.75
 30
0.0
 11
189.25
 21
120.75
 31
0.0
  0
LINE
  8
0
  6
CONTINUOUS
 62
     2
 10
193.15
 20
118.25
 30
0.0
 11
192.75
 21
118.25
 31
0.0
  0
LINE
  8
0
  6
CONTINUOUS
 62
     2
 10
193.15
 20
118.25
 30
0.0
 11
193.15
 21
120.75
 31
0.0
  0
LINE
  8
0
  6
CONTINUOUS
 62
     2
 10
193.15
 20
120.75
 30
0.0
 11
192.75
 21
120.75
 31
0.0
  0
LINE
  8
0
  6
CONTINUOUS
 62
     2
 10
193.15
 20
120.85
 30
0.0
 11
192.75
 21
120.85
 31
0.0
  0
ARC
  8
0
  6
CONTINUOUS
 62
     2
 10
193.15
 20
120.75
 30
0.0
 40
0.1
 50
0.0
 51
90.0
  0
LINE
  8
0
  6
CONTINUOUS
 62
     2
 10
192.75
 20
118.15
 30
0.0
 11
193.15
 21
118.15
 31
0.0
  0
LINE
  8
0
  6
CONTINUOUS
 62
     2
 10
193.25
 20
118.25
 30
0.0
 11
193.25
 21
120.75
 31
0.0
  0
ARC
  8
0
  6
CONTINUOUS
 62
     2
 10
193.15
 20
118.25
 30
0.0
 40
0.1
 50
270.0
 51
0.0
  0
LINE
  8
0
  6
CONTINUOUS
 62
     2
 10
188.85
 20
120.85
 30
0.0
 11
189.25
 21
120.85
 31
0.0
  0
ARC
  8
0
  6
CONTINUOUS
 62
     2
 10
188.85
 20
120.75
 30
0.0
 40
0.1
 50
90.0
 51
180.0
  0
LINE
  8
0
  6
CONTINUOUS
 62
     2
 10
189.25
 20
118.15
 30
0.0
 11
188.85
 21
118.15
 31
0.0
  0
ARC
  8
0
  6
CONTINUOUS
 62
     2
 10
188.85
 20
118.25
 30
0.0
 40
0.1
 50
180.0
 51
270.0
  0
LINE
  8
0
  6
CONTINUOUS
 62
     2
 10
188.75
 20
118.25
 30
0.0
 11
188.75
 21
120.75
 31
0.0
  0
LINE
  8
0
  6
CONTINUOUS
 62
     2
 10
189.25
 20
122.7
 30
0.0
 11
189.25
 21
123.25
 31
0.0
  0
LINE
  8
0
  6
CONTINUOUS
 62
     2
 10
189.25
 20
122.7
 30
0.0
 11
189.5
 21
122.45
 31
0.0
  0
LINE
  8
0
  6
CONTINUOUS
 62
     2
 10
189.25
 20
125.75
 30
0.0
 11
189.25
 21
126.3
 31
0.0
  0
LINE
  8
0
  6
CONTINUOUS
 62
     2
 10
189.25
 20
126.3
 30
0.0
 11
189.5
 21
126.55
 31
0.0
  0
LINE
  8
0
  6
CONTINUOUS
 62
     2
 10
192.5
 20
126.55
 30
0.0
 11
189.5
 21
126.55
 31
0.0
  0
LINE
  8
0
  6
CONTINUOUS
 62
     2
 10
192.75
 20
125.75
 30
0.0
 11
192.75
 21
126.3
 31
0.0
  0
LINE
  8
0
  6
CONTINUOUS
 62
     2
 10
192.5
 20
126.55
 30
0.0
 11
192.75
 21
126.3
 31
0.0
  0
LINE
  8
0
  6
CONTINUOUS
 62
     2
 10
192.75
 20
122.7
 30
0.0
 11
192.75
 21
123.25
 31
0.0
  0
LINE
  8
0
  6
CONTINUOUS
 62
     2
 10
189.5
 20
122.45
 30
0.0
 11
192.5
 21
122.45
 31
0.0
  0
LINE
  8
0
  6
CONTINUOUS
 62
     2
 10
192.75
 20
122.7
 30
0.0
 11
192.5
 21
122.45
 31
0.0
  0
LINE
  8
0
  6
CONTINUOUS
 62
     2
 10
188.85
 20
123.25
 30
0.0
 11
189.25
 21
123.25
 31
0.0
  0
LINE
  8
0
  6
CONTINUOUS
 62
     2
 10
188.85
 20
123.25
 30
0.0
 11
188.85
 21
125.75
 31
0.0
  0
LINE
  8
0
  6
CONTINUOUS
 62
     2
 10
188.85
 20
125.75
 30
0.0
 11
189.25
 21
125.75
 31
0.0
  0
LINE
  8
0
  6
CONTINUOUS
 62
     2
 10
193.15
 20
123.25
 30
0.0
 11
192.75
 21
123.25
 31
0.0
  0
LINE
  8
0
  6
CONTINUOUS
 62
     2
 10
193.15
 20
123.25
 30
0.0
 11
193.15
 21
125.75
 31
0.0
  0
LINE
  8
0
  6
CONTINUOUS
 62
     2
 10
193.15
 20
125.75
 30
0.0
 11
192.75
 21
125.75
 31
0.0
  0
LINE
  8
0
  6
CONTINUOUS
 62
     2
 10
193.15
 20
125.85
 30
0.0
 11
192.75
 21
125.85
 31
0.0
  0
ARC
  8
0
  6
CONTINUOUS
 62
     2
 10
193.15
 20
125.75
 30
0.0
 40
0.1
 50
0.0
 51
90.0
  0
LINE
  8
0
  6
CONTINUOUS
 62
     2
 10
192.75
 20
123.15
 30
0.0
 11
193.15
 21
123.15
 31
0.0
  0
LINE
  8
0
  6
CONTINUOUS
 62
     2
 10
193.25
 20
123.25
 30
0.0
 11
193.25
 21
125.75
 31
0.0
  0
ARC
  8
0
  6
CONTINUOUS
 62
     2
 10
193.15
 20
123.25
 30
0.0
 40
0.1
 50
270.0
 51
0.0
  0
LINE
  8
0
  6
CONTINUOUS
 62
     2
 10
188.85
 20
125.85
 30
0.0
 11
189.25
 21
125.85
 31
0.0
  0
ARC
  8
0
  6
CONTINUOUS
 62
     2
 10
188.85
 20
125.75
 30
0.0
 40
0.1
 50
90.0
 51
180.0
  0
LINE
  8
0
  6
CONTINUOUS
 62
     2
 10
189.25
 20
123.15
 30
0.0
 11
188.85
 21
123.15
 31
0.0
  0
ARC
  8
0
  6
CONTINUOUS
 62
     2
 10
188.85
 20
123.25
 30
0.0
 40
0.1
 50
180.0
 51
270.0
  0
LINE
  8
0
  6
CONTINUOUS
 62
     2
 10
188.75
 20
123.25
 30
0.0
 11
188.75
 21
125.75
 31
0.0
  0
CIRCLE
  8
0
  6
CONTINUOUS
 62
     2
 10
191.0
 20
99.5
 30
0.0
 40
1.5
  0
LINE
  8
0
  6
CONTINUOUS
 62
     2
 10
191.875
 20
99.3
 30
0.0
 11
191.4
 21
99.3
 31
0.0
  0
ARC
  8
0
  6
CONTINUOUS
 62
     2
 10
191.4
 20
99.1
 30
0.0
 40
0.2
 50
90.0
 51
180.0
  0
LINE
  8
0
  6
CONTINUOUS
 62
     2
 10
191.2
 20
99.1
 30
0.0
 11
191.2
 21
98.625
 31
0.0
  0
LINE
  8
0
  6
CONTINUOUS
 62
     2
 10
191.2
 20
98.625
 30
0.0
 11
190.8
 21
98.625
 31
0.0
  0
LINE
  8
0
  6
CONTINUOUS
 62
     2
 10
190.8
 20
98.625
 30
0.0
 11
190.8
 21
99.1
 31
0.0
  0
ARC
  8
0
  6
CONTINUOUS
 62
     2
 10
190.6
 20
99.1
 30
0.0
 40
0.2
 50
0.0
 51
90.0
  0
LINE
  8
0
  6
CONTINUOUS
 62
     2
 10
190.6
 20
99.3
 30
0.0
 11
190.125
 21
99.3
 31
0.0
  0
LINE
  8
0
  6
CONTINUOUS
 62
     2
 10
190.125
 20
99.3
 30
0.0
 11
190.125
 21
99.7
 31
0.0
  0
LINE
  8
0
  6
CONTINUOUS
 62
     2
 10
190.125
 20
99.7
 30
0.0
 11
190.6
 21
99.7
 31
0.0
  0
ARC
  8
0
  6
CONTINUOUS
 62
     2
 10
190.6
 20
99.9
 30
0.0
 40
0.2
 50
270.0
 51
0.0
  0
LINE
  8
0
  6
CONTINUOUS
 62
     2
 10
190.8
 20
99.9
 30
0.0
 11
190.8
 21
100.375
 31
0.0
  0
LINE
  8
0
  6
CONTINUOUS
 62
     2
 10
190.8
 20
100.375
 30
0.0
 11
191.2
 21
100.375
 31
0.0
  0
LINE
  8
0
  6
CONTINUOUS
 62
     2
 10
191.2
 20
100.375
 30
0.0
 11
191.2
 21
99.9
 31
0.0
  0
ARC
  8
0
  6
CONTINUOUS
 62
     2
 10
191.4
 20
99.9
 30
0.0
 40
0.2
 50
180.0
 51
270.0
  0
LINE
  8
0
  6
CONTINUOUS
 62
     2
 10
191.4
 20
99.7
 30
0.0
 11
191.875
 21
99.7
 31
0.0
  0
LINE
  8
0
  6
CONTINUOUS
 62
     2
 10
191.875
 20
99.7
 30
0.0
 11
191.875
 21
99.3
 31
0.0
  0
LINE
  8
0
  6
LTYPE2
 62
     2
 10
193.0
 20
99.5
 30
0.0
 11
189.0
 21
99.5
 31
0.0
  0
LINE
  8
0
  6
LTYPE2
 62
     2
 10
191.0
 20
97.5
 30
0.0
 11
191.0
 21
101.5
 31
0.0
  0
CIRCLE
  8
0
  6
CONTINUOUS
 62
     2
 10
191.0
 20
104.5
 30
0.0
 40
1.5
  0
LINE
  8
0
  6
CONTINUOUS
 62
     2
 10
191.875
 20
104.3
 30
0.0
 11
191.4
 21
104.3
 31
0.0
  0
ARC
  8
0
  6
CONTINUOUS
 62
     2
 10
191.4
 20
104.1
 30
0.0
 40
0.2
 50
90.0
 51
180.0
  0
LINE
  8
0
  6
CONTINUOUS
 62
     2
 10
191.2
 20
104.1
 30
0.0
 11
191.2
 21
103.625
 31
0.0
  0
LINE
  8
0
  6
CONTINUOUS
 62
     2
 10
191.2
 20
103.625
 30
0.0
 11
190.8
 21
103.625
 31
0.0
  0
LINE
  8
0
  6
CONTINUOUS
 62
     2
 10
190.8
 20
103.625
 30
0.0
 11
190.8
 21
104.1
 31
0.0
  0
ARC
  8
0
  6
CONTINUOUS
 62
     2
 10
190.6
 20
104.1
 30
0.0
 40
0.2
 50
0.0
 51
90.0
  0
LINE
  8
0
  6
CONTINUOUS
 62
     2
 10
190.6
 20
104.3
 30
0.0
 11
190.125
 21
104.3
 31
0.0
  0
LINE
  8
0
  6
CONTINUOUS
 62
     2
 10
190.125
 20
104.3
 30
0.0
 11
190.125
 21
104.7
 31
0.0
  0
LINE
  8
0
  6
CONTINUOUS
 62
     2
 10
190.125
 20
104.7
 30
0.0
 11
190.6
 21
104.7
 31
0.0
  0
ARC
  8
0
  6
CONTINUOUS
 62
     2
 10
190.6
 20
104.9
 30
0.0
 40
0.2
 50
270.0
 51
0.0
  0
LINE
  8
0
  6
CONTINUOUS
 62
     2
 10
190.8
 20
104.9
 30
0.0
 11
190.8
 21
105.375
 31
0.0
  0
LINE
  8
0
  6
CONTINUOUS
 62
     2
 10
190.8
 20
105.375
 30
0.0
 11
191.2
 21
105.375
 31
0.0
  0
LINE
  8
0
  6
CONTINUOUS
 62
     2
 10
191.2
 20
105.375
 30
0.0
 11
191.2
 21
104.9
 31
0.0
  0
ARC
  8
0
  6
CONTINUOUS
 62
     2
 10
191.4
 20
104.9
 30
0.0
 40
0.2
 50
180.0
 51
270.0
  0
LINE
  8
0
  6
CONTINUOUS
 62
     2
 10
191.4
 20
104.7
 30
0.0
 11
191.875
 21
104.7
 31
0.0
  0
LINE
  8
0
  6
CONTINUOUS
 62
     2
 10
191.875
 20
104.7
 30
0.0
 11
191.875
 21
104.3
 31
0.0
  0
LINE
  8
0
  6
LTYPE2
 62
     2
 10
193.0
 20
104.5
 30
0.0
 11
189.0
 21
104.5
 31
0.0
  0
LINE
  8
0
  6
LTYPE2
 62
     2
 10
191.0
 20
102.5
 30
0.0
 11
191.0
 21
106.5
 31
0.0
  0
CIRCLE
  8
0
  6
CONTINUOUS
 62
     2
 10
191.0
 20
109.5
 30
0.0
 40
1.5
  0
LINE
  8
0
  6
CONTINUOUS
 62
     2
 10
191.875
 20
109.3
 30
0.0
 11
191.4
 21
109.3
 31
0.0
  0
ARC
  8
0
  6
CONTINUOUS
 62
     2
 10
191.4
 20
109.1
 30
0.0
 40
0.2
 50
90.0
 51
180.0
  0
LINE
  8
0
  6
CONTINUOUS
 62
     2
 10
191.2
 20
109.1
 30
0.0
 11
191.2
 21
108.625
 31
0.0
  0
LINE
  8
0
  6
CONTINUOUS
 62
     2
 10
191.2
 20
108.625
 30
0.0
 11
190.8
 21
108.625
 31
0.0
  0
LINE
  8
0
  6
CONTINUOUS
 62
     2
 10
190.8
 20
108.625
 30
0.0
 11
190.8
 21
109.1
 31
0.0
  0
ARC
  8
0
  6
CONTINUOUS
 62
     2
 10
190.6
 20
109.1
 30
0.0
 40
0.2
 50
0.0
 51
90.0
  0
LINE
  8
0
  6
CONTINUOUS
 62
     2
 10
190.6
 20
109.3
 30
0.0
 11
190.125
 21
109.3
 31
0.0
  0
LINE
  8
0
  6
CONTINUOUS
 62
     2
 10
190.125
 20
109.3
 30
0.0
 11
190.125
 21
109.7
 31
0.0
  0
LINE
  8
0
  6
CONTINUOUS
 62
     2
 10
190.125
 20
109.7
 30
0.0
 11
190.6
 21
109.7
 31
0.0
  0
ARC
  8
0
  6
CONTINUOUS
 62
     2
 10
190.6
 20
109.9
 30
0.0
 40
0.2
 50
270.0
 51
0.0
  0
LINE
  8
0
  6
CONTINUOUS
 62
     2
 10
190.8
 20
109.9
 30
0.0
 11
190.8
 21
110.375
 31
0.0
  0
LINE
  8
0
  6
CONTINUOUS
 62
     2
 10
190.8
 20
110.375
 30
0.0
 11
191.2
 21
110.375
 31
0.0
  0
LINE
  8
0
  6
CONTINUOUS
 62
     2
 10
191.2
 20
110.375
 30
0.0
 11
191.2
 21
109.9
 31
0.0
  0
ARC
  8
0
  6
CONTINUOUS
 62
     2
 10
191.4
 20
109.9
 30
0.0
 40
0.2
 50
180.0
 51
270.0
  0
LINE
  8
0
  6
CONTINUOUS
 62
     2
 10
191.4
 20
109.7
 30
0.0
 11
191.875
 21
109.7
 31
0.0
  0
LINE
  8
0
  6
CONTINUOUS
 62
     2
 10
191.875
 20
109.7
 30
0.0
 11
191.875
 21
109.3
 31
0.0
  0
LINE
  8
0
  6
LTYPE2
 62
     2
 10
193.0
 20
109.5
 30
0.0
 11
189.0
 21
109.5
 31
0.0
  0
LINE
  8
0
  6
LTYPE2
 62
     2
 10
191.0
 20
107.5
 30
0.0
 11
191.0
 21
111.5
 31
0.0
  0
CIRCLE
  8
0
  6
CONTINUOUS
 62
     2
 10
191.0
 20
114.5
 30
0.0
 40
1.5
  0
LINE
  8
0
  6
CONTINUOUS
 62
     2
 10
191.875
 20
114.3
 30
0.0
 11
191.4
 21
114.3
 31
0.0
  0
ARC
  8
0
  6
CONTINUOUS
 62
     2
 10
191.4
 20
114.1
 30
0.0
 40
0.2
 50
90.0
 51
180.0
  0
LINE
  8
0
  6
CONTINUOUS
 62
     2
 10
191.2
 20
114.1
 30
0.0
 11
191.2
 21
113.625
 31
0.0
  0
LINE
  8
0
  6
CONTINUOUS
 62
     2
 10
191.2
 20
113.625
 30
0.0
 11
190.8
 21
113.625
 31
0.0
  0
LINE
  8
0
  6
CONTINUOUS
 62
     2
 10
190.8
 20
113.625
 30
0.0
 11
190.8
 21
114.1
 31
0.0
  0
ARC
  8
0
  6
CONTINUOUS
 62
     2
 10
190.6
 20
114.1
 30
0.0
 40
0.2
 50
0.0
 51
90.0
  0
LINE
  8
0
  6
CONTINUOUS
 62
     2
 10
190.6
 20
114.3
 30
0.0
 11
190.125
 21
114.3
 31
0.0
  0
LINE
  8
0
  6
CONTINUOUS
 62
     2
 10
190.125
 20
114.3
 30
0.0
 11
190.125
 21
114.7
 31
0.0
  0
LINE
  8
0
  6
CONTINUOUS
 62
     2
 10
190.125
 20
114.7
 30
0.0
 11
190.6
 21
114.7
 31
0.0
  0
ARC
  8
0
  6
CONTINUOUS
 62
     2
 10
190.6
 20
114.9
 30
0.0
 40
0.2
 50
270.0
 51
0.0
  0
LINE
  8
0
  6
CONTINUOUS
 62
     2
 10
190.8
 20
114.9
 30
0.0
 11
190.8
 21
115.375
 31
0.0
  0
LINE
  8
0
  6
CONTINUOUS
 62
     2
 10
190.8
 20
115.375
 30
0.0
 11
191.2
 21
115.375
 31
0.0
  0
LINE
  8
0
  6
CONTINUOUS
 62
     2
 10
191.2
 20
115.375
 30
0.0
 11
191.2
 21
114.9
 31
0.0
  0
ARC
  8
0
  6
CONTINUOUS
 62
     2
 10
191.4
 20
114.9
 30
0.0
 40
0.2
 50
180.0
 51
270.0
  0
LINE
  8
0
  6
CONTINUOUS
 62
     2
 10
191.4
 20
114.7
 30
0.0
 11
191.875
 21
114.7
 31
0.0
  0
LINE
  8
0
  6
CONTINUOUS
 62
     2
 10
191.875
 20
114.7
 30
0.0
 11
191.875
 21
114.3
 31
0.0
  0
LINE
  8
0
  6
LTYPE2
 62
     2
 10
193.0
 20
114.5
 30
0.0
 11
189.0
 21
114.5
 31
0.0
  0
LINE
  8
0
  6
LTYPE2
 62
     2
 10
191.0
 20
112.5
 30
0.0
 11
191.0
 21
116.5
 31
0.0
  0
CIRCLE
  8
0
  6
CONTINUOUS
 62
     2
 10
191.0
 20
119.5
 30
0.0
 40
1.5
  0
LINE
  8
0
  6
CONTINUOUS
 62
     2
 10
191.875
 20
119.3
 30
0.0
 11
191.4
 21
119.3
 31
0.0
  0
ARC
  8
0
  6
CONTINUOUS
 62
     2
 10
191.4
 20
119.1
 30
0.0
 40
0.2
 50
90.0
 51
180.0
  0
LINE
  8
0
  6
CONTINUOUS
 62
     2
 10
191.2
 20
119.1
 30
0.0
 11
191.2
 21
118.625
 31
0.0
  0
LINE
  8
0
  6
CONTINUOUS
 62
     2
 10
191.2
 20
118.625
 30
0.0
 11
190.8
 21
118.625
 31
0.0
  0
LINE
  8
0
  6
CONTINUOUS
 62
     2
 10
190.8
 20
118.625
 30
0.0
 11
190.8
 21
119.1
 31
0.0
  0
ARC
  8
0
  6
CONTINUOUS
 62
     2
 10
190.6
 20
119.1
 30
0.0
 40
0.2
 50
0.0
 51
90.0
  0
LINE
  8
0
  6
CONTINUOUS
 62
     2
 10
190.6
 20
119.3
 30
0.0
 11
190.125
 21
119.3
 31
0.0
  0
LINE
  8
0
  6
CONTINUOUS
 62
     2
 10
190.125
 20
119.3
 30
0.0
 11
190.125
 21
119.7
 31
0.0
  0
LINE
  8
0
  6
CONTINUOUS
 62
     2
 10
190.125
 20
119.7
 30
0.0
 11
190.6
 21
119.7
 31
0.0
  0
ARC
  8
0
  6
CONTINUOUS
 62
     2
 10
190.6
 20
119.9
 30
0.0
 40
0.2
 50
270.0
 51
0.0
  0
LINE
  8
0
  6
CONTINUOUS
 62
     2
 10
190.8
 20
119.9
 30
0.0
 11
190.8
 21
120.375
 31
0.0
  0
LINE
  8
0
  6
CONTINUOUS
 62
     2
 10
190.8
 20
120.375
 30
0.0
 11
191.2
 21
120.375
 31
0.0
  0
LINE
  8
0
  6
CONTINUOUS
 62
     2
 10
191.2
 20
120.375
 30
0.0
 11
191.2
 21
119.9
 31
0.0
  0
ARC
  8
0
  6
CONTINUOUS
 62
     2
 10
191.4
 20
119.9
 30
0.0
 40
0.2
 50
180.0
 51
270.0
  0
LINE
  8
0
  6
CONTINUOUS
 62
     2
 10
191.4
 20
119.7
 30
0.0
 11
191.875
 21
119.7
 31
0.0
  0
LINE
  8
0
  6
CONTINUOUS
 62
     2
 10
191.875
 20
119.7
 30
0.0
 11
191.875
 21
119.3
 31
0.0
  0
LINE
  8
0
  6
LTYPE2
 62
     2
 10
193.0
 20
119.5
 30
0.0
 11
189.0
 21
119.5
 31
0.0
  0
LINE
  8
0
  6
LTYPE2
 62
     2
 10
191.0
 20
117.5
 30
0.0
 11
191.0
 21
121.5
 31
0.0
  0
CIRCLE
  8
0
  6
CONTINUOUS
 62
     2
 10
191.0
 20
124.5
 30
0.0
 40
1.5
  0
LINE
  8
0
  6
CONTINUOUS
 62
     2
 10
191.875
 20
124.3
 30
0.0
 11
191.4
 21
124.3
 31
0.0
  0
ARC
  8
0
  6
CONTINUOUS
 62
     2
 10
191.4
 20
124.1
 30
0.0
 40
0.2
 50
90.0
 51
180.0
  0
LINE
  8
0
  6
CONTINUOUS
 62
     2
 10
191.2
 20
124.1
 30
0.0
 11
191.2
 21
123.625
 31
0.0
  0
LINE
  8
0
  6
CONTINUOUS
 62
     2
 10
191.2
 20
123.625
 30
0.0
 11
190.8
 21
123.625
 31
0.0
  0
LINE
  8
0
  6
CONTINUOUS
 62
     2
 10
190.8
 20
123.625
 30
0.0
 11
190.8
 21
124.1
 31
0.0
  0
ARC
  8
0
  6
CONTINUOUS
 62
     2
 10
190.6
 20
124.1
 30
0.0
 40
0.2
 50
0.0
 51
90.0
  0
LINE
  8
0
  6
CONTINUOUS
 62
     2
 10
190.6
 20
124.3
 30
0.0
 11
190.125
 21
124.3
 31
0.0
  0
LINE
  8
0
  6
CONTINUOUS
 62
     2
 10
190.125
 20
124.3
 30
0.0
 11
190.125
 21
124.7
 31
0.0
  0
LINE
  8
0
  6
CONTINUOUS
 62
     2
 10
190.125
 20
124.7
 30
0.0
 11
190.6
 21
124.7
 31
0.0
  0
ARC
  8
0
  6
CONTINUOUS
 62
     2
 10
190.6
 20
124.9
 30
0.0
 40
0.2
 50
270.0
 51
0.0
  0
LINE
  8
0
  6
CONTINUOUS
 62
     2
 10
190.8
 20
124.9
 30
0.0
 11
190.8
 21
125.375
 31
0.0
  0
LINE
  8
0
  6
CONTINUOUS
 62
     2
 10
190.8
 20
125.375
 30
0.0
 11
191.2
 21
125.375
 31
0.0
  0
LINE
  8
0
  6
CONTINUOUS
 62
     2
 10
191.2
 20
125.375
 30
0.0
 11
191.2
 21
124.9
 31
0.0
  0
ARC
  8
0
  6
CONTINUOUS
 62
     2
 10
191.4
 20
124.9
 30
0.0
 40
0.2
 50
180.0
 51
270.0
  0
LINE
  8
0
  6
CONTINUOUS
 62
     2
 10
191.4
 20
124.7
 30
0.0
 11
191.875
 21
124.7
 31
0.0
  0
LINE
  8
0
  6
CONTINUOUS
 62
     2
 10
191.875
 20
124.7
 30
0.0
 11
191.875
 21
124.3
 31
0.0
  0
LINE
  8
0
  6
LTYPE2
 62
     2
 10
193.0
 20
124.5
 30
0.0
 11
189.0
 21
124.5
 31
0.0
  0
LINE
  8
0
  6
LTYPE2
 62
     2
 10
191.0
 20
122.5
 30
0.0
 11
191.0
 21
126.5
 31
0.0
  0
LINE
  8
0
  6
CONTINUOUS
 62
     2
 10
195.7
 20
101.4
 30
0.0
 11
195.7
 21
122.6
 31
0.0
  0
LINE
  8
0
  6
CONTINUOUS
 62
     2
 10
195.7
 20
122.6
 30
0.0
 11
186.3
 21
122.6
 31
0.0
  0
LINE
  8
0
  6
CONTINUOUS
 62
     2
 10
186.3
 20
122.6
 30
0.0
 11
186.3
 21
101.4
 31
0.0
  0
LINE
  8
0
  6
CONTINUOUS
 62
     2
 10
186.3
 20
101.4
 30
0.0
 11
195.7
 21
101.4
 31
0.0
  0
LINE
  8
0
  6
CONTINUOUS
 62
     5
 10
186.25
 20
122.0
 30
0.0
 11
182.25
 21
122.0
 31
0.0
  0
LINE
  8
0
  6
CONTINUOUS
 62
     5
 10
182.5
 20
118.9
 30
0.0
 11
182.5
 21
114.9
 31
0.0
  0
LINE
  8
0
  6
CONTINUOUS
 62
     5
 10
182.5
 20
118.9
 30
0.0
 11
183.25
 21
119.5
 31
0.0
  0
LINE
  8
0
  6
CONTINUOUS
 62
     5
 10
182.5
 20
114.9
 30
0.0
 11
183.25
 21
114.3
 31
0.0
  0
TEXT
  8
0
  6
CONTINUOUS
 62
     5
 10
183.5
 20
118.75
 30
0.1
 40
1.5
  1
１＋
 50
0.0
 41
0.666666667
 51
0.0
  7
KANJI11
  0
TEXT
  8
0
  6
CONTINUOUS
 62
     5
 10
183.5
 20
113.5
 30
0.1
 40
1.5
  1
２－
 50
0.0
 41
0.666666667
 51
0.0
  7
KANJI11
  0
TEXT
  8
0
  6
CONTINUOUS
 62
     5
 10
182.35
 20
115.8
 30
0.05
 40
1.0
  1
ＩＮＰＵＴ
 50
0.0
 41
0.75
 51
0.0
  7
KANJI12
  0
TEXT
  8
0
  6
CONTINUOUS
 62
     5
 10
182.65
 20
117.2
 30
0.05
 40
1.0
  1
ＬＥＦＴ
 50
0.0
 41
0.75
 51
0.0
  7
KANJI12
  0
TEXT
  8
0
  6
CONTINUOUS
 62
     5
 10
182.35
 20
105.5
 30
0.05
 40
1.0
  1
ＩＮＰＵＴ
 50
0.0
 41
0.75
 51
0.0
  7
KANJI12
  0
TEXT
  8
0
  6
CONTINUOUS
 62
     5
 10
182.45
 20
106.9
 30
0.05
 40
1.0
  1
ＲＩＧＨＴ
 50
0.0
 41
0.75
 51
0.0
  7
KANJI12
  0
LINE
  8
0
  6
CONTINUOUS
 62
     5
 10
182.5
 20
108.9
 30
0.0
 11
182.5
 21
104.9
 31
0.0
  0
LINE
  8
0
  6
CONTINUOUS
 62
     5
 10
182.5
 20
108.9
 30
0.0
 11
183.25
 21
109.5
 31
0.0
  0
LINE
  8
0
  6
CONTINUOUS
 62
     5
 10
182.5
 20
104.9
 30
0.0
 11
183.25
 21
104.3
 31
0.0
  0
TEXT
  8
0
  6
CONTINUOUS
 62
     5
 10
183.5
 20
108.75
 30
0.1
 40
1.5
  1
３＋
 50
0.0
 41
0.666666667
 51
0.0
  7
KANJI11
  0
TEXT
  8
0
  6
CONTINUOUS
 62
     5
 10
183.5
 20
103.5
 30
0.1
 40
1.5
  1
４－
 50
0.0
 41
0.666666667
 51
0.0
  7
KANJI11
  0
LINE
  8
0
  6
CONTINUOUS
 62
     5
 10
182.25
 20
102.0
 30
0.0
 11
182.25
 21
122.0
 31
0.0
  0
LINE
  8
0
  6
CONTINUOUS
 62
     5
 10
182.25
 20
102.0
 30
0.0
 11
186.25
 21
102.0
 31
0.0
  0
LINE
  8
0
  6
CONTINUOUS
 62
     5
 10
186.25
 20
122.0
 30
0.0
 11
186.25
 21
102.0
 31
0.0
  0
LINE
  8
0
  6
CONTINUOUS
 62
     1
 10
153.75
 20
126.55
 30
0.0
 11
153.75
 21
122.45
 31
0.0
  0
LINE
  8
0
  6
CONTINUOUS
 62
     1
 10
153.75
 20
122.45
 30
0.0
 11
160.25
 21
122.45
 31
0.0
  0
LINE
  8
0
  6
CONTINUOUS
 62
     1
 10
160.25
 20
122.45
 30
0.0
 11
160.25
 21
121.55
 31
0.0
  0
LINE
  8
0
  6
CONTINUOUS
 62
     1
 10
160.25
 20
121.55
 30
0.0
 11
153.75
 21
121.55
 31
0.0
  0
LINE
  8
0
  6
CONTINUOUS
 62
     1
 10
153.75
 20
121.55
 30
0.0
 11
153.75
 21
117.45
 31
0.0
  0
LINE
  8
0
  6
CONTINUOUS
 62
     1
 10
153.75
 20
117.45
 30
0.0
 11
160.25
 21
117.45
 31
0.0
  0
LINE
  8
0
  6
CONTINUOUS
 62
     1
 10
160.25
 20
117.45
 30
0.0
 11
160.25
 21
116.55
 31
0.0
  0
LINE
  8
0
  6
CONTINUOUS
 62
     1
 10
160.25
 20
116.55
 30
0.0
 11
153.75
 21
116.55
 31
0.0
  0
LINE
  8
0
  6
CONTINUOUS
 62
     1
 10
153.75
 20
116.55
 30
0.0
 11
153.75
 21
112.45
 31
0.0
  0
LINE
  8
0
  6
CONTINUOUS
 62
     1
 10
153.75
 20
112.45
 30
0.0
 11
160.25
 21
112.45
 31
0.0
  0
LINE
  8
0
  6
CONTINUOUS
 62
     1
 10
160.25
 20
112.45
 30
0.0
 11
160.25
 21
111.55
 31
0.0
  0
LINE
  8
0
  6
CONTINUOUS
 62
     1
 10
160.25
 20
111.55
 30
0.0
 11
153.75
 21
111.55
 31
0.0
  0
LINE
  8
0
  6
CONTINUOUS
 62
     1
 10
153.75
 20
111.55
 30
0.0
 11
153.75
 21
107.45
 31
0.0
  0
LINE
  8
0
  6
CONTINUOUS
 62
     1
 10
153.75
 20
107.45
 30
0.0
 11
160.25
 21
107.45
 31
0.0
  0
LINE
  8
0
  6
CONTINUOUS
 62
     1
 10
160.25
 20
107.45
 30
0.0
 11
160.25
 21
106.55
 31
0.0
  0
LINE
  8
0
  6
CONTINUOUS
 62
     1
 10
160.25
 20
106.55
 30
0.0
 11
153.75
 21
106.55
 31
0.0
  0
LINE
  8
0
  6
CONTINUOUS
 62
     1
 10
153.75
 20
106.55
 30
0.0
 11
153.75
 21
102.45
 31
0.0
  0
LINE
  8
0
  6
CONTINUOUS
 62
     1
 10
153.75
 20
102.45
 30
0.0
 11
160.25
 21
102.45
 31
0.0
  0
LINE
  8
0
  6
CONTINUOUS
 62
     1
 10
160.25
 20
102.45
 30
0.0
 11
160.25
 21
101.55
 31
0.0
  0
LINE
  8
0
  6
CONTINUOUS
 62
     1
 10
160.25
 20
101.55
 30
0.0
 11
153.75
 21
101.55
 31
0.0
  0
LINE
  8
0
  6
CONTINUOUS
 62
     1
 10
153.75
 20
101.55
 30
0.0
 11
153.75
 21
97.45
 31
0.0
  0
LINE
  8
0
  6
CONTINUOUS
 62
     2
 10
155.75
 20
126.55
 30
0.0
 11
155.75
 21
122.45
 31
0.0
  0
LINE
  8
0
  6
CONTINUOUS
 62
     2
 10
156.15
 20
122.45
 30
0.0
 11
156.15
 21
126.55
 31
0.0
  0
LINE
  8
0
  6
CONTINUOUS
 62
     2
 10
156.15
 20
126.55
 30
0.0
 11
155.75
 21
126.55
 31
0.0
  0
LINE
  8
0
  6
CONTINUOUS
 62
     2
 10
155.75
 20
125.75
 30
0.0
 11
156.15
 21
125.75
 31
0.0
  0
LINE
  8
0
  6
CONTINUOUS
 62
     2
 10
155.75
 20
123.25
 30
0.0
 11
156.15
 21
123.25
 31
0.0
  0
LINE
  8
0
  6
CONTINUOUS
 62
     2
 10
155.75
 20
121.55
 30
0.0
 11
155.75
 21
117.45
 31
0.0
  0
LINE
  8
0
  6
CONTINUOUS
 62
     2
 10
156.15
 20
117.45
 30
0.0
 11
156.15
 21
121.55
 31
0.0
  0
LINE
  8
0
  6
CONTINUOUS
 62
     2
 10
155.75
 20
120.75
 30
0.0
 11
156.15
 21
120.75
 31
0.0
  0
LINE
  8
0
  6
CONTINUOUS
 62
     2
 10
155.75
 20
118.25
 30
0.0
 11
156.15
 21
118.25
 31
0.0
  0
LINE
  8
0
  6
CONTINUOUS
 62
     2
 10
155.75
 20
116.55
 30
0.0
 11
155.75
 21
112.45
 31
0.0
  0
LINE
  8
0
  6
CONTINUOUS
 62
     2
 10
156.15
 20
112.45
 30
0.0
 11
156.15
 21
116.55
 31
0.0
  0
LINE
  8
0
  6
CONTINUOUS
 62
     2
 10
155.75
 20
115.75
 30
0.0
 11
156.15
 21
115.75
 31
0.0
  0
LINE
  8
0
  6
CONTINUOUS
 62
     2
 10
155.75
 20
113.25
 30
0.0
 11
156.15
 21
113.25
 31
0.0
  0
LINE
  8
0
  6
CONTINUOUS
 62
     2
 10
155.75
 20
111.55
 30
0.0
 11
155.75
 21
107.45
 31
0.0
  0
LINE
  8
0
  6
CONTINUOUS
 62
     2
 10
155.75
 20
110.75
 30
0.0
 11
156.15
 21
110.75
 31
0.0
  0
LINE
  8
0
  6
CONTINUOUS
 62
     2
 10
155.75
 20
108.25
 30
0.0
 11
156.15
 21
108.25
 31
0.0
  0
LINE
  8
0
  6
CONTINUOUS
 62
     2
 10
155.75
 20
106.55
 30
0.0
 11
155.75
 21
102.45
 31
0.0
  0
LINE
  8
0
  6
CONTINUOUS
 62
     2
 10
155.75
 20
105.75
 30
0.0
 11
156.15
 21
105.75
 31
0.0
  0
LINE
  8
0
  6
CONTINUOUS
 62
     2
 10
155.75
 20
103.25
 30
0.0
 11
156.15
 21
103.25
 31
0.0
  0
LINE
  8
0
  6
CONTINUOUS
 62
     2
 10
155.75
 20
101.55
 30
0.0
 11
155.75
 21
97.45
 31
0.0
  0
LINE
  8
0
  6
CONTINUOUS
 62
     2
 10
156.15
 20
97.45
 30
0.0
 11
156.15
 21
101.55
 31
0.0
  0
LINE
  8
0
  6
CONTINUOUS
 62
     2
 10
155.75
 20
100.75
 30
0.0
 11
156.15
 21
100.75
 31
0.0
  0
LINE
  8
0
  6
CONTINUOUS
 62
     2
 10
155.75
 20
98.25
 30
0.0
 11
156.15
 21
98.25
 31
0.0
  0
LINE
  8
0
  6
CONTINUOUS
 62
     2
 10
158.85
 20
122.45
 30
0.0
 11
158.85
 21
121.55
 31
0.0
  0
LINE
  8
0
  6
CONTINUOUS
 62
     2
 10
159.35
 20
121.55
 30
0.0
 11
159.35
 21
122.45
 31
0.0
  0
LINE
  8
0
  6
CONTINUOUS
 62
     2
 10
158.25
 20
122.45
 30
0.0
 11
158.25
 21
121.55
 31
0.0
  0
LINE
  8
0
  6
CONTINUOUS
 62
     2
 10
158.85
 20
117.45
 30
0.0
 11
158.85
 21
116.55
 31
0.0
  0
LINE
  8
0
  6
CONTINUOUS
 62
     2
 10
159.35
 20
116.55
 30
0.0
 11
159.35
 21
117.45
 31
0.0
  0
LINE
  8
0
  6
CONTINUOUS
 62
     2
 10
158.25
 20
117.45
 30
0.0
 11
158.25
 21
116.55
 31
0.0
  0
LINE
  8
0
  6
CONTINUOUS
 62
     2
 10
158.85
 20
112.45
 30
0.0
 11
158.85
 21
111.55
 31
0.0
  0
LINE
  8
0
  6
CONTINUOUS
 62
     2
 10
159.35
 20
111.55
 30
0.0
 11
159.35
 21
112.45
 31
0.0
  0
LINE
  8
0
  6
CONTINUOUS
 62
     2
 10
158.25
 20
112.45
 30
0.0
 11
158.25
 21
111.55
 31
0.0
  0
LINE
  8
0
  6
CONTINUOUS
 62
     2
 10
158.85
 20
107.45
 30
0.0
 11
158.85
 21
106.55
 31
0.0
  0
LINE
  8
0
  6
CONTINUOUS
 62
     2
 10
159.35
 20
106.55
 30
0.0
 11
159.35
 21
107.45
 31
0.0
  0
LINE
  8
0
  6
CONTINUOUS
 62
     2
 10
158.25
 20
107.45
 30
0.0
 11
158.25
 21
106.55
 31
0.0
  0
LINE
  8
0
  6
CONTINUOUS
 62
     2
 10
158.85
 20
102.45
 30
0.0
 11
158.85
 21
101.55
 31
0.0
  0
LINE
  8
0
  6
CONTINUOUS
 62
     2
 10
159.35
 20
101.55
 30
0.0
 11
159.35
 21
102.45
 31
0.0
  0
LINE
  8
0
  6
CONTINUOUS
 62
     2
 10
158.25
 20
102.45
 30
0.0
 11
158.25
 21
101.55
 31
0.0
  0
LINE
  8
0
  6
CONTINUOUS
 62
     2
 10
156.54
 20
125.83
 30
0.0
 11
156.54
 21
123.17
 31
0.0
  0
LINE
  8
0
  6
CONTINUOUS
 62
     2
 10
156.85
 20
123.19
 30
0.0
 11
156.54
 21
123.17
 31
0.0
  0
LINE
  8
0
  6
CONTINUOUS
 62
     2
 10
156.54
 20
125.83
 30
0.0
 11
156.85
 21
125.83
 31
0.0
  0
LINE
  8
0
  6
CONTINUOUS
 62
     2
 10
157.59
 20
125.08
 30
0.0
 11
157.59
 21
123.92
 31
0.0
  0
ARC
  8
0
  6
CONTINUOUS
 62
     2
 10
156.84
 20
125.08
 30
0.0
 40
0.75
 50
0.0
 51
90.0
  0
ARC
  8
0
  6
CONTINUOUS
 62
     2
 10
156.84
 20
123.92
 30
0.0
 40
0.75
 50
268.472474559
 51
0.0
  0
LINE
  8
0
  6
CONTINUOUS
 62
     2
 10
156.53
 20
125.85
 30
0.0
 11
156.15
 21
125.85
 31
0.0
  0
LINE
  8
0
  6
CONTINUOUS
 62
     2
 10
156.15
 20
125.85
 30
0.0
 11
156.15
 21
123.17
 31
0.0
  0
LINE
  8
0
  6
CONTINUOUS
 62
     2
 10
156.15
 20
123.17
 30
0.0
 11
156.53
 21
123.17
 31
0.0
  0
LINE
  8
0
  6
CONTINUOUS
 62
     2
 10
156.15
 20
124.38
 30
0.0
 11
156.53
 21
124.69
 31
0.0
  0
LINE
  8
0
  6
CONTINUOUS
 62
     2
 10
156.15
 20
124.14
 30
0.0
 11
156.54
 21
124.43
 31
0.0
  0
LINE
  8
0
  6
CONTINUOUS
 62
     2
 10
157.59
 20
124.71
 30
0.0
 11
157.52
 21
124.71
 31
0.0
  0
LINE
  8
0
  6
CONTINUOUS
 62
     2
 10
157.52
 20
124.72
 30
0.0
 11
157.52
 21
124.34
 31
0.0
  0
LINE
  8
0
  6
CONTINUOUS
 62
     2
 10
157.52
 20
124.34
 30
0.0
 11
157.58
 21
124.34
 31
0.0
  0
LINE
  8
0
  6
CONTINUOUS
 62
     2
 10
156.54
 20
120.83
 30
0.0
 11
156.54
 21
118.17
 31
0.0
  0
LINE
  8
0
  6
CONTINUOUS
 62
     2
 10
156.85
 20
118.19
 30
0.0
 11
156.54
 21
118.17
 31
0.0
  0
LINE
  8
0
  6
CONTINUOUS
 62
     2
 10
156.54
 20
120.83
 30
0.0
 11
156.85
 21
120.83
 31
0.0
  0
LINE
  8
0
  6
CONTINUOUS
 62
     2
 10
157.59
 20
120.08
 30
0.0
 11
157.59
 21
118.92
 31
0.0
  0
ARC
  8
0
  6
CONTINUOUS
 62
     2
 10
156.84
 20
120.08
 30
0.0
 40
0.75
 50
0.0
 51
90.0
  0
ARC
  8
0
  6
CONTINUOUS
 62
     2
 10
156.84
 20
118.92
 30
0.0
 40
0.75
 50
268.472474559
 51
0.0
  0
LINE
  8
0
  6
CONTINUOUS
 62
     2
 10
156.53
 20
120.85
 30
0.0
 11
156.15
 21
120.85
 31
0.0
  0
LINE
  8
0
  6
CONTINUOUS
 62
     2
 10
156.15
 20
120.85
 30
0.0
 11
156.15
 21
118.17
 31
0.0
  0
LINE
  8
0
  6
CONTINUOUS
 62
     2
 10
156.15
 20
118.17
 30
0.0
 11
156.53
 21
118.17
 31
0.0
  0
LINE
  8
0
  6
CONTINUOUS
 62
     2
 10
156.15
 20
119.38
 30
0.0
 11
156.53
 21
119.69
 31
0.0
  0
LINE
  8
0
  6
CONTINUOUS
 62
     2
 10
156.15
 20
119.14
 30
0.0
 11
156.54
 21
119.43
 31
0.0
  0
LINE
  8
0
  6
CONTINUOUS
 62
     2
 10
157.59
 20
119.71
 30
0.0
 11
157.52
 21
119.71
 31
0.0
  0
LINE
  8
0
  6
CONTINUOUS
 62
     2
 10
157.52
 20
119.72
 30
0.0
 11
157.52
 21
119.34
 31
0.0
  0
LINE
  8
0
  6
CONTINUOUS
 62
     2
 10
157.52
 20
119.34
 30
0.0
 11
157.58
 21
119.34
 31
0.0
  0
LINE
  8
0
  6
CONTINUOUS
 62
     2
 10
156.54
 20
115.83
 30
0.0
 11
156.54
 21
113.17
 31
0.0
  0
LINE
  8
0
  6
CONTINUOUS
 62
     2
 10
156.85
 20
113.19
 30
0.0
 11
156.54
 21
113.17
 31
0.0
  0
LINE
  8
0
  6
CONTINUOUS
 62
     2
 10
156.54
 20
115.83
 30
0.0
 11
156.85
 21
115.83
 31
0.0
  0
LINE
  8
0
  6
CONTINUOUS
 62
     2
 10
157.59
 20
115.08
 30
0.0
 11
157.59
 21
113.92
 31
0.0
  0
ARC
  8
0
  6
CONTINUOUS
 62
     2
 10
156.84
 20
115.08
 30
0.0
 40
0.75
 50
0.0
 51
90.0
  0
ARC
  8
0
  6
CONTINUOUS
 62
     2
 10
156.84
 20
113.92
 30
0.0
 40
0.75
 50
268.472474559
 51
0.0
  0
LINE
  8
0
  6
CONTINUOUS
 62
     2
 10
156.53
 20
115.85
 30
0.0
 11
156.15
 21
115.85
 31
0.0
  0
LINE
  8
0
  6
CONTINUOUS
 62
     2
 10
156.15
 20
115.85
 30
0.0
 11
156.15
 21
113.17
 31
0.0
  0
LINE
  8
0
  6
CONTINUOUS
 62
     2
 10
156.15
 20
113.17
 30
0.0
 11
156.53
 21
113.17
 31
0.0
  0
LINE
  8
0
  6
CONTINUOUS
 62
     2
 10
156.15
 20
114.38
 30
0.0
 11
156.53
 21
114.69
 31
0.0
  0
LINE
  8
0
  6
CONTINUOUS
 62
     2
 10
156.15
 20
114.14
 30
0.0
 11
156.54
 21
114.43
 31
0.0
  0
LINE
  8
0
  6
CONTINUOUS
 62
     2
 10
157.59
 20
114.71
 30
0.0
 11
157.52
 21
114.71
 31
0.0
  0
LINE
  8
0
  6
CONTINUOUS
 62
     2
 10
157.52
 20
114.72
 30
0.0
 11
157.52
 21
114.34
 31
0.0
  0
LINE
  8
0
  6
CONTINUOUS
 62
     2
 10
157.52
 20
114.34
 30
0.0
 11
157.58
 21
114.34
 31
0.0
  0
LINE
  8
0
  6
CONTINUOUS
 62
     2
 10
156.54
 20
110.83
 30
0.0
 11
156.54
 21
108.17
 31
0.0
  0
LINE
  8
0
  6
CONTINUOUS
 62
     2
 10
156.85
 20
108.19
 30
0.0
 11
156.54
 21
108.17
 31
0.0
  0
LINE
  8
0
  6
CONTINUOUS
 62
     2
 10
156.54
 20
110.83
 30
0.0
 11
156.85
 21
110.83
 31
0.0
  0
LINE
  8
0
  6
CONTINUOUS
 62
     2
 10
157.59
 20
110.08
 30
0.0
 11
157.59
 21
108.92
 31
0.0
  0
ARC
  8
0
  6
CONTINUOUS
 62
     2
 10
156.84
 20
110.08
 30
0.0
 40
0.75
 50
0.0
 51
90.0
  0
ARC
  8
0
  6
CONTINUOUS
 62
     2
 10
156.84
 20
108.92
 30
0.0
 40
0.75
 50
268.472474559
 51
0.0
  0
LINE
  8
0
  6
CONTINUOUS
 62
     2
 10
156.53
 20
110.85
 30
0.0
 11
156.15
 21
110.85
 31
0.0
  0
LINE
  8
0
  6
CONTINUOUS
 62
     2
 10
156.15
 20
110.85
 30
0.0
 11
156.15
 21
108.17
 31
0.0
  0
LINE
  8
0
  6
CONTINUOUS
 62
     2
 10
156.15
 20
108.17
 30
0.0
 11
156.53
 21
108.17
 31
0.0
  0
LINE
  8
0
  6
CONTINUOUS
 62
     2
 10
156.15
 20
109.38
 30
0.0
 11
156.53
 21
109.69
 31
0.0
  0
LINE
  8
0
  6
CONTINUOUS
 62
     2
 10
156.15
 20
109.14
 30
0.0
 11
156.54
 21
109.43
 31
0.0
  0
LINE
  8
0
  6
CONTINUOUS
 62
     2
 10
157.59
 20
109.71
 30
0.0
 11
157.52
 21
109.71
 31
0.0
  0
LINE
  8
0
  6
CONTINUOUS
 62
     2
 10
157.52
 20
109.72
 30
0.0
 11
157.52
 21
109.34
 31
0.0
  0
LINE
  8
0
  6
CONTINUOUS
 62
     2
 10
157.52
 20
109.34
 30
0.0
 11
157.58
 21
109.34
 31
0.0
  0
LINE
  8
0
  6
CONTINUOUS
 62
     2
 10
156.54
 20
105.83
 30
0.0
 11
156.54
 21
103.17
 31
0.0
  0
LINE
  8
0
  6
CONTINUOUS
 62
     2
 10
156.85
 20
103.19
 30
0.0
 11
156.54
 21
103.17
 31
0.0
  0
LINE
  8
0
  6
CONTINUOUS
 62
     2
 10
156.54
 20
105.83
 30
0.0
 11
156.85
 21
105.83
 31
0.0
  0
LINE
  8
0
  6
CONTINUOUS
 62
     2
 10
157.59
 20
105.08
 30
0.0
 11
157.59
 21
103.92
 31
0.0
  0
ARC
  8
0
  6
CONTINUOUS
 62
     2
 10
156.84
 20
105.08
 30
0.0
 40
0.75
 50
0.0
 51
90.0
  0
ARC
  8
0
  6
CONTINUOUS
 62
     2
 10
156.84
 20
103.92
 30
0.0
 40
0.75
 50
268.472474559
 51
0.0
  0
LINE
  8
0
  6
CONTINUOUS
 62
     2
 10
156.53
 20
105.85
 30
0.0
 11
156.15
 21
105.85
 31
0.0
  0
LINE
  8
0
  6
CONTINUOUS
 62
     2
 10
156.15
 20
105.85
 30
0.0
 11
156.15
 21
103.17
 31
0.0
  0
LINE
  8
0
  6
CONTINUOUS
 62
     2
 10
156.15
 20
103.17
 30
0.0
 11
156.53
 21
103.17
 31
0.0
  0
LINE
  8
0
  6
CONTINUOUS
 62
     2
 10
156.15
 20
104.38
 30
0.0
 11
156.53
 21
104.69
 31
0.0
  0
LINE
  8
0
  6
CONTINUOUS
 62
     2
 10
156.15
 20
104.14
 30
0.0
 11
156.54
 21
104.43
 31
0.0
  0
LINE
  8
0
  6
CONTINUOUS
 62
     2
 10
157.59
 20
104.71
 30
0.0
 11
157.52
 21
104.71
 31
0.0
  0
LINE
  8
0
  6
CONTINUOUS
 62
     2
 10
157.52
 20
104.72
 30
0.0
 11
157.52
 21
104.34
 31
0.0
  0
LINE
  8
0
  6
CONTINUOUS
 62
     2
 10
157.52
 20
104.34
 30
0.0
 11
157.58
 21
104.34
 31
0.0
  0
LINE
  8
0
  6
CONTINUOUS
 62
     2
 10
156.54
 20
100.83
 30
0.0
 11
156.54
 21
98.17
 31
0.0
  0
LINE
  8
0
  6
CONTINUOUS
 62
     2
 10
156.85
 20
98.19
 30
0.0
 11
156.54
 21
98.17
 31
0.0
  0
LINE
  8
0
  6
CONTINUOUS
 62
     2
 10
156.54
 20
100.83
 30
0.0
 11
156.85
 21
100.83
 31
0.0
  0
LINE
  8
0
  6
CONTINUOUS
 62
     2
 10
157.59
 20
100.08
 30
0.0
 11
157.59
 21
98.92
 31
0.0
  0
ARC
  8
0
  6
CONTINUOUS
 62
     2
 10
156.84
 20
100.08
 30
0.0
 40
0.75
 50
0.0
 51
90.0
  0
ARC
  8
0
  6
CONTINUOUS
 62
     2
 10
156.84
 20
98.92
 30
0.0
 40
0.75
 50
268.472474559
 51
0.0
  0
LINE
  8
0
  6
CONTINUOUS
 62
     2
 10
156.53
 20
100.85
 30
0.0
 11
156.15
 21
100.85
 31
0.0
  0
LINE
  8
0
  6
CONTINUOUS
 62
     2
 10
156.15
 20
100.85
 30
0.0
 11
156.15
 21
98.17
 31
0.0
  0
LINE
  8
0
  6
CONTINUOUS
 62
     2
 10
156.15
 20
98.17
 30
0.0
 11
156.53
 21
98.17
 31
0.0
  0
LINE
  8
0
  6
CONTINUOUS
 62
     2
 10
156.15
 20
99.38
 30
0.0
 11
156.53
 21
99.69
 31
0.0
  0
LINE
  8
0
  6
CONTINUOUS
 62
     2
 10
156.15
 20
99.14
 30
0.0
 11
156.54
 21
99.43
 31
0.0
  0
LINE
  8
0
  6
CONTINUOUS
 62
     2
 10
157.59
 20
99.71
 30
0.0
 11
157.52
 21
99.71
 31
0.0
  0
LINE
  8
0
  6
CONTINUOUS
 62
     2
 10
157.52
 20
99.72
 30
0.0
 11
157.52
 21
99.34
 31
0.0
  0
LINE
  8
0
  6
CONTINUOUS
 62
     2
 10
157.52
 20
99.34
 30
0.0
 11
157.58
 21
99.34
 31
0.0
  0
LINE
  8
0
  6
CONTINUOUS
 62
     2
 10
155.75
 20
97.45
 30
0.0
 11
156.15
 21
97.45
 31
0.0
  0
LINE
  8
0
  6
CONTINUOUS
 62
     1
 10
153.75
 20
97.45
 30
0.0
 11
151.0
 21
97.45
 31
0.0
  0
LINE
  8
0
  6
CONTINUOUS
 62
     1
 10
151.0
 20
97.45
 30
0.0
 11
151.0
 21
126.55
 31
0.0
  0
LINE
  8
0
  6
CONTINUOUS
 62
     1
 10
151.0
 20
126.55
 30
0.0
 11
153.75
 21
126.55
 31
0.0
  0
LINE
  8
0
  6
CONTINUOUS
 62
     2
 10
153.75
 20
126.55
 30
0.0
 11
155.75
 21
126.55
 31
0.0
  0
LINE
  8
0
  6
CONTINUOUS
 62
     2
 10
153.75
 20
97.45
 30
0.0
 11
155.75
 21
97.45
 31
0.0
  0
LINE
  8
0
  6
CONTINUOUS
 62
     2
 10
160.7
 20
101.4
 30
0.0
 11
159.0
 21
101.4
 31
0.0
  0
LINE
  8
0
  6
CONTINUOUS
 62
     2
 10
160.7
 20
122.6
 30
0.0
 11
160.7
 21
101.4
 31
0.0
  0
LINE
  8
0
  6
CONTINUOUS
 62
     2
 10
159.0
 20
101.4
 30
0.0
 11
159.0
 21
122.6
 31
0.0
  0
LINE
  8
0
  6
CONTINUOUS
 62
     2
 10
159.0
 20
122.6
 30
0.0
 11
160.7
 21
122.6
 31
0.0
  0
LINE
  8
0
  6
CONTINUOUS
 62
     2
 10
161.25
 20
121.55
 30
0.0
 11
167.25
 21
121.55
 31
0.0
  0
LINE
  8
0
  6
CONTINUOUS
 62
     2
 10
165.25
 20
121.55
 30
0.0
 11
165.897047613
 21
123.964814566
 31
0.0
  0
LINE
  8
0
  6
CONTINUOUS
 62
     2
 10
165.25
 20
121.55
 30
0.0
 11
164.602952387
 21
123.964814566
 31
0.0
  0
LINE
  8
0
  6
CONTINUOUS
 62
     2
 10
165.25
 20
125.3
 30
0.0
 11
165.25
 21
121.55
 31
0.0
  0
LINE
  8
0
  6
CONTINUOUS
 62
     2
 10
165.25
 20
121.55
 30
0.0
 11
165.25
 21
117.45
 31
0.0
  0
LINE
  8
0
  6
CONTINUOUS
 62
     2
 10
165.25
 20
117.45
 30
0.0
 11
165.25
 21
113.7
 31
0.0
  0
LINE
  8
0
  6
CONTINUOUS
 62
     2
 10
165.25
 20
117.45
 30
0.0
 11
164.602952387
 21
115.035185434
 31
0.0
  0
LINE
  8
0
  6
CONTINUOUS
 62
     2
 10
165.25
 20
117.45
 30
0.0
 11
165.897047613
 21
115.035185434
 31
0.0
  0
LINE
  8
0
  6
CONTINUOUS
 62
     2
 10
161.25
 20
117.45
 30
0.0
 11
167.25
 21
117.45
 31
0.0
  0
TEXT
  8
0
  6
CONTINUOUS
 62
     2
 10
164.25
 20
117.5
 30
0.2
 40
3.0
  1
８．２
 50
90.0
 41
0.5
 51
0.0
  7
KANJI9
  0
LINE
  8
0
  6
CONTINUOUS
 62
     2
 10
157.59
 20
114.568282402
 30
0.0
 11
158.237047613
 21
112.153467837
 31
0.0
  0
LINE
  8
0
  6
CONTINUOUS
 62
     2
 10
157.59
 20
114.568282402
 30
0.0
 11
159.357766953
 21
112.800515449
 31
0.0
  0
LINE
  8
0
  6
CONTINUOUS
 62
     2
 10
157.59
 20
114.568282402
 30
0.0
 11
161.631451884
 21
107.568282402
 31
0.0
  0
TEXT
  8
0
  6
CONTINUOUS
 62
     2
 10
161.631451884
 20
108.568282402
 30
0.3
 40
3.0
  1
Ｍ３ネジ
 50
0.0
 41
0.6
 51
0.0
  7
KANJI0
  0
LINE
  8
0
  6
CONTINUOUS
 62
     2
 10
161.631451884
 20
107.568282402
 30
0.0
 11
169.631451884
 21
107.568282402
 31
0.0
  0
LINE
  8
0
  6
CONTINUOUS
 62
     2
 10
160.7
 20
103.650961894
 30
0.0
 11
161.347047613
 21
101.236147329
 31
0.0
  0
LINE
  8
0
  6
CONTINUOUS
 62
     2
 10
160.7
 20
103.650961894
 30
0.0
 11
162.467766953
 21
101.883194941
 31
0.0
  0
TEXT
  8
0
  6
CONTINUOUS
 62
     2
 10
163.586751346
 20
99.650961894
 30
0.3
 40
3.0
  1
端子カバー
 50
0.0
 41
0.666666667
 51
0.0
  7
KANJI10
  0
LINE
  8
0
  6
CONTINUOUS
 62
     2
 10
163.586751346
 20
98.650961894
 30
0.0
 11
174.786751346
 21
98.650961894
 31
0.0
  0
LINE
  8
0
  6
CONTINUOUS
 62
     2
 10
160.7
 20
103.650961894
 30
0.0
 11
163.586751346
 21
98.650961894
 31
0.0
  0
TEXT
  8
0
  6
CONTINUOUS
 62
     2
 10
174.281803249
 20
116.0
 30
0.3
 40
3.0
  1
１３０
 50
90.0
 41
0.6
 51
0.0
  7
KANJI0
  0
LINE
  8
0
  6
LTYPE1
 62
     2
 10
154.25
 20
99.5
 30
0.0
 11
158.75
 21
99.5
 31
0.0
  0
LINE
  8
0
  6
LTYPE1
 62
     2
 10
154.25
 20
104.5
 30
0.0
 11
158.75
 21
104.5
 31
0.0
  0
LINE
  8
0
  6
LTYPE1
 62
     2
 10
154.25
 20
109.5
 30
0.0
 11
158.75
 21
109.5
 31
0.0
  0
LINE
  8
0
  6
LTYPE1
 62
     2
 10
154.25
 20
114.5
 30
0.0
 11
158.75
 21
114.5
 31
0.0
  0
LINE
  8
0
  6
LTYPE1
 62
     2
 10
154.25
 20
119.5
 30
0.0
 11
158.75
 21
119.5
 31
0.0
  0
LINE
  8
0
  6
LTYPE1
 62
     2
 10
154.25
 20
124.5
 30
0.0
 11
158.75
 21
124.5
 31
0.0
  0
LINE
  8
0
  6
CONTINUOUS
 62
     2
 10
207.5
 20
109.5
 30
0.0
 11
208.147047613
 21
111.914814566
 31
0.0
  0
LINE
  8
0
  6
CONTINUOUS
 62
     2
 10
207.5
 20
109.5
 30
0.0
 11
206.852952387
 21
111.914814566
 31
0.0
  0
LINE
  8
0
  6
CONTINUOUS
 62
     2
 10
207.5
 20
113.25
 30
0.0
 11
207.5
 21
109.5
 31
0.0
  0
LINE
  8
0
  6
CONTINUOUS
 62
     2
 10
207.5
 20
109.5
 30
0.0
 11
207.5
 21
104.5
 31
0.0
  0
LINE
  8
0
  6
CONTINUOUS
 62
     2
 10
207.5
 20
104.5
 30
0.0
 11
207.5
 21
100.75
 31
0.0
  0
LINE
  8
0
  6
CONTINUOUS
 62
     2
 10
207.5
 20
104.5
 30
0.0
 11
206.852952387
 21
102.085185434
 31
0.0
  0
LINE
  8
0
  6
CONTINUOUS
 62
     2
 10
207.5
 20
104.5
 30
0.0
 11
208.147047613
 21
102.085185434
 31
0.0
  0
TEXT
  8
0
  6
CONTINUOUS
 62
     2
 10
206.5
 20
105.05
 30
0.3
 40
3.0
  1
１０
 50
90.0
 41
0.6
 51
0.0
  7
KANJI0
  0
LINE
  8
0
  6
CONTINUOUS
 62
     2
 10
193.9
 20
109.5
 30
0.0
 11
209.5
 21
109.5
 31
0.0
  0
LINE
  8
0
  6
CONTINUOUS
 62
     2
 10
193.9
 20
104.5
 30
0.0
 11
209.5
 21
104.5
 31
0.0
  0
LINE
  8
0
  6
CONTINUOUS
 62
     1
 10
61.75
 20
149.75
 30
0.0
 11
61.75
 21
144.5
 31
0.0
  0
POINT
  8
0
  6
CONTINUOUS
 62
     1
 10
61.75
 20
79.5
 30
0.0
  0
LINE
  8
0
  6
CONTINUOUS
 62
     1
 10
61.75
 20
79.5
 30
0.0
 11
61.75
 21
77.75
 31
0.0
  0
POINT
  8
0
  6
CONTINUOUS
 62
     1
 10
55.0
 20
76.5
 30
0.0
  0
LINE
  8
0
  6
CONTINUOUS
 62
     1
 10
70.75
 20
79.5
 30
0.0
 11
61.75
 21
79.5
 31
0.0
  0
LINE
  8
0
  6
CONTINUOUS
 62
     1
 10
61.75
 20
144.5
 30
0.0
 11
70.75
 21
144.5
 31
0.0
  0
LINE
  8
0
  6
CONTINUOUS
 62
     1
 10
70.75
 20
144.5
 30
0.0
 11
70.75
 21
79.5
 31
0.0
  0
LINE
  8
0
  6
CONTINUOUS
 62
     1
 10
49.202167242
 20
84.0
 30
0.0
 11
50.768424343
 21
84.0
 31
0.0
  0
LINE
  8
0
  6
CONTINUOUS
 62
     1
 10
49.202167242
 20
144.0
 30
0.0
 11
50.768424343
 21
144.0
 31
0.0
  0
LINE
  8
0
  6
CONTINUOUS
 62
     1
 10
61.75
 20
150.25
 30
0.0
 11
61.75
 21
149.75
 31
0.0
  0
ARC
  8
0
  6
CONTINUOUS
 62
     1
 10
48.675082634
 20
144.849812812
 30
0.0
 40
1.0
 50
301.808684362
 51
24.268920626
  0
ARC
  8
0
  6
CONTINUOUS
 62
     1
 10
49.070334262
 20
146.117195465
 30
0.0
 40
1.0
 50
301.08938855
 51
23.549624813
  0
ARC
  8
0
  6
CONTINUOUS
 62
     1
 10
49.481465149
 20
147.379516357
 30
0.0
 40
1.0
 50
300.370092737
 51
22.830329001
  0
ARC
  8
0
  6
CONTINUOUS
 62
     1
 10
49.9084105
 20
148.636576541
 30
0.0
 40
1.0
 50
299.650796924
 51
22.111033188
  0
ARC
  8
0
  6
CONTINUOUS
 62
     1
 10
50.351103027
 20
149.888177901
 30
0.0
 40
1.0
 50
298.931501111
 51
21.350299992
  0
ARC
  8
0
  6
CONTINUOUS
 62
     1
 10
50.80947296
 20
151.134123182
 30
0.0
 40
1.0
 50
297.856187787
 51
21.256659508
  0
LINE
  8
0
  6
CONTINUOUS
 62
     1
 10
49.202167242
 20
84.0
 30
0.0
 11
50.768424343
 21
84.0
 31
0.0
  0
ARC
  8
0
  6
CONTINUOUS
 62
     1
 10
48.675082634
 20
83.150187188
 30
0.0
 40
1.0
 50
335.731079374
 51
58.191315638
  0
ARC
  8
0
  6
CONTINUOUS
 62
     1
 10
49.070334262
 20
81.882804535
 30
0.0
 40
1.0
 50
336.450375187
 51
58.91061145
  0
ARC
  8
0
  6
CONTINUOUS
 62
     1
 10
49.481465149
 20
80.620483643
 30
0.0
 40
1.0
 50
337.169670999
 51
59.629907263
  0
ARC
  8
0
  6
CONTINUOUS
 62
     1
 10
49.9084105
 20
79.363423459
 30
0.0
 40
1.0
 50
337.888966812
 51
60.349203076
  0
ARC
  8
0
  6
CONTINUOUS
 62
     1
 10
50.351103027
 20
78.111822099
 30
0.0
 40
1.0
 50
338.649700008
 51
61.068498889
  0
ARC
  8
0
  6
CONTINUOUS
 62
     1
 10
50.80947296
 20
76.865876818
 30
0.0
 40
1.0
 50
338.743340492
 51
62.143812213
  0
LINE
  8
0
  6
CONTINUOUS
 62
     1
 10
50.768424343
 20
144.0
 30
0.0
 11
54.018358049
 21
142.376570045
 31
0.0
  0
LINE
  8
0
  6
CONTINUOUS
 62
     1
 10
50.768424343
 20
84.0
 30
0.0
 11
54.018358049
 21
85.623429955
 31
0.0
  0
ARC
  8
0
  6
CONTINUOUS
 62
     1
 10
110.82522623
 20
114.0
 30
0.0
 40
63.5
 50
153.456629125
 51
206.543370875
  0
LINE
  8
0
  6
LTYPE1
 62
     2
 10
66.5
 20
144.5
 30
0.0
 11
66.5
 21
139.5
 31
0.0
  0
LINE
  8
0
  6
LTYPE1
 62
     2
 10
64.0
 20
142.0
 30
0.0
 11
69.0
 21
142.0
 31
0.0
  0
LINE
  8
0
  6
LTYPE1
 62
     2
 10
66.5
 20
84.5
 30
0.0
 11
66.5
 21
79.5
 31
0.0
  0
LINE
  8
0
  6
LTYPE1
 62
     2
 10
64.0
 20
82.0
 30
0.0
 11
69.0
 21
82.0
 31
0.0
  0
LINE
  8
0
  6
CONTINUOUS
 62
     1
 10
70.75
 20
143.875
 30
0.0
 11
150.35
 21
143.875
 31
0.0
  0
LINE
  8
0
  6
CONTINUOUS
 62
     1
 10
150.35
 20
80.125
 30
0.0
 11
70.75
 21
80.125
 31
0.0
  0
CIRCLE
  8
0
  6
CONTINUOUS
 62
     2
 10
66.5
 20
142.0
 30
0.0
 40
1.5
  0
LINE
  8
0
  6
CONTINUOUS
 62
     2
 10
66.022702923
 20
142.76013979
 30
0.0
 11
66.358578644
 21
142.424264069
 31
0.0
  0
ARC
  8
0
  6
CONTINUOUS
 62
     2
 10
66.5
 20
142.565685425
 30
0.0
 40
0.2
 50
225.0
 51
315.0
  0
LINE
  8
0
  6
CONTINUOUS
 62
     2
 10
66.641421356
 20
142.424264069
 30
0.0
 11
66.977297077
 21
142.76013979
 31
0.0
  0
LINE
  8
0
  6
CONTINUOUS
 62
     2
 10
66.977297077
 20
142.76013979
 30
0.0
 11
67.26013979
 21
142.477297077
 31
0.0
  0
LINE
  8
0
  6
CONTINUOUS
 62
     2
 10
67.26013979
 20
142.477297077
 30
0.0
 11
66.924264069
 21
142.141421356
 31
0.0
  0
ARC
  8
0
  6
CONTINUOUS
 62
     2
 10
67.065685425
 20
142.0
 30
0.0
 40
0.2
 50
135.0
 51
225.0
  0
LINE
  8
0
  6
CONTINUOUS
 62
     2
 10
66.924264069
 20
141.858578644
 30
0.0
 11
67.26013979
 21
141.522702923
 31
0.0
  0
LINE
  8
0
  6
CONTINUOUS
 62
     2
 10
67.26013979
 20
141.522702923
 30
0.0
 11
66.977297077
 21
141.23986021
 31
0.0
  0
LINE
  8
0
  6
CONTINUOUS
 62
     2
 10
66.977297077
 20
141.23986021
 30
0.0
 11
66.641421356
 21
141.575735931
 31
0.0
  0
ARC
  8
0
  6
CONTINUOUS
 62
     2
 10
66.5
 20
141.434314575
 30
0.0
 40
0.2
 50
45.0
 51
135.0
  0
LINE
  8
0
  6
CONTINUOUS
 62
     2
 10
66.358578644
 20
141.575735931
 30
0.0
 11
66.022702923
 21
141.23986021
 31
0.0
  0
LINE
  8
0
  6
CONTINUOUS
 62
     2
 10
66.022702923
 20
141.23986021
 30
0.0
 11
65.73986021
 21
141.522702923
 31
0.0
  0
LINE
  8
0
  6
CONTINUOUS
 62
     2
 10
65.73986021
 20
141.522702923
 30
0.0
 11
66.075735931
 21
141.858578644
 31
0.0
  0
ARC
  8
0
  6
CONTINUOUS
 62
     2
 10
65.934314575
 20
142.0
 30
0.0
 40
0.2
 50
315.0
 51
45.0
  0
LINE
  8
0
  6
CONTINUOUS
 62
     2
 10
66.075735931
 20
142.141421356
 30
0.0
 11
65.73986021
 21
142.477297077
 31
0.0
  0
LINE
  8
0
  6
CONTINUOUS
 62
     2
 10
65.73986021
 20
142.477297077
 30
0.0
 11
66.022702923
 21
142.76013979
 31
0.0
  0
LINE
  8
0
  6
LTYPE2
 62
     2
 10
64.5
 20
82.0
 30
0.0
 11
68.5
 21
82.0
 31
0.0
  0
CIRCLE
  8
0
  6
CONTINUOUS
 62
     2
 10
66.5
 20
82.0
 30
0.0
 40
1.5
  0
LINE
  8
0
  6
CONTINUOUS
 62
     2
 10
66.022702923
 20
82.76013979
 30
0.0
 11
66.358578644
 21
82.424264069
 31
0.0
  0
ARC
  8
0
  6
CONTINUOUS
 62
     2
 10
66.5
 20
82.565685425
 30
0.0
 40
0.2
 50
225.0
 51
315.0
  0
LINE
  8
0
  6
CONTINUOUS
 62
     2
 10
66.641421356
 20
82.424264069
 30
0.0
 11
66.977297077
 21
82.76013979
 31
0.0
  0
LINE
  8
0
  6
CONTINUOUS
 62
     2
 10
66.977297077
 20
82.76013979
 30
0.0
 11
67.26013979
 21
82.477297077
 31
0.0
  0
LINE
  8
0
  6
CONTINUOUS
 62
     2
 10
67.26013979
 20
82.477297077
 30
0.0
 11
66.924264069
 21
82.141421356
 31
0.0
  0
ARC
  8
0
  6
CONTINUOUS
 62
     2
 10
67.065685425
 20
82.0
 30
0.0
 40
0.2
 50
135.0
 51
225.0
  0
LINE
  8
0
  6
CONTINUOUS
 62
     2
 10
66.924264069
 20
81.858578644
 30
0.0
 11
67.26013979
 21
81.522702923
 31
0.0
  0
LINE
  8
0
  6
CONTINUOUS
 62
     2
 10
67.26013979
 20
81.522702923
 30
0.0
 11
66.977297077
 21
81.23986021
 31
0.0
  0
LINE
  8
0
  6
CONTINUOUS
 62
     2
 10
66.977297077
 20
81.23986021
 30
0.0
 11
66.641421356
 21
81.575735931
 31
0.0
  0
ARC
  8
0
  6
CONTINUOUS
 62
     2
 10
66.5
 20
81.434314575
 30
0.0
 40
0.2
 50
45.0
 51
135.0
  0
LINE
  8
0
  6
CONTINUOUS
 62
     2
 10
66.358578644
 20
81.575735931
 30
0.0
 11
66.022702923
 21
81.23986021
 31
0.0
  0
LINE
  8
0
  6
CONTINUOUS
 62
     2
 10
66.022702923
 20
81.23986021
 30
0.0
 11
65.73986021
 21
81.522702923
 31
0.0
  0
LINE
  8
0
  6
CONTINUOUS
 62
     2
 10
65.73986021
 20
81.522702923
 30
0.0
 11
66.075735931
 21
81.858578644
 31
0.0
  0
ARC
  8
0
  6
CONTINUOUS
 62
     2
 10
65.934314575
 20
82.0
 30
0.0
 40
0.2
 50
315.0
 51
45.0
  0
LINE
  8
0
  6
CONTINUOUS
 62
     2
 10
66.075735931
 20
82.141421356
 30
0.0
 11
65.73986021
 21
82.477297077
 31
0.0
  0
LINE
  8
0
  6
CONTINUOUS
 62
     2
 10
65.73986021
 20
82.477297077
 30
0.0
 11
66.022702923
 21
82.76013979
 31
0.0
  0
LINE
  8
0
  6
CONTINUOUS
 62
     1
 10
64.5
 20
149.75
 30
0.0
 11
64.5
 21
148.95
 31
0.0
  0
LINE
  8
0
  6
CONTINUOUS
 62
     1
 10
63.7
 20
155.25
 30
0.0
 11
64.5
 21
155.25
 31
0.0
  0
LINE
  8
0
  6
CONTINUOUS
 62
     1
 10
64.5
 20
155.25
 30
0.0
 11
65.3
 21
155.25
 31
0.0
  0
LINE
  8
0
  6
CONTINUOUS
 62
     1
 10
65.3
 20
155.25
 30
0.0
 11
65.3
 21
151.05
 31
0.0
  0
LINE
  8
0
  6
CONTINUOUS
 62
     1
 10
65.3
 20
151.05
 30
0.0
 11
142.9
 21
151.05
 31
0.0
  0
LINE
  8
0
  6
CONTINUOUS
 62
     1
 10
145.7
 20
151.0
 30
0.0
 11
143.7
 21
151.0
 31
0.0
  0
LINE
  8
0
  6
CONTINUOUS
 62
     1
 10
145.7
 20
155.5
 30
0.0
 11
145.7
 21
151.0
 31
0.0
  0
LINE
  8
0
  6
CONTINUOUS
 62
     1
 10
143.7
 20
155.5
 30
0.0
 11
145.7
 21
155.5
 31
0.0
  0
ARC
  8
0
  6
CONTINUOUS
 62
     2
 10
143.91796875
 20
155.5
 30
0.0
 40
1.78203125
 50
320.853748339
 51
360.0
  0
ARC
  8
0
  6
CONTINUOUS
 62
     2
 10
143.91796875
 20
151.0
 30
0.0
 40
1.78203125
 50
0.0
 51
39.146251661
  0
LINE
  8
0
  6
CONTINUOUS
 62
     1
 10
65.95
 20
148.15
 30
0.0
 11
65.95
 21
148.95
 31
0.0
  0
LINE
  8
0
  6
CONTINUOUS
 62
     1
 10
65.95
 20
148.95
 30
0.0
 11
64.5
 21
148.95
 31
0.0
  0
LINE
  8
0
  6
CONTINUOUS
 62
     1
 10
63.7
 20
148.35
 30
0.0
 11
63.7
 21
155.25
 31
0.0
  0
LINE
  8
0
  6
CONTINUOUS
 62
     1
 10
63.9
 20
148.15
 30
0.0
 11
65.95
 21
148.15
 31
0.0
  0
ARC
  8
0
  6
CONTINUOUS
 62
     1
 10
63.9
 20
148.35
 30
0.0
 40
0.2
 50
180.0
 51
270.0
  0
LINE
  8
0
  6
CONTINUOUS
 62
     1
 10
64.5
 20
155.25
 30
0.0
 11
64.5
 21
150.75
 31
0.0
  0
LINE
  8
0
  6
CONTINUOUS
 62
     1
 10
143.7
 20
150.25
 30
0.0
 11
65.0
 21
150.25
 31
0.0
  0
ARC
  8
0
  6
CONTINUOUS
 62
     1
 10
65.0
 20
150.75
 30
0.0
 40
0.5
 50
180.0
 51
270.0
  0
LINE
  8
0
  6
CONTINUOUS
 62
     1
 10
64.5
 20
150.75
 30
0.0
 11
64.5
 21
148.95
 31
0.0
  0
LINE
  8
0
  6
CONTINUOUS
 62
     1
 10
61.75
 20
149.45
 30
0.0
 11
61.75
 21
150.25
 31
0.0
  0
LINE
  8
0
  6
CONTINUOUS
 62
     1
 10
56.6
 20
151.5
 30
0.0
 11
56.0
 21
151.5
 31
0.0
  0
LINE
  8
0
  6
CONTINUOUS
 62
     1
 10
106.0
 20
145.1
 30
0.0
 11
106.0
 21
144.5
 31
0.0
  0
LINE
  8
0
  6
CONTINUOUS
 62
     1
 10
68.5
 20
150.25
 30
0.0
 11
68.5
 21
145.1
 31
0.0
  0
LINE
  8
0
  6
CONTINUOUS
 62
     1
 10
68.5
 20
145.1
 30
0.0
 11
106.0
 21
145.1
 31
0.0
  0
LINE
  8
0
  6
CONTINUOUS
 62
     1
 10
106.0
 20
144.5
 30
0.0
 11
68.0
 21
144.5
 31
0.0
  0
LINE
  8
0
  6
CONTINUOUS
 62
     1
 10
67.9
 20
149.45
 30
0.0
 11
67.9
 21
144.6
 31
0.0
  0
ARC
  8
0
  6
CONTINUOUS
 62
     1
 10
68.0
 20
144.6
 30
0.0
 40
0.1
 50
180.0
 51
270.0
  0
LINE
  8
0
  6
CONTINUOUS
 62
     1
 10
51.75
 20
151.5
 30
0.0
 11
56.367698401
 21
151.5
 31
0.0
  0
LINE
  8
0
  6
CONTINUOUS
 62
     1
 10
56.367698401
 20
77.75
 30
0.0
 11
56.367698401
 21
76.5
 31
0.0
  0
LINE
  8
0
  6
CONTINUOUS
 62
     1
 10
56.367698401
 20
76.5
 30
0.0
 11
51.75
 21
76.5
 31
0.0
  0
LINE
  8
0
  6
CONTINUOUS
 62
     1
 10
56.617698401
 20
151.5
 30
0.0
 11
56.617698401
 21
150.5
 31
0.0
  0
LINE
  8
0
  6
CONTINUOUS
 62
     1
 10
56.617698401
 20
150.5
 30
0.0
 11
61.617698401
 21
150.5
 31
0.0
  0
LINE
  8
0
  6
CONTINUOUS
 62
     1
 10
61.617698401
 20
150.5
 30
0.0
 11
61.617698401
 21
150.25
 31
0.0
  0
LINE
  8
0
  6
CONTINUOUS
 62
     1
 10
61.75
 20
150.25
 30
0.0
 11
61.75
 21
150.5
 31
0.0
  0
LINE
  8
0
  6
CONTINUOUS
 62
     1
 10
61.75
 20
150.5
 30
0.0
 11
61.617698401
 21
150.5
 31
0.0
  0
LINE
  8
0
  6
CONTINUOUS
 62
     1
 10
56.367698401
 20
151.5
 30
0.0
 11
56.367698401
 21
150.25
 31
0.0
  0
LINE
  8
0
  6
CONTINUOUS
 62
     1
 10
56.367698401
 20
150.25
 30
0.0
 11
61.617698401
 21
150.25
 31
0.0
  0
LINE
  8
0
  6
CONTINUOUS
 62
     1
 10
63.7
 20
149.45
 30
0.0
 11
61.75
 21
149.45
 31
0.0
  0
LINE
  8
0
  6
CONTINUOUS
 62
     1
 10
67.9
 20
149.45
 30
0.0
 11
64.5
 21
149.45
 31
0.0
  0
LINE
  8
0
  6
CONTINUOUS
 62
     1
 10
64.5
 20
150.25
 30
0.0
 11
68.5
 21
150.25
 31
0.0
  0
LINE
  8
0
  6
CONTINUOUS
 62
     1
 10
61.75
 20
150.25
 30
0.0
 11
63.7
 21
150.25
 31
0.0
  0
LINE
  8
0
  6
CONTINUOUS
 62
     1
 10
61.75
 20
78.55
 30
0.0
 11
61.75
 21
77.75
 31
0.0
  0
LINE
  8
0
  6
CONTINUOUS
 62
     1
 10
106.0
 20
78.9
 30
0.0
 11
106.0
 21
79.5
 31
0.0
  0
LINE
  8
0
  6
CONTINUOUS
 62
     1
 10
68.5
 20
77.75
 30
0.0
 11
68.5
 21
78.9
 31
0.0
  0
LINE
  8
0
  6
CONTINUOUS
 62
     1
 10
68.5
 20
78.9
 30
0.0
 11
106.0
 21
78.9
 31
0.0
  0
LINE
  8
0
  6
CONTINUOUS
 62
     1
 10
106.0
 20
79.5
 30
0.0
 11
68.0
 21
79.5
 31
0.0
  0
LINE
  8
0
  6
CONTINUOUS
 62
     1
 10
67.9
 20
78.55
 30
0.0
 11
67.9
 21
79.4
 31
0.0
  0
ARC
  8
0
  6
CONTINUOUS
 62
     1
 10
68.0
 20
79.4
 30
0.0
 40
0.1
 50
90.0
 51
180.0
  0
LINE
  8
0
  6
CONTINUOUS
 62
     2
 10
89.0
 20
73.6
 30
0.0
 11
89.647047613
 21
71.185185434
 31
0.0
  0
LINE
  8
0
  6
CONTINUOUS
 62
     2
 10
89.0
 20
73.6
 30
0.0
 11
90.767766953
 21
71.832233047
 31
0.0
  0
LINE
  8
0
  6
CONTINUOUS
 62
     1
 10
64.5
 20
77.75
 30
0.0
 11
68.5
 21
77.75
 31
0.0
  0
LINE
  8
0
  6
CONTINUOUS
 62
     1
 10
65.95
 20
78.55
 30
0.0
 11
64.5
 21
78.55
 31
0.0
  0
LINE
  8
0
  6
CONTINUOUS
 62
     1
 10
64.5
 20
77.75
 30
0.0
 11
64.5
 21
78.55
 31
0.0
  0
LINE
  8
0
  6
CONTINUOUS
 62
     1
 10
64.5
 20
77.75
 30
0.0
 11
64.5
 21
78.55
 31
0.0
  0
LINE
  8
0
  6
CONTINUOUS
 62
     1
 10
63.7
 20
72.25
 30
0.0
 11
64.5
 21
72.25
 31
0.0
  0
LINE
  8
0
  6
CONTINUOUS
 62
     1
 10
64.5
 20
72.25
 30
0.0
 11
65.3
 21
72.25
 31
0.0
  0
LINE
  8
0
  6
CONTINUOUS
 62
     1
 10
65.3
 20
72.25
 30
0.0
 11
65.3
 21
76.45
 31
0.0
  0
LINE
  8
0
  6
CONTINUOUS
 62
     1
 10
65.3
 20
76.45
 30
0.0
 11
142.9
 21
76.45
 31
0.0
  0
LINE
  8
0
  6
CONTINUOUS
 62
     1
 10
145.7
 20
76.5
 30
0.0
 11
143.7
 21
76.5
 31
0.0
  0
LINE
  8
0
  6
CONTINUOUS
 62
     1
 10
145.7
 20
72.0
 30
0.0
 11
145.7
 21
76.5
 31
0.0
  0
LINE
  8
0
  6
CONTINUOUS
 62
     1
 10
143.7
 20
72.0
 30
0.0
 11
145.7
 21
72.0
 31
0.0
  0
ARC
  8
0
  6
CONTINUOUS
 62
     2
 10
143.91796875
 20
72.0
 30
0.0
 40
1.78203125
 50
0.0
 51
39.146251661
  0
ARC
  8
0
  6
CONTINUOUS
 62
     2
 10
143.91796875
 20
76.5
 30
0.0
 40
1.78203125
 50
320.853748339
 51
360.0
  0
LINE
  8
0
  6
CONTINUOUS
 62
     1
 10
65.95
 20
79.35
 30
0.0
 11
65.95
 21
78.55
 31
0.0
  0
LINE
  8
0
  6
CONTINUOUS
 62
     1
 10
65.95
 20
78.55
 30
0.0
 11
64.5
 21
78.55
 31
0.0
  0
LINE
  8
0
  6
CONTINUOUS
 62
     1
 10
63.7
 20
79.15
 30
0.0
 11
63.7
 21
72.25
 31
0.0
  0
LINE
  8
0
  6
CONTINUOUS
 62
     1
 10
63.9
 20
79.35
 30
0.0
 11
65.95
 21
79.35
 31
0.0
  0
ARC
  8
0
  6
CONTINUOUS
 62
     1
 10
63.9
 20
79.15
 30
0.0
 40
0.2
 50
90.0
 51
180.0
  0
LINE
  8
0
  6
CONTINUOUS
 62
     1
 10
64.5
 20
72.25
 30
0.0
 11
64.5
 21
76.75
 31
0.0
  0
LINE
  8
0
  6
CONTINUOUS
 62
     1
 10
143.7
 20
77.25
 30
0.0
 11
65.0
 21
77.25
 31
0.0
  0
ARC
  8
0
  6
CONTINUOUS
 62
     1
 10
65.0
 20
76.75
 30
0.0
 40
0.5
 50
90.0
 51
180.0
  0
LINE
  8
0
  6
CONTINUOUS
 62
     1
 10
64.5
 20
76.75
 30
0.0
 11
64.5
 21
78.55
 31
0.0
  0
LINE
  8
0
  6
CONTINUOUS
 62
     1
 10
63.7
 20
78.55
 30
0.0
 11
61.75
 21
78.55
 31
0.0
  0
LINE
  8
0
  6
CONTINUOUS
 62
     1
 10
67.9
 20
78.55
 30
0.0
 11
64.5
 21
78.55
 31
0.0
  0
LINE
  8
0
  6
CONTINUOUS
 62
     1
 10
61.75
 20
77.75
 30
0.0
 11
61.75
 21
78.25
 31
0.0
  0
LINE
  8
0
  6
CONTINUOUS
 62
     1
 10
56.6
 20
76.5
 30
0.0
 11
56.0
 21
76.5
 31
0.0
  0
LINE
  8
0
  6
CONTINUOUS
 62
     1
 10
56.617698401
 20
76.5
 30
0.0
 11
56.617698401
 21
77.5
 31
0.0
  0
LINE
  8
0
  6
CONTINUOUS
 62
     1
 10
56.617698401
 20
77.5
 30
0.0
 11
61.617698401
 21
77.5
 31
0.0
  0
LINE
  8
0
  6
CONTINUOUS
 62
     1
 10
61.617698401
 20
77.5
 30
0.0
 11
61.617698401
 21
77.75
 31
0.0
  0
LINE
  8
0
  6
CONTINUOUS
 62
     1
 10
61.75
 20
77.75
 30
0.0
 11
61.75
 21
77.5
 31
0.0
  0
LINE
  8
0
  6
CONTINUOUS
 62
     1
 10
61.75
 20
77.5
 30
0.0
 11
61.617698401
 21
77.5
 31
0.0
  0
LINE
  8
0
  6
CONTINUOUS
 62
     1
 10
56.367698401
 20
76.5
 30
0.0
 11
56.367698401
 21
77.75
 31
0.0
  0
LINE
  8
0
  6
CONTINUOUS
 62
     1
 10
56.367698401
 20
77.75
 30
0.0
 11
61.617698401
 21
77.75
 31
0.0
  0
LINE
  8
0
  6
CONTINUOUS
 62
     1
 10
68.5
 20
77.75
 30
0.0
 11
64.5
 21
77.75
 31
0.0
  0
LINE
  8
0
  6
CONTINUOUS
 62
     1
 10
61.617698401
 20
77.75
 30
0.0
 11
56.367698401
 21
77.75
 31
0.0
  0
LINE
  8
0
  6
CONTINUOUS
 62
     1
 10
59.617698401
 20
155.5
 30
0.0
 11
59.217698401
 21
155.1
 31
0.0
  0
LINE
  8
0
  6
CONTINUOUS
 62
     1
 10
59.217698401
 20
155.1
 30
0.0
 11
58.617698401
 21
155.4
 31
0.0
  0
LINE
  8
0
  6
CONTINUOUS
 62
     1
 10
58.617698401
 20
155.4
 30
0.0
 11
58.317698401
 21
155.0
 31
0.0
  0
LINE
  8
0
  6
CONTINUOUS
 62
     1
 10
58.317698401
 20
155.0
 30
0.0
 11
57.917698401
 21
155.2
 31
0.0
  0
LINE
  8
0
  6
CONTINUOUS
 62
     1
 10
57.917698401
 20
155.2
 30
0.0
 11
57.517698401
 21
154.7
 31
0.0
  0
LINE
  8
0
  6
CONTINUOUS
 62
     1
 10
57.517698401
 20
154.7
 30
0.0
 11
57.217698401
 21
155.2
 31
0.0
  0
LINE
  8
0
  6
CONTINUOUS
 62
     1
 10
59.617698401
 20
152.7
 30
0.0
 11
59.617698401
 21
153.8
 31
0.0
  0
LINE
  8
0
  6
CONTINUOUS
 62
     1
 10
149.367698401
 20
154.5
 30
0.0
 11
149.617698401
 21
154.25
 31
0.0
  0
LINE
  8
0
  6
CONTINUOUS
 62
     1
 10
149.617698401
 20
152.25
 30
0.0
 11
149.367698401
 21
152.0
 31
0.0
  0
LINE
  8
0
  6
CONTINUOUS
 62
     1
 10
149.617698401
 20
154.25
 30
0.0
 11
149.617698401
 21
152.25
 31
0.0
  0
POINT
  8
0
  6
CONTINUOUS
 62
     1
 10
59.617698401
 20
154.05
 30
0.0
  0
LINE
  8
0
  6
CONTINUOUS
 62
     1
 10
59.867698401
 20
154.3
 30
0.0
 11
59.617698401
 21
154.05
 31
0.0
  0
POINT
  8
0
  6
CONTINUOUS
 62
     1
 10
59.617698401
 20
152.05
 30
0.0
  0
LINE
  8
0
  6
CONTINUOUS
 62
     1
 10
59.617698401
 20
152.05
 30
0.0
 11
59.617698401
 21
154.05
 31
0.0
  0
LINE
  8
0
  6
CONTINUOUS
 62
     1
 10
59.867698401
 20
151.8
 30
0.0
 11
59.617698401
 21
152.05
 31
0.0
  0
LINE
  8
0
  6
CONTINUOUS
 62
     2
 10
68.617698401
 20
154.4
 30
0.0
 11
68.617698401
 21
151.9
 31
0.0
  0
LINE
  8
0
  6
CONTINUOUS
 62
     2
 10
128.617698401
 20
154.4
 30
0.0
 11
128.617698401
 21
151.9
 31
0.0
  0
LINE
  8
0
  6
CONTINUOUS
 62
     2
 10
149.367698401
 20
152.0
 30
0.0
 11
149.367698401
 21
154.5
 31
0.0
  0
LINE
  8
0
  6
CONTINUOUS
 62
     2
 10
59.867698401
 20
154.3
 30
0.0
 11
59.867698401
 21
151.8
 31
0.0
  0
LINE
  8
0
  6
CONTINUOUS
 62
     1
 10
143.7
 20
152.125
 30
0.0
 11
145.3
 21
152.125
 31
0.0
  0
LINE
  8
0
  6
CONTINUOUS
 62
     1
 10
145.3
 20
154.375
 30
0.0
 11
143.7
 21
154.375
 31
0.0
  0
ARC
  8
0
  6
CONTINUOUS
 62
     2
 10
143.91796875
 20
153.25
 30
0.0
 40
1.78203125
 50
320.853748339
 51
39.146251661
  0
LINE
  8
0
  6
CONTINUOUS
 62
     1
 10
149.367698401
 20
152.0
 30
0.0
 11
145.7
 21
152.0
 31
0.0
  0
LINE
  8
0
  6
CONTINUOUS
 62
     2
 10
149.617698401
 20
152.25
 30
0.0
 11
145.7
 21
152.25
 31
0.0
  0
LINE
  8
0
  6
CONTINUOUS
 62
     2
 10
145.7
 20
154.25
 30
0.0
 11
149.617698401
 21
154.25
 31
0.0
  0
LINE
  8
0
  6
CONTINUOUS
 62
     1
 10
145.7
 20
154.5
 30
0.0
 11
149.367698401
 21
154.5
 31
0.0
  0
LINE
  8
0
  6
CONTINUOUS
 62
     2
 10
128.617698401
 20
154.15
 30
0.0
 11
142.9
 21
154.15
 31
0.0
  0
LINE
  8
0
  6
CONTINUOUS
 62
     2
 10
142.9
 20
152.15
 30
0.0
 11
128.605198401
 21
152.15
 31
0.0
  0
LINE
  8
0
  6
CONTINUOUS
 62
     2
 10
68.617698401
 20
154.15
 30
0.0
 11
65.3
 21
154.15
 31
0.0
  0
LINE
  8
0
  6
CONTINUOUS
 62
     2
 10
65.3
 20
152.15
 30
0.0
 11
68.617698401
 21
152.15
 31
0.0
  0
LINE
  8
0
  6
CONTINUOUS
 62
     1
 10
65.3
 20
154.4
 30
0.0
 11
142.9
 21
154.4
 31
0.0
  0
LINE
  8
0
  6
CONTINUOUS
 62
     1
 10
65.3
 20
151.9
 30
0.0
 11
142.9
 21
151.9
 31
0.0
  0
LINE
  8
0
  6
CONTINUOUS
 62
     1
 10
59.867698401
 20
154.3
 30
0.0
 11
63.7
 21
154.3
 31
0.0
  0
LINE
  8
0
  6
CONTINUOUS
 62
     1
 10
59.867698401
 20
151.8
 30
0.0
 11
63.7
 21
151.8
 31
0.0
  0
LINE
  8
0
  6
CONTINUOUS
 62
     2
 10
59.617698401
 20
154.05
 30
0.0
 11
63.7
 21
154.05
 31
0.0
  0
LINE
  8
0
  6
CONTINUOUS
 62
     2
 10
59.617698401
 20
152.05
 30
0.0
 11
63.7
 21
152.05
 31
0.0
  0
LINE
  8
0
  6
CONTINUOUS
 62
     1
 10
59.617698401
 20
72.5
 30
0.0
 11
59.217698401
 21
72.9
 31
0.0
  0
LINE
  8
0
  6
CONTINUOUS
 62
     1
 10
59.217698401
 20
72.9
 30
0.0
 11
58.617698401
 21
72.6
 31
0.0
  0
LINE
  8
0
  6
CONTINUOUS
 62
     1
 10
58.617698401
 20
72.6
 30
0.0
 11
58.317698401
 21
73.0
 31
0.0
  0
LINE
  8
0
  6
CONTINUOUS
 62
     1
 10
58.317698401
 20
73.0
 30
0.0
 11
57.917698401
 21
72.8
 31
0.0
  0
LINE
  8
0
  6
CONTINUOUS
 62
     1
 10
57.917698401
 20
72.8
 30
0.0
 11
57.517698401
 21
73.3
 31
0.0
  0
LINE
  8
0
  6
CONTINUOUS
 62
     1
 10
57.517698401
 20
73.3
 30
0.0
 11
57.217698401
 21
72.8
 31
0.0
  0
LINE
  8
0
  6
CONTINUOUS
 62
     1
 10
59.617698401
 20
74.8
 30
0.0
 11
59.617698401
 21
73.7
 31
0.0
  0
LINE
  8
0
  6
CONTINUOUS
 62
     1
 10
149.367698401
 20
73.0
 30
0.0
 11
149.617698401
 21
73.25
 31
0.0
  0
LINE
  8
0
  6
CONTINUOUS
 62
     1
 10
149.617698401
 20
75.25
 30
0.0
 11
149.367698401
 21
75.5
 31
0.0
  0
LINE
  8
0
  6
CONTINUOUS
 62
     1
 10
149.617698401
 20
73.25
 30
0.0
 11
149.617698401
 21
75.25
 31
0.0
  0
POINT
  8
0
  6
CONTINUOUS
 62
     1
 10
59.617698401
 20
73.45
 30
0.0
  0
LINE
  8
0
  6
CONTINUOUS
 62
     1
 10
59.867698401
 20
73.2
 30
0.0
 11
59.617698401
 21
73.45
 31
0.0
  0
POINT
  8
0
  6
CONTINUOUS
 62
     1
 10
59.617698401
 20
75.45
 30
0.0
  0
LINE
  8
0
  6
CONTINUOUS
 62
     1
 10
59.617698401
 20
75.45
 30
0.0
 11
59.617698401
 21
73.45
 31
0.0
  0
LINE
  8
0
  6
CONTINUOUS
 62
     1
 10
59.867698401
 20
75.7
 30
0.0
 11
59.617698401
 21
75.45
 31
0.0
  0
LINE
  8
0
  6
CONTINUOUS
 62
     2
 10
68.617698401
 20
73.1
 30
0.0
 11
68.617698401
 21
75.6
 31
0.0
  0
LINE
  8
0
  6
CONTINUOUS
 62
     2
 10
128.617698401
 20
73.1
 30
0.0
 11
128.617698401
 21
75.6
 31
0.0
  0
LINE
  8
0
  6
CONTINUOUS
 62
     2
 10
149.367698401
 20
75.5
 30
0.0
 11
149.367698401
 21
73.0
 31
0.0
  0
LINE
  8
0
  6
CONTINUOUS
 62
     2
 10
59.867698401
 20
73.2
 30
0.0
 11
59.867698401
 21
75.7
 31
0.0
  0
LINE
  8
0
  6
CONTINUOUS
 62
     1
 10
143.7
 20
75.375
 30
0.0
 11
145.3
 21
75.375
 31
0.0
  0
LINE
  8
0
  6
CONTINUOUS
 62
     1
 10
145.3
 20
73.125
 30
0.0
 11
143.7
 21
73.125
 31
0.0
  0
ARC
  8
0
  6
CONTINUOUS
 62
     2
 10
143.91796875
 20
74.25
 30
0.0
 40
1.78203125
 50
320.853748339
 51
39.146251661
  0
LINE
  8
0
  6
CONTINUOUS
 62
     2
 10
128.617698401
 20
73.35
 30
0.0
 11
142.9
 21
73.35
 31
0.0
  0
LINE
  8
0
  6
CONTINUOUS
 62
     2
 10
142.9
 20
75.35
 30
0.0
 11
128.605198401
 21
75.35
 31
0.0
  0
LINE
  8
0
  6
CONTINUOUS
 62
     1
 10
149.367698401
 20
75.5
 30
0.0
 11
145.7
 21
75.5
 31
0.0
  0
LINE
  8
0
  6
CONTINUOUS
 62
     1
 10
145.7
 20
73.0
 30
0.0
 11
149.367698401
 21
73.0
 31
0.0
  0
LINE
  8
0
  6
CONTINUOUS
 62
     2
 10
145.7
 20
73.25
 30
0.0
 11
149.617698401
 21
73.25
 31
0.0
  0
LINE
  8
0
  6
CONTINUOUS
 62
     2
 10
149.617698401
 20
75.25
 30
0.0
 11
145.7
 21
75.25
 31
0.0
  0
LINE
  8
0
  6
CONTINUOUS
 62
     1
 10
59.867698401
 20
73.2
 30
0.0
 11
63.7
 21
73.2
 31
0.0
  0
LINE
  8
0
  6
CONTINUOUS
 62
     1
 10
59.867698401
 20
75.7
 30
0.0
 11
63.7
 21
75.7
 31
0.0
  0
LINE
  8
0
  6
CONTINUOUS
 62
     2
 10
59.617698401
 20
73.45
 30
0.0
 11
63.7
 21
73.45
 31
0.0
  0
LINE
  8
0
  6
CONTINUOUS
 62
     2
 10
59.617698401
 20
75.45
 30
0.0
 11
63.7
 21
75.45
 31
0.0
  0
LINE
  8
0
  6
CONTINUOUS
 62
     2
 10
68.617698401
 20
73.35
 30
0.0
 11
65.3
 21
73.35
 31
0.0
  0
LINE
  8
0
  6
CONTINUOUS
 62
     2
 10
65.3
 20
75.35
 30
0.0
 11
68.617698401
 21
75.35
 31
0.0
  0
LINE
  8
0
  6
CONTINUOUS
 62
     1
 10
65.3
 20
73.1
 30
0.0
 11
142.9
 21
73.1
 31
0.0
  0
LINE
  8
0
  6
CONTINUOUS
 62
     1
 10
65.3
 20
75.6
 30
0.0
 11
142.9
 21
75.6
 31
0.0
  0
LINE
  8
0
  6
CONTINUOUS
 62
     1
 10
199.5
 20
144.5
 30
0.0
 11
182.5
 21
144.5
 31
0.0
  0
LINE
  8
0
  6
CONTINUOUS
 62
     1
 10
199.5
 20
145.1
 30
0.0
 11
182.5
 21
145.1
 31
0.0
  0
LINE
  8
0
  6
CONTINUOUS
 62
     1
 10
182.5
 20
150.25
 30
0.0
 11
182.5
 21
144.5
 31
0.0
  0
LINE
  8
0
  6
CONTINUOUS
 62
     1
 10
199.5
 20
150.25
 30
0.0
 11
182.5
 21
150.25
 31
0.0
  0
LINE
  8
0
  6
CONTINUOUS
 62
     1
 10
199.5
 20
150.25
 30
0.0
 11
199.5
 21
144.5
 31
0.0
  0
CIRCLE
  8
0
  6
CONTINUOUS
 62
     1
 10
191.0
 20
153.25
 30
0.0
 40
1.275
  0
LINE
  8
0
  6
CONTINUOUS
 62
     1
 10
191.0
 20
155.500000962
 30
0.0
 11
189.051442841
 21
154.375000962
 31
0.0
  0
LINE
  8
0
  6
CONTINUOUS
 62
     1
 10
189.051442841
 20
154.375000962
 30
0.0
 11
189.051442841
 21
152.125000962
 31
0.0
  0
LINE
  8
0
  6
CONTINUOUS
 62
     1
 10
189.051442841
 20
152.125000962
 30
0.0
 11
191.0
 21
151.000000962
 31
0.0
  0
LINE
  8
0
  6
CONTINUOUS
 62
     1
 10
191.0
 20
151.000000962
 30
0.0
 11
192.948557159
 21
152.125000962
 31
0.0
  0
LINE
  8
0
  6
CONTINUOUS
 62
     1
 10
192.948557159
 20
152.125000962
 30
0.0
 11
192.948557159
 21
154.375000962
 31
0.0
  0
LINE
  8
0
  6
CONTINUOUS
 62
     1
 10
192.948557159
 20
154.375000962
 30
0.0
 11
191.0
 21
155.500000962
 31
0.0
  0
ARC
  8
0
  6
CONTINUOUS
 62
     2
 10
191.0
 20
153.25
 30
0.0
 40
1.02
 50
23.088831181
 51
156.911168819
  0
ARC
  8
0
  6
CONTINUOUS
 62
     2
 10
191.0
 20
153.25
 30
0.0
 40
1.02
 50
203.088731761
 51
336.911268239
  0
LINE
  8
0
  6
CONTINUOUS
 62
     2
 10
189.789370317
 20
153.650000962
 30
0.0
 11
192.210629683
 21
153.650000962
 31
0.0
  0
LINE
  8
0
  6
CONTINUOUS
 62
     2
 10
189.789369681
 20
152.850000962
 30
0.0
 11
192.210630319
 21
152.850000962
 31
0.0
  0
LINE
  8
0
  6
CONTINUOUS
 62
     1
 10
186.75
 20
152.3
 30
0.0
 11
186.75
 21
150.25
 31
0.0
  0
LINE
  8
0
  6
CONTINUOUS
 62
     1
 10
195.25
 20
150.25
 30
0.0
 11
195.25
 21
152.3
 31
0.0
  0
LINE
  8
0
  6
CONTINUOUS
 62
     1
 10
184.75
 20
155.25
 30
0.0
 11
190.566985632
 21
155.25
 31
0.0
  0
LINE
  8
0
  6
CONTINUOUS
 62
     1
 10
191.433014368
 20
155.25
 30
0.0
 11
197.25
 21
155.25
 31
0.0
  0
LINE
  8
0
  6
CONTINUOUS
 62
     1
 10
195.25
 20
155.25
 30
0.0
 11
195.25
 21
150.25
 31
0.0
  0
LINE
  8
0
  6
CONTINUOUS
 62
     1
 10
197.25
 20
155.25
 30
0.0
 11
197.25
 21
150.25
 31
0.0
  0
LINE
  8
0
  6
CONTINUOUS
 62
     1
 10
184.75
 20
155.25
 30
0.0
 11
184.75
 21
150.25
 31
0.0
  0
LINE
  8
0
  6
CONTINUOUS
 62
     1
 10
186.75
 20
155.25
 30
0.0
 11
186.75
 21
150.25
 31
0.0
  0
LINE
  8
0
  6
CONTINUOUS
 62
     1
 10
143.7
 20
155.25
 30
0.0
 11
142.9
 21
155.25
 31
0.0
  0
LINE
  8
0
  6
CONTINUOUS
 62
     1
 10
142.9
 20
151.05
 30
0.0
 11
142.9
 21
155.25
 31
0.0
  0
LINE
  8
0
  6
CONTINUOUS
 62
     1
 10
143.7
 20
155.25
 30
0.0
 11
143.7
 21
150.25
 31
0.0
  0
LINE
  8
0
  6
CONTINUOUS
 62
     1
 10
143.7
 20
155.5
 30
0.0
 11
143.7
 21
151.0
 31
0.0
  0
LINE
  8
0
  6
CONTINUOUS
 62
     1
 10
142.9
 20
72.25
 30
0.0
 11
143.7
 21
72.25
 31
0.0
  0
LINE
  8
0
  6
CONTINUOUS
 62
     1
 10
142.9
 20
76.45
 30
0.0
 11
142.9
 21
72.25
 31
0.0
  0
LINE
  8
0
  6
CONTINUOUS
 62
     1
 10
143.7
 20
72.25
 30
0.0
 11
143.7
 21
77.25
 31
0.0
  0
LINE
  8
0
  6
CONTINUOUS
 62
     1
 10
143.7
 20
72.0
 30
0.0
 11
143.7
 21
76.5
 31
0.0
  0
LINE
  8
0
  6
CONTINUOUS
 62
     1
 10
182.5
 20
79.5
 30
0.0
 11
182.5
 21
77.75
 31
0.0
  0
LINE
  8
0
  6
CONTINUOUS
 62
     1
 10
182.5
 20
77.75
 30
0.0
 11
199.5
 21
77.75
 31
0.0
  0
LINE
  8
0
  6
CONTINUOUS
 62
     1
 10
199.5
 20
77.75
 30
0.0
 11
199.5
 21
79.5
 31
0.0
  0
LINE
  8
0
  6
CONTINUOUS
 62
     1
 10
184.75
 20
72.25
 30
0.0
 11
184.75
 21
77.25
 31
0.0
  0
LINE
  8
0
  6
CONTINUOUS
 62
     1
 10
197.25
 20
72.25
 30
0.0
 11
197.25
 21
77.25
 31
0.0
  0
CIRCLE
  8
0
  6
CONTINUOUS
 62
     1
 10
191.0
 20
74.25
 30
0.0
 40
1.275
  0
LINE
  8
0
  6
CONTINUOUS
 62
     1
 10
186.75
 20
72.25
 30
0.0
 11
186.75
 21
77.25
 31
0.0
  0
LINE
  8
0
  6
CONTINUOUS
 62
     1
 10
195.25
 20
72.25
 30
0.0
 11
195.25
 21
77.25
 31
0.0
  0
LINE
  8
0
  6
CONTINUOUS
 62
     1
 10
191.0
 20
71.999999038
 30
0.0
 11
189.051442841
 21
73.124999038
 31
0.0
  0
LINE
  8
0
  6
CONTINUOUS
 62
     1
 10
189.051442841
 20
73.124999038
 30
0.0
 11
189.051442841
 21
75.374999038
 31
0.0
  0
LINE
  8
0
  6
CONTINUOUS
 62
     1
 10
189.051442841
 20
75.374999038
 30
0.0
 11
191.0
 21
76.499999038
 31
0.0
  0
LINE
  8
0
  6
CONTINUOUS
 62
     1
 10
191.0
 20
76.499999038
 30
0.0
 11
192.948557159
 21
75.374999038
 31
0.0
  0
LINE
  8
0
  6
CONTINUOUS
 62
     1
 10
192.948557159
 20
75.374999038
 30
0.0
 11
192.948557159
 21
73.124999038
 31
0.0
  0
LINE
  8
0
  6
CONTINUOUS
 62
     1
 10
192.948557159
 20
73.124999038
 30
0.0
 11
191.0
 21
71.999999038
 31
0.0
  0
LINE
  8
0
  6
CONTINUOUS
 62
     1
 10
191.433014368
 20
72.25
 30
0.0
 11
197.25
 21
72.25
 31
0.0
  0
LINE
  8
0
  6
CONTINUOUS
 62
     1
 10
184.75
 20
72.25
 30
0.0
 11
190.566985632
 21
72.25
 31
0.0
  0
ARC
  8
0
  6
CONTINUOUS
 62
     2
 10
191.0
 20
74.25
 30
0.0
 40
1.02
 50
203.088831181
 51
336.911168819
  0
ARC
  8
0
  6
CONTINUOUS
 62
     2
 10
191.0
 20
74.25
 30
0.0
 40
1.02
 50
23.088731761
 51
156.911268239
  0
LINE
  8
0
  6
CONTINUOUS
 62
     2
 10
189.789370317
 20
73.849999038
 30
0.0
 11
192.210629683
 21
73.849999038
 31
0.0
  0
LINE
  8
0
  6
CONTINUOUS
 62
     2
 10
189.789369681
 20
74.649999038
 30
0.0
 11
192.210630319
 21
74.649999038
 31
0.0
  0
LINE
  8
0
  6
CONTINUOUS
 62
     1
 10
184.75
 20
77.25
 30
0.0
 11
197.25
 21
77.25
 31
0.0
  0
LINE
  8
0
  6
CONTINUOUS
 62
     1
 10
197.25
 20
77.25
 30
0.0
 11
197.25
 21
77.75
 31
0.0
  0
LINE
  8
0
  6
CONTINUOUS
 62
     1
 10
184.75
 20
77.25
 30
0.0
 11
184.75
 21
77.75
 31
0.0
  0
LINE
  8
0
  6
CONTINUOUS
 62
     1
 10
182.0
 20
144.5
 30
0.0
 11
181.0
 21
144.5
 31
0.0
  0
LINE
  8
0
  6
CONTINUOUS
 62
     1
 10
181.0
 20
144.5
 30
0.0
 11
181.0
 21
79.5
 31
0.0
  0
LINE
  8
0
  6
CONTINUOUS
 62
     1
 10
181.0
 20
79.5
 30
0.0
 11
182.0
 21
79.5
 31
0.0
  0
LINE
  8
0
  6
CONTINUOUS
 62
     1
 10
200.0
 20
79.5
 30
0.0
 11
201.0
 21
79.5
 31
0.0
  0
LINE
  8
0
  6
CONTINUOUS
 62
     1
 10
201.0
 20
79.5
 30
0.0
 11
201.0
 21
144.5
 31
0.0
  0
LINE
  8
0
  6
CONTINUOUS
 62
     1
 10
201.0
 20
144.5
 30
0.0
 11
200.0
 21
144.5
 31
0.0
  0
LINE
  8
0
  6
CONTINUOUS
 62
     1
 10
201.5
 20
151.5
 30
0.0
 11
201.0
 21
151.5
 31
0.0
  0
ARC
  8
0
  6
CONTINUOUS
 62
     1
 10
201.5
 20
150.5
 30
0.0
 40
1.0
 50
0.0
 51
90.0
  0
LINE
  8
0
  6
CONTINUOUS
 62
     1
 10
201.0
 20
76.5
 30
0.0
 11
201.5
 21
76.5
 31
0.0
  0
LINE
  8
0
  6
CONTINUOUS
 62
     1
 10
202.5
 20
77.5
 30
0.0
 11
202.5
 21
150.5
 31
0.0
  0
ARC
  8
0
  6
CONTINUOUS
 62
     1
 10
201.5
 20
77.5
 30
0.0
 40
1.0
 50
270.0
 51
0.0
  0
LINE
  8
0
  6
CONTINUOUS
 62
     1
 10
184.75
 20
151.5
 30
0.0
 11
181.0
 21
151.5
 31
0.0
  0
LINE
  8
0
  6
CONTINUOUS
 62
     1
 10
181.0
 20
151.5
 30
0.0
 11
181.0
 21
144.5
 31
0.0
  0
LINE
  8
0
  6
CONTINUOUS
 62
     1
 10
181.0
 20
76.5
 30
0.0
 11
180.5
 21
76.5
 31
0.0
  0
LINE
  8
0
  6
CONTINUOUS
 62
     1
 10
179.5
 20
77.5
 30
0.0
 11
179.5
 21
150.5
 31
0.0
  0
ARC
  8
0
  6
CONTINUOUS
 62
     1
 10
180.5
 20
77.5
 30
0.0
 40
1.0
 50
180.0
 51
270.0
  0
LINE
  8
0
  6
CONTINUOUS
 62
     1
 10
180.5
 20
151.5
 30
0.0
 11
181.0
 21
151.5
 31
0.0
  0
ARC
  8
0
  6
CONTINUOUS
 62
     1
 10
180.5
 20
150.5
 30
0.0
 40
1.0
 50
90.0
 51
180.0
  0
LINE
  8
0
  6
CONTINUOUS
 62
     1
 10
201.0
 20
144.5
 30
0.0
 11
201.0
 21
151.5
 31
0.0
  0
LINE
  8
0
  6
CONTINUOUS
 62
     1
 10
201.0
 20
151.5
 30
0.0
 11
197.3
 21
151.5
 31
0.0
  0
LINE
  8
0
  6
CONTINUOUS
 62
     1
 10
181.0
 20
79.5
 30
0.0
 11
181.0
 21
76.5
 31
0.0
  0
LINE
  8
0
  6
CONTINUOUS
 62
     1
 10
181.0
 20
76.5
 30
0.0
 11
184.75
 21
76.5
 31
0.0
  0
LINE
  8
0
  6
CONTINUOUS
 62
     1
 10
197.25
 20
76.5
 30
0.0
 11
201.0
 21
76.5
 31
0.0
  0
LINE
  8
0
  6
CONTINUOUS
 62
     1
 10
201.0
 20
76.5
 30
0.0
 11
201.0
 21
79.5
 31
0.0
  0
LINE
  8
0
  6
CONTINUOUS
 62
     1
 10
181.0
 20
150.5
 30
0.0
 11
184.75
 21
150.5
 31
0.0
  0
LINE
  8
0
  6
CONTINUOUS
 62
     1
 10
197.25
 20
150.5
 30
0.0
 11
201.0
 21
150.5
 31
0.0
  0
LINE
  8
0
  6
CONTINUOUS
 62
     1
 10
181.0
 20
77.5
 30
0.0
 11
184.75
 21
77.5
 31
0.0
  0
LINE
  8
0
  6
CONTINUOUS
 62
     1
 10
197.25
 20
77.5
 30
0.0
 11
201.0
 21
77.5
 31
0.0
  0
LINE
  8
0
  6
CONTINUOUS
 62
     2
 10
151.0
 20
166.0
 30
0.0
 11
153.414814566
 21
165.352952387
 31
0.0
  0
LINE
  8
0
  6
CONTINUOUS
 62
     2
 10
151.0
 20
166.0
 30
0.0
 11
153.414814566
 21
166.647047613
 31
0.0
  0
LINE
  8
0
  6
CONTINUOUS
 62
     2
 10
151.0
 20
166.0
 30
0.0
 11
160.7
 21
166.0
 31
0.0
  0
LINE
  8
0
  6
CONTINUOUS
 62
     2
 10
160.7
 20
166.0
 30
0.0
 11
158.285185434
 21
165.352952387
 31
0.0
  0
LINE
  8
0
  6
CONTINUOUS
 62
     2
 10
160.7
 20
166.0
 30
0.0
 11
158.285185434
 21
166.647047613
 31
0.0
  0
LINE
  8
0
  6
CONTINUOUS
 62
     2
 10
151.0
 20
166.0
 30
0.0
 11
148.585185434
 21
166.647047613
 31
0.0
  0
LINE
  8
0
  6
CONTINUOUS
 62
     2
 10
151.0
 20
166.0
 30
0.0
 11
148.585185434
 21
165.352952387
 31
0.0
  0
TEXT
  8
0
  6
CONTINUOUS
 62
     2
 10
100.5
 20
167.0
 30
0.3
 40
3.0
  1
１９０
 50
0.0
 41
0.6
 51
0.0
  7
KANJI0
  0
ARC
  8
0
  6
CONTINUOUS
 62
     1
 10
149.82522623
 20
114.0
 30
0.0
 40
105.0
 50
163.398450401
 51
196.601549599
  0
LINE
  8
0
  6
CONTINUOUS
 62
     2
 10
151.617698401
 20
166.0
 30
0.0
 11
56.617698401
 21
166.0
 31
0.0
  0
LINE
  8
0
  6
CONTINUOUS
 62
     2
 10
56.617698401
 20
166.0
 30
0.0
 11
59.032512966
 21
165.352952387
 31
0.0
  0
LINE
  8
0
  6
CONTINUOUS
 62
     2
 10
56.617698401
 20
166.0
 30
0.0
 11
59.032512966
 21
166.647047613
 31
0.0
  0
LINE
  8
0
  6
CONTINUOUS
 62
     2
 10
56.617698401
 20
166.0
 30
0.0
 11
54.202883835
 21
166.647047613
 31
0.0
  0
LINE
  8
0
  6
CONTINUOUS
 62
     2
 10
56.617698401
 20
166.0
 30
0.0
 11
54.202883835
 21
165.352952387
 31
0.0
  0
LINE
  8
0
  6
CONTINUOUS
 62
     2
 10
56.617698401
 20
166.0
 30
0.0
 11
44.82522623
 21
166.0
 31
0.0
  0
LINE
  8
0
  6
CONTINUOUS
 62
     2
 10
44.82522623
 20
166.0
 30
0.0
 11
47.240040795
 21
165.352952387
 31
0.0
  0
LINE
  8
0
  6
CONTINUOUS
 62
     2
 10
44.82522623
 20
166.0
 30
0.0
 11
47.240040795
 21
166.647047613
 31
0.0
  0
LINE
  8
0
  6
CONTINUOUS
 62
     2
 10
44.82522623
 20
115.0
 30
0.0
 11
44.82522623
 21
168.0
 31
0.0
  0
TEXT
  8
0
  6
CONTINUOUS
 62
     2
 10
48.771462315
 20
167.0
 30
0.3
 40
3.0
  1
２３
 50
0.0
 41
0.6
 51
0.0
  7
KANJI0
  0
LINE
  8
0
  6
CONTINUOUS
 62
     2
 10
56.617698401
 20
158.25
 30
0.0
 11
59.032512966
 21
157.602952387
 31
0.0
  0
LINE
  8
0
  6
CONTINUOUS
 62
     2
 10
56.617698401
 20
158.25
 30
0.0
 11
59.032512966
 21
158.897047613
 31
0.0
  0
LINE
  8
0
  6
CONTINUOUS
 62
     2
 10
60.367698401
 20
158.25
 30
0.0
 11
56.617698401
 21
158.25
 31
0.0
  0
LINE
  8
0
  6
CONTINUOUS
 62
     2
 10
56.617698401
 20
158.25
 30
0.0
 11
51.741438697
 21
158.25
 31
0.0
  0
LINE
  8
0
  6
CONTINUOUS
 62
     2
 10
51.741438697
 20
158.25
 30
0.0
 11
47.991438697
 21
158.25
 31
0.0
  0
LINE
  8
0
  6
CONTINUOUS
 62
     2
 10
51.741438697
 20
158.25
 30
0.0
 11
49.326624131
 21
158.897047613
 31
0.0
  0
LINE
  8
0
  6
CONTINUOUS
 62
     2
 10
51.741438697
 20
158.25
 30
0.0
 11
49.326624131
 21
157.602952387
 31
0.0
  0
LINE
  8
0
  6
CONTINUOUS
 62
     2
 10
51.741438697
 20
152.496669546
 30
0.0
 11
51.741438697
 21
160.25
 31
0.0
  0
TEXT
  8
0
  6
CONTINUOUS
 62
     2
 10
53.279568549
 20
159.25
 30
0.3
 40
3.0
  1
９
 50
0.0
 41
0.6
 51
0.0
  7
KANJI0
  0
LINE
  8
0
  6
CONTINUOUS
 62
     2
 10
160.7
 20
167.0
 30
0.0
 11
160.7
 21
175.0
 31
0.0
  0
LINE
  8
0
  6
CONTINUOUS
 62
     2
 10
160.7
 20
173.0
 30
0.0
 11
158.285185434
 21
173.647047613
 31
0.0
  0
LINE
  8
0
  6
CONTINUOUS
 62
     2
 10
160.7
 20
173.0
 30
0.0
 11
158.285185434
 21
172.352952387
 31
0.0
  0
LINE
  8
0
  6
CONTINUOUS
 62
     2
 10
160.7
 20
173.0
 30
0.0
 11
44.82522623
 21
173.0
 31
0.0
  0
LINE
  8
0
  6
CONTINUOUS
 62
     2
 10
44.82522623
 20
173.0
 30
0.0
 11
47.240040795
 21
172.352952387
 31
0.0
  0
LINE
  8
0
  6
CONTINUOUS
 62
     2
 10
44.82522623
 20
173.0
 30
0.0
 11
47.240040795
 21
173.647047613
 31
0.0
  0
LINE
  8
0
  6
CONTINUOUS
 62
     2
 10
44.82522623
 20
167.0
 30
0.0
 11
44.82522623
 21
175.0
 31
0.0
  0
TEXT
  8
0
  6
CONTINUOUS
 62
     2
 10
97.662613115
 20
174.0
 30
0.3
 40
3.0
  1
２３２．５
 50
0.0
 41
0.6
 51
0.0
  7
KANJI0
  0
LINE
  8
0
  6
CONTINUOUS
 62
     2
 10
181.0
 20
152.5
 30
0.0
 11
181.0
 21
168.0
 31
0.0
  0
LINE
  8
0
  6
CONTINUOUS
 62
     2
 10
181.0
 20
166.0
 30
0.0
 11
183.414814566
 21
165.352952387
 31
0.0
  0
LINE
  8
0
  6
CONTINUOUS
 62
     2
 10
181.0
 20
166.0
 30
0.0
 11
183.414814566
 21
166.647047613
 31
0.0
  0
LINE
  8
0
  6
CONTINUOUS
 62
     2
 10
181.0
 20
166.0
 30
0.0
 11
201.0
 21
166.0
 31
0.0
  0
LINE
  8
0
  6
CONTINUOUS
 62
     2
 10
201.0
 20
166.0
 30
0.0
 11
198.585185434
 21
166.647047613
 31
0.0
  0
LINE
  8
0
  6
CONTINUOUS
 62
     2
 10
201.0
 20
166.0
 30
0.0
 11
198.585185434
 21
165.352952387
 31
0.0
  0
LINE
  8
0
  6
CONTINUOUS
 62
     2
 10
201.0
 20
152.5
 30
0.0
 11
201.0
 21
168.0
 31
0.0
  0
TEXT
  8
0
  6
CONTINUOUS
 62
     2
 10
189.05
 20
167.0
 30
0.3
 40
3.0
  1
４０
 50
0.0
 41
0.6
 51
0.0
  7
KANJI0
  0
LINE
  8
0
  6
CONTINUOUS
 62
     1
 10
61.75
 20
77.75
 30
0.0
 11
63.7
 21
77.75
 31
0.0
  0
LINE
  8
0
  6
CONTINUOUS
 62
     1
 10
56.6
 20
77.75
 30
0.0
 11
61.617698401
 21
77.75
 31
0.0
  0
LINE
  8
0
  6
CONTINUOUS
 62
     2
 10
79.5
 20
145.1
 30
0.0
 11
82.5
 21
145.1
 31
0.0
  0
LINE
  8
0
  6
CONTINUOUS
 62
     2
 10
81.25
 20
146.242179856
 30
0.0
 11
81.25
 21
145.625
 31
0.0
  0
LINE
  8
0
  6
CONTINUOUS
 62
     2
 10
81.25
 20
145.625
 30
0.0
 11
80.75
 21
145.625
 31
0.0
  0
LINE
  8
0
  6
CONTINUOUS
 62
     2
 10
80.75
 20
145.625
 30
0.0
 11
80.75
 21
146.242179856
 31
0.0
  0
ARC
  8
0
  6
CONTINUOUS
 62
     2
 10
80.182216712
 20
145.502179856
 30
0.0
 40
0.65
 50
104.086461435
 51
175.800634247
  0
LINE
  8
0
  6
CONTINUOUS
 62
     2
 10
79.5
 20
145.1
 30
0.0
 11
79.539350433
 21
145.549777508
 31
0.0
  0
ARC
  8
0
  6
CONTINUOUS
 62
     2
 10
81.817783288
 20
145.502179856
 30
0.0
 40
0.65
 50
4.199365753
 51
75.913538565
  0
LINE
  8
0
  6
CONTINUOUS
 62
     2
 10
82.5
 20
145.1
 30
0.0
 11
82.460649567
 21
145.549777508
 31
0.0
  0
ARC
  8
0
  6
CONTINUOUS
 62
     2
 10
81.0
 20
142.25
 30
0.0
 40
4.0
 50
75.889814338
 51
104.110185662
  0
LINE
  8
0
  6
CONTINUOUS
 62
     2
 10
99.5
 20
145.1
 30
0.0
 11
102.5
 21
145.1
 31
0.0
  0
LINE
  8
0
  6
CONTINUOUS
 62
     2
 10
101.25
 20
146.242179856
 30
0.0
 11
101.25
 21
145.625
 31
0.0
  0
LINE
  8
0
  6
CONTINUOUS
 62
     2
 10
101.25
 20
145.625
 30
0.0
 11
100.75
 21
145.625
 31
0.0
  0
LINE
  8
0
  6
CONTINUOUS
 62
     2
 10
100.75
 20
145.625
 30
0.0
 11
100.75
 21
146.242179856
 31
0.0
  0
ARC
  8
0
  6
CONTINUOUS
 62
     2
 10
100.182216712
 20
145.502179856
 30
0.0
 40
0.65
 50
104.086461435
 51
175.800634247
  0
LINE
  8
0
  6
CONTINUOUS
 62
     2
 10
99.5
 20
145.1
 30
0.0
 11
99.539350433
 21
145.549777508
 31
0.0
  0
ARC
  8
0
  6
CONTINUOUS
 62
     2
 10
101.817783288
 20
145.502179856
 30
0.0
 40
0.65
 50
4.199365753
 51
75.913538565
  0
LINE
  8
0
  6
CONTINUOUS
 62
     2
 10
102.5
 20
145.1
 30
0.0
 11
102.460649567
 21
145.549777508
 31
0.0
  0
ARC
  8
0
  6
CONTINUOUS
 62
     2
 10
101.0
 20
142.25
 30
0.0
 40
4.0
 50
75.889814338
 51
104.110185662
  0
LINE
  8
0
  6
LTYPE1
 62
     2
 10
81.0
 20
147.54
 30
0.0
 11
81.0
 21
142.75
 31
0.0
  0
LINE
  8
0
  6
LTYPE1
 62
     2
 10
101.0
 20
142.75
 30
0.0
 11
101.0
 21
147.72
 31
0.0
  0
LINE
  8
0
  6
CONTINUOUS
 62
     2
 10
79.5
 20
78.9
 30
0.0
 11
82.5
 21
78.9
 31
0.0
  0
LINE
  8
0
  6
CONTINUOUS
 62
     2
 10
81.25
 20
77.757820144
 30
0.0
 11
81.25
 21
78.375
 31
0.0
  0
LINE
  8
0
  6
CONTINUOUS
 62
     2
 10
81.25
 20
78.375
 30
0.0
 11
80.75
 21
78.375
 31
0.0
  0
LINE
  8
0
  6
CONTINUOUS
 62
     2
 10
80.75
 20
78.375
 30
0.0
 11
80.75
 21
77.757820144
 31
0.0
  0
ARC
  8
0
  6
CONTINUOUS
 62
     2
 10
80.182216712
 20
78.497820144
 30
0.0
 40
0.65
 50
184.199365753
 51
255.913538565
  0
LINE
  8
0
  6
CONTINUOUS
 62
     2
 10
79.5
 20
78.9
 30
0.0
 11
79.539350433
 21
78.450222492
 31
0.0
  0
ARC
  8
0
  6
CONTINUOUS
 62
     2
 10
81.817783288
 20
78.497820144
 30
0.0
 40
0.65
 50
284.086461435
 51
355.800634247
  0
LINE
  8
0
  6
CONTINUOUS
 62
     2
 10
82.5
 20
78.9
 30
0.0
 11
82.460649567
 21
78.450222492
 31
0.0
  0
ARC
  8
0
  6
CONTINUOUS
 62
     2
 10
81.0
 20
81.75
 30
0.0
 40
4.0
 50
255.889814338
 51
284.110185662
  0
LINE
  8
0
  6
CONTINUOUS
 62
     2
 10
99.5
 20
78.9
 30
0.0
 11
102.5
 21
78.9
 31
0.0
  0
LINE
  8
0
  6
CONTINUOUS
 62
     2
 10
101.25
 20
77.757820144
 30
0.0
 11
101.25
 21
78.375
 31
0.0
  0
LINE
  8
0
  6
CONTINUOUS
 62
     2
 10
101.25
 20
78.375
 30
0.0
 11
100.75
 21
78.375
 31
0.0
  0
LINE
  8
0
  6
CONTINUOUS
 62
     2
 10
100.75
 20
78.375
 30
0.0
 11
100.75
 21
77.757820144
 31
0.0
  0
ARC
  8
0
  6
CONTINUOUS
 62
     2
 10
100.182216712
 20
78.497820144
 30
0.0
 40
0.65
 50
184.199365753
 51
255.913538565
  0
LINE
  8
0
  6
CONTINUOUS
 62
     2
 10
99.5
 20
78.9
 30
0.0
 11
99.539350433
 21
78.450222492
 31
0.0
  0
ARC
  8
0
  6
CONTINUOUS
 62
     2
 10
101.817783288
 20
78.497820144
 30
0.0
 40
0.65
 50
284.086461435
 51
355.800634247
  0
LINE
  8
0
  6
CONTINUOUS
 62
     2
 10
102.5
 20
78.9
 30
0.0
 11
102.460649567
 21
78.450222492
 31
0.0
  0
ARC
  8
0
  6
CONTINUOUS
 62
     2
 10
101.0
 20
81.75
 30
0.0
 40
4.0
 50
255.889814338
 51
284.110185662
  0
LINE
  8
0
  6
LTYPE1
 62
     2
 10
81.0
 20
76.46
 30
0.0
 11
81.0
 21
81.25
 31
0.0
  0
LINE
  8
0
  6
LTYPE1
 62
     2
 10
101.0
 20
81.25
 30
0.0
 11
101.0
 21
76.28
 31
0.0
  0
LINE
  8
0
  6
CONTINUOUS
 62
     1
 10
57.217698401
 20
72.8
 30
0.0
 11
56.817698401
 21
73.2
 31
0.0
  0
LINE
  8
0
  6
CONTINUOUS
 62
     1
 10
56.817698401
 20
73.2
 30
0.0
 11
56.817698401
 21
77.3
 31
0.0
  0
LINE
  8
0
  6
CONTINUOUS
 62
     1
 10
56.817698401
 20
77.3
 30
0.0
 11
59.617698401
 21
77.3
 31
0.0
  0
LINE
  8
0
  6
CONTINUOUS
 62
     1
 10
59.617698401
 20
77.3
 30
0.0
 11
59.617698401
 21
72.5
 31
0.0
  0
LINE
  8
0
  6
CONTINUOUS
 62
     1
 10
56.817698401
 20
150.7
 30
0.0
 11
59.617698401
 21
150.7
 31
0.0
  0
LINE
  8
0
  6
CONTINUOUS
 62
     1
 10
59.617698401
 20
150.7
 30
0.0
 11
59.617698401
 21
155.5
 31
0.0
  0
LINE
  8
0
  6
CONTINUOUS
 62
     1
 10
56.817698401
 20
154.8
 30
0.0
 11
56.817698401
 21
150.7
 31
0.0
  0
LINE
  8
0
  6
CONTINUOUS
 62
     1
 10
57.217698401
 20
155.2
 30
0.0
 11
56.817698401
 21
154.8
 31
0.0
  0
LINE
  8
0
  6
CONTINUOUS
 62
     2
 10
56.617698401
 20
76.5
 30
0.0
 11
56.617698401
 21
64.5
 31
0.0
  0
LINE
  8
0
  6
CONTINUOUS
 62
     2
 10
56.617698401
 20
66.5
 30
0.0
 11
54.202883835
 21
67.147047613
 31
0.0
  0
LINE
  8
0
  6
CONTINUOUS
 62
     2
 10
56.617698401
 20
66.5
 30
0.0
 11
54.202883835
 21
65.852952387
 31
0.0
  0
LINE
  8
0
  6
CONTINUOUS
 62
     2
 10
52.867698401
 20
66.5
 30
0.0
 11
56.617698401
 21
66.5
 31
0.0
  0
LINE
  8
0
  6
CONTINUOUS
 62
     2
 10
56.617698401
 20
66.5
 30
0.0
 11
59.617698401
 21
66.5
 31
0.0
  0
LINE
  8
0
  6
CONTINUOUS
 62
     2
 10
59.617698401
 20
66.5
 30
0.0
 11
65.167698401
 21
66.5
 31
0.0
  0
LINE
  8
0
  6
CONTINUOUS
 62
     2
 10
59.617698401
 20
66.5
 30
0.0
 11
62.032512966
 21
65.852952387
 31
0.0
  0
LINE
  8
0
  6
CONTINUOUS
 62
     2
 10
59.617698401
 20
66.5
 30
0.0
 11
62.032512966
 21
67.147047613
 31
0.0
  0
LINE
  8
0
  6
CONTINUOUS
 62
     2
 10
59.617698401
 20
76.5
 30
0.0
 11
59.617698401
 21
64.5
 31
0.0
  0
TEXT
  8
0
  6
CONTINUOUS
 62
     2
 10
63.367698401
 20
67.5
 30
0.3
 40
3.0
  1
取付パネル厚さ最大６ｍｍ
 50
0.0
 41
0.6
 51
0.0
  7
KANJI0
  0
LINE
  8
0
  6
CONTINUOUS
 62
     2
 10
56.617698401
 20
150.25
 30
0.0
 11
56.617698401
 21
77.75
 31
0.0
  0
LINE
  8
0
  6
CONTINUOUS
 62
     2
 10
56.367698401
 20
76.5
 30
0.0
 11
56.367698401
 21
151.475
 31
0.0
  0
LINE
  8
0
  6
CONTINUOUS
 62
     2
 10
60.617698401
 20
150.25
 30
0.0
 11
60.617698401
 21
150.5
 31
0.0
  0
LINE
  8
0
  6
CONTINUOUS
 62
     2
 10
60.617698401
 20
77.75
 30
0.0
 11
60.617698401
 21
77.5
 31
0.0
  0
LINE
  8
0
  6
LTYPE1
 62
     2
 10
204.3
 20
112.0
 30
0.0
 11
177.931451884
 21
112.0
 31
0.0
  0
LINE
  8
0
  6
LTYPE1
 62
     2
 10
191.0
 20
162.0
 30
0.0
 11
191.0
 21
67.0
 31
0.0
  0
LINE
  8
0
  6
LTYPE1
 62
     2
 10
166.1
 20
112.0
 30
0.0
 11
41.0
 21
112.0
 31
0.0
  0
LINE
  8
0
  6
LTYPE1
 62
     2
 10
113.0
 20
148.4
 30
0.0
 11
113.0
 21
77.6
 31
0.0
  0
LINE
  8
0
  6
CONTINUOUS
 62
     2
 10
213.5
 20
150.25
 30
0.0
 11
212.852952387
 21
147.835185434
 31
0.0
  0
LINE
  8
0
  6
CONTINUOUS
 62
     2
 10
213.5
 20
150.25
 30
0.0
 11
214.147047613
 21
147.835185434
 31
0.0
  0
LINE
  8
0
  6
CONTINUOUS
 62
     2
 10
213.5
 20
150.25
 30
0.0
 11
213.5
 21
77.75
 31
0.0
  0
LINE
  8
0
  6
CONTINUOUS
 62
     2
 10
213.5
 20
77.75
 30
0.0
 11
214.147047613
 21
80.164814566
 31
0.0
  0
LINE
  8
0
  6
CONTINUOUS
 62
     2
 10
213.5
 20
77.75
 30
0.0
 11
212.852952387
 21
80.164814566
 31
0.0
  0
TEXT
  8
0
  6
CONTINUOUS
 62
     2
 10
213.0
 20
111.0
 30
0.3
 40
3.0
  1
１４５
 50
90.0
 41
0.6
 51
0.0
  7
KANJI0
  0
LINE
  8
0
  6
CONTINUOUS
 62
     2
 10
200.5
 20
150.25
 30
0.0
 11
215.5
 21
150.25
 31
0.0
  0
LINE
  8
0
  6
CONTINUOUS
 62
     2
 10
200.5
 20
77.75
 30
0.0
 11
215.5
 21
77.75
 31
0.0
  0
LINE
  8
0
  6
CONTINUOUS
 62
     2
 10
198.25
 20
72.25
 30
0.0
 11
220.5
 21
72.25
 31
0.0
  0
LINE
  8
0
  6
CONTINUOUS
 62
     2
 10
218.5
 20
72.25
 30
0.0
 11
219.147047613
 21
74.664814566
 31
0.0
  0
LINE
  8
0
  6
CONTINUOUS
 62
     2
 10
218.5
 20
72.25
 30
0.0
 11
217.852952387
 21
74.664814566
 31
0.0
  0
LINE
  8
0
  6
CONTINUOUS
 62
     2
 10
218.5
 20
72.25
 30
0.0
 11
218.5
 21
155.25
 31
0.0
  0
LINE
  8
0
  6
CONTINUOUS
 62
     2
 10
218.5
 20
155.25
 30
0.0
 11
217.852952387
 21
152.835185434
 31
0.0
  0
LINE
  8
0
  6
CONTINUOUS
 62
     2
 10
218.5
 20
155.25
 30
0.0
 11
219.147047613
 21
152.835185434
 31
0.0
  0
LINE
  8
0
  6
CONTINUOUS
 62
     2
 10
198.25
 20
155.25
 30
0.0
 11
220.5
 21
155.25
 31
0.0
  0
TEXT
  8
0
  6
CONTINUOUS
 62
     2
 10
217.5
 20
110.75
 30
0.3
 40
3.0
  1
１６６
 50
90.0
 41
0.6
 51
0.0
  7
KANJI0
  0
LINE
  8
0
  6
CONTINUOUS
 62
     2
 10
29.0
 20
14.1
 30
0.0
 11
29.647047613
 21
16.514814566
 31
0.0
  0
LINE
  8
0
  6
CONTINUOUS
 62
     2
 10
29.0
 20
14.1
 30
0.0
 11
28.352952387
 21
16.514814566
 31
0.0
  0
LINE
  8
0
  6
CONTINUOUS
 62
     2
 10
29.0
 20
14.1
 30
0.0
 11
29.0
 21
42.6
 31
0.0
  0
LINE
  8
0
  6
CONTINUOUS
 62
     2
 10
29.0
 20
42.6
 30
0.0
 11
28.352952387
 21
40.185185434
 31
0.0
  0
LINE
  8
0
  6
CONTINUOUS
 62
     2
 10
29.0
 20
42.6
 30
0.0
 11
29.647047613
 21
40.185185434
 31
0.0
  0
LINE
  8
0
  6
CONTINUOUS
 62
     2
 10
33.0
 20
42.6
 30
0.0
 11
27.0
 21
42.6
 31
0.0
  0
TEXT
  8
0
  6
CONTINUOUS
 62
     2
 10
28.29
 20
31.19
 30
0.18
 40
1.8
  1
－０
 50
90.0
 41
0.6
 51
0.0
  7
KANJI13
  0
TEXT
  8
0
  6
CONTINUOUS
 62
     2
 10
26.49
 20
31.19
 30
0.18
 40
1.8
  1
＋１
 50
90.0
 41
0.6
 51
0.0
  7
KANJI13
  0
LINE
  8
0
  6
LTYPE3
 62
     2
 10
41.0
 20
42.6
 30
0.0
 11
41.0
 21
39.6
 31
0.0
  0
LINE
  8
0
  6
LTYPE3
 62
     2
 10
34.0
 20
39.6
 30
0.0
 11
34.0
 21
42.6
 31
0.0
  0
LINE
  8
0
  6
LTYPE3
 62
     2
 10
34.0
 20
17.2
 30
0.0
 11
34.0
 21
14.2
 31
0.0
  0
LINE
  8
0
  6
LTYPE3
 62
     2
 10
41.0
 20
14.2
 30
0.0
 11
41.0
 21
17.2
 31
0.0
  0
TEXT
  8
0
  6
CONTINUOUS
 62
     2
 10
37.35
 20
41.7
 30
0.3
 40
3.0
  1
パネルカット寸法
 50
0.0
 41
0.9
 51
0.0
  7
KANJI14
  0
LINE
  8
0
  6
CONTINUOUS
 62
     1
 10
34.0
 20
42.6
 30
0.0
 11
34.0
 21
14.2
 31
0.0
  0
LINE
  8
0
  6
CONTINUOUS
 62
     1
 10
41.0
 20
42.6
 30
0.0
 11
34.0
 21
42.6
 31
0.0
  0
LINE
  8
0
  6
CONTINUOUS
 62
     1
 10
41.0
 20
14.2
 30
0.0
 11
41.0
 21
42.6
 31
0.0
  0
LINE
  8
0
  6
CONTINUOUS
 62
     1
 10
34.0
 20
14.2
 30
0.0
 11
41.0
 21
14.2
 31
0.0
  0
LINE
  8
0
  6
CONTINUOUS
 62
     2
 10
33.0
 20
14.2
 30
0.0
 11
27.0
 21
14.2
 31
0.0
  0
TEXT
  8
0
  6
CONTINUOUS
 62
     2
 10
28.0
 20
24.8
 30
0.3
 40
3.0
  1
１４６
 50
90.0
 41
0.6
 51
0.0
  7
KANJI0
  0
LINE
  8
0
  6
CONTINUOUS
 62
     2
 10
68.832
 20
36.024
 30
0.0
 11
69.132
 21
36.324
 31
0.0
  0
LINE
  8
0
  6
CONTINUOUS
 62
     2
 10
69.132
 20
36.324
 30
0.0
 11
69.396
 21
36.672
 31
0.0
  0
LINE
  8
0
  6
CONTINUOUS
 62
     2
 10
69.396
 20
36.672
 30
0.0
 11
69.6
 21
37.128
 31
0.0
  0
LINE
  8
0
  6
CONTINUOUS
 62
     2
 10
69.6
 20
37.128
 30
0.0
 11
69.732
 21
37.452
 31
0.0
  0
LINE
  8
0
  6
CONTINUOUS
 62
     2
 10
69.732
 20
37.452
 30
0.0
 11
69.792
 21
37.8
 31
0.0
  0
LINE
  8
0
  6
CONTINUOUS
 62
     2
 10
69.792
 20
37.8
 30
0.0
 11
69.792
 21
38.256
 31
0.0
  0
LINE
  8
0
  6
CONTINUOUS
 62
     2
 10
69.792
 20
38.256
 30
0.0
 11
69.792
 21
38.484
 31
0.0
  0
LINE
  8
0
  6
CONTINUOUS
 62
     2
 10
69.792
 20
38.484
 30
0.0
 11
69.696
 21
38.688
 31
0.0
  0
LINE
  8
0
  6
CONTINUOUS
 62
     2
 10
69.696
 20
38.688
 30
0.0
 11
69.504
 21
38.712
 31
0.0
  0
LINE
  8
0
  6
CONTINUOUS
 62
     2
 10
69.504
 20
38.712
 30
0.0
 11
69.324
 21
38.556
 31
0.0
  0
LINE
  8
0
  6
CONTINUOUS
 62
     2
 10
69.324
 20
38.556
 30
0.0
 11
69.288
 21
38.076
 31
0.0
  0
LINE
  8
0
  6
CONTINUOUS
 62
     2
 10
69.288
 20
38.076
 30
0.0
 11
69.24
 21
37.632
 31
0.0
  0
LINE
  8
0
  6
CONTINUOUS
 62
     2
 10
69.24
 20
37.632
 30
0.0
 11
69.216
 21
37.212
 31
0.0
  0
LINE
  8
0
  6
CONTINUOUS
 62
     2
 10
69.216
 20
37.212
 30
0.0
 11
69.204
 21
36.9
 31
0.0
  0
LINE
  8
0
  6
CONTINUOUS
 62
     2
 10
69.204
 20
36.9
 30
0.0
 11
69.204
 21
36.6
 31
0.0
  0
LINE
  8
0
  6
CONTINUOUS
 62
     2
 10
69.204
 20
36.6
 30
0.0
 11
69.312
 21
36.288
 31
0.0
  0
LINE
  8
0
  6
CONTINUOUS
 62
     2
 10
69.312
 20
36.288
 30
0.0
 11
69.468
 21
36.048
 31
0.0
  0
LINE
  8
0
  6
CONTINUOUS
 62
     2
 10
69.468
 20
36.048
 30
0.0
 11
69.72
 21
35.988
 31
0.0
  0
TEXT
  8
0
  6
CONTINUOUS
 62
     2
 10
56.42
 20
36.12
 30
0.3
 40
3.0
  1
連結時：　＝（４０．２×Ｎ）＋１．５
 50
0.0
 41
0.9
 51
0.0
  7
KANJI2
  0
TEXT
  8
0
  6
CONTINUOUS
 62
     2
 10
67.4
 20
31.579491924
 30
0.3
 40
3.0
  1
Ｎは連結台数
 50
0.0
 41
0.9
 51
0.0
  7
KANJI2
  0
LINE
  8
0
  6
CONTINUOUS
 62
     2
 10
34.0
 20
51.6
 30
0.0
 11
36.414814566
 21
50.952952387
 31
0.0
  0
LINE
  8
0
  6
CONTINUOUS
 62
     2
 10
34.0
 20
51.6
 30
0.0
 11
36.414814566
 21
52.247047613
 31
0.0
  0
LINE
  8
0
  6
CONTINUOUS
 62
     2
 10
34.0
 20
51.6
 30
0.0
 11
41.0
 21
51.6
 31
0.0
  0
LINE
  8
0
  6
CONTINUOUS
 62
     2
 10
41.0
 20
51.6
 30
0.0
 11
38.585185434
 21
52.247047613
 31
0.0
  0
LINE
  8
0
  6
CONTINUOUS
 62
     2
 10
41.0
 20
51.6
 30
0.0
 11
38.585185434
 21
50.952952387
 31
0.0
  0
LINE
  8
0
  6
CONTINUOUS
 62
     2
 10
37.032
 20
53.024
 30
0.0
 11
37.332
 21
53.324
 31
0.0
  0
LINE
  8
0
  6
CONTINUOUS
 62
     2
 10
37.332
 20
53.324
 30
0.0
 11
37.596
 21
53.672
 31
0.0
  0
LINE
  8
0
  6
CONTINUOUS
 62
     2
 10
37.596
 20
53.672
 30
0.0
 11
37.8
 21
54.128
 31
0.0
  0
LINE
  8
0
  6
CONTINUOUS
 62
     2
 10
37.8
 20
54.128
 30
0.0
 11
37.932
 21
54.452
 31
0.0
  0
LINE
  8
0
  6
CONTINUOUS
 62
     2
 10
37.932
 20
54.452
 30
0.0
 11
37.992
 21
54.8
 31
0.0
  0
LINE
  8
0
  6
CONTINUOUS
 62
     2
 10
37.992
 20
54.8
 30
0.0
 11
37.992
 21
55.256
 31
0.0
  0
LINE
  8
0
  6
CONTINUOUS
 62
     2
 10
37.992
 20
55.256
 30
0.0
 11
37.992
 21
55.484
 31
0.0
  0
LINE
  8
0
  6
CONTINUOUS
 62
     2
 10
37.992
 20
55.484
 30
0.0
 11
37.896
 21
55.688
 31
0.0
  0
LINE
  8
0
  6
CONTINUOUS
 62
     2
 10
37.896
 20
55.688
 30
0.0
 11
37.704
 21
55.712
 31
0.0
  0
LINE
  8
0
  6
CONTINUOUS
 62
     2
 10
37.704
 20
55.712
 30
0.0
 11
37.524
 21
55.556
 31
0.0
  0
LINE
  8
0
  6
CONTINUOUS
 62
     2
 10
37.524
 20
55.556
 30
0.0
 11
37.488
 21
55.076
 31
0.0
  0
LINE
  8
0
  6
CONTINUOUS
 62
     2
 10
37.488
 20
55.076
 30
0.0
 11
37.44
 21
54.632
 31
0.0
  0
LINE
  8
0
  6
CONTINUOUS
 62
     2
 10
37.44
 20
54.632
 30
0.0
 11
37.416
 21
54.212
 31
0.0
  0
LINE
  8
0
  6
CONTINUOUS
 62
     2
 10
37.416
 20
54.212
 30
0.0
 11
37.404
 21
53.9
 31
0.0
  0
LINE
  8
0
  6
CONTINUOUS
 62
     2
 10
37.404
 20
53.9
 30
0.0
 11
37.404
 21
53.6
 31
0.0
  0
LINE
  8
0
  6
CONTINUOUS
 62
     2
 10
37.404
 20
53.6
 30
0.0
 11
37.512
 21
53.288
 31
0.0
  0
LINE
  8
0
  6
CONTINUOUS
 62
     2
 10
37.512
 20
53.288
 30
0.0
 11
37.668
 21
53.048
 31
0.0
  0
LINE
  8
0
  6
CONTINUOUS
 62
     2
 10
37.668
 20
53.048
 30
0.0
 11
37.92
 21
52.988
 31
0.0
  0
LINE
  8
0
  6
CONTINUOUS
 62
     2
 10
34.0
 20
47.6
 30
0.0
 11
34.0
 21
53.6
 31
0.0
  0
LINE
  8
0
  6
CONTINUOUS
 62
     2
 10
41.0
 20
47.6
 30
0.0
 11
41.0
 21
53.6
 31
0.0
  0
LINE
  8
0
  6
LTYPE3
 62
     2
 10
34.0
 20
42.6
 30
0.0
 11
34.0
 21
46.6
 31
0.0
  0
LINE
  8
0
  6
LTYPE3
 62
     2
 10
34.0
 20
46.6
 30
0.0
 11
41.0
 21
46.6
 31
0.0
  0
LINE
  8
0
  6
LTYPE3
 62
     2
 10
41.0
 20
46.6
 30
0.0
 11
41.0
 21
42.6
 31
0.0
  0
LINE
  8
0
  6
LTYPE3
 62
     2
 10
34.0
 20
14.2
 30
0.0
 11
34.0
 21
10.2
 31
0.0
  0
LINE
  8
0
  6
LTYPE3
 62
     2
 10
34.0
 20
10.2
 30
0.0
 11
41.0
 21
10.2
 31
0.0
  0
LINE
  8
0
  6
LTYPE3
 62
     2
 10
41.0
 20
10.2
 30
0.0
 11
41.0
 21
14.2
 31
0.0
  0
LINE
  8
0
  6
CONTINUOUS
 62
     2
 10
42.0
 20
46.6
 30
0.0
 11
49.0
 21
46.6
 31
0.0
  0
LINE
  8
0
  6
CONTINUOUS
 62
     2
 10
47.0
 20
46.6
 30
0.0
 11
46.352952387
 21
44.185185434
 31
0.0
  0
LINE
  8
0
  6
CONTINUOUS
 62
     2
 10
47.0
 20
46.6
 30
0.0
 11
47.647047613
 21
44.185185434
 31
0.0
  0
LINE
  8
0
  6
CONTINUOUS
 62
     2
 10
47.0
 20
46.6
 30
0.0
 11
47.0
 21
10.2
 31
0.0
  0
LINE
  8
0
  6
CONTINUOUS
 62
     2
 10
47.0
 20
10.2
 30
0.0
 11
47.647047613
 21
12.614814566
 31
0.0
  0
LINE
  8
0
  6
CONTINUOUS
 62
     2
 10
47.0
 20
10.2
 30
0.0
 11
46.352952387
 21
12.614814566
 31
0.0
  0
LINE
  8
0
  6
CONTINUOUS
 62
     2
 10
42.0
 20
10.2
 30
0.0
 11
49.0
 21
10.2
 31
0.0
  0
TEXT
  8
0
  6
CONTINUOUS
 62
     2
 10
51.5
 20
13.7
 30
0.3
 40
3.0
  1
（裏側取付スペース）
 50
90.0
 41
0.9
 51
0.0
  7
KANJI2
  0
TEXT
  8
0
  6
CONTINUOUS
 62
     2
 10
46.0
 20
25.4
 30
0.3
 40
3.0
  1
（１６８）
 50
90.0
 41
0.6
 51
0.0
  7
KANJI0
  0
LINE
  8
0
  6
CONTINUOUS
 62
     2
 10
24.1
 20
80.2
 30
0.0
 11
28.4
 21
71.2
 31
0.0
  0
LINE
  8
0
  6
CONTINUOUS
 62
     2
 10
28.4
 20
71.2
 30
0.0
 11
43.1
 21
71.2
 31
0.0
  0
TEXT
  8
0
  6
CONTINUOUS
 62
     2
 10
28.4
 20
72.2
 30
0.3
 40
3.0
  1
零位調整器
 50
0.0
 41
0.9
 51
0.0
  7
KANJI2
  0
LINE
  8
0
  6
CONTINUOUS
 62
     2
 10
24.1
 20
80.2
 30
0.0
 11
24.557194749
 21
77.742160916
 31
0.0
  0
LINE
  8
0
  6
CONTINUOUS
 62
     2
 10
24.1
 20
80.2
 30
0.0
 11
25.724861809
 21
78.300046289
 31
0.0
  0
LINE
  8
0
  6
LTYPE1
 62
     5
 10
71.0
 20
103.5
 30
0.0
 11
81.0
 21
103.5
 31
0.0
  0
LINE
  8
0
  6
LTYPE1
 62
     5
 10
76.0
 20
108.5
 30
0.0
 11
76.0
 21
98.5
 31
0.0
  0
CIRCLE
  8
0
  6
CONTINUOUS
 62
     5
 10
76.0
 20
103.5
 30
0.0
 40
4.0
  0
TEXT
  8
0
  6
CONTINUOUS
 62
     5
 10
72.8
 20
104.2
 30
0.05
 40
1.5
  1
ＦＵＬＬ　ＳＣＡＬＥ
 50
0.0
 41
0.4
 51
0.0
  7
KANJI15
  0
TEXT
  8
0
  6
CONTINUOUS
 62
     5
 10
73.0
 20
101.2
 30
0.1
 40
1.5
  1
ＡＤＪＵＳＴＥＲ
 50
0.0
 41
0.466666667
 51
0.0
  7
KANJI16
  0
LINE
  8
0
  6
CONTINUOUS
 62
     2
 10
78.5
 20
100.7
 30
0.0
 11
79.068130063
 21
98.265410049
 31
0.0
  0
LINE
  8
0
  6
CONTINUOUS
 62
     2
 10
78.5
 20
100.7
 30
0.0
 11
80.209310043
 21
98.875648286
 31
0.0
  0
LINE
  8
0
  6
CONTINUOUS
 62
     2
 10
78.5
 20
100.7
 30
0.0
 11
96.2
 21
67.6
 31
0.0
  0
LINE
  8
0
  6
CONTINUOUS
 62
     2
 10
96.2
 20
67.6
 30
0.0
 11
119.9
 21
67.6
 31
0.0
  0
TEXT
  8
0
  6
CONTINUOUS
 62
     2
 10
96.2
 20
68.6
 30
0.3
 40
3.0
  1
感度調整用抵抗器
 50
0.0
 41
0.9
 51
0.0
  7
KANJI2
  0
TEXT
  8
0
  6
CONTINUOUS
 62
     2
 10
95.873502692
 20
63.2
 30
0.3
 40
3.0
  1
取付金具（Ｍ５）
 50
0.0
 41
0.9
 51
0.0
  7
KANJI2
  0
LINE
  8
0
  6
CONTINUOUS
 62
     2
 10
95.581793069
 20
62.2
 30
0.0
 11
119.573502692
 21
62.2
 31
0.0
  0
LINE
  8
0
  6
CONTINUOUS
 62
     2
 10
89.0
 20
73.6
 30
0.0
 11
95.581793069
 21
62.2
 31
0.0
  0
LINE
  8
0
  6
CONTINUOUS
 62
     2
 10
56.617698401
 20
168.0
 30
0.0
 11
56.617698401
 21
152.5
 31
0.0
  0
LINE
  8
0
  6
CONTINUOUS
 62
     2
 10
27.217698401
 20
88.6
 30
0.0
 11
29.202902287
 21
90.119528062
 31
0.0
  0
LINE
  8
0
  6
CONTINUOUS
 62
     2
 10
27.217698401
 20
88.6
 30
0.0
 11
28.177171367
 21
90.908551846
 31
0.0
  0
LINE
  8
0
  6
CONTINUOUS
 62
     2
 10
27.217698401
 20
88.6
 30
0.0
 11
32.217698401
 21
95.1
 31
0.0
  0
LINE
  8
0
  6
CONTINUOUS
 62
     2
 10
32.217698401
 20
95.1
 30
0.0
 11
37.917698401
 21
95.1
 31
0.0
  0
TEXT
  8
0
  6
CONTINUOUS
 62
     2
 10
32.217698401
 20
96.1
 30
0.3
 40
3.0
  1
指針
 50
0.0
 41
0.9
 51
0.0
  7
KANJI2
  0
ENDSEC
  0
EOF
