  0
SECTION
  2
HEADER
  9
$ACADVER
  1
AC1009
  9
$DWGCODEPAGE
  3
dos932
  9
$EXTMIN
 10
0.0
 20
0.0
 30
0.0
  9
$EXTMAX
 10
297.0
 20
210.0
 30
0.0
  9
$LIMMIN
 10
0.0
 20
0.0
  9
$LIMMAX
 10
297.0
 20
210.0
  9
$LTSCALE
 40
1.0
  9
$PDMODE
 70
     0
  0
ENDSEC
  0
SECTION
  2
TABLES
  0
TABLE
  2
VPORT
 70
     1
  0
VPORT
  2
*ACTIVE
 70
     0
 10
0.0
 20
0.0
 11
1.0
 21
1.0
 12
148.5
 22
105.0
 13
0.0
 23
0.0
 14
10.0
 24
10.0
 15
10.0
 25
10.0
 16
0.0
 26
0.0
 36
1.0
 17
0.0
 27
0.0
 37
0.0
 40
297.0
 41
1.414285714
 42
50.0
 43
0.0
 44
0.0
 50
0.0
 51
0.0
 71
     0
 72
  1000
 73
     1
 74
     3
 75
     0
 76
     0
 77
     0
 78
     0
  0
ENDTAB
  0
TABLE
  2
LTYPE
 70
     4
  0
LTYPE
  2
CONTINUOUS
 70
    64
  3
Solid line
 72
    65
 73
     0
 40
0.0
  0
LTYPE
  2
LTYPE1
 70
    64
  3
CENTER
 72
    65
 73
     4
 40
5.0
 49
3.5
 49
-0.5
 49
0.5
 49
-0.5
  0
LTYPE
  2
LTYPE2
 70
    64
  3
HIDDEN
 72
    65
 73
     2
 40
1.5
 49
0.9
 49
-0.6
  0
LTYPE
  2
LTYPE3
 70
    64
  3
CENTERX2
 72
    65
 73
     4
 40
15.0
 49
12.75
 49
-0.75
 49
0.75
 49
-0.75
  0
ENDTAB
  0
TABLE
  2
LAYER
 70
   128
  0
LAYER
  2
0
 70
     0
 62
     7
  6
CONTINUOUS
  0
LAYER
  2
2
 70
     0
 62
     7
  6
CONTINUOUS
  0
LAYER
  2
3
 70
     0
 62
     7
  6
CONTINUOUS
  0
LAYER
  2
4
 70
     0
 62
     7
  6
CONTINUOUS
  0
LAYER
  2
5
 70
     0
 62
     7
  6
CONTINUOUS
  0
LAYER
  2
6
 70
     0
 62
     7
  6
CONTINUOUS
  0
LAYER
  2
7
 70
     0
 62
     7
  6
CONTINUOUS
  0
LAYER
  2
8
 70
     0
 62
     7
  6
CONTINUOUS
  0
LAYER
  2
9
 70
     0
 62
     7
  6
CONTINUOUS
  0
LAYER
  2
10
 70
     0
 62
     7
  6
CONTINUOUS
  0
LAYER
  2
11
 70
     0
 62
     7
  6
CONTINUOUS
  0
LAYER
  2
12
 70
     0
 62
     7
  6
CONTINUOUS
  0
LAYER
  2
13
 70
     0
 62
     7
  6
CONTINUOUS
  0
LAYER
  2
14
 70
     0
 62
     7
  6
CONTINUOUS
  0
LAYER
  2
15
 70
     0
 62
     7
  6
CONTINUOUS
  0
LAYER
  2
16
 70
     0
 62
     7
  6
CONTINUOUS
  0
LAYER
  2
17
 70
     0
 62
     7
  6
CONTINUOUS
  0
LAYER
  2
18
 70
     0
 62
     7
  6
CONTINUOUS
  0
LAYER
  2
19
 70
     0
 62
     7
  6
CONTINUOUS
  0
LAYER
  2
20
 70
     0
 62
     7
  6
CONTINUOUS
  0
LAYER
  2
21
 70
     0
 62
     7
  6
CONTINUOUS
  0
LAYER
  2
22
 70
     0
 62
     7
  6
CONTINUOUS
  0
LAYER
  2
23
 70
     0
 62
     7
  6
CONTINUOUS
  0
LAYER
  2
24
 70
     0
 62
     7
  6
CONTINUOUS
  0
LAYER
  2
25
 70
     0
 62
     7
  6
CONTINUOUS
  0
LAYER
  2
26
 70
     0
 62
     7
  6
CONTINUOUS
  0
LAYER
  2
27
 70
     0
 62
     7
  6
CONTINUOUS
  0
LAYER
  2
28
 70
     0
 62
     7
  6
CONTINUOUS
  0
LAYER
  2
29
 70
     0
 62
     7
  6
CONTINUOUS
  0
LAYER
  2
30
 70
     0
 62
     7
  6
CONTINUOUS
  0
LAYER
  2
31
 70
     0
 62
     7
  6
CONTINUOUS
  0
LAYER
  2
32
 70
     0
 62
     7
  6
CONTINUOUS
  0
LAYER
  2
33
 70
     0
 62
     7
  6
CONTINUOUS
  0
LAYER
  2
34
 70
     0
 62
     7
  6
CONTINUOUS
  0
LAYER
  2
35
 70
     0
 62
     7
  6
CONTINUOUS
  0
LAYER
  2
36
 70
     0
 62
     7
  6
CONTINUOUS
  0
LAYER
  2
37
 70
     0
 62
     7
  6
CONTINUOUS
  0
LAYER
  2
38
 70
     0
 62
     7
  6
CONTINUOUS
  0
LAYER
  2
39
 70
     0
 62
     7
  6
CONTINUOUS
  0
LAYER
  2
40
 70
     0
 62
     7
  6
CONTINUOUS
  0
LAYER
  2
41
 70
     0
 62
     7
  6
CONTINUOUS
  0
LAYER
  2
42
 70
     0
 62
     7
  6
CONTINUOUS
  0
LAYER
  2
43
 70
     0
 62
     7
  6
CONTINUOUS
  0
LAYER
  2
44
 70
     0
 62
     7
  6
CONTINUOUS
  0
LAYER
  2
45
 70
     0
 62
     7
  6
CONTINUOUS
  0
LAYER
  2
46
 70
     0
 62
     7
  6
CONTINUOUS
  0
LAYER
  2
47
 70
     0
 62
     7
  6
CONTINUOUS
  0
LAYER
  2
48
 70
     0
 62
     7
  6
CONTINUOUS
  0
LAYER
  2
49
 70
     0
 62
     7
  6
CONTINUOUS
  0
LAYER
  2
50
 70
     0
 62
     7
  6
CONTINUOUS
  0
LAYER
  2
51
 70
     0
 62
     7
  6
CONTINUOUS
  0
LAYER
  2
52
 70
     0
 62
     7
  6
CONTINUOUS
  0
LAYER
  2
53
 70
     0
 62
     7
  6
CONTINUOUS
  0
LAYER
  2
54
 70
     0
 62
     7
  6
CONTINUOUS
  0
LAYER
  2
55
 70
     0
 62
     7
  6
CONTINUOUS
  0
LAYER
  2
56
 70
     0
 62
     7
  6
CONTINUOUS
  0
LAYER
  2
57
 70
     0
 62
     7
  6
CONTINUOUS
  0
LAYER
  2
58
 70
     0
 62
     7
  6
CONTINUOUS
  0
LAYER
  2
59
 70
     0
 62
     7
  6
CONTINUOUS
  0
LAYER
  2
60
 70
     0
 62
     7
  6
CONTINUOUS
  0
LAYER
  2
61
 70
     0
 62
     7
  6
CONTINUOUS
  0
LAYER
  2
62
 70
     0
 62
     7
  6
CONTINUOUS
  0
LAYER
  2
63
 70
     0
 62
     7
  6
CONTINUOUS
  0
LAYER
  2
64
 70
     0
 62
     7
  6
CONTINUOUS
  0
LAYER
  2
65
 70
     0
 62
     7
  6
CONTINUOUS
  0
LAYER
  2
66
 70
     0
 62
     7
  6
CONTINUOUS
  0
LAYER
  2
67
 70
     0
 62
     7
  6
CONTINUOUS
  0
LAYER
  2
68
 70
     0
 62
     7
  6
CONTINUOUS
  0
LAYER
  2
69
 70
     0
 62
     7
  6
CONTINUOUS
  0
LAYER
  2
70
 70
     0
 62
     7
  6
CONTINUOUS
  0
LAYER
  2
71
 70
     0
 62
     7
  6
CONTINUOUS
  0
LAYER
  2
72
 70
     0
 62
     7
  6
CONTINUOUS
  0
LAYER
  2
73
 70
     0
 62
     7
  6
CONTINUOUS
  0
LAYER
  2
74
 70
     0
 62
     7
  6
CONTINUOUS
  0
LAYER
  2
75
 70
     0
 62
     7
  6
CONTINUOUS
  0
LAYER
  2
76
 70
     0
 62
     7
  6
CONTINUOUS
  0
LAYER
  2
77
 70
     0
 62
     7
  6
CONTINUOUS
  0
LAYER
  2
78
 70
     0
 62
     7
  6
CONTINUOUS
  0
LAYER
  2
79
 70
     0
 62
     7
  6
CONTINUOUS
  0
LAYER
  2
80
 70
     0
 62
     7
  6
CONTINUOUS
  0
LAYER
  2
81
 70
     0
 62
     7
  6
CONTINUOUS
  0
LAYER
  2
82
 70
     0
 62
     7
  6
CONTINUOUS
  0
LAYER
  2
83
 70
     0
 62
     7
  6
CONTINUOUS
  0
LAYER
  2
84
 70
     0
 62
     7
  6
CONTINUOUS
  0
LAYER
  2
85
 70
     0
 62
     7
  6
CONTINUOUS
  0
LAYER
  2
86
 70
     0
 62
     7
  6
CONTINUOUS
  0
LAYER
  2
87
 70
     0
 62
     7
  6
CONTINUOUS
  0
LAYER
  2
88
 70
     0
 62
     7
  6
CONTINUOUS
  0
LAYER
  2
89
 70
     0
 62
     7
  6
CONTINUOUS
  0
LAYER
  2
90
 70
     0
 62
     7
  6
CONTINUOUS
  0
LAYER
  2
91
 70
     0
 62
     7
  6
CONTINUOUS
  0
LAYER
  2
92
 70
     0
 62
     7
  6
CONTINUOUS
  0
LAYER
  2
93
 70
     0
 62
     7
  6
CONTINUOUS
  0
LAYER
  2
94
 70
     0
 62
     7
  6
CONTINUOUS
  0
LAYER
  2
95
 70
     0
 62
     7
  6
CONTINUOUS
  0
LAYER
  2
96
 70
     0
 62
     7
  6
CONTINUOUS
  0
LAYER
  2
97
 70
     0
 62
     7
  6
CONTINUOUS
  0
LAYER
  2
98
 70
     0
 62
     7
  6
CONTINUOUS
  0
LAYER
  2
99
 70
     0
 62
     7
  6
CONTINUOUS
  0
LAYER
  2
100
 70
     0
 62
     7
  6
CONTINUOUS
  0
LAYER
  2
101
 70
     0
 62
     7
  6
CONTINUOUS
  0
LAYER
  2
102
 70
     0
 62
     7
  6
CONTINUOUS
  0
LAYER
  2
103
 70
     0
 62
     7
  6
CONTINUOUS
  0
LAYER
  2
104
 70
     0
 62
     7
  6
CONTINUOUS
  0
LAYER
  2
105
 70
     0
 62
     7
  6
CONTINUOUS
  0
LAYER
  2
106
 70
     0
 62
     7
  6
CONTINUOUS
  0
LAYER
  2
107
 70
     0
 62
     7
  6
CONTINUOUS
  0
LAYER
  2
108
 70
     0
 62
     7
  6
CONTINUOUS
  0
LAYER
  2
109
 70
     0
 62
     7
  6
CONTINUOUS
  0
LAYER
  2
110
 70
     0
 62
     7
  6
CONTINUOUS
  0
LAYER
  2
111
 70
     0
 62
     7
  6
CONTINUOUS
  0
LAYER
  2
112
 70
     0
 62
     7
  6
CONTINUOUS
  0
LAYER
  2
113
 70
     0
 62
     7
  6
CONTINUOUS
  0
LAYER
  2
114
 70
     0
 62
     7
  6
CONTINUOUS
  0
LAYER
  2
115
 70
     0
 62
     7
  6
CONTINUOUS
  0
LAYER
  2
116
 70
     0
 62
     7
  6
CONTINUOUS
  0
LAYER
  2
117
 70
     0
 62
     7
  6
CONTINUOUS
  0
LAYER
  2
118
 70
     0
 62
     7
  6
CONTINUOUS
  0
LAYER
  2
119
 70
     0
 62
     7
  6
CONTINUOUS
  0
LAYER
  2
120
 70
     0
 62
     7
  6
CONTINUOUS
  0
LAYER
  2
121
 70
     0
 62
     7
  6
CONTINUOUS
  0
LAYER
  2
122
 70
     0
 62
     7
  6
CONTINUOUS
  0
LAYER
  2
123
 70
     0
 62
     7
  6
CONTINUOUS
  0
LAYER
  2
124
 70
     0
 62
     7
  6
CONTINUOUS
  0
LAYER
  2
125
 70
     0
 62
     7
  6
CONTINUOUS
  0
LAYER
  2
126
 70
     0
 62
     7
  6
CONTINUOUS
  0
LAYER
  2
127
 70
     0
 62
     7
  6
CONTINUOUS
  0
LAYER
  2
128
 70
     0
 62
     7
  6
CONTINUOUS
  0
ENDTAB
  0
TABLE
  2
STYLE
 70
    19
  0
STYLE
  2
STANDARD
 70
     0
 40
0.0
 41
1.0
 50
0.0
 71
     0
 42
0.2
  3
txt.shx
  4
extfont.shx
  0
STYLE
  2
KANJI0
 70
     0
 40
2.0
 41
0.9
 50
0.0
 71
     0
 42
2.0
  3
txt.shx
  4
extfont.shx
  0
STYLE
  2
KANJI1
 70
     0
 40
3.0
 41
0.6
 50
0.0
 71
     0
 42
3.0
  3
txt.shx
  4
extfont.shx
  0
STYLE
  2
KANJI2
 70
     0
 40
1.5
 41
0.9
 50
0.0
 71
     0
 42
1.5
  3
txt.shx
  4
extfont.shx
  0
STYLE
  2
KANJI3
 70
     0
 40
1.8
 41
0.6
 50
0.0
 71
     0
 42
1.8
  3
txt.shx
  4
extfont.shx
  0
STYLE
  2
KANJI4
 70
     0
 40
3.0
 41
0.9
 50
0.0
 71
     0
 42
3.0
  3
txt.shx
  4
extfont.shx
  0
STYLE
  2
KANJI5
 70
     0
 40
3.0
 41
0.6
 50
0.0
 71
     0
 42
3.0
  3
txt.shx
  4
extfont.shx
  0
STYLE
  2
KANJI6
 70
     0
 40
3.0
 41
0.75
 50
0.0
 71
     0
 42
3.0
  3
txt.shx
  4
extfont.shx
  0
STYLE
  2
KANJI7
 70
     0
 40
3.0
 41
0.666666667
 50
0.0
 71
     0
 42
3.0
  3
txt.shx
  4
extfont.shx
  0
STYLE
  2
KANJI8
 70
     0
 40
3.0
 41
0.45
 50
0.0
 71
     0
 42
3.0
  3
txt.shx
  4
extfont.shx
  0
STYLE
  2
KANJI9
 70
     0
 40
2.8
 41
0.714285714
 50
0.0
 71
     0
 42
2.8
  3
txt.shx
  4
extfont.shx
  0
STYLE
  2
KANJI10
 70
     0
 40
1.44
 41
0.6
 50
0.0
 71
     0
 42
1.44
  3
txt.shx
  4
extfont.shx
  0
STYLE
  2
KANJI11
 70
     0
 40
4.0
 41
0.75
 50
0.0
 71
     0
 42
4.0
  3
txt.shx
  4
extfont.shx
  0
STYLE
  2
KANJI12
 70
     0
 40
3.0
 41
0.6
 50
0.0
 71
     0
 42
3.0
  3
txt.shx
  4
extfont.shx
  0
STYLE
  2
KANJI13
 70
     0
 40
3.0
 41
0.766666667
 50
0.0
 71
     0
 42
3.0
  3
txt.shx
  4
extfont.shx
  0
STYLE
  2
KANJI14
 70
     0
 40
6.0
 41
0.9
 50
0.0
 71
     0
 42
6.0
  3
txt.shx
  4
extfont.shx
  0
STYLE
  2
KANJI15
 70
     0
 40
4.0
 41
0.9
 50
0.0
 71
     0
 42
4.0
  3
txt.shx
  4
extfont.shx
  0
STYLE
  2
KANJI16
 70
     0
 40
5.0
 41
0.9
 50
0.0
 71
     0
 42
5.0
  3
txt.shx
  4
extfont.shx
  0
STYLE
  2
KANJI17
 70
     0
 40
2.8
 41
1.0
 50
0.0
 71
     0
 42
2.8
  3
txt.shx
  4
extfont.shx
  0
ENDTAB
  0
TABLE
  2
VIEW
 70
     0
  0
ENDTAB
  0
ENDSEC
  0
SECTION
  2
BLOCKS
  0
ENDSEC
  0
SECTION
  2
ENTITIES
  0
POLYLINE
  8
0
  6
CONTINUOUS
 62
     1
 66
     1
  0
VERTEX
  8
0
  6
CONTINUOUS
 62
     1
 10
97.0
 20
109.0
 30
0.0
  0
VERTEX
  8
0
  6
CONTINUOUS
 62
     1
 10
100.0
 20
109.0
 30
0.0
  0
VERTEX
  8
0
  6
CONTINUOUS
 62
     1
 10
100.0
 20
159.0
 30
0.0
  0
VERTEX
  8
0
  6
CONTINUOUS
 62
     1
 10
97.0
 20
159.0
 30
0.0
  0
SEQEND
  0
LINE
  8
0
  6
CONTINUOUS
 62
     1
 10
100.25
 20
109.0
 30
0.0
 11
100.25
 21
158.95
 31
0.0
  0
LINE
  8
0
  6
CONTINUOUS
 62
     1
 10
100.25
 20
157.95
 30
0.0
 11
116.55
 21
157.95
 31
0.0
  0
LINE
  8
0
  6
CONTINUOUS
 62
     1
 10
116.5
 20
110.0
 30
0.0
 11
100.3
 21
110.0
 31
0.0
  0
LINE
  8
0
  6
CONTINUOUS
 62
     1
 10
152.5
 20
131.5
 30
0.0
 11
152.5
 21
121.5
 31
0.0
  0
LINE
  8
0
  6
CONTINUOUS
 62
     1
 10
152.5
 20
136.5
 30
0.0
 11
152.5
 21
146.5
 31
0.0
  0
LINE
  8
0
  6
CONTINUOUS
 62
     1
 10
152.5
 20
136.5
 30
0.0
 11
151.5
 21
136.5
 31
0.0
  0
LINE
  8
0
  6
CONTINUOUS
 62
     1
 10
151.5
 20
136.5
 30
0.0
 11
151.5
 21
131.6
 31
0.0
  0
LINE
  8
0
  6
CONTINUOUS
 62
     1
 10
151.5
 20
131.6
 30
0.0
 11
152.5
 21
131.6
 31
0.0
  0
ARC
  8
0
  6
CONTINUOUS
 62
     1
 10
165.0
 20
134.0
 30
0.0
 40
72.5
 50
160.0
 51
200.0
  0
POINT
  8
0
  6
CONTINUOUS
 62
     1
 10
165.0
 20
134.0
 30
0.0
  0
POINT
  8
0
  6
CONTINUOUS
 62
     1
 10
165.0
 20
134.0
 30
0.0
  0
POINT
  8
0
  6
CONTINUOUS
 62
     1
 10
165.0
 20
134.0
 30
0.0
  0
POINT
  8
0
  6
CONTINUOUS
 62
     1
 10
165.0
 20
134.0
 30
0.0
  0
POINT
  8
0
  6
CONTINUOUS
 62
     1
 10
165.0
 20
134.0
 30
0.0
  0
LINE
  8
0
  6
CONTINUOUS
 62
     1
 10
95.271639
 20
114.5
 30
0.0
 11
97.0
 21
115.25
 31
0.0
  0
LINE
  8
0
  6
CONTINUOUS
 62
     1
 10
97.0
 20
115.25
 30
0.0
 11
97.0
 21
152.75
 31
0.0
  0
LINE
  8
0
  6
CONTINUOUS
 62
     1
 10
97.0
 20
152.75
 30
0.0
 11
95.171639
 21
153.5
 31
0.0
  0
LINE
  8
0
  6
CONTINUOUS
 62
     1
 10
112.5
 20
157.95
 30
0.0
 11
112.5
 21
110.05
 31
0.0
  0
LINE
  8
0
  6
CONTINUOUS
 62
     1
 10
100.35
 20
135.6
 30
0.0
 11
112.45
 21
135.6
 31
0.0
  0
LINE
  8
0
  6
CONTINUOUS
 62
     1
 10
112.45
 20
132.6
 30
0.0
 11
100.35
 21
132.6
 31
0.0
  0
LINE
  8
0
  6
CONTINUOUS
 62
     1
 10
103.5
 20
132.8
 30
0.0
 11
103.5
 21
135.5
 31
0.0
  0
LINE
  8
0
  6
CONTINUOUS
 62
     1
 10
116.5
 20
116.67
 30
0.0
 11
115.0
 21
116.67
 31
0.0
  0
LINE
  8
0
  6
CONTINUOUS
 62
     1
 10
115.0
 20
116.67
 30
0.0
 11
115.0
 21
111.43
 31
0.0
  0
LINE
  8
0
  6
CONTINUOUS
 62
     1
 10
115.0
 20
111.43
 30
0.0
 11
116.5
 21
111.43
 31
0.0
  0
LINE
  8
0
  6
CONTINUOUS
 62
     1
 10
116.55
 20
156.62
 30
0.0
 11
115.05
 21
156.62
 31
0.0
  0
LINE
  8
0
  6
CONTINUOUS
 62
     1
 10
115.05
 20
156.62
 30
0.0
 11
115.05
 21
151.37
 31
0.0
  0
LINE
  8
0
  6
CONTINUOUS
 62
     1
 10
115.05
 20
151.37
 30
0.0
 11
116.46
 21
151.37
 31
0.0
  0
ARC
  8
0
  6
CONTINUOUS
 62
     1
 10
117.1
 20
155.0
 30
0.0
 40
0.75
 50
0.0
 51
90.0
  0
ARC
  8
0
  6
CONTINUOUS
 62
     1
 10
117.1
 20
153.05
 30
0.0
 40
0.75
 50
270.0
 51
0.0
  0
LINE
  8
0
  6
CONTINUOUS
 62
     1
 10
117.85
 20
153.05
 30
0.0
 11
117.85
 21
155.0
 31
0.0
  0
LINE
  8
0
  6
CONTINUOUS
 62
     1
 10
117.1
 20
155.75
 30
0.0
 11
116.55
 21
155.75
 31
0.0
  0
LINE
  8
0
  6
CONTINUOUS
 62
     1
 10
116.55
 20
155.75
 30
0.0
 11
116.55
 21
152.3
 31
0.0
  0
LINE
  8
0
  6
CONTINUOUS
 62
     1
 10
116.55
 20
152.3
 30
0.0
 11
117.1
 21
152.3
 31
0.0
  0
LINE
  8
0
  6
CONTINUOUS
 62
     1
 10
117.85
 20
154.2
 30
0.0
 11
117.45
 21
154.2
 31
0.0
  0
LINE
  8
0
  6
CONTINUOUS
 62
     1
 10
117.45
 20
154.2
 30
0.0
 11
117.45
 21
153.85
 31
0.0
  0
LINE
  8
0
  6
CONTINUOUS
 62
     1
 10
117.45
 20
153.85
 30
0.0
 11
117.85
 21
153.85
 31
0.0
  0
ARC
  8
0
  6
CONTINUOUS
 62
     1
 10
117.05
 20
115.0
 30
0.0
 40
0.75
 50
0.0
 51
90.0
  0
ARC
  8
0
  6
CONTINUOUS
 62
     1
 10
117.05
 20
113.05
 30
0.0
 40
0.75
 50
270.0
 51
0.0
  0
LINE
  8
0
  6
CONTINUOUS
 62
     1
 10
117.8
 20
113.05
 30
0.0
 11
117.8
 21
115.0
 31
0.0
  0
LINE
  8
0
  6
CONTINUOUS
 62
     1
 10
117.05
 20
115.75
 30
0.0
 11
116.5
 21
115.75
 31
0.0
  0
LINE
  8
0
  6
CONTINUOUS
 62
     1
 10
116.5
 20
115.75
 30
0.0
 11
116.5
 21
112.3
 31
0.0
  0
LINE
  8
0
  6
CONTINUOUS
 62
     1
 10
116.5
 20
112.3
 30
0.0
 11
117.05
 21
112.3
 31
0.0
  0
LINE
  8
0
  6
CONTINUOUS
 62
     1
 10
117.8
 20
114.2
 30
0.0
 11
117.4
 21
114.2
 31
0.0
  0
LINE
  8
0
  6
CONTINUOUS
 62
     1
 10
117.4
 20
114.2
 30
0.0
 11
117.4
 21
113.85
 31
0.0
  0
LINE
  8
0
  6
CONTINUOUS
 62
     1
 10
117.4
 20
113.85
 30
0.0
 11
117.8
 21
113.85
 31
0.0
  0
ARC
  8
0
  6
CONTINUOUS
 62
     1
 10
156.7
 20
141.25
 30
0.0
 40
0.75
 50
0.0
 51
90.0
  0
ARC
  8
0
  6
CONTINUOUS
 62
     1
 10
156.7
 20
139.3
 30
0.0
 40
0.75
 50
270.0
 51
0.0
  0
LINE
  8
0
  6
CONTINUOUS
 62
     1
 10
157.45
 20
139.3
 30
0.0
 11
157.45
 21
141.25
 31
0.0
  0
LINE
  8
0
  6
CONTINUOUS
 62
     1
 10
156.7
 20
142.0
 30
0.0
 11
156.15
 21
142.0
 31
0.0
  0
LINE
  8
0
  6
CONTINUOUS
 62
     1
 10
156.15
 20
142.0
 30
0.0
 11
156.15
 21
138.55
 31
0.0
  0
LINE
  8
0
  6
CONTINUOUS
 62
     1
 10
156.15
 20
138.55
 30
0.0
 11
156.7
 21
138.55
 31
0.0
  0
LINE
  8
0
  6
CONTINUOUS
 62
     1
 10
157.45
 20
140.45
 30
0.0
 11
157.05
 21
140.45
 31
0.0
  0
LINE
  8
0
  6
CONTINUOUS
 62
     1
 10
157.05
 20
140.45
 30
0.0
 11
157.05
 21
140.1
 31
0.0
  0
LINE
  8
0
  6
CONTINUOUS
 62
     1
 10
157.05
 20
140.1
 30
0.0
 11
157.45
 21
140.1
 31
0.0
  0
ARC
  8
0
  6
CONTINUOUS
 62
     1
 10
156.8
 20
128.7
 30
0.0
 40
0.75
 50
0.0
 51
90.0
  0
ARC
  8
0
  6
CONTINUOUS
 62
     1
 10
156.8
 20
126.75
 30
0.0
 40
0.75
 50
270.0
 51
0.0
  0
LINE
  8
0
  6
CONTINUOUS
 62
     1
 10
157.55
 20
126.75
 30
0.0
 11
157.55
 21
128.7
 31
0.0
  0
LINE
  8
0
  6
CONTINUOUS
 62
     1
 10
156.8
 20
129.45
 30
0.0
 11
156.25
 21
129.45
 31
0.0
  0
LINE
  8
0
  6
CONTINUOUS
 62
     1
 10
156.25
 20
129.45
 30
0.0
 11
156.25
 21
126.0
 31
0.0
  0
LINE
  8
0
  6
CONTINUOUS
 62
     1
 10
156.25
 20
126.0
 30
0.0
 11
156.8
 21
126.0
 31
0.0
  0
LINE
  8
0
  6
CONTINUOUS
 62
     1
 10
157.55
 20
127.9
 30
0.0
 11
157.15
 21
127.9
 31
0.0
  0
LINE
  8
0
  6
CONTINUOUS
 62
     1
 10
157.15
 20
127.9
 30
0.0
 11
157.15
 21
127.55
 31
0.0
  0
LINE
  8
0
  6
CONTINUOUS
 62
     1
 10
157.15
 20
127.55
 30
0.0
 11
157.55
 21
127.55
 31
0.0
  0
POINT
  8
0
  6
CONTINUOUS
 62
     1
 10
156.2
 20
129.45
 30
0.0
  0
POINT
  8
0
  6
CONTINUOUS
 62
     1
 10
156.2
 20
129.45
 30
0.0
  0
POINT
  8
0
  6
CONTINUOUS
 62
     1
 10
156.2
 20
129.45
 30
0.0
  0
POINT
  8
0
  6
CONTINUOUS
 62
     1
 10
156.2
 20
129.45
 30
0.0
  0
POINT
  8
0
  6
CONTINUOUS
 62
     1
 10
156.2
 20
129.45
 30
0.0
  0
POINT
  8
0
  6
CONTINUOUS
 62
     1
 10
156.2
 20
129.45
 30
0.0
  0
POINT
  8
0
  6
CONTINUOUS
 62
     1
 10
156.2
 20
129.45
 30
0.0
  0
POINT
  8
0
  6
CONTINUOUS
 62
     1
 10
156.2
 20
129.45
 30
0.0
  0
POINT
  8
0
  6
CONTINUOUS
 62
     1
 10
156.2
 20
129.45
 30
0.0
  0
POINT
  8
0
  6
CONTINUOUS
 62
     1
 10
156.2
 20
129.45
 30
0.0
  0
POINT
  8
0
  6
CONTINUOUS
 62
     1
 10
156.2
 20
129.45
 30
0.0
  0
POINT
  8
0
  6
CONTINUOUS
 62
     1
 10
156.2
 20
129.45
 30
0.0
  0
POINT
  8
0
  6
CONTINUOUS
 62
     1
 10
156.2
 20
129.45
 30
0.0
  0
POINT
  8
0
  6
CONTINUOUS
 62
     1
 10
156.2
 20
129.45
 30
0.0
  0
LINE
  8
0
  6
CONTINUOUS
 62
     1
 10
156.2
 20
129.45
 30
0.0
 11
155.8
 21
129.45
 31
0.0
  0
LINE
  8
0
  6
CONTINUOUS
 62
     1
 10
155.8
 20
129.45
 30
0.0
 11
155.8
 21
126.0
 31
0.0
  0
POINT
  8
0
  6
CONTINUOUS
 62
     1
 10
155.8
 20
126.0
 30
0.0
  0
LINE
  8
0
  6
CONTINUOUS
 62
     1
 10
155.8
 20
126.0
 30
0.0
 11
156.15
 21
126.0
 31
0.0
  0
LINE
  8
0
  6
CONTINUOUS
 62
     1
 10
155.75
 20
129.5
 30
0.0
 11
152.5
 21
129.5
 31
0.0
  0
LINE
  8
0
  6
CONTINUOUS
 62
     1
 10
152.5
 20
126.0
 30
0.0
 11
155.7
 21
126.0
 31
0.0
  0
LINE
  8
0
  6
CONTINUOUS
 62
     1
 10
156.1
 20
142.0
 30
0.0
 11
152.5
 21
142.0
 31
0.0
  0
LINE
  8
0
  6
CONTINUOUS
 62
     1
 10
152.5
 20
138.5
 30
0.0
 11
156.15
 21
138.5
 31
0.0
  0
LINE
  8
0
  6
CONTINUOUS
 62
     1
 10
155.75
 20
138.5
 30
0.0
 11
155.75
 21
142.0
 31
0.0
  0
LINE
  8
0
  6
CONTINUOUS
 62
     1
 10
46.5
 20
109.0
 30
0.0
 11
61.5
 21
109.0
 31
0.0
  0
LINE
  8
0
  6
CONTINUOUS
 62
     1
 10
61.5
 20
109.0
 30
0.0
 11
61.5
 21
159.0
 31
0.0
  0
LINE
  8
0
  6
CONTINUOUS
 62
     1
 10
61.5
 20
159.0
 30
0.0
 11
46.5
 21
159.0
 31
0.0
  0
LINE
  8
0
  6
CONTINUOUS
 62
     1
 10
46.5
 20
159.0
 30
0.0
 11
46.5
 21
109.0
 31
0.0
  0
POINT
  8
0
  6
CONTINUOUS
 62
     1
 10
51.5
 20
159.025
 30
0.0
  0
LINE
  8
0
  6
CONTINUOUS
 62
     1
 10
54.0
 20
151.0
 30
0.0
 11
52.0
 21
151.0
 31
0.0
  0
LINE
  8
0
  6
CONTINUOUS
 62
     1
 10
52.0
 20
147.6
 30
0.0
 11
54.0
 21
147.6
 31
0.0
  0
LINE
  8
0
  6
CONTINUOUS
 62
     1
 10
54.0
 20
144.2
 30
0.0
 11
52.0
 21
144.2
 31
0.0
  0
LINE
  8
0
  6
CONTINUOUS
 62
     1
 10
54.0
 20
140.8
 30
0.0
 11
52.0
 21
140.8
 31
0.0
  0
LINE
  8
0
  6
CONTINUOUS
 62
     1
 10
52.0
 20
137.4
 30
0.0
 11
54.0
 21
137.4
 31
0.0
  0
LINE
  8
0
  6
CONTINUOUS
 62
     1
 10
54.0
 20
134.0
 30
0.0
 11
52.0
 21
134.0
 31
0.0
  0
LINE
  8
0
  6
CONTINUOUS
 62
     1
 10
52.0
 20
130.6
 30
0.0
 11
54.0
 21
130.6
 31
0.0
  0
LINE
  8
0
  6
CONTINUOUS
 62
     1
 10
54.0
 20
127.2
 30
0.0
 11
52.0
 21
127.2
 31
0.0
  0
LINE
  8
0
  6
CONTINUOUS
 62
     1
 10
54.0
 20
123.8
 30
0.0
 11
51.95
 21
123.8
 31
0.0
  0
LINE
  8
0
  6
CONTINUOUS
 62
     1
 10
51.95
 20
120.4
 30
0.0
 11
54.0
 21
120.4
 31
0.0
  0
TEXT
  8
0
  6
CONTINUOUS
 62
     1
 10
50.05
 20
133.0
 30
0.2
 40
2.0
  1
Ｖ
 50
0.0
 41
0.9
 51
0.0
  7
KANJI0
  0
LINE
  8
0
  6
CONTINUOUS
 62
     1
 10
28.29
 20
55.53
 30
0.0
 11
28.29
 21
40.53
 31
0.0
  0
LINE
  8
0
  6
CONTINUOUS
 62
     1
 10
28.29
 20
40.53
 30
0.0
 11
78.29
 21
40.53
 31
0.0
  0
LINE
  8
0
  6
CONTINUOUS
 62
     1
 10
78.29
 20
40.53
 30
0.0
 11
78.29
 21
55.53
 31
0.0
  0
LINE
  8
0
  6
CONTINUOUS
 62
     1
 10
78.29
 20
55.53
 30
0.0
 11
28.29
 21
55.53
 31
0.0
  0
POINT
  8
0
  6
CONTINUOUS
 62
     1
 10
78.315
 20
50.53
 30
0.0
  0
LINE
  8
0
  6
CONTINUOUS
 62
     1
 10
70.29
 20
48.03
 30
0.0
 11
70.29
 21
50.03
 31
0.0
  0
LINE
  8
0
  6
CONTINUOUS
 62
     1
 10
66.89
 20
50.03
 30
0.0
 11
66.89
 21
48.03
 31
0.0
  0
LINE
  8
0
  6
CONTINUOUS
 62
     1
 10
63.49
 20
48.03
 30
0.0
 11
63.49
 21
50.03
 31
0.0
  0
LINE
  8
0
  6
CONTINUOUS
 62
     1
 10
60.09
 20
48.03
 30
0.0
 11
60.09
 21
50.03
 31
0.0
  0
LINE
  8
0
  6
CONTINUOUS
 62
     1
 10
56.69
 20
50.03
 30
0.0
 11
56.69
 21
48.03
 31
0.0
  0
LINE
  8
0
  6
CONTINUOUS
 62
     1
 10
53.29
 20
48.03
 30
0.0
 11
53.29
 21
50.03
 31
0.0
  0
LINE
  8
0
  6
CONTINUOUS
 62
     1
 10
49.89
 20
50.03
 30
0.0
 11
49.89
 21
48.03
 31
0.0
  0
LINE
  8
0
  6
CONTINUOUS
 62
     1
 10
46.49
 20
48.03
 30
0.0
 11
46.49
 21
50.03
 31
0.0
  0
LINE
  8
0
  6
CONTINUOUS
 62
     1
 10
43.09
 20
48.03
 30
0.0
 11
43.09
 21
50.08
 31
0.0
  0
LINE
  8
0
  6
CONTINUOUS
 62
     1
 10
39.69
 20
50.08
 30
0.0
 11
39.69
 21
48.03
 31
0.0
  0
TEXT
  8
0
  6
CONTINUOUS
 62
     1
 10
52.45
 20
50.4
 30
0.2
 40
2.0
  1
Ｖ
 50
0.0
 41
0.9
 51
0.0
  7
KANJI0
  0
LINE
  8
0
  6
CONTINUOUS
 62
     2
 10
92.5
 20
134.500008741
 30
0.0
 11
92.5
 21
176.000008741
 31
0.0
  0
LINE
  8
0
  6
CONTINUOUS
 62
     2
 10
92.5
 20
174.000008741
 30
0.0
 11
94.914814566
 21
173.352961128
 31
0.0
  0
LINE
  8
0
  6
CONTINUOUS
 62
     2
 10
92.5
 20
174.000008741
 30
0.0
 11
94.914814566
 21
174.647056353
 31
0.0
  0
TEXT
  8
0
  6
CONTINUOUS
 62
     2
 10
94.425
 20
175.000008741
 30
0.3
 40
3.0
  1
１５
 50
0.0
 41
0.6
 51
0.0
  7
KANJI1
  0
TEXT
  8
0
  6
CONTINUOUS
 62
     2
 10
153.025
 20
175.045
 30
0.3
 40
3.0
  1
１０
 50
0.0
 41
0.6
 51
0.0
  7
KANJI1
  0
LINE
  8
0
  6
CONTINUOUS
 62
     2
 10
153.0
 20
146.5
 30
0.0
 11
167.0
 21
146.5
 31
0.0
  0
LINE
  8
0
  6
CONTINUOUS
 62
     2
 10
165.0
 20
146.5
 30
0.0
 11
164.352952387
 21
144.085185434
 31
0.0
  0
LINE
  8
0
  6
CONTINUOUS
 62
     2
 10
165.0
 20
146.5
 30
0.0
 11
165.647047613
 21
144.085185434
 31
0.0
  0
LINE
  8
0
  6
CONTINUOUS
 62
     2
 10
165.0
 20
146.5
 30
0.0
 11
165.0
 21
121.5
 31
0.0
  0
LINE
  8
0
  6
CONTINUOUS
 62
     2
 10
165.0
 20
121.5
 30
0.0
 11
165.647047613
 21
123.914814566
 31
0.0
  0
LINE
  8
0
  6
CONTINUOUS
 62
     2
 10
165.0
 20
121.5
 30
0.0
 11
164.352952387
 21
123.914814566
 31
0.0
  0
LINE
  8
0
  6
CONTINUOUS
 62
     2
 10
153.0
 20
121.5
 30
0.0
 11
167.0
 21
121.5
 31
0.0
  0
TEXT
  8
0
  6
CONTINUOUS
 62
     2
 10
164.0
 20
132.05
 30
0.3
 40
3.0
  1
５０
 50
90.0
 41
0.6
 51
0.0
  7
KANJI1
  0
LINE
  8
0
  6
CONTINUOUS
 62
     2
 10
122.925
 20
118.4
 30
0.0
 11
123.572047613
 21
120.814814566
 31
0.0
  0
LINE
  8
0
  6
CONTINUOUS
 62
     2
 10
122.925
 20
118.4
 30
0.0
 11
122.277952387
 21
120.814814566
 31
0.0
  0
LINE
  8
0
  6
CONTINUOUS
 62
     2
 10
122.925
 20
118.4
 30
0.0
 11
122.925
 21
149.913826816
 31
0.0
  0
LINE
  8
0
  6
CONTINUOUS
 62
     2
 10
122.925
 20
149.913826816
 30
0.0
 11
122.277952387
 21
147.49901225
 31
0.0
  0
LINE
  8
0
  6
CONTINUOUS
 62
     2
 10
122.925
 20
149.913826816
 30
0.0
 11
123.572047613
 21
147.49901225
 31
0.0
  0
LINE
  8
0
  6
CONTINUOUS
 62
     2
 10
117.76
 20
113.4
 30
0.0
 11
118.281938491
 21
110.955090961
 31
0.0
  0
LINE
  8
0
  6
CONTINUOUS
 62
     2
 10
117.76
 20
113.4
 30
0.0
 11
119.434466512
 21
111.543615907
 31
0.0
  0
LINE
  8
0
  6
CONTINUOUS
 62
     2
 10
117.76
 20
113.4
 30
0.0
 11
124.96
 21
99.3
 31
0.0
  0
LINE
  8
0
  6
CONTINUOUS
 62
     2
 10
124.96
 20
99.3
 30
0.0
 11
137.26
 21
99.3
 31
0.0
  0
TEXT
  8
0
  6
CONTINUOUS
 62
     2
 10
124.96
 20
100.3
 30
0.3
 40
3.0
  1
Ｍ４取付ネジ
 50
0.0
 41
0.6
 51
0.0
  7
KANJI1
  0
ARC
  8
0
  6
CONTINUOUS
 62
     2
 10
45.75
 20
109.5
 30
0.0
 40
0.5
 50
180.0
 51
270.0
  0
ARC
  8
0
  6
CONTINUOUS
 62
     2
 10
45.75
 20
158.5
 30
0.0
 40
0.5
 50
90.0
 51
180.0
  0
ARC
  8
0
  6
CONTINUOUS
 62
     2
 10
62.25
 20
158.5
 30
0.0
 40
0.5
 50
0.0
 51
90.0
  0
ARC
  8
0
  6
CONTINUOUS
 62
     2
 10
62.25
 20
109.5
 30
0.0
 40
0.5
 50
270.0
 51
0.0
  0
LINE
  8
0
  6
CONTINUOUS
 62
     2
 10
62.25
 20
109.0
 30
0.0
 11
61.5
 21
109.0
 31
0.0
  0
LINE
  8
0
  6
CONTINUOUS
 62
     2
 10
46.5
 20
109.0
 30
0.0
 11
45.75
 21
109.0
 31
0.0
  0
LINE
  8
0
  6
CONTINUOUS
 62
     2
 10
45.25
 20
109.5
 30
0.0
 11
45.25
 21
158.5
 31
0.0
  0
LINE
  8
0
  6
CONTINUOUS
 62
     2
 10
45.75
 20
159.0
 30
0.0
 11
46.5
 21
159.0
 31
0.0
  0
LINE
  8
0
  6
CONTINUOUS
 62
     2
 10
61.5
 20
159.0
 30
0.0
 11
62.25
 21
159.0
 31
0.0
  0
LINE
  8
0
  6
CONTINUOUS
 62
     2
 10
62.75
 20
158.5
 30
0.0
 11
62.75
 21
109.5
 31
0.0
  0
LINE
  8
0
  6
CONTINUOUS
 62
     2
 10
61.55
 20
114.525
 30
0.0
 11
46.5
 21
114.525
 31
0.0
  0
LINE
  8
0
  6
CONTINUOUS
 62
     2
 10
61.4875
 20
153.475
 30
0.0
 11
46.5375
 21
153.475
 31
0.0
  0
LINE
  8
0
  6
CONTINUOUS
 62
     2
 10
46.5
 20
154.275
 30
0.0
 11
61.5
 21
154.275
 31
0.0
  0
LINE
  8
0
  6
CONTINUOUS
 62
     2
 10
61.5
 20
155.075
 30
0.0
 11
46.5
 21
155.075
 31
0.0
  0
LINE
  8
0
  6
CONTINUOUS
 62
     2
 10
46.5
 20
155.875
 30
0.0
 11
61.5
 21
155.875
 31
0.0
  0
LINE
  8
0
  6
CONTINUOUS
 62
     2
 10
61.5
 20
156.675
 30
0.0
 11
46.5
 21
156.675
 31
0.0
  0
LINE
  8
0
  6
CONTINUOUS
 62
     2
 10
46.5
 20
157.475
 30
0.0
 11
61.5
 21
157.475
 31
0.0
  0
LINE
  8
0
  6
CONTINUOUS
 62
     2
 10
61.5
 20
158.275
 30
0.0
 11
46.5
 21
158.275
 31
0.0
  0
LINE
  8
0
  6
CONTINUOUS
 62
     2
 10
46.5
 20
113.775
 30
0.0
 11
61.5
 21
113.775
 31
0.0
  0
LINE
  8
0
  6
CONTINUOUS
 62
     2
 10
46.4875
 20
110.575
 30
0.0
 11
61.5
 21
110.575
 31
0.0
  0
LINE
  8
0
  6
CONTINUOUS
 62
     2
 10
61.5
 20
109.775
 30
0.0
 11
46.5
 21
109.775
 31
0.0
  0
CIRCLE
  8
0
  6
CONTINUOUS
 62
     2
 10
54.0
 20
112.175
 30
0.0
 40
1.325
  0
LINE
  8
0
  6
CONTINUOUS
 62
     2
 10
55.3
 20
112.175
 30
0.0
 11
61.5
 21
112.175
 31
0.0
  0
LINE
  8
0
  6
CONTINUOUS
 62
     2
 10
46.5
 20
112.175
 30
0.0
 11
52.7
 21
112.175
 31
0.0
  0
LINE
  8
0
  6
CONTINUOUS
 62
     2
 10
52.95
 20
111.375
 30
0.0
 11
46.4875
 21
111.375
 31
0.0
  0
LINE
  8
0
  6
CONTINUOUS
 62
     2
 10
61.5
 20
111.375
 30
0.0
 11
55.0
 21
111.375
 31
0.0
  0
LINE
  8
0
  6
CONTINUOUS
 62
     2
 10
52.95
 20
112.975
 30
0.0
 11
46.5
 21
112.975
 31
0.0
  0
LINE
  8
0
  6
CONTINUOUS
 62
     2
 10
61.5
 20
112.975
 30
0.0
 11
55.05
 21
112.975
 31
0.0
  0
LINE
  8
0
  6
CONTINUOUS
 62
     2
 10
53.85
 20
113.475
 30
0.0
 11
53.85
 21
110.925
 31
0.0
  0
LINE
  8
0
  6
CONTINUOUS
 62
     2
 10
54.15
 20
110.925
 30
0.0
 11
54.15
 21
113.475
 31
0.0
  0
LINE
  8
0
  6
CONTINUOUS
 62
     2
 10
59.7125
 20
114.575
 30
0.0
 11
59.7125
 21
153.475
 31
0.0
  0
LINE
  8
0
  6
CONTINUOUS
 62
     2
 10
48.0
 20
153.475
 30
0.0
 11
48.0
 21
114.575
 31
0.0
  0
LINE
  8
0
  6
CONTINUOUS
 62
     2
 10
49.53
 20
152.97
 30
0.0
 11
59.71
 21
152.97
 31
0.0
  0
LINE
  8
0
  6
CONTINUOUS
 62
     2
 10
49.5
 20
152.97
 30
0.0
 11
48.02
 21
152.97
 31
0.0
  0
LINE
  8
0
  6
CONTINUOUS
 62
     2
 10
48.0
 20
115.025
 30
0.0
 11
59.7
 21
115.025
 31
0.0
  0
LINE
  8
0
  6
CONTINUOUS
 62
     2
 10
53.5
 20
118.7
 30
0.0
 11
52.0
 21
118.7
 31
0.0
  0
LINE
  8
0
  6
CONTINUOUS
 62
     2
 10
52.0
 20
122.1
 30
0.0
 11
53.5
 21
122.1
 31
0.0
  0
LINE
  8
0
  6
CONTINUOUS
 62
     2
 10
53.5
 20
125.5
 30
0.0
 11
52.0
 21
125.5
 31
0.0
  0
LINE
  8
0
  6
CONTINUOUS
 62
     2
 10
52.0
 20
128.9
 30
0.0
 11
53.5
 21
128.9
 31
0.0
  0
LINE
  8
0
  6
CONTINUOUS
 62
     2
 10
53.5
 20
132.3
 30
0.0
 11
52.0
 21
132.3
 31
0.0
  0
LINE
  8
0
  6
CONTINUOUS
 62
     2
 10
52.0
 20
135.7
 30
0.0
 11
53.5
 21
135.7
 31
0.0
  0
LINE
  8
0
  6
CONTINUOUS
 62
     2
 10
53.5
 20
139.1
 30
0.0
 11
52.0
 21
139.1
 31
0.0
  0
LINE
  8
0
  6
CONTINUOUS
 62
     2
 10
52.0
 20
142.5
 30
0.0
 11
53.5
 21
142.5
 31
0.0
  0
LINE
  8
0
  6
CONTINUOUS
 62
     2
 10
53.5
 20
145.9
 30
0.0
 11
52.0
 21
145.9
 31
0.0
  0
LINE
  8
0
  6
CONTINUOUS
 62
     2
 10
52.0
 20
149.3
 30
0.0
 11
53.5
 21
149.3
 31
0.0
  0
TEXT
  8
0
  6
CONTINUOUS
 62
     2
 10
54.0
 20
150.25
 30
0.15
 40
1.5
  1
１００
 50
0.0
 41
0.9
 51
0.0
  7
KANJI2
  0
TEXT
  8
0
  6
CONTINUOUS
 62
     2
 10
54.25
 20
143.45
 30
0.15
 40
1.5
  1
８０
 50
0.0
 41
0.9
 51
0.0
  7
KANJI2
  0
TEXT
  8
0
  6
CONTINUOUS
 62
     2
 10
54.25
 20
136.65
 30
0.15
 40
1.5
  1
６０
 50
0.0
 41
0.9
 51
0.0
  7
KANJI2
  0
TEXT
  8
0
  6
CONTINUOUS
 62
     2
 10
54.25
 20
129.85
 30
0.15
 40
1.5
  1
４０
 50
0.0
 41
0.9
 51
0.0
  7
KANJI2
  0
TEXT
  8
0
  6
CONTINUOUS
 62
     2
 10
54.25
 20
123.05
 30
0.15
 40
1.5
  1
２０
 50
0.0
 41
0.9
 51
0.0
  7
KANJI2
  0
TEXT
  8
0
  6
CONTINUOUS
 62
     2
 10
54.25
 20
116.25
 30
0.15
 40
1.5
  1
０
 50
0.0
 41
0.9
 51
0.0
  7
KANJI2
  0
LINE
  8
0
  6
CONTINUOUS
 62
     2
 10
62.75
 20
158.95
 30
0.0
 11
62.75
 21
176.000008741
 31
0.0
  0
LINE
  8
0
  6
CONTINUOUS
 62
     2
 10
62.75
 20
174.000008741
 30
0.0
 11
60.335185434
 21
174.647056353
 31
0.0
  0
LINE
  8
0
  6
CONTINUOUS
 62
     2
 10
62.75
 20
174.000008741
 30
0.0
 11
60.335185434
 21
173.352961128
 31
0.0
  0
LINE
  8
0
  6
CONTINUOUS
 62
     2
 10
62.75
 20
174.000008741
 30
0.0
 11
45.25
 21
174.000008741
 31
0.0
  0
LINE
  8
0
  6
CONTINUOUS
 62
     2
 10
45.25
 20
174.000008741
 30
0.0
 11
47.664814566
 21
173.352961128
 31
0.0
  0
LINE
  8
0
  6
CONTINUOUS
 62
     2
 10
45.25
 20
174.000008741
 30
0.0
 11
47.664814566
 21
174.647056353
 31
0.0
  0
LINE
  8
0
  6
CONTINUOUS
 62
     2
 10
45.25
 20
158.95
 30
0.0
 11
45.25
 21
176.000008741
 31
0.0
  0
TEXT
  8
0
  6
CONTINUOUS
 62
     2
 10
52.05
 20
175.000008741
 30
0.3
 40
3.0
  1
３５
 50
0.0
 41
0.6
 51
0.0
  7
KANJI1
  0
LINE
  8
0
  6
CONTINUOUS
 62
     2
 10
46.5
 20
169.8
 30
0.0
 11
48.914814566
 21
169.152952387
 31
0.0
  0
LINE
  8
0
  6
CONTINUOUS
 62
     2
 10
46.5
 20
169.8
 30
0.0
 11
48.914814566
 21
170.447047613
 31
0.0
  0
LINE
  8
0
  6
CONTINUOUS
 62
     2
 10
46.5
 20
169.8
 30
0.0
 11
61.5
 21
169.8
 31
0.0
  0
LINE
  8
0
  6
CONTINUOUS
 62
     2
 10
61.5
 20
169.8
 30
0.0
 11
59.085185434
 21
170.447047613
 31
0.0
  0
LINE
  8
0
  6
CONTINUOUS
 62
     2
 10
61.5
 20
169.8
 30
0.0
 11
59.085185434
 21
169.152952387
 31
0.0
  0
TEXT
  8
0
  6
CONTINUOUS
 62
     2
 10
53.52
 20
170.8
 30
0.18
 40
1.8
  1
±０．５
 50
0.0
 41
0.6
 51
0.0
  7
KANJI3
  0
TEXT
  8
0
  6
CONTINUOUS
 62
     2
 10
49.62
 20
170.8
 30
0.3
 40
3.0
  1
３０
 50
0.0
 41
0.6
 51
0.0
  7
KANJI1
  0
TEXT
  8
0
  6
CONTINUOUS
 62
     2
 10
56.07
 20
174.9
 30
0.18
 40
1.8
  1
±０．５
 50
0.0
 41
0.6
 51
0.0
  7
KANJI3
  0
LINE
  8
0
  6
CONTINUOUS
 62
     2
 10
45.4
 20
159.025
 30
0.0
 11
31.55
 21
159.025
 31
0.0
  0
LINE
  8
0
  6
CONTINUOUS
 62
     2
 10
33.55
 20
159.025
 30
0.0
 11
32.902952387
 21
156.610185434
 31
0.0
  0
LINE
  8
0
  6
CONTINUOUS
 62
     2
 10
33.55
 20
159.025
 30
0.0
 11
34.197047613
 21
156.610185434
 31
0.0
  0
LINE
  8
0
  6
CONTINUOUS
 62
     2
 10
33.55
 20
159.025
 30
0.0
 11
33.55
 21
109.025
 31
0.0
  0
LINE
  8
0
  6
CONTINUOUS
 62
     2
 10
33.55
 20
109.025
 30
0.0
 11
34.197047613
 21
111.439814566
 31
0.0
  0
LINE
  8
0
  6
CONTINUOUS
 62
     2
 10
33.55
 20
109.025
 30
0.0
 11
32.902952387
 21
111.439814566
 31
0.0
  0
TEXT
  8
0
  6
CONTINUOUS
 62
     2
 10
32.55
 20
131.025
 30
0.3
 40
3.0
  1
１００
 50
90.0
 41
0.6
 51
0.0
  7
KANJI1
  0
LINE
  8
0
  6
CONTINUOUS
 62
     2
 10
45.875
 20
109.325
 30
0.0
 11
43.69301792
 21
108.104772888
 31
0.0
  0
LINE
  8
0
  6
CONTINUOUS
 62
     2
 10
45.875
 20
109.325
 30
0.0
 11
44.595461644
 21
107.177261283
 31
0.0
  0
LINE
  8
0
  6
CONTINUOUS
 62
     2
 10
45.875
 20
109.325
 30
0.0
 11
36.625
 21
100.325
 31
0.0
  0
LINE
  8
0
  6
CONTINUOUS
 62
     2
 10
42.425
 20
95.275
 30
0.0
 11
66.075
 21
95.275
 31
0.0
  0
CIRCLE
  8
0
  6
CONTINUOUS
 62
     2
 10
106.4
 20
154.55
 30
0.0
 40
1.5
  0
LINE
  8
0
  6
CONTINUOUS
 62
     2
 10
105.525
 20
154.75
 30
0.0
 11
106.0
 21
154.75
 31
0.0
  0
ARC
  8
0
  6
CONTINUOUS
 62
     2
 10
106.0
 20
154.95
 30
0.0
 40
0.2
 50
270.0
 51
0.0
  0
LINE
  8
0
  6
CONTINUOUS
 62
     2
 10
106.2
 20
154.95
 30
0.0
 11
106.2
 21
155.425
 31
0.0
  0
LINE
  8
0
  6
CONTINUOUS
 62
     2
 10
106.2
 20
155.425
 30
0.0
 11
106.6
 21
155.425
 31
0.0
  0
LINE
  8
0
  6
CONTINUOUS
 62
     2
 10
106.6
 20
155.425
 30
0.0
 11
106.6
 21
154.95
 31
0.0
  0
ARC
  8
0
  6
CONTINUOUS
 62
     2
 10
106.8
 20
154.95
 30
0.0
 40
0.2
 50
180.0
 51
270.0
  0
LINE
  8
0
  6
CONTINUOUS
 62
     2
 10
106.8
 20
154.75
 30
0.0
 11
107.275
 21
154.75
 31
0.0
  0
LINE
  8
0
  6
CONTINUOUS
 62
     2
 10
107.275
 20
154.75
 30
0.0
 11
107.275
 21
154.35
 31
0.0
  0
LINE
  8
0
  6
CONTINUOUS
 62
     2
 10
107.275
 20
154.35
 30
0.0
 11
106.8
 21
154.35
 31
0.0
  0
ARC
  8
0
  6
CONTINUOUS
 62
     2
 10
106.8
 20
154.15
 30
0.0
 40
0.2
 50
90.0
 51
180.0
  0
LINE
  8
0
  6
CONTINUOUS
 62
     2
 10
106.6
 20
154.15
 30
0.0
 11
106.6
 21
153.675
 31
0.0
  0
LINE
  8
0
  6
CONTINUOUS
 62
     2
 10
106.6
 20
153.675
 30
0.0
 11
106.2
 21
153.675
 31
0.0
  0
LINE
  8
0
  6
CONTINUOUS
 62
     2
 10
106.2
 20
153.675
 30
0.0
 11
106.2
 21
154.15
 31
0.0
  0
ARC
  8
0
  6
CONTINUOUS
 62
     2
 10
106.0
 20
154.15
 30
0.0
 40
0.2
 50
0.0
 51
90.0
  0
LINE
  8
0
  6
CONTINUOUS
 62
     2
 10
106.0
 20
154.35
 30
0.0
 11
105.525
 21
154.35
 31
0.0
  0
LINE
  8
0
  6
CONTINUOUS
 62
     2
 10
105.525
 20
154.35
 30
0.0
 11
105.525
 21
154.75
 31
0.0
  0
LINE
  8
0
  6
LTYPE1
 62
     2
 10
104.4
 20
154.55
 30
0.0
 11
108.4
 21
154.55
 31
0.0
  0
LINE
  8
0
  6
LTYPE1
 62
     2
 10
106.4
 20
156.55
 30
0.0
 11
106.4
 21
152.55
 31
0.0
  0
CIRCLE
  8
0
  6
CONTINUOUS
 62
     2
 10
106.4
 20
113.575
 30
0.0
 40
1.5
  0
LINE
  8
0
  6
CONTINUOUS
 62
     2
 10
105.525
 20
113.775
 30
0.0
 11
106.0
 21
113.775
 31
0.0
  0
ARC
  8
0
  6
CONTINUOUS
 62
     2
 10
106.0
 20
113.975
 30
0.0
 40
0.2
 50
270.0
 51
0.0
  0
LINE
  8
0
  6
CONTINUOUS
 62
     2
 10
106.2
 20
113.975
 30
0.0
 11
106.2
 21
114.45
 31
0.0
  0
LINE
  8
0
  6
CONTINUOUS
 62
     2
 10
106.2
 20
114.45
 30
0.0
 11
106.6
 21
114.45
 31
0.0
  0
LINE
  8
0
  6
CONTINUOUS
 62
     2
 10
106.6
 20
114.45
 30
0.0
 11
106.6
 21
113.975
 31
0.0
  0
ARC
  8
0
  6
CONTINUOUS
 62
     2
 10
106.8
 20
113.975
 30
0.0
 40
0.2
 50
180.0
 51
270.0
  0
LINE
  8
0
  6
CONTINUOUS
 62
     2
 10
106.8
 20
113.775
 30
0.0
 11
107.275
 21
113.775
 31
0.0
  0
LINE
  8
0
  6
CONTINUOUS
 62
     2
 10
107.275
 20
113.775
 30
0.0
 11
107.275
 21
113.375
 31
0.0
  0
LINE
  8
0
  6
CONTINUOUS
 62
     2
 10
107.275
 20
113.375
 30
0.0
 11
106.8
 21
113.375
 31
0.0
  0
ARC
  8
0
  6
CONTINUOUS
 62
     2
 10
106.8
 20
113.175
 30
0.0
 40
0.2
 50
90.0
 51
180.0
  0
LINE
  8
0
  6
CONTINUOUS
 62
     2
 10
106.6
 20
113.175
 30
0.0
 11
106.6
 21
112.7
 31
0.0
  0
LINE
  8
0
  6
CONTINUOUS
 62
     2
 10
106.6
 20
112.7
 30
0.0
 11
106.2
 21
112.7
 31
0.0
  0
LINE
  8
0
  6
CONTINUOUS
 62
     2
 10
106.2
 20
112.7
 30
0.0
 11
106.2
 21
113.175
 31
0.0
  0
ARC
  8
0
  6
CONTINUOUS
 62
     2
 10
106.0
 20
113.175
 30
0.0
 40
0.2
 50
0.0
 51
90.0
  0
LINE
  8
0
  6
CONTINUOUS
 62
     2
 10
106.0
 20
113.375
 30
0.0
 11
105.525
 21
113.375
 31
0.0
  0
LINE
  8
0
  6
CONTINUOUS
 62
     2
 10
105.525
 20
113.375
 30
0.0
 11
105.525
 21
113.775
 31
0.0
  0
LINE
  8
0
  6
LTYPE1
 62
     2
 10
104.4
 20
113.575
 30
0.0
 11
108.4
 21
113.575
 31
0.0
  0
LINE
  8
0
  6
LTYPE1
 62
     2
 10
106.4
 20
115.575
 30
0.0
 11
106.4
 21
111.575
 31
0.0
  0
TEXT
  8
0
  6
CONTINUOUS
 62
     2
 10
99.0
 20
60.965
 30
0.18
 40
1.8
  1
－０
 50
90.0
 41
0.6
 51
0.0
  7
KANJI3
  0
TEXT
  8
0
  6
CONTINUOUS
 62
     2
 10
97.2
 20
60.965
 30
0.18
 40
1.8
  1
＋０．５
 50
90.0
 41
0.6
 51
0.0
  7
KANJI3
  0
TEXT
  8
0
  6
CONTINUOUS
 62
     2
 10
99.0
 20
52.865
 30
0.3
 40
3.0
  1
９６．５
 50
90.0
 41
0.6
 51
0.0
  7
KANJI1
  0
LINE
  8
0
  6
LTYPE1
 62
     2
 10
148.99
 20
140.295
 30
0.0
 11
159.59
 21
140.295
 31
0.0
  0
LINE
  8
0
  6
LTYPE1
 62
     2
 10
149.19
 20
127.745
 30
0.0
 11
159.54
 21
127.745
 31
0.0
  0
LINE
  8
0
  6
CONTINUOUS
 62
     2
 10
55.0
 20
112.0
 30
0.0
 11
56.316331322
 21
109.874612541
 31
0.0
  0
LINE
  8
0
  6
CONTINUOUS
 62
     2
 10
55.0
 20
112.0
 30
0.0
 11
57.202670094
 21
110.817526128
 31
0.0
  0
LINE
  8
0
  6
CONTINUOUS
 62
     2
 10
55.0
 20
112.0
 30
0.0
 11
67.5
 21
100.25
 31
0.0
  0
LINE
  8
0
  6
CONTINUOUS
 62
     2
 10
36.625
 20
100.325
 30
0.0
 11
30.225
 21
100.325
 31
0.0
  0
TEXT
  8
0
  6
CONTINUOUS
 62
     2
 10
30.225
 20
101.325
 30
0.3
 40
3.0
  1
化粧枠
 50
0.0
 41
0.6
 51
0.0
  7
KANJI1
  0
LINE
  8
0
  6
CONTINUOUS
 62
     2
 10
44.9
 20
109.025
 30
0.0
 11
31.55
 21
109.025
 31
0.0
  0
LINE
  8
0
  6
CONTINUOUS
 62
     2
 10
46.5
 20
159.5
 30
0.0
 11
46.5
 21
171.8
 31
0.0
  0
LINE
  8
0
  6
CONTINUOUS
 62
     2
 10
61.5
 20
159.5
 30
0.0
 11
61.5
 21
171.8
 31
0.0
  0
TEXT
  8
0
  6
CONTINUOUS
 62
     2
 10
110.6
 20
26.825
 30
0.3
 40
3.0
  1
パネルカット
 50
0.0
 41
0.9
 51
0.0
  7
KANJI4
  0
LINE
  8
0
  6
CONTINUOUS
 62
     2
 10
109.1
 20
25.525
 30
0.0
 11
128.5
 21
25.525
 31
0.0
  0
LINE
  8
0
  6
CONTINUOUS
 62
     2
 10
157.5
 20
141.550002697
 30
0.0
 11
157.5
 21
176.045
 31
0.0
  0
LINE
  8
0
  6
CONTINUOUS
 62
     2
 10
152.5
 20
147.0
 30
0.0
 11
152.5
 21
176.045
 31
0.0
  0
TEXT
  8
0
  6
CONTINUOUS
 62
     2
 10
43.325
 20
95.925
 30
0.4
 40
3.0
  1
縦形　□Ｅｆ－１００Ｔ
 50
0.0
 41
0.6
 51
0.0
  7
KANJI5
  0
TEXT
  8
0
  6
CONTINUOUS
 62
     2
 10
131.53
 20
175.045
 30
0.3
 40
3.0
  1
７２
 50
0.0
 41
0.6
 51
0.0
  7
KANJI1
  0
LINE
  8
0
  6
CONTINUOUS
 62
     2
 10
110.96
 20
166.52
 30
0.0
 11
121.26
 21
166.52
 31
0.0
  0
LINE
  8
0
  6
CONTINUOUS
 62
     2
 10
113.56
 20
167.02
 30
0.0
 11
114.96
 21
166.52
 31
0.0
  0
LINE
  8
0
  6
CONTINUOUS
 62
     2
 10
114.96
 20
166.52
 30
0.0
 11
113.56
 21
166.02
 31
0.0
  0
ARC
  8
0
  6
CONTINUOUS
 62
     2
 10
28.79
 20
56.28
 30
0.0
 40
0.5
 50
90.0
 51
180.0
  0
ARC
  8
0
  6
CONTINUOUS
 62
     2
 10
77.79
 20
56.28
 30
0.0
 40
0.5
 50
0.0
 51
90.0
  0
ARC
  8
0
  6
CONTINUOUS
 62
     2
 10
77.79
 20
39.78
 30
0.0
 40
0.5
 50
270.0
 51
0.0
  0
ARC
  8
0
  6
CONTINUOUS
 62
     2
 10
28.79
 20
39.78
 30
0.0
 40
0.5
 50
180.0
 51
270.0
  0
LINE
  8
0
  6
CONTINUOUS
 62
     2
 10
28.29
 20
39.78
 30
0.0
 11
28.29
 21
40.53
 31
0.0
  0
LINE
  8
0
  6
CONTINUOUS
 62
     2
 10
28.29
 20
55.53
 30
0.0
 11
28.29
 21
56.28
 31
0.0
  0
LINE
  8
0
  6
CONTINUOUS
 62
     2
 10
28.79
 20
56.78
 30
0.0
 11
77.79
 21
56.78
 31
0.0
  0
LINE
  8
0
  6
CONTINUOUS
 62
     2
 10
78.29
 20
56.28
 30
0.0
 11
78.29
 21
55.53
 31
0.0
  0
LINE
  8
0
  6
CONTINUOUS
 62
     2
 10
78.29
 20
40.53
 30
0.0
 11
78.29
 21
39.78
 31
0.0
  0
LINE
  8
0
  6
CONTINUOUS
 62
     2
 10
77.79
 20
39.28
 30
0.0
 11
28.79
 21
39.28
 31
0.0
  0
LINE
  8
0
  6
CONTINUOUS
 62
     2
 10
33.815
 20
40.48
 30
0.0
 11
33.815
 21
55.53
 31
0.0
  0
LINE
  8
0
  6
CONTINUOUS
 62
     2
 10
72.765
 20
40.5425
 30
0.0
 11
72.765
 21
55.4925
 31
0.0
  0
LINE
  8
0
  6
CONTINUOUS
 62
     2
 10
73.565
 20
55.53
 30
0.0
 11
73.565
 21
40.53
 31
0.0
  0
LINE
  8
0
  6
CONTINUOUS
 62
     2
 10
74.365
 20
40.53
 30
0.0
 11
74.365
 21
55.53
 31
0.0
  0
LINE
  8
0
  6
CONTINUOUS
 62
     2
 10
75.165
 20
55.53
 30
0.0
 11
75.165
 21
40.53
 31
0.0
  0
LINE
  8
0
  6
CONTINUOUS
 62
     2
 10
75.965
 20
40.53
 30
0.0
 11
75.965
 21
55.53
 31
0.0
  0
LINE
  8
0
  6
CONTINUOUS
 62
     2
 10
76.765
 20
55.53
 30
0.0
 11
76.765
 21
40.53
 31
0.0
  0
LINE
  8
0
  6
CONTINUOUS
 62
     2
 10
77.565
 20
40.53
 30
0.0
 11
77.565
 21
55.53
 31
0.0
  0
LINE
  8
0
  6
CONTINUOUS
 62
     2
 10
33.065
 20
55.53
 30
0.0
 11
33.065
 21
40.53
 31
0.0
  0
LINE
  8
0
  6
CONTINUOUS
 62
     2
 10
29.865
 20
55.5425
 30
0.0
 11
29.865
 21
40.53
 31
0.0
  0
LINE
  8
0
  6
CONTINUOUS
 62
     2
 10
29.065
 20
40.53
 30
0.0
 11
29.065
 21
55.53
 31
0.0
  0
CIRCLE
  8
0
  6
CONTINUOUS
 62
     2
 10
31.465
 20
48.03
 30
0.0
 40
1.325
  0
LINE
  8
0
  6
CONTINUOUS
 62
     2
 10
31.465
 20
46.73
 30
0.0
 11
31.465
 21
40.53
 31
0.0
  0
LINE
  8
0
  6
CONTINUOUS
 62
     2
 10
31.465
 20
55.53
 30
0.0
 11
31.465
 21
49.33
 31
0.0
  0
LINE
  8
0
  6
CONTINUOUS
 62
     2
 10
30.665
 20
49.08
 30
0.0
 11
30.665
 21
55.5425
 31
0.0
  0
LINE
  8
0
  6
CONTINUOUS
 62
     2
 10
30.665
 20
40.53
 30
0.0
 11
30.665
 21
47.03
 31
0.0
  0
LINE
  8
0
  6
CONTINUOUS
 62
     2
 10
32.265
 20
49.08
 30
0.0
 11
32.265
 21
55.53
 31
0.0
  0
LINE
  8
0
  6
CONTINUOUS
 62
     2
 10
32.265
 20
40.53
 30
0.0
 11
32.265
 21
46.98
 31
0.0
  0
LINE
  8
0
  6
CONTINUOUS
 62
     2
 10
32.765
 20
48.18
 30
0.0
 11
30.215
 21
48.18
 31
0.0
  0
LINE
  8
0
  6
CONTINUOUS
 62
     2
 10
30.215
 20
47.88
 30
0.0
 11
32.765
 21
47.88
 31
0.0
  0
LINE
  8
0
  6
CONTINUOUS
 62
     2
 10
33.865
 20
42.3175
 30
0.0
 11
72.765
 21
42.3175
 31
0.0
  0
LINE
  8
0
  6
CONTINUOUS
 62
     2
 10
72.765
 20
54.03
 30
0.0
 11
33.865
 21
54.03
 31
0.0
  0
LINE
  8
0
  6
CONTINUOUS
 62
     2
 10
72.26
 20
52.5
 30
0.0
 11
72.26
 21
42.32
 31
0.0
  0
LINE
  8
0
  6
CONTINUOUS
 62
     2
 10
72.26
 20
52.53
 30
0.0
 11
72.26
 21
54.01
 31
0.0
  0
LINE
  8
0
  6
CONTINUOUS
 62
     2
 10
34.315
 20
54.03
 30
0.0
 11
34.315
 21
42.33
 31
0.0
  0
LINE
  8
0
  6
CONTINUOUS
 62
     2
 10
37.99
 20
48.53
 30
0.0
 11
37.99
 21
50.03
 31
0.0
  0
LINE
  8
0
  6
CONTINUOUS
 62
     2
 10
41.39
 20
50.03
 30
0.0
 11
41.39
 21
48.53
 31
0.0
  0
LINE
  8
0
  6
CONTINUOUS
 62
     2
 10
44.79
 20
48.53
 30
0.0
 11
44.79
 21
50.03
 31
0.0
  0
LINE
  8
0
  6
CONTINUOUS
 62
     2
 10
48.19
 20
50.03
 30
0.0
 11
48.19
 21
48.53
 31
0.0
  0
LINE
  8
0
  6
CONTINUOUS
 62
     2
 10
51.59
 20
48.53
 30
0.0
 11
51.59
 21
50.03
 31
0.0
  0
LINE
  8
0
  6
CONTINUOUS
 62
     2
 10
54.99
 20
50.03
 30
0.0
 11
54.99
 21
48.53
 31
0.0
  0
LINE
  8
0
  6
CONTINUOUS
 62
     2
 10
58.39
 20
48.53
 30
0.0
 11
58.39
 21
50.03
 31
0.0
  0
LINE
  8
0
  6
CONTINUOUS
 62
     2
 10
61.79
 20
50.03
 30
0.0
 11
61.79
 21
48.53
 31
0.0
  0
LINE
  8
0
  6
CONTINUOUS
 62
     2
 10
65.19
 20
48.53
 30
0.0
 11
65.19
 21
50.03
 31
0.0
  0
LINE
  8
0
  6
CONTINUOUS
 62
     2
 10
68.59
 20
50.03
 30
0.0
 11
68.59
 21
48.53
 31
0.0
  0
TEXT
  8
0
  6
CONTINUOUS
 62
     2
 10
35.65
 20
46.05
 30
0.15
 40
1.5
  1
０
 50
0.0
 41
0.9
 51
0.0
  7
KANJI2
  0
TEXT
  8
0
  6
CONTINUOUS
 62
     2
 10
41.65
 20
46.15
 30
0.15
 40
1.5
  1
２０
 50
0.0
 41
0.9
 51
0.0
  7
KANJI2
  0
TEXT
  8
0
  6
CONTINUOUS
 62
     2
 10
48.55
 20
46.15
 30
0.15
 40
1.5
  1
４０
 50
0.0
 41
0.9
 51
0.0
  7
KANJI2
  0
TEXT
  8
0
  6
CONTINUOUS
 62
     2
 10
55.35
 20
46.05
 30
0.15
 40
1.5
  1
６０
 50
0.0
 41
0.9
 51
0.0
  7
KANJI2
  0
TEXT
  8
0
  6
CONTINUOUS
 62
     2
 10
62.15
 20
46.15
 30
0.15
 40
1.5
  1
８０
 50
0.0
 41
0.9
 51
0.0
  7
KANJI2
  0
TEXT
  8
0
  6
CONTINUOUS
 62
     2
 10
67.9
 20
46.05
 30
0.15
 40
1.5
  1
１００
 50
0.0
 41
0.9
 51
0.0
  7
KANJI2
  0
TEXT
  8
0
  6
CONTINUOUS
 62
     2
 10
40.01
 20
25.37
 30
0.2
 40
3.0
  1
横形　　Ｅｆ－１００Ｙ
 50
0.0
 41
0.75
 51
0.0
  7
KANJI6
  0
LINE
  8
0
  6
CONTINUOUS
 62
     2
 10
47.91
 20
25.47
 30
0.0
 11
49.21
 21
25.47
 31
0.0
  0
LINE
  8
0
  6
CONTINUOUS
 62
     2
 10
49.21
 20
25.47
 30
0.0
 11
49.21
 21
27.97
 31
0.0
  0
LINE
  8
0
  6
CONTINUOUS
 62
     2
 10
49.21
 20
27.97
 30
0.0
 11
47.91
 21
27.97
 31
0.0
  0
LINE
  8
0
  6
CONTINUOUS
 62
     2
 10
47.91
 20
27.97
 30
0.0
 11
47.91
 21
25.47
 31
0.0
  0
LINE
  8
0
  6
CONTINUOUS
 62
     2
 10
39.01
 20
24.77
 30
0.0
 11
67.01
 21
24.77
 31
0.0
  0
POINT
  8
0
  6
CONTINUOUS
 62
     2
 10
35.7
 20
53.3
 30
0.0
  0
LINE
  8
0
  6
CONTINUOUS
 62
     2
 10
33.865
 20
52.53
 30
0.0
 11
35.69
 21
52.53
 31
0.0
  0
LINE
  8
0
  6
CONTINUOUS
 62
     2
 10
36.89
 20
52.53
 30
0.0
 11
72.765
 21
52.53
 31
0.0
  0
POINT
  8
0
  6
CONTINUOUS
 62
     2
 10
48.7
 20
116.4
 30
0.0
  0
LINE
  8
0
  6
CONTINUOUS
 62
     2
 10
49.5
 20
114.575
 30
0.0
 11
49.5
 21
116.4
 31
0.0
  0
LINE
  8
0
  6
CONTINUOUS
 62
     2
 10
49.5
 20
117.7
 30
0.0
 11
49.5
 21
153.475
 31
0.0
  0
TEXT
  8
0
  6
CONTINUOUS
 62
     2
 10
140.46
 20
92.97
 30
0.1
 40
3.0
  1
注）１，（　）内寸法は，ＡＥｆ－１００形シールドケース付の場合を示します。
 50
0.0
 41
0.666666667
 51
0.0
  7
KANJI7
  0
TEXT
  8
0
  6
CONTINUOUS
 62
     2
 10
144.46
 20
87.27
 30
0.1
 40
3.0
  1
２，連結の場合は下記による。
 50
0.0
 41
0.666666667
 51
0.0
  7
KANJI7
  0
TEXT
  8
0
  6
CONTINUOUS
 62
     2
 10
150.46
 20
75.97
 30
0.3
 40
3.0
  1
２連結
 50
0.0
 41
0.9
 51
0.0
  7
KANJI4
  0
TEXT
  8
0
  6
CONTINUOUS
 62
     2
 10
150.46
 20
70.97
 30
0.3
 40
3.0
  1
３連結
 50
0.0
 41
0.9
 51
0.0
  7
KANJI4
  0
TEXT
  8
0
  6
CONTINUOUS
 62
     2
 10
150.46
 20
65.97
 30
0.3
 40
3.0
  1
Ｎ連結
 50
0.0
 41
0.9
 51
0.0
  7
KANJI4
  0
LINE
  8
0
  6
CONTINUOUS
 62
     2
 10
160.46
 20
84.97
 30
0.0
 11
160.46
 21
64.97
 31
0.0
  0
TEXT
  8
0
  6
CONTINUOUS
 62
     2
 10
161.46
 20
65.97
 30
0.3
 40
3.0
  1
（３０．１５×Ｎ）＋１．５
 50
0.0
 41
0.9
 51
0.0
  7
KANJI4
  0
LINE
  8
0
  6
CONTINUOUS
 62
     2
 10
186.46
 20
84.97
 30
0.0
 11
186.46
 21
64.97
 31
0.0
  0
TEXT
  8
0
  6
CONTINUOUS
 62
     2
 10
187.46
 20
80.97
 30
0.3
 40
3.0
  1
ＡＥｆ－１００Ｙ
 50
0.0
 41
0.9
 51
0.0
  7
KANJI4
  0
LINE
  8
0
  6
CONTINUOUS
 62
     2
 10
149.46
 20
84.97
 30
0.0
 11
212.46
 21
84.97
 31
0.0
  0
LINE
  8
0
  6
CONTINUOUS
 62
     2
 10
149.46
 20
79.97
 30
0.0
 11
212.46
 21
79.97
 31
0.0
  0
LINE
  8
0
  6
CONTINUOUS
 62
     2
 10
149.46
 20
74.97
 30
0.0
 11
212.46
 21
74.97
 31
0.0
  0
LINE
  8
0
  6
CONTINUOUS
 62
     2
 10
149.46
 20
69.97
 30
0.0
 11
212.46
 21
69.97
 31
0.0
  0
LINE
  8
0
  6
CONTINUOUS
 62
     2
 10
149.46
 20
64.97
 30
0.0
 11
212.46
 21
64.97
 31
0.0
  0
TEXT
  8
0
  6
CONTINUOUS
 62
     2
 10
163.46
 20
80.97
 30
0.3
 40
3.0
  1
右記以外の計器
 50
0.0
 41
0.9
 51
0.0
  7
KANJI4
  0
TEXT
  8
0
  6
CONTINUOUS
 62
     2
 10
167.46
 20
75.97
 30
0.3
 40
3.0
  1
６１．５
 50
0.0
 41
0.45
 51
0.0
  7
KANJI8
  0
TEXT
  8
0
  6
CONTINUOUS
 62
     2
 10
174.81
 20
75.97
 30
0.18
 40
1.8
  1
－０
 50
0.0
 41
0.6
 51
0.0
  7
KANJI3
  0
TEXT
  8
0
  6
CONTINUOUS
 62
     2
 10
174.81
 20
77.77
 30
0.18
 40
1.8
  1
＋０．５
 50
0.0
 41
0.6
 51
0.0
  7
KANJI3
  0
TEXT
  8
0
  6
CONTINUOUS
 62
     2
 10
169.46
 20
70.97
 30
0.3
 40
3.0
  1
９２
 50
0.0
 41
0.45
 51
0.0
  7
KANJI8
  0
TEXT
  8
0
  6
CONTINUOUS
 62
     2
 10
173.31
 20
70.97
 30
0.18
 40
1.8
  1
－０
 50
0.0
 41
0.6
 51
0.0
  7
KANJI3
  0
TEXT
  8
0
  6
CONTINUOUS
 62
     2
 10
173.31
 20
72.77
 30
0.18
 40
1.8
  1
＋０．５
 50
0.0
 41
0.6
 51
0.0
  7
KANJI3
  0
TEXT
  8
0
  6
CONTINUOUS
 62
     2
 10
199.31
 20
75.97
 30
0.18
 40
1.8
  1
－０
 50
0.0
 41
0.6
 51
0.0
  7
KANJI3
  0
TEXT
  8
0
  6
CONTINUOUS
 62
     2
 10
199.31
 20
77.77
 30
0.18
 40
1.8
  1
＋０．５
 50
0.0
 41
0.6
 51
0.0
  7
KANJI3
  0
TEXT
  8
0
  6
CONTINUOUS
 62
     2
 10
200.81
 20
70.97
 30
0.18
 40
1.8
  1
－０
 50
0.0
 41
0.6
 51
0.0
  7
KANJI3
  0
TEXT
  8
0
  6
CONTINUOUS
 62
     2
 10
200.81
 20
72.77
 30
0.18
 40
1.8
  1
＋０．５
 50
0.0
 41
0.6
 51
0.0
  7
KANJI3
  0
TEXT
  8
0
  6
CONTINUOUS
 62
     2
 10
195.46
 20
75.97
 30
0.3
 40
3.0
  1
６５
 50
0.0
 41
0.45
 51
0.0
  7
KANJI8
  0
TEXT
  8
0
  6
CONTINUOUS
 62
     2
 10
193.46
 20
70.97
 30
0.3
 40
3.0
  1
９７．５
 50
0.0
 41
0.45
 51
0.0
  7
KANJI8
  0
TEXT
  8
0
  6
CONTINUOUS
 62
     2
 10
194.46
 20
65.97
 30
0.3
 40
3.0
  1
３２．５×Ｎ
 50
0.0
 41
0.9
 51
0.0
  7
KANJI4
  0
TEXT
  8
0
  6
CONTINUOUS
 62
     2
 10
111.76
 20
88.47
 30
0.1
 40
2.8
  1
（３１．８　　）
 50
0.0
 41
0.714285714
 51
0.0
  7
KANJI9
  0
TEXT
  8
0
  6
CONTINUOUS
 62
     2
 10
121.424
 20
89.95
 30
0.144
 40
1.44
  1
＋０．５
 50
0.0
 41
0.6
 51
0.0
  7
KANJI10
  0
TEXT
  8
0
  6
CONTINUOUS
 62
     2
 10
121.424
 20
88.51
 30
0.144
 40
1.44
  1
－０
 50
0.0
 41
0.6
 51
0.0
  7
KANJI10
  0
TEXT
  8
0
  6
CONTINUOUS
 62
     2
 10
114.715
 20
93.495
 30
0.3
 40
3.0
  1
３１
 50
0.0
 41
0.6
 51
0.0
  7
KANJI1
  0
TEXT
  8
0
  6
CONTINUOUS
 62
     2
 10
119.065
 20
93.495
 30
0.18
 40
1.8
  1
－０
 50
0.0
 41
0.6
 51
0.0
  7
KANJI3
  0
TEXT
  8
0
  6
CONTINUOUS
 62
     2
 10
119.065
 20
95.295
 30
0.18
 40
1.8
  1
＋０．５
 50
0.0
 41
0.6
 51
0.0
  7
KANJI3
  0
TEXT
  8
0
  6
CONTINUOUS
 62
     2
 10
114.715
 20
97.495
 30
0.3
 40
3.0
  1
注２
 50
0.0
 41
0.6
 51
0.0
  7
KANJI1
  0
TEXT
  8
0
  6
CONTINUOUS
 62
     2
 10
113.715
 20
84.495
 30
0.3
 40
3.0
  1
注１
 50
0.0
 41
0.6
 51
0.0
  7
KANJI1
  0
ARC
  8
0
  6
LTYPE2
 62
     2
 10
157.25
 20
140.295
 30
0.0
 40
2.75
 50
270.0
 51
90.0
  0
LINE
  8
0
  6
LTYPE2
 62
     2
 10
157.25
 20
137.545
 30
0.0
 11
152.5
 21
137.545
 31
0.0
  0
LINE
  8
0
  6
LTYPE2
 62
     2
 10
152.5
 20
143.045
 30
0.0
 11
152.5
 21
137.545
 31
0.0
  0
LINE
  8
0
  6
LTYPE2
 62
     2
 10
157.25
 20
143.045
 30
0.0
 11
152.5
 21
143.045
 31
0.0
  0
ARC
  8
0
  6
LTYPE2
 62
     2
 10
157.25
 20
127.745
 30
0.0
 40
2.75
 50
270.0
 51
90.0
  0
LINE
  8
0
  6
LTYPE2
 62
     2
 10
157.25
 20
124.995
 30
0.0
 11
152.5
 21
124.995
 31
0.0
  0
LINE
  8
0
  6
LTYPE2
 62
     2
 10
152.5
 20
130.495
 30
0.0
 11
152.5
 21
124.995
 31
0.0
  0
LINE
  8
0
  6
LTYPE2
 62
     2
 10
157.25
 20
130.495
 30
0.0
 11
152.5
 21
130.495
 31
0.0
  0
LINE
  8
0
  6
CONTINUOUS
 62
     2
 10
159.3
 20
142.095
 30
0.0
 11
160.797608241
 21
144.096791587
 31
0.0
  0
LINE
  8
0
  6
CONTINUOUS
 62
     2
 10
159.3
 20
142.095
 30
0.0
 11
159.596070988
 21
144.577406488
 31
0.0
  0
LINE
  8
0
  6
CONTINUOUS
 62
     2
 10
159.3
 20
142.095
 30
0.0
 11
163.3
 21
152.095
 31
0.0
  0
LINE
  8
0
  6
CONTINUOUS
 62
     2
 10
138.36
 20
53.27
 30
0.0
 11
163.36
 21
53.27
 31
0.0
  0
TEXT
  8
0
  6
CONTINUOUS
 62
     6
 10
139.16
 20
54.37
 30
0.3
 40
4.0
  1
計器の取付け方
 50
0.0
 41
0.75
 51
0.0
  7
KANJI11
  0
TEXT
  8
0
  6
CONTINUOUS
 62
     2
 10
139.16
 20
46.57
 30
0.2
 40
3.0
  1
１，計器本体から取り付け金具を取り外す。（上下２箇所）
 50
0.0
 41
0.75
 51
0.0
  7
KANJI6
  0
TEXT
  8
0
  6
CONTINUOUS
 62
     2
 10
139.16
 20
41.471
 30
0.2
 40
3.0
  1
２，パネルカット後，パネル前面から計器をはめ込む。
 50
0.0
 41
0.75
 51
0.0
  7
KANJI6
  0
TEXT
  8
0
  6
CONTINUOUS
 62
     2
 10
139.46
 20
31.319
 30
0.2
 40
3.0
  1
４，Ｍ４×４５押ネジでパネル面を押しつけて固定する。
 50
0.0
 41
0.75
 51
0.0
  7
KANJI6
  0
TEXT
  8
0
  6
CONTINUOUS
 62
     2
 10
139.46
 20
26.071
 30
0.2
 40
3.0
  1
５，Ｍ４ナットでロックする。
 50
0.0
 41
0.75
 51
0.0
  7
KANJI6
  0
TEXT
  8
0
  6
CONTINUOUS
 62
     2
 10
139.46
 20
36.366
 30
0.2
 40
3.0
  1
３，計器本体に取外した取付金具をＭ４ネジで止める。
 50
0.0
 41
0.75
 51
0.0
  7
KANJI6
  0
LINE
  8
0
  6
CONTINUOUS
 62
     1
 10
111.35
 20
83.49
 30
0.0
 11
111.35
 21
35.24
 31
0.0
  0
POLYLINE
  8
0
  6
CONTINUOUS
 62
     1
 66
     1
  0
VERTEX
  8
0
  6
CONTINUOUS
 62
     1
 10
126.85
 20
35.24
 30
0.0
  0
VERTEX
  8
0
  6
CONTINUOUS
 62
     1
 10
126.85
 20
83.49
 30
0.0
  0
VERTEX
  8
0
  6
CONTINUOUS
 62
     1
 10
111.35
 20
83.49
 30
0.0
  0
SEQEND
  0
LINE
  8
0
  6
CONTINUOUS
 62
     1
 10
111.35
 20
35.24
 30
0.0
 11
126.85
 21
35.24
 31
0.0
  0
LINE
  8
0
  6
CONTINUOUS
 62
     2
 10
100.0
 20
83.49
 30
0.0
 11
99.352952387
 21
81.075185434
 31
0.0
  0
LINE
  8
0
  6
CONTINUOUS
 62
     2
 10
100.0
 20
83.49
 30
0.0
 11
100.647047613
 21
81.075185434
 31
0.0
  0
LINE
  8
0
  6
CONTINUOUS
 62
     2
 10
110.315
 20
83.49
 30
0.0
 11
98.0
 21
83.49
 31
0.0
  0
LINE
  8
0
  6
CONTINUOUS
 62
     2
 10
100.0
 20
35.24
 30
0.0
 11
99.352952387
 21
37.654814566
 31
0.0
  0
LINE
  8
0
  6
CONTINUOUS
 62
     2
 10
100.0
 20
35.24
 30
0.0
 11
100.647047613
 21
37.654814566
 31
0.0
  0
LINE
  8
0
  6
CONTINUOUS
 62
     2
 10
110.315
 20
35.24
 30
0.0
 11
98.0
 21
35.24
 31
0.0
  0
LINE
  8
0
  6
CONTINUOUS
 62
     2
 10
100.0
 20
83.49
 30
0.0
 11
100.0
 21
35.24
 31
0.0
  0
LINE
  8
0
  6
CONTINUOUS
 62
     2
 10
111.35
 20
84.495
 30
0.0
 11
111.35
 21
94.495
 31
0.0
  0
LINE
  8
0
  6
CONTINUOUS
 62
     2
 10
111.35
 20
92.495
 30
0.0
 11
113.764814566
 21
91.847952387
 31
0.0
  0
LINE
  8
0
  6
CONTINUOUS
 62
     2
 10
111.35
 20
92.495
 30
0.0
 11
113.764814566
 21
93.142047613
 31
0.0
  0
LINE
  8
0
  6
CONTINUOUS
 62
     2
 10
126.85
 20
92.495
 30
0.0
 11
124.435185434
 21
93.142047613
 31
0.0
  0
LINE
  8
0
  6
CONTINUOUS
 62
     2
 10
126.85
 20
92.495
 30
0.0
 11
124.435185434
 21
91.847952387
 31
0.0
  0
LINE
  8
0
  6
CONTINUOUS
 62
     2
 10
126.85
 20
84.495
 30
0.0
 11
126.85
 21
94.495
 31
0.0
  0
LINE
  8
0
  6
CONTINUOUS
 62
     2
 10
111.35
 20
92.495
 30
0.0
 11
126.85
 21
92.495
 31
0.0
  0
TEXT
  8
0
  6
CONTINUOUS
 62
     2
 10
67.5
 20
101.25
 30
0.3
 40
3.0
  1
機械的零位調整器
 50
0.0
 41
0.9
 51
0.0
  7
KANJI4
  0
LINE
  8
0
  6
CONTINUOUS
 62
     2
 10
67.5
 20
100.25
 30
0.0
 11
92.624562641
 21
100.25
 31
0.0
  0
LINE
  8
0
  6
CONTINUOUS
 62
     2
 10
100.0
 20
174.000008741
 30
0.0
 11
97.585185434
 21
174.647056353
 31
0.0
  0
LINE
  8
0
  6
CONTINUOUS
 62
     2
 10
100.0
 20
174.000008741
 30
0.0
 11
97.585185434
 21
173.352961128
 31
0.0
  0
LINE
  8
0
  6
CONTINUOUS
 62
     2
 10
92.5
 20
174.000008741
 30
0.0
 11
100.0
 21
174.000008741
 31
0.0
  0
LINE
  8
0
  6
CONTINUOUS
 62
     2
 10
100.0
 20
174.000008741
 30
0.0
 11
163.5
 21
174.000008741
 31
0.0
  0
LINE
  8
0
  6
CONTINUOUS
 62
     2
 10
100.0
 20
174.000008741
 30
0.0
 11
102.414814566
 21
174.647056353
 31
0.0
  0
LINE
  8
0
  6
CONTINUOUS
 62
     2
 10
100.0
 20
174.000008741
 30
0.0
 11
102.414814566
 21
173.352961128
 31
0.0
  0
LINE
  8
0
  6
CONTINUOUS
 62
     2
 10
100.0
 20
159.15
 30
0.0
 11
100.0
 21
176.000008741
 31
0.0
  0
LINE
  8
0
  6
CONTINUOUS
 62
     2
 10
116.448387097
 20
173.983879708
 30
0.0
 11
118.048387097
 21
174.483879708
 31
0.0
  0
LINE
  8
0
  6
CONTINUOUS
 62
     2
 10
118.048387097
 20
173.483879708
 30
0.0
 11
115.048387097
 21
174.483879708
 31
0.0
  0
LINE
  8
0
  6
CONTINUOUS
 62
     2
 10
116.448387097
 20
173.983879708
 30
0.0
 11
115.048387097
 21
173.483879708
 31
0.0
  0
TEXT
  8
0
  6
CONTINUOUS
 62
     2
 10
106.06
 20
175.02
 30
0.3
 40
3.0
  1
３３
 50
0.0
 41
0.6
 51
0.0
  7
KANJI1
  0
LINE
  8
0
  6
CONTINUOUS
 62
     1
 10
116.55
 20
157.95
 30
0.0
 11
116.55
 21
150.01
 31
0.0
  0
LINE
  8
0
  6
CONTINUOUS
 62
     2
 10
117.55
 20
150.01
 30
0.0
 11
124.925
 21
150.01
 31
0.0
  0
LINE
  8
0
  6
CONTINUOUS
 62
     1
 10
116.5
 20
118.01
 30
0.0
 11
116.5
 21
110.0
 31
0.0
  0
LINE
  8
0
  6
CONTINUOUS
 62
     2
 10
117.55
 20
118.01
 30
0.0
 11
124.95
 21
118.01
 31
0.0
  0
LINE
  8
0
  6
CONTINUOUS
 62
     1
 10
116.55
 20
150.01
 30
0.0
 11
152.5
 21
146.5
 31
0.0
  0
LINE
  8
0
  6
CONTINUOUS
 62
     1
 10
152.5
 20
121.5
 30
0.0
 11
116.5
 21
118.01
 31
0.0
  0
LINE
  8
0
  6
CONTINUOUS
 62
     2
 10
157.5
 20
174.000008741
 30
0.0
 11
159.914814566
 21
173.352961128
 31
0.0
  0
LINE
  8
0
  6
CONTINUOUS
 62
     2
 10
157.5
 20
174.000008741
 30
0.0
 11
159.914814566
 21
174.647056353
 31
0.0
  0
LINE
  8
0
  6
CONTINUOUS
 62
     2
 10
152.5
 20
174.000008741
 30
0.0
 11
150.085185434
 21
174.647056353
 31
0.0
  0
LINE
  8
0
  6
CONTINUOUS
 62
     2
 10
152.5
 20
174.000008741
 30
0.0
 11
150.085185434
 21
173.352961128
 31
0.0
  0
LINE
  8
0
  6
CONTINUOUS
 62
     2
 10
117.9
 20
167.12
 30
0.0
 11
116.5
 21
166.52
 31
0.0
  0
LINE
  8
0
  6
CONTINUOUS
 62
     2
 10
116.5
 20
166.52
 30
0.0
 11
118.0
 21
165.92
 31
0.0
  0
TEXT
  8
0
  6
CONTINUOUS
 62
     2
 10
118.96
 20
167.22
 30
0.3
 40
3.0
  1
３
 50
0.0
 41
0.6
 51
0.0
  7
KANJI1
  0
LINE
  8
0
 62
    99
 10
156.66
 20
126.0
 30
0.0
 11
156.66
 21
126.0
 31
0.0
  0
LINE
  8
0
  6
CONTINUOUS
 62
     2
 10
156.66
 20
126.0
 30
0.0
 11
157.604594377
 21
123.68532044
 31
0.0
  0
LINE
  8
0
  6
CONTINUOUS
 62
     2
 10
156.66
 20
126.0
 30
0.0
 11
158.635382506
 21
124.467725888
 31
0.0
  0
LINE
  8
0
  6
CONTINUOUS
 62
     2
 10
156.66
 20
126.0
 30
0.0
 11
169.26
 21
109.4
 31
0.0
  0
TEXT
  8
0
  6
CONTINUOUS
 62
     2
 10
128.02
 20
113.8
 30
0.3
 40
3.0
  1
２－Ｍ４ターミナルネジ
 50
0.0
 41
0.6
 51
0.0
  7
KANJI1
  0
TEXT
  8
0
  6
CONTINUOUS
 62
     2
 10
133.46
 20
110.0
 30
0.3
 40
3.0
  1
スプリングワッシャー付
 50
0.0
 41
0.9
 51
0.0
  7
KANJI4
  0
LINE
  8
0
  6
CONTINUOUS
 62
     2
 10
169.26
 20
109.4
 30
0.0
 11
131.76
 21
109.4
 31
0.0
  0
LINE
  8
0
  6
CONTINUOUS
 62
     1
 10
102.7
 20
106.99
 30
0.0
 11
102.7
 21
109.99
 31
0.0
  0
LINE
  8
0
  6
CONTINUOUS
 62
     1
 10
106.7
 20
109.99
 30
0.0
 11
106.7
 21
106.99
 31
0.0
  0
LINE
  8
0
  6
CONTINUOUS
 62
     1
 10
106.7
 20
106.99
 30
0.0
 11
102.7
 21
106.99
 31
0.0
  0
LINE
  8
0
  6
CONTINUOUS
 62
     1
 10
106.7
 20
109.49
 30
0.0
 11
114.95
 21
109.49
 31
0.0
  0
LINE
  8
0
  6
CONTINUOUS
 62
     1
 10
114.95
 20
107.49
 30
0.0
 11
106.7
 21
107.49
 31
0.0
  0
LINE
  8
0
  6
CONTINUOUS
 62
     1
 10
126.2
 20
106.74
 30
0.0
 11
126.2
 21
110.24
 31
0.0
  0
ARC
  8
0
  6
CONTINUOUS
 62
     1
 10
126.85
 20
109.59
 30
0.0
 40
0.65
 50
0.0
 51
90.0
  0
ARC
  8
0
  6
CONTINUOUS
 62
     1
 10
126.85
 20
107.39
 30
0.0
 40
0.65
 50
270.0
 51
0.0
  0
LINE
  8
0
  6
CONTINUOUS
 62
     1
 10
126.85
 20
106.74
 30
0.0
 11
126.2
 21
106.74
 31
0.0
  0
LINE
  8
0
  6
CONTINUOUS
 62
     1
 10
126.2
 20
110.24
 30
0.0
 11
126.85
 21
110.24
 31
0.0
  0
LINE
  8
0
  6
CONTINUOUS
 62
     1
 10
127.5
 20
109.59
 30
0.0
 11
127.5
 21
107.39
 31
0.0
  0
LINE
  8
0
  6
CONTINUOUS
 62
     1
 10
127.5
 20
108.29
 30
0.0
 11
127.2
 21
108.29
 31
0.0
  0
LINE
  8
0
  6
CONTINUOUS
 62
     1
 10
127.2
 20
108.29
 30
0.0
 11
127.2
 21
108.69
 31
0.0
  0
LINE
  8
0
  6
CONTINUOUS
 62
     1
 10
127.2
 20
108.69
 30
0.0
 11
127.5
 21
108.69
 31
0.0
  0
LINE
  8
0
  6
CONTINUOUS
 62
     1
 10
116.86
 20
106.49
 30
0.0
 11
116.86
 21
110.49
 31
0.0
  0
ARC
  8
0
  6
CONTINUOUS
 62
     1
 10
118.21
 20
110.24
 30
0.0
 40
0.25
 50
0.0
 51
90.0
  0
ARC
  8
0
  6
CONTINUOUS
 62
     1
 10
118.21
 20
106.74
 30
0.0
 40
0.25
 50
270.0
 51
0.0
  0
LINE
  8
0
  6
CONTINUOUS
 62
     1
 10
118.21
 20
106.49
 30
0.0
 11
116.86
 21
106.49
 31
0.0
  0
LINE
  8
0
  6
CONTINUOUS
 62
     1
 10
118.46
 20
106.74
 30
0.0
 11
118.46
 21
110.24
 31
0.0
  0
ARC
  8
0
  6
CONTINUOUS
 62
     1
 10
118.21
 20
109.74
 30
0.0
 40
0.25
 50
270.0
 51
0.0
  0
ARC
  8
0
  6
CONTINUOUS
 62
     1
 10
118.21
 20
109.24
 30
0.0
 40
0.25
 50
0.0
 51
90.0
  0
ARC
  8
0
  6
CONTINUOUS
 62
     1
 10
118.21
 20
107.24
 30
0.0
 40
0.25
 50
0.0
 51
90.0
  0
ARC
  8
0
  6
CONTINUOUS
 62
     1
 10
118.21
 20
107.74
 30
0.0
 40
0.25
 50
270.0
 51
0.0
  0
LINE
  8
0
  6
CONTINUOUS
 62
     1
 10
118.21
 20
110.49
 30
0.0
 11
116.86
 21
110.49
 31
0.0
  0
LINE
  8
0
  6
CONTINUOUS
 62
     1
 10
126.2
 20
107.49
 30
0.0
 11
116.5
 21
107.49
 31
0.0
  0
LINE
  8
0
  6
CONTINUOUS
 62
     1
 10
116.5
 20
109.49
 30
0.0
 11
126.2
 21
109.49
 31
0.0
  0
LINE
  8
0
  6
CONTINUOUS
 62
     1
 10
116.86
 20
110.39
 30
0.0
 11
116.5
 21
110.39
 31
0.0
  0
LINE
  8
0
  6
CONTINUOUS
 62
     1
 10
116.5
 20
106.59
 30
0.0
 11
116.86
 21
106.59
 31
0.0
  0
LINE
  8
0
  6
CONTINUOUS
 62
     1
 10
116.86
 20
108.24
 30
0.0
 11
116.5
 21
108.69
 31
0.0
  0
LINE
  8
0
  6
CONTINUOUS
 62
     1
 10
116.5
 20
108.84
 30
0.0
 11
116.86
 21
108.39
 31
0.0
  0
LINE
  8
0
  6
CONTINUOUS
 62
     1
 10
116.5
 20
106.01
 30
0.0
 11
115.0
 21
106.01
 31
0.0
  0
LINE
  8
0
  6
CONTINUOUS
 62
     1
 10
116.5
 20
110.0
 30
0.0
 11
116.5
 21
106.01
 31
0.0
  0
LINE
  8
0
  6
CONTINUOUS
 62
     1
 10
115.0
 20
106.01
 30
0.0
 11
115.0
 21
110.0
 31
0.0
  0
LINE
  8
0
  6
CONTINUOUS
 62
     1
 10
102.7
 20
160.99
 30
0.0
 11
102.7
 21
157.99
 31
0.0
  0
LINE
  8
0
  6
CONTINUOUS
 62
     1
 10
106.7
 20
157.99
 30
0.0
 11
106.7
 21
160.99
 31
0.0
  0
LINE
  8
0
  6
CONTINUOUS
 62
     1
 10
106.7
 20
160.99
 30
0.0
 11
102.7
 21
160.99
 31
0.0
  0
LINE
  8
0
  6
CONTINUOUS
 62
     1
 10
106.7
 20
158.49
 30
0.0
 11
114.95
 21
158.49
 31
0.0
  0
LINE
  8
0
  6
CONTINUOUS
 62
     1
 10
114.95
 20
160.49
 30
0.0
 11
106.7
 21
160.49
 31
0.0
  0
LINE
  8
0
  6
CONTINUOUS
 62
     1
 10
126.2
 20
161.24
 30
0.0
 11
126.2
 21
157.74
 31
0.0
  0
ARC
  8
0
  6
CONTINUOUS
 62
     1
 10
126.85
 20
158.39
 30
0.0
 40
0.65
 50
270.0
 51
0.0
  0
ARC
  8
0
  6
CONTINUOUS
 62
     1
 10
126.85
 20
160.59
 30
0.0
 40
0.65
 50
0.0
 51
90.0
  0
LINE
  8
0
  6
CONTINUOUS
 62
     1
 10
126.85
 20
161.24
 30
0.0
 11
126.2
 21
161.24
 31
0.0
  0
LINE
  8
0
  6
CONTINUOUS
 62
     1
 10
126.2
 20
157.74
 30
0.0
 11
126.85
 21
157.74
 31
0.0
  0
LINE
  8
0
  6
CONTINUOUS
 62
     1
 10
127.5
 20
158.39
 30
0.0
 11
127.5
 21
160.59
 31
0.0
  0
LINE
  8
0
  6
CONTINUOUS
 62
     1
 10
127.5
 20
159.69
 30
0.0
 11
127.2
 21
159.69
 31
0.0
  0
LINE
  8
0
  6
CONTINUOUS
 62
     1
 10
127.2
 20
159.69
 30
0.0
 11
127.2
 21
159.29
 31
0.0
  0
LINE
  8
0
  6
CONTINUOUS
 62
     1
 10
127.2
 20
159.29
 30
0.0
 11
127.5
 21
159.29
 31
0.0
  0
LINE
  8
0
  6
CONTINUOUS
 62
     1
 10
116.86
 20
161.49
 30
0.0
 11
116.86
 21
157.49
 31
0.0
  0
ARC
  8
0
  6
CONTINUOUS
 62
     1
 10
118.21
 20
157.74
 30
0.0
 40
0.25
 50
270.0
 51
0.0
  0
ARC
  8
0
  6
CONTINUOUS
 62
     1
 10
118.21
 20
161.24
 30
0.0
 40
0.25
 50
0.0
 51
90.0
  0
LINE
  8
0
  6
CONTINUOUS
 62
     1
 10
118.21
 20
161.49
 30
0.0
 11
116.86
 21
161.49
 31
0.0
  0
LINE
  8
0
  6
CONTINUOUS
 62
     1
 10
118.46
 20
161.24
 30
0.0
 11
118.46
 21
157.74
 31
0.0
  0
ARC
  8
0
  6
CONTINUOUS
 62
     1
 10
118.21
 20
158.24
 30
0.0
 40
0.25
 50
0.0
 51
90.0
  0
ARC
  8
0
  6
CONTINUOUS
 62
     1
 10
118.21
 20
158.74
 30
0.0
 40
0.25
 50
270.0
 51
0.0
  0
ARC
  8
0
  6
CONTINUOUS
 62
     1
 10
118.21
 20
160.74
 30
0.0
 40
0.25
 50
270.0
 51
0.0
  0
ARC
  8
0
  6
CONTINUOUS
 62
     1
 10
118.21
 20
160.24
 30
0.0
 40
0.25
 50
0.0
 51
90.0
  0
LINE
  8
0
  6
CONTINUOUS
 62
     1
 10
118.21
 20
157.49
 30
0.0
 11
116.86
 21
157.49
 31
0.0
  0
LINE
  8
0
  6
CONTINUOUS
 62
     2
 10
118.46
 20
161.365
 30
0.0
 11
120.823143112
 21
162.180815317
 31
0.0
  0
LINE
  8
0
  6
CONTINUOUS
 62
     1
 10
126.2
 20
160.49
 30
0.0
 11
116.5
 21
160.49
 31
0.0
  0
LINE
  8
0
  6
CONTINUOUS
 62
     1
 10
116.5
 20
158.49
 30
0.0
 11
126.2
 21
158.49
 31
0.0
  0
LINE
  8
0
  6
CONTINUOUS
 62
     1
 10
116.5
 20
161.39
 30
0.0
 11
116.86
 21
161.39
 31
0.0
  0
LINE
  8
0
  6
CONTINUOUS
 62
     1
 10
116.86
 20
159.74
 30
0.0
 11
116.5
 21
159.29
 31
0.0
  0
LINE
  8
0
  6
CONTINUOUS
 62
     1
 10
116.5
 20
159.14
 30
0.0
 11
116.86
 21
159.59
 31
0.0
  0
LINE
  8
0
  6
CONTINUOUS
 62
     1
 10
115.0
 20
162.01
 30
0.0
 11
116.5
 21
162.01
 31
0.0
  0
LINE
  8
0
  6
CONTINUOUS
 62
     1
 10
115.0
 20
158.07
 30
0.0
 11
115.0
 21
162.01
 31
0.0
  0
LINE
  8
0
  6
CONTINUOUS
 62
     1
 10
116.5
 20
162.01
 30
0.0
 11
116.5
 21
158.1
 31
0.0
  0
LINE
  8
0
  6
CONTINUOUS
 62
     1
 10
116.86
 20
157.59
 30
0.0
 11
116.55
 21
157.59
 31
0.0
  0
LINE
  8
0
  6
CONTINUOUS
 62
     2
 10
127.36
 20
160.94
 30
0.0
 11
129.621391707
 21
162.00588346
 31
0.0
  0
LINE
  8
0
  6
CONTINUOUS
 62
     2
 10
127.36
 20
160.94
 30
0.0
 11
128.785480936
 21
162.993778007
 31
0.0
  0
LINE
  8
0
  6
CONTINUOUS
 62
     2
 10
127.36
 20
160.94
 30
0.0
 11
131.26
 21
164.24
 31
0.0
  0
LINE
  8
0
  6
CONTINUOUS
 62
     2
 10
131.26
 20
164.24
 30
0.0
 11
147.76
 21
164.24
 31
0.0
  0
TEXT
  8
0
  6
CONTINUOUS
 62
     2
 10
131.26
 20
165.24
 30
0.3
 40
3.0
  1
Ｍ４×４５押ネジ
 50
0.0
 41
0.6
 51
0.0
  7
KANJI1
  0
LINE
  8
0
  6
CONTINUOUS
 62
     2
 10
102.81
 20
160.74
 30
0.0
 11
101.416075127
 21
162.815324902
 31
0.0
  0
LINE
  8
0
  6
CONTINUOUS
 62
     2
 10
102.81
 20
160.74
 30
0.0
 11
100.565163198
 21
161.84032165
 31
0.0
  0
LINE
  8
0
  6
CONTINUOUS
 62
     2
 10
118.46
 20
161.24
 30
0.0
 11
120.098634309
 21
163.128088346
 31
0.0
  0
LINE
  8
0
  6
CONTINUOUS
 62
     2
 10
118.46
 20
161.24
 30
0.0
 11
129.56
 21
168.74
 31
0.0
  0
LINE
  8
0
  6
CONTINUOUS
 62
     2
 10
129.56
 20
168.74
 30
0.0
 11
143.96
 21
168.74
 31
0.0
  0
TEXT
  8
0
  6
CONTINUOUS
 62
     2
 10
129.56
 20
169.74
 30
0.3
 40
3.0
  1
Ｍ４ナットＳＷ
 50
0.0
 41
0.6
 51
0.0
  7
KANJI1
  0
LINE
  8
0
  6
CONTINUOUS
 62
     2
 10
116.5
 20
162.721
 30
0.0
 11
116.5
 21
176.52
 31
0.0
  0
LINE
  8
0
  6
CONTINUOUS
 62
     2
 10
114.96
 20
162.721
 30
0.0
 11
114.96
 21
168.32
 31
0.0
  0
LINE
  8
0
  6
CONTINUOUS
 62
     2
 10
114.833
 20
161.861
 30
0.0
 11
113.85541141
 21
164.161939058
 31
0.0
  0
LINE
  8
0
  6
CONTINUOUS
 62
     2
 10
114.833
 20
161.861
 30
0.0
 11
112.835913918
 21
163.364877382
 31
0.0
  0
LINE
  8
0
  6
CONTINUOUS
 62
     2
 10
114.833
 20
161.861
 30
0.0
 11
110.533
 21
167.361
 31
0.0
  0
LINE
  8
0
  6
CONTINUOUS
 62
     2
 10
110.533
 20
167.361
 30
0.0
 11
102.433
 21
167.361
 31
0.0
  0
TEXT
  8
0
  6
CONTINUOUS
 62
     2
 10
102.433
 20
168.361
 30
0.3
 40
3.0
  1
取付金具
 50
0.0
 41
0.6
 51
0.0
  7
KANJI1
  0
LINE
  8
0
  6
CONTINUOUS
 62
     1
 10
56.5
 20
106.0
 30
0.0
 11
51.5
 21
106.0
 31
0.0
  0
LINE
  8
0
  6
CONTINUOUS
 62
     1
 10
51.5
 20
106.0
 30
0.0
 11
51.5
 21
109.0
 31
0.0
  0
LINE
  8
0
  6
CONTINUOUS
 62
     1
 10
56.5
 20
109.0
 30
0.0
 11
56.5
 21
106.0
 31
0.0
  0
ARC
  8
0
  6
CONTINUOUS
 62
     1
 10
54.0
 20
108.5
 30
0.0
 40
1.5
 50
160.528779366
 51
19.471220634
  0
LINE
  8
0
  6
CONTINUOUS
 62
     1
 10
51.5
 20
162.0
 30
0.0
 11
56.5
 21
162.0
 31
0.0
  0
LINE
  8
0
  6
CONTINUOUS
 62
     1
 10
51.5
 20
159.0
 30
0.0
 11
51.5
 21
162.0
 31
0.0
  0
LINE
  8
0
  6
CONTINUOUS
 62
     1
 10
56.5
 20
162.0
 30
0.0
 11
56.5
 21
159.0
 31
0.0
  0
ARC
  8
0
  6
CONTINUOUS
 62
     1
 10
54.0
 20
159.495
 30
0.0
 40
1.5
 50
340.731224508
 51
199.268775492
  0
LINE
  8
0
  6
CONTINUOUS
 62
     1
 10
25.29
 20
45.53
 30
0.0
 11
25.29
 21
50.53
 31
0.0
  0
LINE
  8
0
  6
CONTINUOUS
 62
     1
 10
28.29
 20
45.53
 30
0.0
 11
25.29
 21
45.53
 31
0.0
  0
LINE
  8
0
  6
CONTINUOUS
 62
     1
 10
25.29
 20
50.53
 30
0.0
 11
28.29
 21
50.53
 31
0.0
  0
ARC
  8
0
  6
CONTINUOUS
 62
     1
 10
27.795
 20
48.03
 30
0.0
 40
1.5
 50
70.731224508
 51
289.268775492
  0
LINE
  8
0
  6
CONTINUOUS
 62
     1
 10
81.29
 20
50.53
 30
0.0
 11
81.29
 21
45.53
 31
0.0
  0
LINE
  8
0
  6
CONTINUOUS
 62
     1
 10
78.29
 20
50.53
 30
0.0
 11
81.29
 21
50.53
 31
0.0
  0
LINE
  8
0
  6
CONTINUOUS
 62
     1
 10
81.29
 20
45.53
 30
0.0
 11
78.29
 21
45.53
 31
0.0
  0
ARC
  8
0
  6
CONTINUOUS
 62
     1
 10
78.785
 20
48.03
 30
0.0
 40
1.5
 50
250.731224508
 51
109.268775492
  0
LINE
  8
0
  6
CONTINUOUS
 62
     2
 10
50.048
 20
134.567
 30
0.0
 11
48.03576059
 21
136.050540548
 31
0.0
  0
LINE
  8
0
  6
CONTINUOUS
 62
     2
 10
50.048
 20
134.567
 30
0.0
 11
47.563579279
 21
134.845664098
 31
0.0
  0
LINE
  8
0
  6
CONTINUOUS
 62
     2
 10
50.048
 20
134.567
 30
0.0
 11
31.548
 21
141.817
 31
0.0
  0
TEXT
  8
0
  6
CONTINUOUS
 62
     2
 10
25.767
 20
142.817
 30
0.6
 40
3.0
  1
単位
 50
0.0
 41
0.6
 51
0.0
  7
KANJI12
  0
LINE
  8
0
  6
CONTINUOUS
 62
     2
 10
31.548
 20
141.817
 30
0.0
 11
24.971
 21
141.817
 31
0.0
  0
LINE
  8
0
  6
CONTINUOUS
 62
     2
 10
53.524
 20
52.117
 30
0.0
 11
54.973689109
 21
54.153762501
 31
0.0
  0
LINE
  8
0
  6
CONTINUOUS
 62
     2
 10
53.524
 20
52.117
 30
0.0
 11
53.761086346
 21
54.605732622
 31
0.0
  0
LINE
  8
0
  6
CONTINUOUS
 62
     2
 10
53.524
 20
52.117
 30
0.0
 11
57.624
 21
63.117
 31
0.0
  0
TEXT
  8
0
  6
CONTINUOUS
 62
     2
 10
58.314
 20
63.747
 30
0.2
 40
3.0
  1
単位
 50
0.0
 41
0.766666667
 51
0.0
  7
KANJI13
  0
LINE
  8
0
  6
CONTINUOUS
 62
     2
 10
57.624
 20
63.117
 30
0.0
 11
63.825
 21
63.117
 31
0.0
  0
LINE
  8
0
  6
LTYPE3
 62
     2
 10
58.1875
 20
159.495
 30
0.0
 11
49.6375
 21
159.495
 31
0.0
  0
LINE
  8
0
  6
LTYPE3
 62
     2
 10
54.0
 20
165.44
 30
0.0
 11
54.0
 21
151.44
 31
0.0
  0
LINE
  8
0
  6
LTYPE3
 62
     2
 10
58.1375
 20
108.5
 30
0.0
 11
49.0875
 21
108.5
 31
0.0
  0
LINE
  8
0
  6
LTYPE3
 62
     2
 10
54.0
 20
117.09
 30
0.0
 11
54.0
 21
103.09
 31
0.0
  0
LINE
  8
0
  6
LTYPE3
 62
     2
 10
130.64
 20
159.51
 30
0.0
 11
101.09
 21
159.51
 31
0.0
  0
LINE
  8
0
  6
LTYPE3
 62
     2
 10
129.39
 20
108.51
 30
0.0
 11
100.19
 21
108.51
 31
0.0
  0
LINE
  8
0
  6
LTYPE3
 62
     2
 10
119.1
 20
86.815
 30
0.0
 11
119.1
 21
31.765
 31
0.0
  0
LINE
  8
0
  6
LTYPE3
 62
     2
 10
78.785
 20
43.8425
 30
0.0
 11
78.785
 21
52.3925
 31
0.0
  0
LINE
  8
0
  6
LTYPE3
 62
     2
 10
84.73
 20
48.03
 30
0.0
 11
70.73
 21
48.03
 31
0.0
  0
LINE
  8
0
  6
LTYPE3
 62
     2
 10
27.795
 20
52.2175
 30
0.0
 11
27.795
 21
43.6675
 31
0.0
  0
LINE
  8
0
  6
LTYPE3
 62
     2
 10
21.85
 20
48.03
 30
0.0
 11
35.85
 21
48.03
 31
0.0
  0
LINE
  8
0
  6
CONTINUOUS
 62
     2
 10
34.315
 20
50.055
 30
0.0
 11
72.265
 21
50.055
 31
0.0
  0
LINE
  8
0
  6
CONTINUOUS
 62
     2
 10
51.975
 20
115.02
 30
0.0
 11
51.975
 21
152.97
 31
0.0
  0
POLYLINE
  8
0
  6
CONTINUOUS
 62
     2
 66
     1
 70
     1
  0
VERTEX
  8
0
  6
CONTINUOUS
 62
     2
 10
51.645
 20
117.025
 30
0.0
  0
VERTEX
  8
0
  6
CONTINUOUS
 62
     2
 10
48.895
 20
118.025
 30
0.0
  0
VERTEX
  8
0
  6
CONTINUOUS
 62
     2
 10
48.795
 20
117.025
 30
0.0
  0
VERTEX
  8
0
  6
CONTINUOUS
 62
     2
 10
48.895
 20
116.025
 30
0.0
  0
SEQEND
  0
LINE
  8
0
  6
CONTINUOUS
 62
     1
 10
54.0
 20
117.0
 30
0.0
 11
52.0
 21
117.0
 31
0.0
  0
LINE
  8
0
  6
CONTINUOUS
 62
     2
 10
48.818732673
 20
116.787673267
 30
0.0
 11
46.806493264
 21
118.271213816
 31
0.0
  0
LINE
  8
0
  6
CONTINUOUS
 62
     2
 10
48.818732673
 20
116.787673267
 30
0.0
 11
46.334311952
 21
117.066337365
 31
0.0
  0
LINE
  8
0
  6
CONTINUOUS
 62
     2
 10
48.818732673
 20
116.787673267
 30
0.0
 11
30.318732673
 21
124.037673267
 31
0.0
  0
LINE
  8
0
  6
CONTINUOUS
 62
     2
 10
30.318732673
 20
124.037673267
 30
0.0
 11
16.018732673
 21
124.037673267
 31
0.0
  0
TEXT
  8
0
  6
CONTINUOUS
 62
     2
 10
16.718732673
 20
125.037673267
 30
0.6
 40
3.0
  1
段付用指針
 50
0.0
 41
0.6
 51
0.0
  7
KANJI12
  0
POLYLINE
  8
0
  6
CONTINUOUS
 62
     2
 66
     1
 70
     1
  0
VERTEX
  8
0
  6
CONTINUOUS
 62
     2
 10
36.32
 20
50.385
 30
0.0
  0
VERTEX
  8
0
  6
CONTINUOUS
 62
     2
 10
37.32
 20
53.135
 30
0.0
  0
VERTEX
  8
0
  6
CONTINUOUS
 62
     2
 10
36.32
 20
53.235
 30
0.0
  0
VERTEX
  8
0
  6
CONTINUOUS
 62
     2
 10
35.32
 20
53.135
 30
0.0
  0
SEQEND
  0
LINE
  8
0
  6
CONTINUOUS
 62
     1
 10
36.29
 20
48.03
 30
0.0
 11
36.29
 21
50.08
 31
0.0
  0
LINE
  8
0
  6
CONTINUOUS
 62
     2
 10
36.110594059
 20
53.214059406
 30
0.0
 11
37.560283169
 21
55.250821907
 31
0.0
  0
LINE
  8
0
  6
CONTINUOUS
 62
     2
 10
36.110594059
 20
53.214059406
 30
0.0
 11
36.347680405
 21
55.702792028
 31
0.0
  0
LINE
  8
0
  6
CONTINUOUS
 62
     2
 10
36.110594059
 20
53.214059406
 30
0.0
 11
40.210594059
 21
64.214059406
 31
0.0
  0
LINE
  8
0
  6
CONTINUOUS
 62
     2
 10
40.210594059
 20
64.214059406
 30
0.0
 11
54.210594059
 21
64.214059406
 31
0.0
  0
TEXT
  8
0
  6
CONTINUOUS
 62
     2
 10
40.900594059
 20
64.844059406
 30
0.2
 40
3.0
  1
段付用指針
 50
0.0
 41
0.766666667
 51
0.0
  7
KANJI13
  0
TEXT
  8
0
  6
CONTINUOUS
 62
     3
 10
233.0
 20
17.0
 30
0.3
 40
6.0
  1
ＭＳ－１３２５４
 50
0.0
 41
0.9
 51
0.0
  7
KANJI14
  0
TEXT
  8
0
  6
CONTINUOUS
 62
     1
 10
238.2
 20
27.3
 30
0.4
 40
4.0
  1
エッジワイズ形計器外形図
 50
0.0
 41
0.9
 51
0.0
  7
KANJI15
  0
TEXT
  8
0
  6
CONTINUOUS
 62
     2
 10
238.2
 20
32.3
 30
0.3
 40
3.0
  1
端子キャップ付　段付目盛板　槍指針
 50
0.0
 41
0.9
 51
0.0
  7
KANJI4
  0
TEXT
  8
0
  6
CONTINUOUS
 62
     1
 10
233.2
 20
39.9
 30
0.5
 40
5.0
  1
□Ｅｆ－１００□
 50
0.0
 41
0.9
 51
0.0
  7
KANJI16
  0
LINE
  8
0
  6
LTYPE3
 62
     2
 10
42.9
 20
134.01
 30
0.0
 11
64.6
 21
134.01
 31
0.0
  0
LINE
  8
0
  6
LTYPE3
 62
     2
 10
89.7
 20
134.01
 30
0.0
 11
154.6
 21
134.01
 31
0.0
  0
LINE
  8
0
  6
LTYPE3
 62
     2
 10
109.0
 20
59.365
 30
0.0
 11
129.0
 21
59.365
 31
0.0
  0
TEXT
  8
0
  6
CONTINUOUS
 62
     2
 10
74.61
 20
171.84
 30
0.3
 40
3.0
  1
取付ネジキャップ
 50
0.0
 41
0.6
 51
0.0
  7
KANJI1
  0
LINE
  8
0
  6
CONTINUOUS
 62
     2
 10
91.237083333
 20
170.84
 30
0.0
 11
74.61
 21
170.84
 31
0.0
  0
LINE
  8
0
  6
CONTINUOUS
 62
     2
 10
102.81
 20
160.74
 30
0.0
 11
91.237083333
 21
170.84
 31
0.0
  0
TEXT
  8
0
  6
CONTINUOUS
 62
     2
 10
121.925
 20
121.673480447
 30
0.3
 40
3.0
  1
６４（６６）
 50
90.0
 41
0.6
 51
0.0
  7
KANJI1
  0
LINE
  8
0
  6
CONTINUOUS
 62
     1
 10
195.96
 20
134.0
 30
0.0
 11
195.96
 21
158.0
 31
0.0
  0
LINE
  8
0
  6
CONTINUOUS
 62
     1
 10
205.96
 20
150.5
 30
0.0
 11
200.96
 21
150.5
 31
0.0
  0
LINE
  8
0
  6
CONTINUOUS
 62
     1
 10
195.96
 20
158.0
 30
0.0
 11
200.96
 21
158.0
 31
0.0
  0
LINE
  8
0
  6
CONTINUOUS
 62
     1
 10
210.96
 20
158.0
 30
0.0
 11
210.96
 21
134.0
 31
0.0
  0
LINE
  8
0
  6
CONTINUOUS
 62
     1
 10
210.96
 20
158.0
 30
0.0
 11
205.96
 21
158.0
 31
0.0
  0
ARC
  8
0
  6
CONTINUOUS
 62
     1
 10
195.96
 20
158.025
 30
0.0
 40
1.0
 50
90.0
 51
180.0
  0
ARC
  8
0
  6
CONTINUOUS
 62
     1
 10
210.96
 20
158.0
 30
0.0
 40
1.0
 50
0.0
 51
90.0
  0
LINE
  8
0
  6
CONTINUOUS
 62
     1
 10
210.96
 20
159.0
 30
0.0
 11
205.96
 21
159.0
 31
0.0
  0
LINE
  8
0
  6
CONTINUOUS
 62
     1
 10
200.96
 20
159.0
 30
0.0
 11
195.96
 21
159.025
 31
0.0
  0
LINE
  8
0
  6
CONTINUOUS
 62
     1
 10
195.01
 20
158.0372499
 30
0.0
 11
195.01
 21
133.9872499
 31
0.0
  0
LINE
  8
0
  6
CONTINUOUS
 62
     1
 10
211.96
 20
158.0
 30
0.0
 11
211.96
 21
134.0122499
 31
0.0
  0
POLYLINE
  8
0
  6
CONTINUOUS
 62
     1
 66
     1
  0
VERTEX
  8
0
  6
CONTINUOUS
 62
     1
 10
195.9625
 20
149.95
 30
0.0
  0
VERTEX
  8
0
  6
CONTINUOUS
 62
     1
 10
195.9625
 20
149.95
 30
0.0
  0
VERTEX
  8
0
  6
CONTINUOUS
 62
     1
 10
210.9625
 20
149.95
 30
0.0
  0
SEQEND
  0
LINE
  8
0
  6
CONTINUOUS
 62
     1
 10
195.9625
 20
146.5
 30
0.0
 11
210.9625
 21
146.5
 31
0.0
  0
LINE
  8
0
  6
CONTINUOUS
 62
     1
 10
210.9625
 20
136.65
 30
0.0
 11
195.9625
 21
136.65
 31
0.0
  0
CIRCLE
  8
0
  6
CONTINUOUS
 62
     1
 10
203.46
 20
140.25
 30
0.0
 40
1.675
  0
LINE
  8
0
  6
CONTINUOUS
 62
     1
 10
195.96
 20
134.0
 30
0.0
 11
195.96
 21
110.0
 31
0.0
  0
LINE
  8
0
  6
CONTINUOUS
 62
     1
 10
205.96
 20
117.5
 30
0.0
 11
200.96
 21
117.5
 31
0.0
  0
LINE
  8
0
  6
CONTINUOUS
 62
     1
 10
195.96
 20
110.0
 30
0.0
 11
200.96
 21
110.0
 31
0.0
  0
LINE
  8
0
  6
CONTINUOUS
 62
     1
 10
210.96
 20
110.0
 30
0.0
 11
210.96
 21
134.0
 31
0.0
  0
LINE
  8
0
  6
CONTINUOUS
 62
     1
 10
210.96
 20
110.0
 30
0.0
 11
205.96
 21
110.0
 31
0.0
  0
ARC
  8
0
  6
CONTINUOUS
 62
     1
 10
195.96
 20
109.975
 30
0.0
 40
1.0
 50
180.0
 51
270.0
  0
ARC
  8
0
  6
CONTINUOUS
 62
     1
 10
210.96
 20
110.0
 30
0.0
 40
1.0
 50
270.0
 51
0.0
  0
LINE
  8
0
  6
CONTINUOUS
 62
     1
 10
210.96
 20
109.0
 30
0.0
 11
205.96
 21
109.0
 31
0.0
  0
LINE
  8
0
  6
CONTINUOUS
 62
     1
 10
200.96
 20
109.0
 30
0.0
 11
195.96
 21
108.975
 31
0.0
  0
LINE
  8
0
  6
CONTINUOUS
 62
     1
 10
195.01
 20
109.9627501
 30
0.0
 11
195.01
 21
134.0127501
 31
0.0
  0
LINE
  8
0
  6
CONTINUOUS
 62
     1
 10
211.96
 20
110.0
 30
0.0
 11
211.96
 21
133.9877501
 31
0.0
  0
POLYLINE
  8
0
  6
CONTINUOUS
 62
     1
 66
     1
  0
VERTEX
  8
0
  6
CONTINUOUS
 62
     1
 10
195.9625
 20
118.05
 30
0.0
  0
VERTEX
  8
0
  6
CONTINUOUS
 62
     1
 10
195.9625
 20
118.05
 30
0.0
  0
VERTEX
  8
0
  6
CONTINUOUS
 62
     1
 10
210.9625
 20
118.05
 30
0.0
  0
SEQEND
  0
LINE
  8
0
  6
CONTINUOUS
 62
     1
 10
195.9625
 20
121.5
 30
0.0
 11
210.9625
 21
121.5
 31
0.0
  0
LINE
  8
0
  6
CONTINUOUS
 62
     1
 10
210.9625
 20
131.35
 30
0.0
 11
195.9625
 21
131.35
 31
0.0
  0
CIRCLE
  8
0
  6
CONTINUOUS
 62
     1
 10
203.46
 20
127.75
 30
0.0
 40
1.675
  0
CIRCLE
  8
0
  6
CONTINUOUS
 62
     2
 10
203.4625
 20
154.0
 30
0.0
 40
1.5
  0
LINE
  8
0
  6
CONTINUOUS
 62
     2
 10
202.5875
 20
154.2
 30
0.0
 11
203.0625
 21
154.2
 31
0.0
  0
ARC
  8
0
  6
CONTINUOUS
 62
     2
 10
203.0625
 20
154.4
 30
0.0
 40
0.2
 50
270.0
 51
0.0
  0
LINE
  8
0
  6
CONTINUOUS
 62
     2
 10
203.2625
 20
154.4
 30
0.0
 11
203.2625
 21
154.875
 31
0.0
  0
LINE
  8
0
  6
CONTINUOUS
 62
     2
 10
203.2625
 20
154.875
 30
0.0
 11
203.6625
 21
154.875
 31
0.0
  0
LINE
  8
0
  6
CONTINUOUS
 62
     2
 10
203.6625
 20
154.875
 30
0.0
 11
203.6625
 21
154.4
 31
0.0
  0
ARC
  8
0
  6
CONTINUOUS
 62
     2
 10
203.8625
 20
154.4
 30
0.0
 40
0.2
 50
180.0
 51
270.0
  0
LINE
  8
0
  6
CONTINUOUS
 62
     2
 10
203.8625
 20
154.2
 30
0.0
 11
204.3375
 21
154.2
 31
0.0
  0
LINE
  8
0
  6
CONTINUOUS
 62
     2
 10
204.3375
 20
154.2
 30
0.0
 11
204.3375
 21
153.8
 31
0.0
  0
LINE
  8
0
  6
CONTINUOUS
 62
     2
 10
204.3375
 20
153.8
 30
0.0
 11
203.8625
 21
153.8
 31
0.0
  0
ARC
  8
0
  6
CONTINUOUS
 62
     2
 10
203.8625
 20
153.6
 30
0.0
 40
0.2
 50
90.0
 51
180.0
  0
LINE
  8
0
  6
CONTINUOUS
 62
     2
 10
203.6625
 20
153.6
 30
0.0
 11
203.6625
 21
153.125
 31
0.0
  0
LINE
  8
0
  6
CONTINUOUS
 62
     2
 10
203.6625
 20
153.125
 30
0.0
 11
203.2625
 21
153.125
 31
0.0
  0
LINE
  8
0
  6
CONTINUOUS
 62
     2
 10
203.2625
 20
153.125
 30
0.0
 11
203.2625
 21
153.6
 31
0.0
  0
ARC
  8
0
  6
CONTINUOUS
 62
     2
 10
203.0625
 20
153.6
 30
0.0
 40
0.2
 50
0.0
 51
90.0
  0
LINE
  8
0
  6
CONTINUOUS
 62
     2
 10
203.0625
 20
153.8
 30
0.0
 11
202.5875
 21
153.8
 31
0.0
  0
LINE
  8
0
  6
CONTINUOUS
 62
     2
 10
202.5875
 20
153.8
 30
0.0
 11
202.5875
 21
154.2
 31
0.0
  0
LINE
  8
0
  6
LTYPE1
 62
     2
 10
201.4625
 20
154.0
 30
0.0
 11
205.4625
 21
154.0
 31
0.0
  0
CIRCLE
  8
0
  6
CONTINUOUS
 62
     2
 10
208.4625
 20
154.0
 30
0.0
 40
1.25
  0
CIRCLE
  8
0
  6
CONTINUOUS
 62
     2
 10
208.4625
 20
154.0
 30
0.0
 40
0.625
  0
CIRCLE
  8
0
  6
CONTINUOUS
 62
     2
 10
198.4625
 20
154.0
 30
0.0
 40
0.625
  0
CIRCLE
  8
0
  6
CONTINUOUS
 62
     2
 10
198.4625
 20
154.0
 30
0.0
 40
1.25
  0
LINE
  8
0
  6
CONTINUOUS
 62
     2
 10
200.9125
 20
156.5
 30
0.0
 11
195.9625
 21
156.5
 31
0.0
  0
LINE
  8
0
  6
CONTINUOUS
 62
     2
 10
205.9625
 20
156.5
 30
0.0
 11
210.9625
 21
156.5
 31
0.0
  0
ARC
  8
0
  6
CONTINUOUS
 62
     2
 10
203.99
 20
140.87
 30
0.0
 40
0.35
 50
180.0
 51
270.0
  0
ARC
  8
0
  6
CONTINUOUS
 62
     2
 10
203.99
 20
139.67
 30
0.0
 40
0.35
 50
90.0
 51
180.0
  0
ARC
  8
0
  6
CONTINUOUS
 62
     2
 10
202.93
 20
139.67
 30
0.0
 40
0.35
 50
0.0
 51
90.0
  0
ARC
  8
0
  6
CONTINUOUS
 62
     2
 10
202.93
 20
140.89
 30
0.0
 40
0.35
 50
270.0
 51
0.0
  0
LINE
  8
0
  6
CONTINUOUS
 62
     2
 10
202.93
 20
140.54
 30
0.0
 11
201.806904419
 21
140.52
 31
0.0
  0
LINE
  8
0
  6
CONTINUOUS
 62
     2
 10
201.806904419
 20
140.0
 30
0.0
 11
202.93
 21
140.02
 31
0.0
  0
POLYLINE
  8
0
  6
CONTINUOUS
 62
     2
 66
     1
  0
VERTEX
  8
0
  6
CONTINUOUS
 62
     2
 10
203.28
 20
139.67
 30
0.0
  0
VERTEX
  8
0
  6
CONTINUOUS
 62
     2
 10
203.28
 20
139.3
 30
0.0
  0
VERTEX
  8
0
  6
CONTINUOUS
 62
     2
 10
203.65
 20
139.3
 30
0.0
  0
SEQEND
  0
LINE
  8
0
  6
CONTINUOUS
 62
     2
 10
203.65
 20
139.31
 30
0.0
 11
203.64
 21
139.67
 31
0.0
  0
LINE
  8
0
  6
CONTINUOUS
 62
     2
 10
203.99
 20
140.02
 30
0.0
 11
205.08
 21
140.02
 31
0.0
  0
LINE
  8
0
  6
CONTINUOUS
 62
     2
 10
205.08
 20
140.54
 30
0.0
 11
203.99
 21
140.54
 31
0.0
  0
LINE
  8
0
  6
CONTINUOUS
 62
     2
 10
203.64
 20
140.87
 30
0.0
 11
203.64
 21
141.21
 31
0.0
  0
LINE
  8
0
  6
CONTINUOUS
 62
     2
 10
203.64
 20
141.21
 30
0.0
 11
203.28
 21
141.21
 31
0.0
  0
LINE
  8
0
  6
CONTINUOUS
 62
     2
 10
203.28
 20
141.21
 30
0.0
 11
203.28
 21
140.89
 31
0.0
  0
CIRCLE
  8
0
  6
CONTINUOUS
 62
     2
 10
203.4625
 20
114.0
 30
0.0
 40
1.5
  0
LINE
  8
0
  6
CONTINUOUS
 62
     2
 10
202.5875
 20
113.8
 30
0.0
 11
203.0625
 21
113.8
 31
0.0
  0
ARC
  8
0
  6
CONTINUOUS
 62
     2
 10
203.0625
 20
113.6
 30
0.0
 40
0.2
 50
0.0
 51
90.0
  0
LINE
  8
0
  6
CONTINUOUS
 62
     2
 10
203.2625
 20
113.6
 30
0.0
 11
203.2625
 21
113.125
 31
0.0
  0
LINE
  8
0
  6
CONTINUOUS
 62
     2
 10
203.2625
 20
113.125
 30
0.0
 11
203.6625
 21
113.125
 31
0.0
  0
LINE
  8
0
  6
CONTINUOUS
 62
     2
 10
203.6625
 20
113.125
 30
0.0
 11
203.6625
 21
113.6
 31
0.0
  0
ARC
  8
0
  6
CONTINUOUS
 62
     2
 10
203.8625
 20
113.6
 30
0.0
 40
0.2
 50
90.0
 51
180.0
  0
LINE
  8
0
  6
CONTINUOUS
 62
     2
 10
203.8625
 20
113.8
 30
0.0
 11
204.3375
 21
113.8
 31
0.0
  0
LINE
  8
0
  6
CONTINUOUS
 62
     2
 10
204.3375
 20
113.8
 30
0.0
 11
204.3375
 21
114.2
 31
0.0
  0
LINE
  8
0
  6
CONTINUOUS
 62
     2
 10
204.3375
 20
114.2
 30
0.0
 11
203.8625
 21
114.2
 31
0.0
  0
ARC
  8
0
  6
CONTINUOUS
 62
     2
 10
203.8625
 20
114.4
 30
0.0
 40
0.2
 50
180.0
 51
270.0
  0
LINE
  8
0
  6
CONTINUOUS
 62
     2
 10
203.6625
 20
114.4
 30
0.0
 11
203.6625
 21
114.875
 31
0.0
  0
LINE
  8
0
  6
CONTINUOUS
 62
     2
 10
203.6625
 20
114.875
 30
0.0
 11
203.2625
 21
114.875
 31
0.0
  0
LINE
  8
0
  6
CONTINUOUS
 62
     2
 10
203.2625
 20
114.875
 30
0.0
 11
203.2625
 21
114.4
 31
0.0
  0
ARC
  8
0
  6
CONTINUOUS
 62
     2
 10
203.0625
 20
114.4
 30
0.0
 40
0.2
 50
270.0
 51
0.0
  0
LINE
  8
0
  6
CONTINUOUS
 62
     2
 10
203.0625
 20
114.2
 30
0.0
 11
202.5875
 21
114.2
 31
0.0
  0
LINE
  8
0
  6
CONTINUOUS
 62
     2
 10
202.5875
 20
114.2
 30
0.0
 11
202.5875
 21
113.8
 31
0.0
  0
CIRCLE
  8
0
  6
CONTINUOUS
 62
     2
 10
208.4625
 20
114.0
 30
0.0
 40
1.25
  0
CIRCLE
  8
0
  6
CONTINUOUS
 62
     2
 10
208.4625
 20
114.0
 30
0.0
 40
0.625
  0
CIRCLE
  8
0
  6
CONTINUOUS
 62
     2
 10
198.4625
 20
114.0
 30
0.0
 40
0.625
  0
CIRCLE
  8
0
  6
CONTINUOUS
 62
     2
 10
198.4625
 20
114.0
 30
0.0
 40
1.25
  0
LINE
  8
0
  6
CONTINUOUS
 62
     2
 10
200.9125
 20
111.5
 30
0.0
 11
195.9625
 21
111.5
 31
0.0
  0
LINE
  8
0
  6
CONTINUOUS
 62
     2
 10
205.9625
 20
111.5
 30
0.0
 11
210.9625
 21
111.5
 31
0.0
  0
ARC
  8
0
  6
CONTINUOUS
 62
     2
 10
203.99
 20
127.13
 30
0.0
 40
0.35
 50
90.0
 51
180.0
  0
ARC
  8
0
  6
CONTINUOUS
 62
     2
 10
203.99
 20
128.33
 30
0.0
 40
0.35
 50
180.0
 51
270.0
  0
ARC
  8
0
  6
CONTINUOUS
 62
     2
 10
202.93
 20
128.33
 30
0.0
 40
0.35
 50
270.0
 51
0.0
  0
ARC
  8
0
  6
CONTINUOUS
 62
     2
 10
202.93
 20
127.11
 30
0.0
 40
0.35
 50
0.0
 51
90.0
  0
LINE
  8
0
  6
CONTINUOUS
 62
     2
 10
202.93
 20
127.46
 30
0.0
 11
201.806904419
 21
127.48
 31
0.0
  0
LINE
  8
0
  6
CONTINUOUS
 62
     2
 10
201.806904419
 20
128.0
 30
0.0
 11
202.93
 21
127.98
 31
0.0
  0
POLYLINE
  8
0
  6
CONTINUOUS
 62
     2
 66
     1
  0
VERTEX
  8
0
  6
CONTINUOUS
 62
     2
 10
203.28
 20
128.33
 30
0.0
  0
VERTEX
  8
0
  6
CONTINUOUS
 62
     2
 10
203.28
 20
128.7
 30
0.0
  0
VERTEX
  8
0
  6
CONTINUOUS
 62
     2
 10
203.65
 20
128.7
 30
0.0
  0
SEQEND
  0
LINE
  8
0
  6
CONTINUOUS
 62
     2
 10
203.65
 20
128.69
 30
0.0
 11
203.64
 21
128.33
 31
0.0
  0
LINE
  8
0
  6
CONTINUOUS
 62
     2
 10
203.99
 20
127.98
 30
0.0
 11
205.08
 21
127.98
 31
0.0
  0
LINE
  8
0
  6
CONTINUOUS
 62
     2
 10
205.08
 20
127.46
 30
0.0
 11
203.99
 21
127.46
 31
0.0
  0
LINE
  8
0
  6
CONTINUOUS
 62
     2
 10
203.64
 20
127.13
 30
0.0
 11
203.64
 21
126.79
 31
0.0
  0
LINE
  8
0
  6
CONTINUOUS
 62
     2
 10
203.64
 20
126.79
 30
0.0
 11
203.28
 21
126.79
 31
0.0
  0
LINE
  8
0
  6
CONTINUOUS
 62
     2
 10
203.28
 20
126.79
 30
0.0
 11
203.28
 21
127.11
 31
0.0
  0
TEXT
  8
0
  6
CONTINUOUS
 62
     2
 10
206.3
 20
138.78
 30
0.3
 40
3.0
  1
＋
 50
0.0
 41
0.9
 51
0.0
  7
KANJI4
  0
CIRCLE
  8
0
  6
CONTINUOUS
 62
     2
 10
207.56
 20
140.27
 30
0.0
 40
1.675
  0
CIRCLE
  8
0
  6
CONTINUOUS
 62
     2
 10
198.46
 20
134.02
 30
0.0
 40
1.0
  0
CIRCLE
  8
0
  6
CONTINUOUS
 62
     2
 10
198.46
 20
134.02
 30
0.0
 40
0.5
  0
CIRCLE
  8
0
  6
CONTINUOUS
 62
     2
 10
208.46
 20
134.02
 30
0.0
 40
0.5
  0
CIRCLE
  8
0
  6
CONTINUOUS
 62
     2
 10
208.46
 20
134.02
 30
0.0
 40
1.0
  0
LINE
  8
0
  6
CONTINUOUS
 62
     2
 10
201.6225
 20
140.25
 30
0.0
 11
188.8225
 21
140.25
 31
0.0
  0
LINE
  8
0
  6
CONTINUOUS
 62
     2
 10
190.8225
 20
140.25
 30
0.0
 11
190.175452387
 21
137.835185434
 31
0.0
  0
LINE
  8
0
  6
CONTINUOUS
 62
     2
 10
190.8225
 20
140.25
 30
0.0
 11
191.469547613
 21
137.835185434
 31
0.0
  0
LINE
  8
0
  6
CONTINUOUS
 62
     2
 10
190.8225
 20
140.25
 30
0.0
 11
190.8225
 21
127.75
 31
0.0
  0
LINE
  8
0
  6
CONTINUOUS
 62
     2
 10
190.8225
 20
127.75
 30
0.0
 11
191.469547613
 21
130.164814566
 31
0.0
  0
LINE
  8
0
  6
CONTINUOUS
 62
     2
 10
190.8225
 20
127.75
 30
0.0
 11
190.175452387
 21
130.164814566
 31
0.0
  0
LINE
  8
0
  6
CONTINUOUS
 62
     2
 10
201.6225
 20
127.75
 30
0.0
 11
188.8225
 21
127.75
 31
0.0
  0
TEXT
  8
0
  6
CONTINUOUS
 62
     2
 10
189.8225
 20
132.05
 30
0.3
 40
3.0
  1
２５
 50
90.0
 41
0.6
 51
0.0
  7
KANJI1
  0
LINE
  8
0
  6
CONTINUOUS
 62
     2
 10
212.285
 20
110.0
 30
0.0
 11
227.585
 21
110.0
 31
0.0
  0
LINE
  8
0
  6
CONTINUOUS
 62
     2
 10
225.585
 20
110.0
 30
0.0
 11
226.232047613
 21
112.414814566
 31
0.0
  0
LINE
  8
0
  6
CONTINUOUS
 62
     2
 10
225.585
 20
110.0
 30
0.0
 11
224.937952387
 21
112.414814566
 31
0.0
  0
LINE
  8
0
  6
CONTINUOUS
 62
     2
 10
225.585
 20
110.0
 30
0.0
 11
225.585
 21
158.0
 31
0.0
  0
LINE
  8
0
  6
CONTINUOUS
 62
     2
 10
225.585
 20
158.0
 30
0.0
 11
224.937952387
 21
155.585185434
 31
0.0
  0
LINE
  8
0
  6
CONTINUOUS
 62
     2
 10
225.585
 20
158.0
 30
0.0
 11
226.232047613
 21
155.585185434
 31
0.0
  0
LINE
  8
0
  6
CONTINUOUS
 62
     2
 10
212.16
 20
158.0
 30
0.0
 11
227.585
 21
158.0
 31
0.0
  0
TEXT
  8
0
  6
CONTINUOUS
 62
     2
 10
224.585
 20
130.25
 30
0.3
 40
3.0
  1
９６
 50
90.0
 41
0.6
 51
0.0
  7
KANJI1
  0
TEXT
  8
0
  6
CONTINUOUS
 62
     2
 10
222.785
 20
134.15
 30
0.18
 40
1.8
  1
＋０．５
 50
90.0
 41
0.6
 51
0.0
  7
KANJI3
  0
TEXT
  8
0
  6
CONTINUOUS
 62
     2
 10
224.585
 20
134.15
 30
0.18
 40
1.8
  1
－０
 50
90.0
 41
0.6
 51
0.0
  7
KANJI3
  0
LINE
  8
0
  6
CONTINUOUS
 62
     2
 10
195.96
 20
159.35
 30
0.0
 11
195.96
 21
176.05
 31
0.0
  0
LINE
  8
0
  6
CONTINUOUS
 62
     2
 10
195.96
 20
174.05
 30
0.0
 11
198.374814566
 21
173.402952387
 31
0.0
  0
LINE
  8
0
  6
CONTINUOUS
 62
     2
 10
195.96
 20
174.05
 30
0.0
 11
198.374814566
 21
174.697047613
 31
0.0
  0
LINE
  8
0
  6
CONTINUOUS
 62
     2
 10
195.96
 20
174.05
 30
0.0
 11
210.96
 21
174.05
 31
0.0
  0
LINE
  8
0
  6
CONTINUOUS
 62
     2
 10
210.96
 20
174.05
 30
0.0
 11
208.545185434
 21
174.697047613
 31
0.0
  0
LINE
  8
0
  6
CONTINUOUS
 62
     2
 10
210.96
 20
174.05
 30
0.0
 11
208.545185434
 21
173.402952387
 31
0.0
  0
LINE
  8
0
  6
CONTINUOUS
 62
     2
 10
210.96
 20
159.35
 30
0.0
 11
210.96
 21
176.05
 31
0.0
  0
TEXT
  8
0
  6
CONTINUOUS
 62
     2
 10
201.51
 20
175.05
 30
0.3
 40
3.0
  1
３０
 50
0.0
 41
0.6
 51
0.0
  7
KANJI1
  0
LINE
  8
0
  6
CONTINUOUS
 62
     2
 10
196.0275
 20
151.37
 30
0.0
 11
200.9275
 21
151.37
 31
0.0
  0
LINE
  8
0
  6
CONTINUOUS
 62
     2
 10
206.0275
 20
151.37
 30
0.0
 11
210.7275
 21
151.37
 31
0.0
  0
LINE
  8
0
  6
CONTINUOUS
 62
     2
 10
196.0275
 20
116.67
 30
0.0
 11
200.8275
 21
116.67
 31
0.0
  0
LINE
  8
0
  6
CONTINUOUS
 62
     2
 10
205.9275
 20
116.67
 30
0.0
 11
210.7275
 21
116.67
 31
0.0
  0
TEXT
  8
0
  6
CONTINUOUS
 62
     2
 10
196.66
 20
169.42
 30
0.1
 40
3.0
  1
（３１．４　　）
 50
0.0
 41
0.666666667
 51
0.0
  7
KANJI7
  0
TEXT
  8
0
  6
CONTINUOUS
 62
     2
 10
205.828
 20
170.144
 30
0.144
 40
1.44
  1
±０．５
 50
0.0
 41
0.6
 51
0.0
  7
KANJI10
  0
LINE
  8
0
  6
CONTINUOUS
 62
     2
 10
209.26
 20
141.52
 30
0.0
 11
210.779335893
 21
143.505350962
 31
0.0
  0
LINE
  8
0
  6
CONTINUOUS
 62
     2
 10
209.26
 20
141.52
 30
0.0
 11
209.583107999
 21
143.999032315
 31
0.0
  0
LINE
  8
0
  6
CONTINUOUS
 62
     2
 10
209.26
 20
141.52
 30
0.0
 11
222.26
 21
173.02
 31
0.0
  0
LINE
  8
0
  6
LTYPE2
 62
     2
 10
194.71
 20
138.275000631
 30
0.0
 11
194.71
 21
142.225000631
 31
0.0
  0
LINE
  8
0
  6
LTYPE2
 62
     2
 10
203.96
 20
143.000000631
 30
0.0
 11
202.96
 21
143.000000631
 31
0.0
  0
LINE
  8
0
  6
LTYPE2
 62
     2
 10
203.96
 20
137.500000631
 30
0.0
 11
202.96
 21
137.500000631
 31
0.0
  0
LINE
  8
0
  6
LTYPE2
 62
     2
 10
194.71
 20
142.225000631
 30
0.0
 11
201.046397377
 21
142.225000631
 31
0.0
  0
LINE
  8
0
  6
LTYPE2
 62
     2
 10
201.046397377
 20
138.275000631
 30
0.0
 11
194.71
 21
138.275000631
 31
0.0
  0
ARC
  8
0
  6
LTYPE2
 62
     2
 10
203.96
 20
140.250000631
 30
0.0
 40
2.75
 50
270.0
 51
90.0
  0
ARC
  8
0
  6
LTYPE2
 62
     2
 10
202.96
 20
140.250000631
 30
0.0
 40
2.75
 50
90.0
 51
271.909152433
  0
LINE
  8
0
  6
LTYPE2
 62
     2
 10
194.71
 20
125.775000631
 30
0.0
 11
194.71
 21
129.725000631
 31
0.0
  0
LINE
  8
0
  6
LTYPE2
 62
     2
 10
203.96
 20
130.500000631
 30
0.0
 11
202.96
 21
130.500000631
 31
0.0
  0
LINE
  8
0
  6
LTYPE2
 62
     2
 10
203.96
 20
125.000000631
 30
0.0
 11
202.96
 21
125.000000631
 31
0.0
  0
LINE
  8
0
  6
LTYPE2
 62
     2
 10
194.71
 20
129.725000631
 30
0.0
 11
201.046397377
 21
129.725000631
 31
0.0
  0
LINE
  8
0
  6
LTYPE2
 62
     2
 10
201.046397377
 20
125.775000631
 30
0.0
 11
194.71
 21
125.775000631
 31
0.0
  0
ARC
  8
0
  6
LTYPE2
 62
     2
 10
203.96
 20
127.750000631
 30
0.0
 40
2.75
 50
270.0
 51
90.0
  0
ARC
  8
0
  6
LTYPE2
 62
     2
 10
202.96
 20
127.750000631
 30
0.0
 40
2.75
 50
90.0
 51
271.909152433
  0
LINE
  8
0
  6
CONTINUOUS
 62
     2
 10
233.7
 20
159.51
 30
0.0
 11
233.052952387
 21
157.095185434
 31
0.0
  0
LINE
  8
0
  6
CONTINUOUS
 62
     2
 10
233.7
 20
159.51
 30
0.0
 11
234.347047613
 21
157.095185434
 31
0.0
  0
LINE
  8
0
  6
CONTINUOUS
 62
     2
 10
206.14
 20
159.51
 30
0.0
 11
235.7
 21
159.51
 31
0.0
  0
LINE
  8
0
  6
CONTINUOUS
 62
     2
 10
233.7
 20
108.51
 30
0.0
 11
233.7
 21
159.51
 31
0.0
  0
LINE
  8
0
  6
CONTINUOUS
 62
     2
 10
206.14
 20
108.51
 30
0.0
 11
235.7
 21
108.51
 31
0.0
  0
LINE
  8
0
  6
CONTINUOUS
 62
     2
 10
233.7
 20
108.51
 30
0.0
 11
234.347047613
 21
110.924814566
 31
0.0
  0
LINE
  8
0
  6
CONTINUOUS
 62
     2
 10
233.7
 20
108.51
 30
0.0
 11
233.052952387
 21
110.924814566
 31
0.0
  0
CIRCLE
  8
0
  6
CONTINUOUS
 62
     2
 10
203.45
 20
159.51
 30
0.0
 40
1.5
  0
LINE
  8
0
  6
CONTINUOUS
 62
     2
 10
202.575
 20
159.71
 30
0.0
 11
203.05
 21
159.71
 31
0.0
  0
ARC
  8
0
  6
CONTINUOUS
 62
     2
 10
203.05
 20
159.91
 30
0.0
 40
0.2
 50
270.0
 51
0.0
  0
LINE
  8
0
  6
CONTINUOUS
 62
     2
 10
203.25
 20
159.91
 30
0.0
 11
203.25
 21
160.385
 31
0.0
  0
LINE
  8
0
  6
CONTINUOUS
 62
     2
 10
203.25
 20
160.385
 30
0.0
 11
203.65
 21
160.385
 31
0.0
  0
LINE
  8
0
  6
CONTINUOUS
 62
     2
 10
203.65
 20
160.385
 30
0.0
 11
203.65
 21
159.91
 31
0.0
  0
ARC
  8
0
  6
CONTINUOUS
 62
     2
 10
203.85
 20
159.91
 30
0.0
 40
0.2
 50
180.0
 51
270.0
  0
LINE
  8
0
  6
CONTINUOUS
 62
     2
 10
203.85
 20
159.71
 30
0.0
 11
204.325
 21
159.71
 31
0.0
  0
LINE
  8
0
  6
CONTINUOUS
 62
     2
 10
204.325
 20
159.71
 30
0.0
 11
204.325
 21
159.31
 31
0.0
  0
LINE
  8
0
  6
CONTINUOUS
 62
     2
 10
204.325
 20
159.31
 30
0.0
 11
203.85
 21
159.31
 31
0.0
  0
ARC
  8
0
  6
CONTINUOUS
 62
     2
 10
203.85
 20
159.11
 30
0.0
 40
0.2
 50
90.0
 51
180.0
  0
LINE
  8
0
  6
CONTINUOUS
 62
     2
 10
203.65
 20
159.11
 30
0.0
 11
203.65
 21
158.635
 31
0.0
  0
LINE
  8
0
  6
CONTINUOUS
 62
     2
 10
203.65
 20
158.635
 30
0.0
 11
203.25
 21
158.635
 31
0.0
  0
LINE
  8
0
  6
CONTINUOUS
 62
     2
 10
203.25
 20
158.635
 30
0.0
 11
203.25
 21
159.11
 31
0.0
  0
ARC
  8
0
  6
CONTINUOUS
 62
     2
 10
203.05
 20
159.11
 30
0.0
 40
0.2
 50
0.0
 51
90.0
  0
POLYLINE
  8
0
  6
CONTINUOUS
 62
     2
 66
     1
  0
VERTEX
  8
0
  6
CONTINUOUS
 62
     2
 10
203.05
 20
159.31
 30
0.0
  0
VERTEX
  8
0
  6
CONTINUOUS
 62
     2
 10
202.575
 20
159.31
 30
0.0
  0
VERTEX
  8
0
  6
CONTINUOUS
 62
     2
 10
202.575
 20
159.71
 30
0.0
  0
SEQEND
  0
LINE
  8
0
  6
CONTINUOUS
 62
     1
 10
200.96
 20
162.01
 30
0.0
 11
205.96
 21
162.01
 31
0.0
  0
LINE
  8
0
  6
CONTINUOUS
 62
     1
 10
200.96
 20
150.5
 30
0.0
 11
200.96
 21
162.01
 31
0.0
  0
LINE
  8
0
  6
CONTINUOUS
 62
     1
 10
205.96
 20
162.01
 30
0.0
 11
205.96
 21
150.5
 31
0.0
  0
LINE
  8
0
  6
CONTINUOUS
 62
     2
 10
185.3475
 20
162.01
 30
0.0
 11
184.700452387
 21
159.595185434
 31
0.0
  0
LINE
  8
0
  6
CONTINUOUS
 62
     2
 10
185.3475
 20
162.01
 30
0.0
 11
185.994547613
 21
159.595185434
 31
0.0
  0
LINE
  8
0
  6
CONTINUOUS
 62
     2
 10
200.46
 20
162.01
 30
0.0
 11
183.3475
 21
162.01
 31
0.0
  0
LINE
  8
0
  6
CONTINUOUS
 62
     1
 10
200.96
 20
106.01
 30
0.0
 11
205.96
 21
106.01
 31
0.0
  0
LINE
  8
0
  6
CONTINUOUS
 62
     1
 10
200.96
 20
117.5
 30
0.0
 11
200.96
 21
106.01
 31
0.0
  0
LINE
  8
0
  6
CONTINUOUS
 62
     1
 10
205.96
 20
106.01
 30
0.0
 11
205.96
 21
117.5
 31
0.0
  0
LINE
  8
0
  6
CONTINUOUS
 62
     2
 10
185.3475
 20
106.01
 30
0.0
 11
185.3475
 21
162.01
 31
0.0
  0
LINE
  8
0
  6
CONTINUOUS
 62
     2
 10
185.3475
 20
106.01
 30
0.0
 11
185.994547613
 21
108.424814566
 31
0.0
  0
LINE
  8
0
  6
CONTINUOUS
 62
     2
 10
185.3475
 20
106.01
 30
0.0
 11
184.700452387
 21
108.424814566
 31
0.0
  0
LINE
  8
0
  6
CONTINUOUS
 62
     2
 10
200.46
 20
106.01
 30
0.0
 11
183.3475
 21
106.01
 31
0.0
  0
LINE
  8
0
  6
LTYPE3
 62
     2
 10
201.4625
 20
114.0
 30
0.0
 11
205.4625
 21
114.0
 31
0.0
  0
LINE
  8
0
  6
LTYPE3
 62
     2
 10
203.4625
 20
112.0
 30
0.0
 11
203.4625
 21
116.0
 31
0.0
  0
TEXT
  8
0
  6
CONTINUOUS
 62
     2
 10
184.3475
 20
131.066
 30
0.3
 40
3.0
  1
１１２
 50
90.0
 41
0.6
 51
0.0
  7
KANJI1
  0
TEXT
  8
0
  6
CONTINUOUS
 62
     2
 10
232.7
 20
131.324
 30
0.3
 40
3.0
  1
１０２
 50
90.0
 41
0.6
 51
0.0
  7
KANJI1
  0
CIRCLE
  8
0
  6
CONTINUOUS
 62
     2
 10
203.46
 20
108.51
 30
0.0
 40
1.5
  0
LINE
  8
0
  6
CONTINUOUS
 62
     2
 10
202.585
 20
108.31
 30
0.0
 11
203.06
 21
108.31
 31
0.0
  0
ARC
  8
0
  6
CONTINUOUS
 62
     2
 10
203.06
 20
108.11
 30
0.0
 40
0.2
 50
0.0
 51
90.0
  0
LINE
  8
0
  6
CONTINUOUS
 62
     2
 10
203.26
 20
108.11
 30
0.0
 11
203.26
 21
107.635
 31
0.0
  0
LINE
  8
0
  6
CONTINUOUS
 62
     2
 10
203.26
 20
107.635
 30
0.0
 11
203.66
 21
107.635
 31
0.0
  0
LINE
  8
0
  6
CONTINUOUS
 62
     2
 10
203.66
 20
107.635
 30
0.0
 11
203.66
 21
108.11
 31
0.0
  0
ARC
  8
0
  6
CONTINUOUS
 62
     2
 10
203.86
 20
108.11
 30
0.0
 40
0.2
 50
90.0
 51
180.0
  0
LINE
  8
0
  6
CONTINUOUS
 62
     2
 10
203.86
 20
108.31
 30
0.0
 11
204.335
 21
108.31
 31
0.0
  0
LINE
  8
0
  6
CONTINUOUS
 62
     2
 10
204.335
 20
108.31
 30
0.0
 11
204.335
 21
108.71
 31
0.0
  0
LINE
  8
0
  6
CONTINUOUS
 62
     2
 10
204.335
 20
108.71
 30
0.0
 11
203.86
 21
108.71
 31
0.0
  0
ARC
  8
0
  6
CONTINUOUS
 62
     2
 10
203.86
 20
108.91
 30
0.0
 40
0.2
 50
180.0
 51
270.0
  0
LINE
  8
0
  6
CONTINUOUS
 62
     2
 10
203.66
 20
108.91
 30
0.0
 11
203.66
 21
109.385
 31
0.0
  0
LINE
  8
0
  6
CONTINUOUS
 62
     2
 10
203.66
 20
109.385
 30
0.0
 11
203.26
 21
109.385
 31
0.0
  0
LINE
  8
0
  6
CONTINUOUS
 62
     2
 10
203.26
 20
109.385
 30
0.0
 11
203.26
 21
108.91
 31
0.0
  0
ARC
  8
0
  6
CONTINUOUS
 62
     2
 10
203.06
 20
108.91
 30
0.0
 40
0.2
 50
270.0
 51
0.0
  0
POLYLINE
  8
0
  6
CONTINUOUS
 62
     2
 66
     1
  0
VERTEX
  8
0
  6
CONTINUOUS
 62
     2
 10
203.06
 20
108.71
 30
0.0
  0
VERTEX
  8
0
  6
CONTINUOUS
 62
     2
 10
202.585
 20
108.71
 30
0.0
  0
VERTEX
  8
0
  6
CONTINUOUS
 62
     2
 10
202.585
 20
108.31
 30
0.0
  0
SEQEND
  0
LINE
  8
0
  6
LTYPE3
 62
     2
 10
201.46
 20
108.51
 30
0.0
 11
205.46
 21
108.51
 31
0.0
  0
LINE
  8
0
  6
LTYPE3
 62
     2
 10
203.46
 20
106.51
 30
0.0
 11
203.46
 21
110.51
 31
0.0
  0
LINE
  8
0
  6
LTYPE3
 62
     2
 10
201.45
 20
159.51
 30
0.0
 11
205.45
 21
159.51
 31
0.0
  0
LINE
  8
0
  6
CONTINUOUS
 62
     2
 10
222.26
 20
173.02
 30
0.0
 11
271.134
 21
173.02
 31
0.0
  0
TEXT
  8
0
  6
CONTINUOUS
 62
     2
 10
222.26
 20
174.02
 30
0.1
 40
3.0
  1
ＤＥｆ－１００形（直流計器）のみ　　表示します
 50
0.0
 41
0.666666667
 51
0.0
  7
KANJI7
  0
LINE
  8
0
  6
LTYPE3
 62
     2
 10
192.6
 20
134.01
 30
0.0
 11
213.5
 21
134.01
 31
0.0
  0
TEXT
  8
0
  6
CONTINUOUS
 62
     2
 10
164.3
 20
153.095
 30
0.3
 40
3.0
  1
端子キャップ
 50
0.0
 41
0.9
 51
0.0
  7
KANJI4
  0
LINE
  8
0
  6
CONTINUOUS
 62
     2
 10
163.3
 20
152.095
 30
0.0
 11
182.3
 21
152.095
 31
0.0
  0
CIRCLE
  8
0
  6
CONTINUOUS
 62
     2
 10
257.21
 20
175.57
 30
0.0
 40
1.5
  0
TEXT
  8
0
  6
CONTINUOUS
 62
     2
 10
255.82
 20
174.145
 30
0.093333333
 40
2.8
  1
＋
 50
0.0
 41
1.0
 51
0.0
  7
KANJI17
  0
LINE
  8
0
  6
LTYPE3
 62
     2
 10
203.46
 20
164.17
 30
0.0
 11
203.46
 21
103.07
 31
0.0
  0
ENDSEC
  0
EOF
