  0
SECTION
  2
HEADER
  9
$ACADVER
  1
AC1009
  9
$DWGCODEPAGE
  3
dos932
  9
$EXTMIN
 10
0.0
 20
0.0
 30
0.0
  9
$EXTMAX
 10
297.0
 20
210.0
 30
0.0
  9
$LIMMIN
 10
0.0
 20
0.0
  9
$LIMMAX
 10
297.0
 20
210.0
  9
$LTSCALE
 40
1.0
  9
$PDMODE
 70
     0
  0
ENDSEC
  0
SECTION
  2
TABLES
  0
TABLE
  2
VPORT
 70
     1
  0
VPORT
  2
*ACTIVE
 70
     0
 10
0.0
 20
0.0
 11
1.0
 21
1.0
 12
148.5
 22
105.0
 13
0.0
 23
0.0
 14
10.0
 24
10.0
 15
10.0
 25
10.0
 16
0.0
 26
0.0
 36
1.0
 17
0.0
 27
0.0
 37
0.0
 40
297.0
 41
1.414285714
 42
50.0
 43
0.0
 44
0.0
 50
0.0
 51
0.0
 71
     0
 72
  1000
 73
     1
 74
     3
 75
     0
 76
     0
 77
     0
 78
     0
  0
ENDTAB
  0
TABLE
  2
LTYPE
 70
     3
  0
LTYPE
  2
CONTINUOUS
 70
    64
  3
Solid line
 72
    65
 73
     0
 40
0.0
  0
LTYPE
  2
LTYPE1
 70
    64
  3
CENTER
 72
    65
 73
     4
 40
5.0
 49
3.5
 49
-0.5
 49
0.5
 49
-0.5
  0
LTYPE
  2
LTYPE2
 70
    64
  3
CENTER
 72
    65
 73
     4
 40
10.0
 49
7.0
 49
-1.0
 49
1.0
 49
-1.0
  0
ENDTAB
  0
TABLE
  2
LAYER
 70
   128
  0
LAYER
  2
0
 70
     0
 62
     7
  6
CONTINUOUS
  0
LAYER
  2
2
 70
     0
 62
     7
  6
CONTINUOUS
  0
LAYER
  2
3
 70
     0
 62
     7
  6
CONTINUOUS
  0
LAYER
  2
4
 70
     0
 62
     7
  6
CONTINUOUS
  0
LAYER
  2
5
 70
     0
 62
     7
  6
CONTINUOUS
  0
LAYER
  2
6
 70
     0
 62
     7
  6
CONTINUOUS
  0
LAYER
  2
7
 70
     0
 62
     7
  6
CONTINUOUS
  0
LAYER
  2
8
 70
     0
 62
     7
  6
CONTINUOUS
  0
LAYER
  2
9
 70
     0
 62
     7
  6
CONTINUOUS
  0
LAYER
  2
10
 70
     0
 62
     7
  6
CONTINUOUS
  0
LAYER
  2
11
 70
     0
 62
     7
  6
CONTINUOUS
  0
LAYER
  2
12
 70
     0
 62
     7
  6
CONTINUOUS
  0
LAYER
  2
13
 70
     0
 62
     7
  6
CONTINUOUS
  0
LAYER
  2
14
 70
     0
 62
     7
  6
CONTINUOUS
  0
LAYER
  2
15
 70
     0
 62
     7
  6
CONTINUOUS
  0
LAYER
  2
16
 70
     0
 62
     7
  6
CONTINUOUS
  0
LAYER
  2
17
 70
     0
 62
     7
  6
CONTINUOUS
  0
LAYER
  2
18
 70
     0
 62
     7
  6
CONTINUOUS
  0
LAYER
  2
19
 70
     0
 62
     7
  6
CONTINUOUS
  0
LAYER
  2
20
 70
     0
 62
     7
  6
CONTINUOUS
  0
LAYER
  2
21
 70
     0
 62
     7
  6
CONTINUOUS
  0
LAYER
  2
22
 70
     0
 62
     7
  6
CONTINUOUS
  0
LAYER
  2
23
 70
     0
 62
     7
  6
CONTINUOUS
  0
LAYER
  2
24
 70
     0
 62
     7
  6
CONTINUOUS
  0
LAYER
  2
25
 70
     0
 62
     7
  6
CONTINUOUS
  0
LAYER
  2
26
 70
     0
 62
     7
  6
CONTINUOUS
  0
LAYER
  2
27
 70
     0
 62
     7
  6
CONTINUOUS
  0
LAYER
  2
28
 70
     0
 62
     7
  6
CONTINUOUS
  0
LAYER
  2
29
 70
     0
 62
     7
  6
CONTINUOUS
  0
LAYER
  2
30
 70
     0
 62
     7
  6
CONTINUOUS
  0
LAYER
  2
31
 70
     0
 62
     7
  6
CONTINUOUS
  0
LAYER
  2
32
 70
     0
 62
     7
  6
CONTINUOUS
  0
LAYER
  2
33
 70
     0
 62
     7
  6
CONTINUOUS
  0
LAYER
  2
34
 70
     0
 62
     7
  6
CONTINUOUS
  0
LAYER
  2
35
 70
     0
 62
     7
  6
CONTINUOUS
  0
LAYER
  2
36
 70
     0
 62
     7
  6
CONTINUOUS
  0
LAYER
  2
37
 70
     0
 62
     7
  6
CONTINUOUS
  0
LAYER
  2
38
 70
     0
 62
     7
  6
CONTINUOUS
  0
LAYER
  2
39
 70
     0
 62
     7
  6
CONTINUOUS
  0
LAYER
  2
40
 70
     0
 62
     7
  6
CONTINUOUS
  0
LAYER
  2
41
 70
     0
 62
     7
  6
CONTINUOUS
  0
LAYER
  2
42
 70
     0
 62
     7
  6
CONTINUOUS
  0
LAYER
  2
43
 70
     0
 62
     7
  6
CONTINUOUS
  0
LAYER
  2
44
 70
     0
 62
     7
  6
CONTINUOUS
  0
LAYER
  2
45
 70
     0
 62
     7
  6
CONTINUOUS
  0
LAYER
  2
46
 70
     0
 62
     7
  6
CONTINUOUS
  0
LAYER
  2
47
 70
     0
 62
     7
  6
CONTINUOUS
  0
LAYER
  2
48
 70
     0
 62
     7
  6
CONTINUOUS
  0
LAYER
  2
49
 70
     0
 62
     7
  6
CONTINUOUS
  0
LAYER
  2
50
 70
     0
 62
     7
  6
CONTINUOUS
  0
LAYER
  2
51
 70
     0
 62
     7
  6
CONTINUOUS
  0
LAYER
  2
52
 70
     0
 62
     7
  6
CONTINUOUS
  0
LAYER
  2
53
 70
     0
 62
     7
  6
CONTINUOUS
  0
LAYER
  2
54
 70
     0
 62
     7
  6
CONTINUOUS
  0
LAYER
  2
55
 70
     0
 62
     7
  6
CONTINUOUS
  0
LAYER
  2
56
 70
     0
 62
     7
  6
CONTINUOUS
  0
LAYER
  2
57
 70
     0
 62
     7
  6
CONTINUOUS
  0
LAYER
  2
58
 70
     0
 62
     7
  6
CONTINUOUS
  0
LAYER
  2
59
 70
     0
 62
     7
  6
CONTINUOUS
  0
LAYER
  2
60
 70
     0
 62
     7
  6
CONTINUOUS
  0
LAYER
  2
61
 70
     0
 62
     7
  6
CONTINUOUS
  0
LAYER
  2
62
 70
     0
 62
     7
  6
CONTINUOUS
  0
LAYER
  2
63
 70
     0
 62
     7
  6
CONTINUOUS
  0
LAYER
  2
64
 70
     0
 62
     7
  6
CONTINUOUS
  0
LAYER
  2
65
 70
     0
 62
     7
  6
CONTINUOUS
  0
LAYER
  2
66
 70
     0
 62
     7
  6
CONTINUOUS
  0
LAYER
  2
67
 70
     0
 62
     7
  6
CONTINUOUS
  0
LAYER
  2
68
 70
     0
 62
     7
  6
CONTINUOUS
  0
LAYER
  2
69
 70
     0
 62
     7
  6
CONTINUOUS
  0
LAYER
  2
70
 70
     0
 62
     7
  6
CONTINUOUS
  0
LAYER
  2
71
 70
     0
 62
     7
  6
CONTINUOUS
  0
LAYER
  2
72
 70
     0
 62
     7
  6
CONTINUOUS
  0
LAYER
  2
73
 70
     0
 62
     7
  6
CONTINUOUS
  0
LAYER
  2
74
 70
     0
 62
     7
  6
CONTINUOUS
  0
LAYER
  2
75
 70
     0
 62
     7
  6
CONTINUOUS
  0
LAYER
  2
76
 70
     0
 62
     7
  6
CONTINUOUS
  0
LAYER
  2
77
 70
     0
 62
     7
  6
CONTINUOUS
  0
LAYER
  2
78
 70
     0
 62
     7
  6
CONTINUOUS
  0
LAYER
  2
79
 70
     0
 62
     7
  6
CONTINUOUS
  0
LAYER
  2
80
 70
     0
 62
     7
  6
CONTINUOUS
  0
LAYER
  2
81
 70
     0
 62
     7
  6
CONTINUOUS
  0
LAYER
  2
82
 70
     0
 62
     7
  6
CONTINUOUS
  0
LAYER
  2
83
 70
     0
 62
     7
  6
CONTINUOUS
  0
LAYER
  2
84
 70
     0
 62
     7
  6
CONTINUOUS
  0
LAYER
  2
85
 70
     0
 62
     7
  6
CONTINUOUS
  0
LAYER
  2
86
 70
     0
 62
     7
  6
CONTINUOUS
  0
LAYER
  2
87
 70
     0
 62
     7
  6
CONTINUOUS
  0
LAYER
  2
88
 70
     0
 62
     7
  6
CONTINUOUS
  0
LAYER
  2
89
 70
     0
 62
     7
  6
CONTINUOUS
  0
LAYER
  2
90
 70
     0
 62
     7
  6
CONTINUOUS
  0
LAYER
  2
91
 70
     0
 62
     7
  6
CONTINUOUS
  0
LAYER
  2
92
 70
     0
 62
     7
  6
CONTINUOUS
  0
LAYER
  2
93
 70
     0
 62
     7
  6
CONTINUOUS
  0
LAYER
  2
94
 70
     0
 62
     7
  6
CONTINUOUS
  0
LAYER
  2
95
 70
     0
 62
     7
  6
CONTINUOUS
  0
LAYER
  2
96
 70
     0
 62
     7
  6
CONTINUOUS
  0
LAYER
  2
97
 70
     0
 62
     7
  6
CONTINUOUS
  0
LAYER
  2
98
 70
     0
 62
     7
  6
CONTINUOUS
  0
LAYER
  2
99
 70
     0
 62
     7
  6
CONTINUOUS
  0
LAYER
  2
100
 70
     0
 62
     7
  6
CONTINUOUS
  0
LAYER
  2
101
 70
     0
 62
     7
  6
CONTINUOUS
  0
LAYER
  2
102
 70
     0
 62
     7
  6
CONTINUOUS
  0
LAYER
  2
103
 70
     0
 62
     7
  6
CONTINUOUS
  0
LAYER
  2
104
 70
     0
 62
     7
  6
CONTINUOUS
  0
LAYER
  2
105
 70
     0
 62
     7
  6
CONTINUOUS
  0
LAYER
  2
106
 70
     0
 62
     7
  6
CONTINUOUS
  0
LAYER
  2
107
 70
     0
 62
     7
  6
CONTINUOUS
  0
LAYER
  2
108
 70
     0
 62
     7
  6
CONTINUOUS
  0
LAYER
  2
109
 70
     0
 62
     7
  6
CONTINUOUS
  0
LAYER
  2
110
 70
     0
 62
     7
  6
CONTINUOUS
  0
LAYER
  2
111
 70
     0
 62
     7
  6
CONTINUOUS
  0
LAYER
  2
112
 70
     0
 62
     7
  6
CONTINUOUS
  0
LAYER
  2
113
 70
     0
 62
     7
  6
CONTINUOUS
  0
LAYER
  2
114
 70
     0
 62
     7
  6
CONTINUOUS
  0
LAYER
  2
115
 70
     0
 62
     7
  6
CONTINUOUS
  0
LAYER
  2
116
 70
     0
 62
     7
  6
CONTINUOUS
  0
LAYER
  2
117
 70
     0
 62
     7
  6
CONTINUOUS
  0
LAYER
  2
118
 70
     0
 62
     7
  6
CONTINUOUS
  0
LAYER
  2
119
 70
     0
 62
     7
  6
CONTINUOUS
  0
LAYER
  2
120
 70
     0
 62
     7
  6
CONTINUOUS
  0
LAYER
  2
121
 70
     0
 62
     7
  6
CONTINUOUS
  0
LAYER
  2
122
 70
     0
 62
     7
  6
CONTINUOUS
  0
LAYER
  2
123
 70
     0
 62
     7
  6
CONTINUOUS
  0
LAYER
  2
124
 70
     0
 62
     7
  6
CONTINUOUS
  0
LAYER
  2
125
 70
     0
 62
     7
  6
CONTINUOUS
  0
LAYER
  2
126
 70
     0
 62
     7
  6
CONTINUOUS
  0
LAYER
  2
127
 70
     0
 62
     7
  6
CONTINUOUS
  0
LAYER
  2
128
 70
     0
 62
     7
  6
CONTINUOUS
  0
ENDTAB
  0
TABLE
  2
STYLE
 70
     7
  0
STYLE
  2
STANDARD
 70
     0
 40
0.0
 41
1.0
 50
0.0
 71
     0
 42
0.2
  3
txt.shx
  4
extfont.shx
  0
STYLE
  2
KANJI0
 70
     0
 40
3.0
 41
0.6
 50
0.0
 71
     0
 42
3.0
  3
txt.shx
  4
extfont.shx
  0
STYLE
  2
KANJI1
 70
     0
 40
3.0
 41
0.9
 50
0.0
 71
     0
 42
3.0
  3
txt.shx
  4
extfont.shx
  0
STYLE
  2
KANJI2
 70
     0
 40
1.8
 41
0.6
 50
0.0
 71
     0
 42
1.8
  3
txt.shx
  4
extfont.shx
  0
STYLE
  2
KANJI3
 70
     0
 40
4.0
 41
0.9
 50
0.0
 71
     0
 42
4.0
  3
txt.shx
  4
extfont.shx
  0
STYLE
  2
KANJI4
 70
     0
 40
6.0
 41
0.9
 50
0.0
 71
     0
 42
6.0
  3
txt.shx
  4
extfont.shx
  0
STYLE
  2
KANJI5
 70
     0
 40
3.0
 41
0.866666667
 50
0.0
 71
     0
 42
3.0
  3
txt.shx
  4
extfont.shx
  0
ENDTAB
  0
TABLE
  2
VIEW
 70
     0
  0
ENDTAB
  0
ENDSEC
  0
SECTION
  2
BLOCKS
  0
ENDSEC
  0
SECTION
  2
ENTITIES
  0
LINE
  8
0
  6
CONTINUOUS
 62
     2
 10
-6.865334795
 20
-2.0
 30
0.0
 11
-6.218287182
 21
-4.414814566
 31
0.0
  0
LINE
  8
0
  6
CONTINUOUS
 62
     2
 10
-6.865334795
 20
-2.0
 30
0.0
 11
-5.097567842
 21
-3.767766953
 31
0.0
  0
LINE
  8
0
  6
CONTINUOUS
 62
     2
 10
-6.865334795
 20
-2.0
 30
0.0
 11
-7.512382407
 21
0.414814566
 31
0.0
  0
LINE
  8
0
  6
CONTINUOUS
 62
     2
 10
-6.865334795
 20
-2.0
 30
0.0
 11
-8.633101748
 21
-0.232233047
 31
0.0
  0
LINE
  8
0
  6
CONTINUOUS
 62
     2
 10
-2.535207776
 20
0.5
 30
0.0
 11
-8.597385602
 21
-3.0
 31
0.0
  0
LINE
  8
0
  6
CONTINUOUS
 62
     2
 10
-2.535207776
 20
0.5
 30
0.0
 11
-8.597385602
 21
-3.0
 31
0.0
  0
TEXT
  8
0
  6
CONTINUOUS
 62
     2
 10
-6.756360199
 20
-4.188749537
 30
0.3
 40
3.0
  1
０゜
 50
120.0
 41
0.6
 51
0.0
  7
KANJI0
  0
LINE
  8
0
  6
CONTINUOUS
 62
     1
 10
121.0
 20
140.422618402
 30
0.0
 11
121.0
 21
85.577381598
 31
0.0
  0
LINE
  8
0
  6
CONTINUOUS
 62
     2
 10
65.0
 20
156.0
 30
0.0
 11
67.414814566
 21
155.352952387
 31
0.0
  0
LINE
  8
0
  6
CONTINUOUS
 62
     2
 10
65.0
 20
156.0
 30
0.0
 11
67.414814566
 21
156.647047613
 31
0.0
  0
LINE
  8
0
  6
CONTINUOUS
 62
     2
 10
65.0
 20
161.0
 30
0.0
 11
67.414814566
 21
160.352952387
 31
0.0
  0
LINE
  8
0
  6
CONTINUOUS
 62
     2
 10
65.0
 20
161.0
 30
0.0
 11
67.414814566
 21
161.647047613
 31
0.0
  0
LINE
  8
0
  6
CONTINUOUS
 62
     2
 10
65.0
 20
161.0
 30
0.0
 11
121.0
 21
161.0
 31
0.0
  0
LINE
  8
0
  6
CONTINUOUS
 62
     2
 10
121.0
 20
161.0
 30
0.0
 11
118.585185434
 21
161.647047613
 31
0.0
  0
LINE
  8
0
  6
CONTINUOUS
 62
     2
 10
121.0
 20
161.0
 30
0.0
 11
118.585185434
 21
160.352952387
 31
0.0
  0
LINE
  8
0
  6
CONTINUOUS
 62
     2
 10
121.0
 20
150.5
 30
0.0
 11
121.0
 21
163.0
 31
0.0
  0
TEXT
  8
0
  6
CONTINUOUS
 62
     2
 10
91.05
 20
162.0
 30
0.3
 40
3.0
  1
５６
 50
0.0
 41
0.6
 51
0.0
  7
KANJI0
  0
LINE
  8
0
  6
CONTINUOUS
 62
     2
 10
121.0
 20
161.0
 30
0.0
 11
123.414814566
 21
160.352952387
 31
0.0
  0
LINE
  8
0
  6
CONTINUOUS
 62
     2
 10
121.0
 20
161.0
 30
0.0
 11
123.414814566
 21
161.647047613
 31
0.0
  0
LINE
  8
0
  6
CONTINUOUS
 62
     2
 10
121.0
 20
161.0
 30
0.0
 11
128.0
 21
161.0
 31
0.0
  0
TEXT
  8
0
  6
CONTINUOUS
 62
     2
 10
123.6
 20
162.0
 30
0.3
 40
3.0
  1
７
 50
0.0
 41
0.6
 51
0.0
  7
KANJI0
  0
LINE
  8
0
  6
CONTINUOUS
 62
     2
 10
128.0
 20
161.0
 30
0.0
 11
136.0
 21
161.0
 31
0.0
  0
LINE
  8
0
  6
CONTINUOUS
 62
     2
 10
136.0
 20
161.0
 30
0.0
 11
133.585185434
 21
161.647047613
 31
0.0
  0
LINE
  8
0
  6
CONTINUOUS
 62
     2
 10
136.0
 20
161.0
 30
0.0
 11
133.585185434
 21
160.352952387
 31
0.0
  0
TEXT
  8
0
  6
CONTINUOUS
 62
     2
 10
131.1
 20
162.0
 30
0.3
 40
3.0
  1
８
 50
0.0
 41
0.6
 51
0.0
  7
KANJI0
  0
LINE
  8
0
  6
CONTINUOUS
 62
     2
 10
136.0
 20
167.0
 30
0.0
 11
133.585185434
 21
167.647047613
 31
0.0
  0
LINE
  8
0
  6
CONTINUOUS
 62
     2
 10
136.0
 20
167.0
 30
0.0
 11
133.585185434
 21
166.352952387
 31
0.0
  0
LINE
  8
0
  6
CONTINUOUS
 62
     2
 10
136.0
 20
167.0
 30
0.0
 11
65.0
 21
167.0
 31
0.0
  0
LINE
  8
0
  6
CONTINUOUS
 62
     2
 10
65.0
 20
167.0
 30
0.0
 11
67.414814566
 21
166.352952387
 31
0.0
  0
LINE
  8
0
  6
CONTINUOUS
 62
     2
 10
65.0
 20
167.0
 30
0.0
 11
67.414814566
 21
167.647047613
 31
0.0
  0
TEXT
  8
0
  6
CONTINUOUS
 62
     2
 10
98.55
 20
168.0
 30
0.3
 40
3.0
  1
７１
 50
0.0
 41
0.6
 51
0.0
  7
KANJI0
  0
LINE
  8
0
  6
CONTINUOUS
 62
     2
 10
65.0
 20
137.0
 30
0.0
 11
65.0
 21
169.0
 31
0.0
  0
LINE
  8
0
  6
CONTINUOUS
 62
     2
 10
136.0
 20
121.0
 30
0.0
 11
136.0
 21
169.0
 31
0.0
  0
LINE
  8
0
  6
CONTINUOUS
 62
     2
 10
65.0
 20
156.0
 30
0.0
 11
62.585185434
 21
156.647047613
 31
0.0
  0
LINE
  8
0
  6
CONTINUOUS
 62
     2
 10
65.0
 20
156.0
 30
0.0
 11
62.585185434
 21
155.352952387
 31
0.0
  0
LINE
  8
0
  6
CONTINUOUS
 62
     2
 10
65.0
 20
156.0
 30
0.0
 11
59.0
 21
156.0
 31
0.0
  0
LINE
  8
0
  6
CONTINUOUS
 62
     2
 10
59.0
 20
156.0
 30
0.0
 11
61.414814566
 21
155.352952387
 31
0.0
  0
LINE
  8
0
  6
CONTINUOUS
 62
     2
 10
59.0
 20
156.0
 30
0.0
 11
61.414814566
 21
156.647047613
 31
0.0
  0
TEXT
  8
0
  6
CONTINUOUS
 62
     2
 10
61.1
 20
157.0
 30
0.3
 40
3.0
  1
６
 50
0.0
 41
0.6
 51
0.0
  7
KANJI0
  0
LINE
  8
0
  6
CONTINUOUS
 62
     2
 10
59.0
 20
131.265001593
 30
0.0
 11
59.0
 21
158.0
 31
0.0
  0
LINE
  8
0
  6
CONTINUOUS
 62
     2
 10
59.7475
 20
94.9875
 30
0.0
 11
57.979733047
 21
93.219733047
 31
0.0
  0
LINE
  8
0
  6
CONTINUOUS
 62
     2
 10
59.7475
 20
94.9875
 30
0.0
 11
59.100452387
 21
92.572685434
 31
0.0
  0
TEXT
  8
0
  6
CONTINUOUS
 62
     2
 10
55.249163379
 20
83.0
 30
0.3
 40
3.0
  1
２－Ｍ２．３ターミナルネジ
 50
0.0
 41
0.9
 51
0.0
  7
KANJI1
  0
LINE
  8
0
  6
CONTINUOUS
 62
     2
 10
92.599163379
 20
82.0
 30
0.0
 11
52.249163379
 21
82.0
 31
0.0
  0
LINE
  8
0
  6
CONTINUOUS
 62
     2
 10
59.7475
 20
94.9875
 30
0.0
 11
52.249163379
 21
82.0
 31
0.0
  0
LINE
  8
0
  6
CONTINUOUS
 62
     1
 10
165.0
 20
85.422618402
 30
0.0
 11
165.0
 21
140.422618402
 31
0.0
  0
LINE
  8
0
  6
CONTINUOUS
 62
     1
 10
150.0
 20
140.422618402
 30
0.0
 11
150.0
 21
85.422618402
 31
0.0
  0
LINE
  8
0
  6
CONTINUOUS
 62
     1
 10
150.0
 20
137.0
 30
0.0
 11
149.0
 21
137.0
 31
0.0
  0
LINE
  8
0
  6
CONTINUOUS
 62
     1
 10
149.0
 20
137.0
 30
0.0
 11
149.0
 21
89.0
 31
0.0
  0
LINE
  8
0
  6
CONTINUOUS
 62
     1
 10
149.0
 20
89.0
 30
0.0
 11
150.0
 21
89.0
 31
0.0
  0
LINE
  8
0
  6
CONTINUOUS
 62
     1
 10
165.0
 20
137.0
 30
0.0
 11
166.0
 21
137.0
 31
0.0
  0
LINE
  8
0
  6
CONTINUOUS
 62
     1
 10
166.0
 20
137.0
 30
0.0
 11
166.0
 21
89.0
 31
0.0
  0
LINE
  8
0
  6
CONTINUOUS
 62
     1
 10
166.0
 20
89.0
 30
0.0
 11
165.0
 21
89.0
 31
0.0
  0
LINE
  8
0
  6
CONTINUOUS
 62
     1
 10
151.5
 20
87.5
 30
0.0
 11
163.5
 21
87.5
 31
0.0
  0
LINE
  8
0
  6
CONTINUOUS
 62
     1
 10
163.5
 20
87.5
 30
0.0
 11
163.5
 21
138.5
 31
0.0
  0
LINE
  8
0
  6
CONTINUOUS
 62
     1
 10
163.5
 20
138.5
 30
0.0
 11
151.5
 21
138.5
 31
0.0
  0
LINE
  8
0
  6
CONTINUOUS
 62
     1
 10
151.5
 20
138.5
 30
0.0
 11
151.5
 21
87.5
 31
0.0
  0
LINE
  8
0
  6
CONTINUOUS
 62
     1
 10
154.0
 20
138.5
 30
0.0
 11
154.0
 21
87.5
 31
0.0
  0
LINE
  8
0
  6
CONTINUOUS
 62
     1
 10
121.0
 20
140.0
 30
0.0
 11
128.266615306
 21
140.0
 31
0.0
  0
LINE
  8
0
  6
CONTINUOUS
 62
     1
 10
121.0
 20
86.0
 30
0.0
 11
128.266615306
 21
86.0
 31
0.0
  0
ARC
  8
0
  6
CONTINUOUS
 62
     1
 10
85.0
 20
113.0
 30
0.0
 40
51.0
 50
328.034281249
 51
31.965718751
  0
LINE
  8
0
  6
CONTINUOUS
 62
     2
 10
128.4
 20
161.0
 30
0.0
 11
125.985185434
 21
161.647047613
 31
0.0
  0
LINE
  8
0
  6
CONTINUOUS
 62
     2
 10
128.4
 20
161.0
 30
0.0
 11
125.985185434
 21
160.352952387
 31
0.0
  0
LINE
  8
0
  6
CONTINUOUS
 62
     2
 10
128.4
 20
161.0
 30
0.0
 11
130.814814566
 21
160.352952387
 31
0.0
  0
LINE
  8
0
  6
CONTINUOUS
 62
     2
 10
128.4
 20
161.0
 30
0.0
 11
130.814814566
 21
161.647047613
 31
0.0
  0
LINE
  8
0
  6
CONTINUOUS
 62
     2
 10
128.4
 20
142.422618402
 30
0.0
 11
128.4
 21
163.0
 31
0.0
  0
LINE
  8
0
  6
CONTINUOUS
 62
     1
 10
150.0
 20
140.0
 30
0.0
 11
165.0
 21
140.0
 31
0.0
  0
LINE
  8
0
  6
CONTINUOUS
 62
     1
 10
165.0
 20
86.0
 30
0.0
 11
150.0
 21
86.0
 31
0.0
  0
LINE
  8
0
  6
CONTINUOUS
 62
     1
 10
66.0
 20
90.0
 30
0.0
 11
105.0
 21
90.0
 31
0.0
  0
LINE
  8
0
  6
CONTINUOUS
 62
     1
 10
105.0
 20
136.0
 30
0.0
 11
66.0
 21
136.0
 31
0.0
  0
ARC
  8
0
  6
CONTINUOUS
 62
     1
 10
66.0
 20
135.0
 30
0.0
 40
1.0
 50
90.0
 51
180.0
  0
ARC
  8
0
  6
CONTINUOUS
 62
     1
 10
66.0
 20
91.0
 30
0.0
 40
1.0
 50
180.0
 51
270.0
  0
LINE
  8
0
  6
CONTINUOUS
 62
     1
 10
65.0
 20
135.0
 30
0.0
 11
65.0
 21
91.0
 31
0.0
  0
ARC
  8
0
  6
CONTINUOUS
 62
     1
 10
109.0
 20
95.5
 30
0.0
 40
4.0
 50
0.0
 51
180.0
  0
LINE
  8
0
  6
CONTINUOUS
 62
     2
 10
103.0
 20
130.5
 30
0.0
 11
102.352952387
 21
128.085185434
 31
0.0
  0
LINE
  8
0
  6
CONTINUOUS
 62
     2
 10
103.0
 20
130.5
 30
0.0
 11
103.647047613
 21
128.085185434
 31
0.0
  0
LINE
  8
0
  6
CONTINUOUS
 62
     2
 10
103.0
 20
130.5
 30
0.0
 11
103.0
 21
95.5
 31
0.0
  0
LINE
  8
0
  6
CONTINUOUS
 62
     2
 10
103.0
 20
95.5
 30
0.0
 11
103.647047613
 21
97.914814566
 31
0.0
  0
LINE
  8
0
  6
CONTINUOUS
 62
     2
 10
103.0
 20
95.5
 30
0.0
 11
102.352952387
 21
97.914814566
 31
0.0
  0
LINE
  8
0
  6
CONTINUOUS
 62
     2
 10
108.0
 20
95.5
 30
0.0
 11
101.0
 21
95.5
 31
0.0
  0
LINE
  8
0
  6
CONTINUOUS
 62
     2
 10
108.0
 20
130.5
 30
0.0
 11
101.0
 21
130.5
 31
0.0
  0
LINE
  8
0
  6
CONTINUOUS
 62
     1
 10
113.0
 20
88.7
 30
0.0
 11
113.0
 21
95.5
 31
0.0
  0
LINE
  8
0
  6
CONTINUOUS
 62
     1
 10
105.0
 20
88.7
 30
0.0
 11
105.0
 21
95.5
 31
0.0
  0
LINE
  8
0
  6
CONTINUOUS
 62
     1
 10
105.0
 20
88.7
 30
0.0
 11
120.0
 21
88.7
 31
0.0
  0
LINE
  8
0
  6
CONTINUOUS
 62
     1
 10
113.0
 20
90.0
 30
0.0
 11
121.0
 21
90.0
 31
0.0
  0
LINE
  8
0
  6
CONTINUOUS
 62
     1
 10
120.0
 20
88.7
 30
0.0
 11
120.0
 21
77.0
 31
0.0
  0
LINE
  8
0
  6
CONTINUOUS
 62
     1
 10
121.0
 20
77.0
 30
0.0
 11
120.0
 21
77.0
 31
0.0
  0
LINE
  8
0
  6
CONTINUOUS
 62
     1
 10
121.0
 20
88.5
 30
0.0
 11
121.0
 21
77.0
 31
0.0
  0
ARC
  8
0
  6
CONTINUOUS
 62
     1
 10
120.0
 20
89.0
 30
0.0
 40
1.0
 50
0.0
 51
90.0
  0
ARC
  8
0
  6
CONTINUOUS
 62
     1
 10
109.0
 20
130.5
 30
0.0
 40
4.0
 50
180.0
 51
0.0
  0
LINE
  8
0
  6
CONTINUOUS
 62
     1
 10
113.0
 20
137.3
 30
0.0
 11
113.0
 21
130.5
 31
0.0
  0
LINE
  8
0
  6
CONTINUOUS
 62
     1
 10
105.0
 20
137.3
 30
0.0
 11
105.0
 21
130.5
 31
0.0
  0
LINE
  8
0
  6
CONTINUOUS
 62
     1
 10
105.0
 20
137.3
 30
0.0
 11
120.0
 21
137.3
 31
0.0
  0
LINE
  8
0
  6
CONTINUOUS
 62
     1
 10
113.0
 20
136.0
 30
0.0
 11
121.0
 21
136.0
 31
0.0
  0
LINE
  8
0
  6
CONTINUOUS
 62
     1
 10
120.0
 20
137.3
 30
0.0
 11
120.0
 21
149.0
 31
0.0
  0
LINE
  8
0
  6
CONTINUOUS
 62
     1
 10
121.0
 20
149.0
 30
0.0
 11
120.0
 21
149.0
 31
0.0
  0
LINE
  8
0
  6
CONTINUOUS
 62
     1
 10
121.0
 20
137.5
 30
0.0
 11
121.0
 21
149.0
 31
0.0
  0
ARC
  8
0
  6
CONTINUOUS
 62
     1
 10
120.0
 20
137.0
 30
0.0
 40
1.0
 50
270.0
 51
0.0
  0
LINE
  8
0
  6
CONTINUOUS
 62
     2
 10
166.0
 20
140.0
 30
0.0
 11
173.7
 21
140.0
 31
0.0
  0
LINE
  8
0
  6
CONTINUOUS
 62
     2
 10
171.7
 20
140.0
 30
0.0
 11
171.052952387
 21
137.585185434
 31
0.0
  0
LINE
  8
0
  6
CONTINUOUS
 62
     2
 10
171.7
 20
140.0
 30
0.0
 11
172.347047613
 21
137.585185434
 31
0.0
  0
LINE
  8
0
  6
CONTINUOUS
 62
     2
 10
171.7
 20
140.0
 30
0.0
 11
171.7
 21
86.0
 31
0.0
  0
LINE
  8
0
  6
CONTINUOUS
 62
     2
 10
171.7
 20
86.0
 30
0.0
 11
172.347047613
 21
88.414814566
 31
0.0
  0
LINE
  8
0
  6
CONTINUOUS
 62
     2
 10
171.7
 20
86.0
 30
0.0
 11
171.052952387
 21
88.414814566
 31
0.0
  0
LINE
  8
0
  6
CONTINUOUS
 62
     2
 10
166.0
 20
86.0
 30
0.0
 11
173.7
 21
86.0
 31
0.0
  0
LINE
  8
0
  6
CONTINUOUS
 62
     2
 10
158.5
 20
144.0
 30
0.0
 11
178.7
 21
144.0
 31
0.0
  0
LINE
  8
0
  6
CONTINUOUS
 62
     2
 10
176.7
 20
144.0
 30
0.0
 11
176.052952387
 21
141.585185434
 31
0.0
  0
LINE
  8
0
  6
CONTINUOUS
 62
     2
 10
176.7
 20
144.0
 30
0.0
 11
177.347047613
 21
141.585185434
 31
0.0
  0
LINE
  8
0
  6
CONTINUOUS
 62
     2
 10
176.7
 20
144.0
 30
0.0
 11
176.7
 21
82.0
 31
0.0
  0
LINE
  8
0
  6
CONTINUOUS
 62
     2
 10
176.7
 20
82.0
 30
0.0
 11
177.347047613
 21
84.414814566
 31
0.0
  0
LINE
  8
0
  6
CONTINUOUS
 62
     2
 10
176.7
 20
82.0
 30
0.0
 11
176.052952387
 21
84.414814566
 31
0.0
  0
LINE
  8
0
  6
CONTINUOUS
 62
     2
 10
158.5
 20
82.0
 30
0.0
 11
178.7
 21
82.0
 31
0.0
  0
LINE
  8
0
  6
CONTINUOUS
 62
     2
 10
166.0
 20
77.0
 30
0.0
 11
183.7
 21
77.0
 31
0.0
  0
LINE
  8
0
  6
CONTINUOUS
 62
     2
 10
181.7
 20
77.0
 30
0.0
 11
182.347047613
 21
79.414814566
 31
0.0
  0
LINE
  8
0
  6
CONTINUOUS
 62
     2
 10
181.7
 20
77.0
 30
0.0
 11
181.052952387
 21
79.414814566
 31
0.0
  0
LINE
  8
0
  6
CONTINUOUS
 62
     2
 10
181.7
 20
77.0
 30
0.0
 11
181.7
 21
149.0
 31
0.0
  0
LINE
  8
0
  6
CONTINUOUS
 62
     2
 10
181.7
 20
149.0
 30
0.0
 11
181.052952387
 21
146.585185434
 31
0.0
  0
LINE
  8
0
  6
CONTINUOUS
 62
     2
 10
181.7
 20
149.0
 30
0.0
 11
182.347047613
 21
146.585185434
 31
0.0
  0
LINE
  8
0
  6
CONTINUOUS
 62
     2
 10
166.0
 20
149.0
 30
0.0
 11
183.7
 21
149.0
 31
0.0
  0
TEXT
  8
0
  6
CONTINUOUS
 62
     2
 10
180.7
 20
109.88
 30
0.3
 40
3.0
  1
７２
 50
90.0
 41
0.6
 51
0.0
  7
KANJI0
  0
TEXT
  8
0
  6
CONTINUOUS
 62
     2
 10
180.7
 20
114.23
 30
0.18
 40
1.8
  1
±１
 50
90.0
 41
0.6
 51
0.0
  7
KANJI2
  0
TEXT
  8
0
  6
CONTINUOUS
 62
     2
 10
151.2
 20
70.0
 30
0.3
 40
3.0
  1
縦形の場合
 50
0.0
 41
0.9
 51
0.0
  7
KANJI1
  0
LINE
  8
0
  6
CONTINUOUS
 62
     2
 10
151.2
 20
69.0
 30
0.0
 11
166.2
 21
69.0
 31
0.0
  0
LINE
  8
0
  6
CONTINUOUS
 62
     1
 10
65.0
 20
46.0
 30
0.0
 11
121.0
 21
46.0
 31
0.0
  0
LINE
  8
0
  6
CONTINUOUS
 62
     1
 10
121.0
 20
46.0
 30
0.0
 11
121.0
 21
63.0
 31
0.0
  0
LINE
  8
0
  6
CONTINUOUS
 62
     1
 10
121.0
 20
63.0
 30
0.0
 11
65.0
 21
63.0
 31
0.0
  0
LINE
  8
0
  6
CONTINUOUS
 62
     1
 10
65.0
 20
63.0
 30
0.0
 11
65.0
 21
46.0
 31
0.0
  0
LINE
  8
0
  6
CONTINUOUS
 62
     1
 10
121.0
 20
47.0
 30
0.0
 11
136.0
 21
47.0
 31
0.0
  0
LINE
  8
0
  6
CONTINUOUS
 62
     1
 10
136.0
 20
47.0
 30
0.0
 11
136.0
 21
62.0
 31
0.0
  0
LINE
  8
0
  6
CONTINUOUS
 62
     1
 10
136.0
 20
62.0
 30
0.0
 11
121.0
 21
62.0
 31
0.0
  0
LINE
  8
0
  6
CONTINUOUS
 62
     1
 10
128.0
 20
62.0
 30
0.0
 11
128.0
 21
47.0
 31
0.0
  0
LINE
  8
0
  6
CONTINUOUS
 62
     1
 10
105.0
 20
63.0
 30
0.0
 11
105.0
 21
46.0
 31
0.0
  0
LINE
  8
0
  6
CONTINUOUS
 62
     1
 10
61.07
 20
54.5
 30
0.0
 11
60.495
 21
54.831976405
 31
0.0
  0
LINE
  8
0
  6
CONTINUOUS
 62
     1
 10
60.495
 20
54.5
 30
0.0
 11
61.07
 21
54.168023595
 31
0.0
  0
LINE
  8
0
  6
CONTINUOUS
 62
     1
 10
61.07
 20
52.315
 30
0.0
 11
60.495
 21
52.315
 31
0.0
  0
LINE
  8
0
  6
CONTINUOUS
 62
     1
 10
60.495
 20
52.315
 30
0.0
 11
60.495
 21
56.685
 31
0.0
  0
LINE
  8
0
  6
CONTINUOUS
 62
     1
 10
60.495
 20
56.685
 30
0.0
 11
61.07
 21
56.685
 31
0.0
  0
LINE
  8
0
  6
CONTINUOUS
 62
     1
 10
60.495
 20
52.4875
 30
0.0
 11
59.7475
 21
52.4875
 31
0.0
  0
ARC
  8
0
  6
CONTINUOUS
 62
     1
 10
59.7475
 20
53.235
 30
0.0
 40
0.7475
 50
180.0
 51
270.0
  0
LINE
  8
0
  6
CONTINUOUS
 62
     1
 10
59.0
 20
53.235
 30
0.0
 11
59.0
 21
54.2125
 31
0.0
  0
LINE
  8
0
  6
CONTINUOUS
 62
     1
 10
59.0
 20
54.2125
 30
0.0
 11
59.805
 21
54.2125
 31
0.0
  0
LINE
  8
0
  6
CONTINUOUS
 62
     1
 10
59.805
 20
54.2125
 30
0.0
 11
59.805
 21
54.7875
 31
0.0
  0
LINE
  8
0
  6
CONTINUOUS
 62
     1
 10
59.805
 20
54.7875
 30
0.0
 11
59.0
 21
54.7875
 31
0.0
  0
LINE
  8
0
  6
CONTINUOUS
 62
     1
 10
59.0
 20
54.7875
 30
0.0
 11
59.0
 21
55.765
 31
0.0
  0
ARC
  8
0
  6
CONTINUOUS
 62
     1
 10
59.7475
 20
55.765
 30
0.0
 40
0.7475
 50
90.0
 51
180.0
  0
LINE
  8
0
  6
CONTINUOUS
 62
     1
 10
59.7475
 20
56.5125
 30
0.0
 11
60.495
 21
56.5125
 31
0.0
  0
LINE
  8
0
  6
CONTINUOUS
 62
     1
 10
61.07
 20
52.315
 30
0.0
 11
61.07
 21
56.685
 31
0.0
  0
LINE
  8
0
  6
CONTINUOUS
 62
     2
 10
85.0
 20
46.0
 30
0.0
 11
85.647047613
 21
48.414814566
 31
0.0
  0
LINE
  8
0
  6
CONTINUOUS
 62
     2
 10
85.0
 20
46.0
 30
0.0
 11
84.352952387
 21
48.414814566
 31
0.0
  0
LINE
  8
0
  6
CONTINUOUS
 62
     2
 10
85.0
 20
46.0
 30
0.0
 11
85.0
 21
63.0
 31
0.0
  0
LINE
  8
0
  6
CONTINUOUS
 62
     2
 10
85.0
 20
63.0
 30
0.0
 11
84.352952387
 21
60.585185434
 31
0.0
  0
LINE
  8
0
  6
CONTINUOUS
 62
     2
 10
85.0
 20
63.0
 30
0.0
 11
85.647047613
 21
60.585185434
 31
0.0
  0
TEXT
  8
0
  6
CONTINUOUS
 62
     2
 10
84.0
 20
52.55
 30
0.3
 40
3.0
  1
１７
 50
90.0
 41
0.6
 51
0.0
  7
KANJI0
  0
LINE
  8
0
  6
CONTINUOUS
 62
     2
 10
137.0
 20
62.0
 30
0.0
 11
143.0
 21
62.0
 31
0.0
  0
LINE
  8
0
  6
CONTINUOUS
 62
     2
 10
141.0
 20
62.0
 30
0.0
 11
140.352952387
 21
59.585185434
 31
0.0
  0
LINE
  8
0
  6
CONTINUOUS
 62
     2
 10
141.0
 20
62.0
 30
0.0
 11
141.647047613
 21
59.585185434
 31
0.0
  0
LINE
  8
0
  6
CONTINUOUS
 62
     2
 10
141.0
 20
62.0
 30
0.0
 11
141.0
 21
47.0
 31
0.0
  0
LINE
  8
0
  6
CONTINUOUS
 62
     2
 10
141.0
 20
47.0
 30
0.0
 11
141.647047613
 21
49.414814566
 31
0.0
  0
LINE
  8
0
  6
CONTINUOUS
 62
     2
 10
141.0
 20
47.0
 30
0.0
 11
140.352952387
 21
49.414814566
 31
0.0
  0
LINE
  8
0
  6
CONTINUOUS
 62
     2
 10
137.0
 20
47.0
 30
0.0
 11
143.0
 21
47.0
 31
0.0
  0
TEXT
  8
0
  6
CONTINUOUS
 62
     2
 10
140.0
 20
52.55
 30
0.3
 40
3.0
  1
１５
 50
90.0
 41
0.6
 51
0.0
  7
KANJI0
  0
LINE
  8
0
  6
CONTINUOUS
 62
     1
 10
113.0
 20
63.0
 30
0.0
 11
113.0
 21
62.0
 31
0.0
  0
LINE
  8
0
  6
CONTINUOUS
 62
     1
 10
113.0
 20
62.0
 30
0.0
 11
120.0
 21
62.0
 31
0.0
  0
LINE
  8
0
  6
CONTINUOUS
 62
     1
 10
120.0
 20
62.0
 30
0.0
 11
120.0
 21
47.0
 31
0.0
  0
LINE
  8
0
  6
CONTINUOUS
 62
     1
 10
120.0
 20
47.0
 30
0.0
 11
113.0
 21
47.0
 31
0.0
  0
LINE
  8
0
  6
CONTINUOUS
 62
     1
 10
113.0
 20
47.0
 30
0.0
 11
113.0
 21
46.0
 31
0.0
  0
LINE
  8
0
  6
CONTINUOUS
 62
     2
 10
154.0
 20
88.0
 30
0.0
 11
154.0
 21
138.0
 31
0.0
  0
LINE
  8
0
  6
CONTINUOUS
 62
     2
 10
163.5
 20
88.0
 30
0.0
 11
154.0
 21
88.0
 31
0.0
  0
LINE
  8
0
  6
CONTINUOUS
 62
     2
 10
154.0
 20
138.0
 30
0.0
 11
163.5
 21
138.0
 31
0.0
  0
LINE
  8
0
  6
CONTINUOUS
 62
     2
 10
163.5
 20
138.0
 30
0.0
 11
163.5
 21
88.0
 31
0.0
  0
LINE
  8
0
  6
CONTINUOUS
 62
     1
 10
205.0
 20
85.422618402
 30
0.0
 11
205.0
 21
140.422618402
 31
0.0
  0
LINE
  8
0
  6
CONTINUOUS
 62
     1
 10
190.0
 20
140.422618402
 30
0.0
 11
190.0
 21
85.422618402
 31
0.0
  0
LINE
  8
0
  6
CONTINUOUS
 62
     1
 10
190.0
 20
137.0
 30
0.0
 11
189.0
 21
137.0
 31
0.0
  0
LINE
  8
0
  6
CONTINUOUS
 62
     1
 10
189.0
 20
137.0
 30
0.0
 11
189.0
 21
89.0
 31
0.0
  0
LINE
  8
0
  6
CONTINUOUS
 62
     1
 10
189.0
 20
89.0
 30
0.0
 11
190.0
 21
89.0
 31
0.0
  0
LINE
  8
0
  6
CONTINUOUS
 62
     1
 10
205.0
 20
137.0
 30
0.0
 11
206.0
 21
137.0
 31
0.0
  0
LINE
  8
0
  6
CONTINUOUS
 62
     1
 10
206.0
 20
137.0
 30
0.0
 11
206.0
 21
89.0
 31
0.0
  0
LINE
  8
0
  6
CONTINUOUS
 62
     1
 10
206.0
 20
89.0
 30
0.0
 11
205.0
 21
89.0
 31
0.0
  0
LINE
  8
0
  6
CONTINUOUS
 62
     1
 10
191.5
 20
87.5
 30
0.0
 11
203.5
 21
87.5
 31
0.0
  0
LINE
  8
0
  6
CONTINUOUS
 62
     1
 10
203.5
 20
87.5
 30
0.0
 11
203.5
 21
138.5
 31
0.0
  0
LINE
  8
0
  6
CONTINUOUS
 62
     1
 10
203.5
 20
138.5
 30
0.0
 11
191.5
 21
138.5
 31
0.0
  0
LINE
  8
0
  6
CONTINUOUS
 62
     1
 10
191.5
 20
138.5
 30
0.0
 11
191.5
 21
87.5
 31
0.0
  0
LINE
  8
0
  6
CONTINUOUS
 62
     1
 10
194.0
 20
138.5
 30
0.0
 11
194.0
 21
87.5
 31
0.0
  0
LINE
  8
0
  6
CONTINUOUS
 62
     1
 10
190.0
 20
140.0
 30
0.0
 11
205.0
 21
140.0
 31
0.0
  0
LINE
  8
0
  6
CONTINUOUS
 62
     1
 10
205.0
 20
86.0
 30
0.0
 11
190.0
 21
86.0
 31
0.0
  0
LINE
  8
0
  6
CONTINUOUS
 62
     2
 10
191.2
 20
69.0
 30
0.0
 11
206.2
 21
69.0
 31
0.0
  0
LINE
  8
0
  6
CONTINUOUS
 62
     2
 10
194.0
 20
88.0
 30
0.0
 11
194.0
 21
138.0
 31
0.0
  0
LINE
  8
0
  6
CONTINUOUS
 62
     2
 10
203.5
 20
88.0
 30
0.0
 11
194.0
 21
88.0
 31
0.0
  0
LINE
  8
0
  6
CONTINUOUS
 62
     2
 10
194.0
 20
138.0
 30
0.0
 11
203.5
 21
138.0
 31
0.0
  0
LINE
  8
0
  6
CONTINUOUS
 62
     2
 10
203.5
 20
138.0
 30
0.0
 11
203.5
 21
88.0
 31
0.0
  0
TEXT
  8
0
  6
CONTINUOUS
 62
     2
 10
191.2
 20
70.0
 30
0.3
 40
3.0
  1
横形の場合
 50
0.0
 41
0.9
 51
0.0
  7
KANJI1
  0
LINE
  8
0
  6
CONTINUOUS
 62
     1
 10
123.0
 20
62.0
 30
0.0
 11
123.0
 21
73.0
 31
0.0
  0
LINE
  8
0
  6
CONTINUOUS
 62
     1
 10
123.0
 20
73.0
 30
0.0
 11
122.1
 21
72.1
 31
0.0
  0
LINE
  8
0
  6
CONTINUOUS
 62
     1
 10
122.1
 20
72.1
 30
0.0
 11
121.7
 21
72.3
 31
0.0
  0
LINE
  8
0
  6
CONTINUOUS
 62
     1
 10
121.7
 20
72.3
 30
0.0
 11
121.4
 21
71.8
 31
0.0
  0
LINE
  8
0
  6
CONTINUOUS
 62
     1
 10
121.0
 20
71.5
 30
0.0
 11
121.0
 21
63.0
 31
0.0
  0
LINE
  8
0
  6
CONTINUOUS
 62
     1
 10
121.4
 20
71.8
 30
0.0
 11
121.0
 21
71.5
 31
0.0
  0
LINE
  8
0
  6
CONTINUOUS
 62
     2
 10
121.0
 20
64.4
 30
0.0
 11
123.0
 21
65.9
 31
0.0
  0
LINE
  8
0
  6
CONTINUOUS
 62
     2
 10
121.0
 20
65.4
 30
0.0
 11
123.0
 21
66.9
 31
0.0
  0
LINE
  8
0
  6
CONTINUOUS
 62
     2
 10
121.0
 20
66.4
 30
0.0
 11
123.0
 21
67.9
 31
0.0
  0
LINE
  8
0
  6
CONTINUOUS
 62
     2
 10
121.0
 20
67.4
 30
0.0
 11
123.0
 21
68.9
 31
0.0
  0
LINE
  8
0
  6
CONTINUOUS
 62
     2
 10
121.0
 20
68.4
 30
0.0
 11
123.0
 21
69.9
 31
0.0
  0
LINE
  8
0
  6
CONTINUOUS
 62
     2
 10
121.0
 20
69.4
 30
0.0
 11
123.0
 21
70.9
 31
0.0
  0
LINE
  8
0
  6
CONTINUOUS
 62
     2
 10
121.0
 20
70.4
 30
0.0
 11
123.0
 21
71.9
 31
0.0
  0
LINE
  8
0
  6
CONTINUOUS
 62
     2
 10
121.0
 20
63.4
 30
0.0
 11
123.0
 21
64.9
 31
0.0
  0
LINE
  8
0
  6
CONTINUOUS
 62
     2
 10
121.0
 20
62.4
 30
0.0
 11
123.0
 21
63.9
 31
0.0
  0
LINE
  8
0
  6
CONTINUOUS
 62
     2
 10
121.8
 20
62.0
 30
0.0
 11
123.0
 21
62.9
 31
0.0
  0
LINE
  8
0
  6
CONTINUOUS
 62
     2
 10
123.0
 20
41.1
 30
0.0
 11
123.683753666
 21
38.695321035
 31
0.0
  0
LINE
  8
0
  6
CONTINUOUS
 62
     2
 10
123.0
 20
41.1
 30
0.0
 11
124.794487527
 21
39.359363761
 31
0.0
  0
LINE
  8
0
  6
CONTINUOUS
 62
     2
 10
123.0
 20
41.1
 30
0.0
 11
127.722947342
 21
33.2
 31
0.0
  0
LINE
  8
0
  6
CONTINUOUS
 62
     2
 10
127.722947342
 20
33.2
 30
0.0
 11
136.422947342
 21
33.2
 31
0.0
  0
TEXT
  8
0
  6
CONTINUOUS
 62
     2
 10
127.722947342
 20
34.2
 30
0.3
 40
3.0
  1
パネル
 50
0.0
 41
0.9
 51
0.0
  7
KANJI1
  0
LINE
  8
0
  6
CONTINUOUS
 62
     2
 10
104.0
 20
137.3
 30
0.0
 11
96.0
 21
137.3
 31
0.0
  0
LINE
  8
0
  6
CONTINUOUS
 62
     2
 10
98.0
 20
137.3
 30
0.0
 11
97.352952387
 21
134.885185434
 31
0.0
  0
LINE
  8
0
  6
CONTINUOUS
 62
     2
 10
98.0
 20
137.3
 30
0.0
 11
98.647047613
 21
134.885185434
 31
0.0
  0
LINE
  8
0
  6
CONTINUOUS
 62
     2
 10
98.0
 20
137.3
 30
0.0
 11
98.0
 21
88.7
 31
0.0
  0
LINE
  8
0
  6
CONTINUOUS
 62
     2
 10
98.0
 20
88.7
 30
0.0
 11
98.647047613
 21
91.114814566
 31
0.0
  0
LINE
  8
0
  6
CONTINUOUS
 62
     2
 10
98.0
 20
88.7
 30
0.0
 11
97.352952387
 21
91.114814566
 31
0.0
  0
LINE
  8
0
  6
CONTINUOUS
 62
     2
 10
104.0
 20
88.7
 30
0.0
 11
96.0
 21
88.7
 31
0.0
  0
LINE
  8
0
  6
LTYPE1
 62
     2
 10
105.666668
 20
95.5
 30
0.0
 11
112.333332
 21
95.5
 31
0.0
  0
LINE
  8
0
  6
LTYPE1
 62
     2
 10
109.0
 20
98.833332
 30
0.0
 11
109.0
 21
92.166668
 31
0.0
  0
LINE
  8
0
  6
LTYPE1
 62
     2
 10
105.666668
 20
130.5
 30
0.0
 11
112.333332
 21
130.5
 31
0.0
  0
LINE
  8
0
  6
LTYPE1
 62
     2
 10
109.0
 20
133.833332
 30
0.0
 11
109.0
 21
127.166668
 31
0.0
  0
LINE
  8
0
  6
CONTINUOUS
 62
     1
 10
121.0
 20
47.0
 30
0.0
 11
121.0
 21
36.0
 31
0.0
  0
LINE
  8
0
  6
CONTINUOUS
 62
     1
 10
121.0
 20
36.0
 30
0.0
 11
121.9
 21
36.9
 31
0.0
  0
LINE
  8
0
  6
CONTINUOUS
 62
     1
 10
121.9
 20
36.9
 30
0.0
 11
122.3
 21
36.7
 31
0.0
  0
LINE
  8
0
  6
CONTINUOUS
 62
     1
 10
122.3
 20
36.7
 30
0.0
 11
122.6
 21
37.2
 31
0.0
  0
LINE
  8
0
  6
CONTINUOUS
 62
     1
 10
122.6
 20
37.2
 30
0.0
 11
123.0
 21
37.5
 31
0.0
  0
LINE
  8
0
  6
CONTINUOUS
 62
     2
 10
123.0
 20
44.6
 30
0.0
 11
121.0
 21
43.1
 31
0.0
  0
LINE
  8
0
  6
CONTINUOUS
 62
     2
 10
123.0
 20
43.6
 30
0.0
 11
121.0
 21
42.1
 31
0.0
  0
LINE
  8
0
  6
CONTINUOUS
 62
     2
 10
123.0
 20
42.6
 30
0.0
 11
121.0
 21
41.1
 31
0.0
  0
LINE
  8
0
  6
CONTINUOUS
 62
     2
 10
123.0
 20
41.6
 30
0.0
 11
121.0
 21
40.1
 31
0.0
  0
LINE
  8
0
  6
CONTINUOUS
 62
     2
 10
123.0
 20
40.6
 30
0.0
 11
121.0
 21
39.1
 31
0.0
  0
LINE
  8
0
  6
CONTINUOUS
 62
     2
 10
123.0
 20
39.6
 30
0.0
 11
121.0
 21
38.1
 31
0.0
  0
LINE
  8
0
  6
CONTINUOUS
 62
     2
 10
123.0
 20
38.6
 30
0.0
 11
121.0
 21
37.1
 31
0.0
  0
LINE
  8
0
  6
CONTINUOUS
 62
     2
 10
123.0
 20
45.6
 30
0.0
 11
121.0
 21
44.1
 31
0.0
  0
LINE
  8
0
  6
CONTINUOUS
 62
     2
 10
123.0
 20
46.6
 30
0.0
 11
121.0
 21
45.1
 31
0.0
  0
LINE
  8
0
  6
CONTINUOUS
 62
     2
 10
122.2
 20
47.0
 30
0.0
 11
121.0
 21
46.1
 31
0.0
  0
LINE
  8
0
  6
CONTINUOUS
 62
     1
 10
123.0
 20
37.5
 30
0.0
 11
123.0
 21
47.0
 31
0.0
  0
LINE
  8
0
  6
CONTINUOUS
 62
     2
 10
200.0
 20
93.0
 30
0.0
 11
198.0
 21
93.0
 31
0.0
  0
LINE
  8
0
  6
CONTINUOUS
 62
     2
 10
200.0
 20
93.0
 30
0.0
 11
197.0
 21
93.0
 31
0.0
  0
LINE
  8
0
  6
CONTINUOUS
 62
     2
 10
200.0
 20
92.89
 30
0.0
 11
197.0
 21
92.89
 31
0.0
  0
LINE
  8
0
  6
CONTINUOUS
 62
     2
 10
200.0
 20
93.11
 30
0.0
 11
197.0
 21
93.11
 31
0.0
  0
LINE
  8
0
  6
CONTINUOUS
 62
     2
 10
200.0
 20
95.0
 30
0.0
 11
198.0
 21
95.0
 31
0.0
  0
LINE
  8
0
  6
CONTINUOUS
 62
     2
 10
200.0
 20
97.0
 30
0.0
 11
197.0
 21
97.0
 31
0.0
  0
LINE
  8
0
  6
CONTINUOUS
 62
     2
 10
200.0
 20
96.89
 30
0.0
 11
197.0
 21
96.89
 31
0.0
  0
LINE
  8
0
  6
CONTINUOUS
 62
     2
 10
200.0
 20
97.11
 30
0.0
 11
197.0
 21
97.11
 31
0.0
  0
LINE
  8
0
  6
CONTINUOUS
 62
     2
 10
200.0
 20
99.0
 30
0.0
 11
198.0
 21
99.0
 31
0.0
  0
LINE
  8
0
  6
CONTINUOUS
 62
     2
 10
200.0
 20
101.0
 30
0.0
 11
197.0
 21
101.0
 31
0.0
  0
LINE
  8
0
  6
CONTINUOUS
 62
     2
 10
200.0
 20
100.89
 30
0.0
 11
197.0
 21
100.89
 31
0.0
  0
LINE
  8
0
  6
CONTINUOUS
 62
     2
 10
200.0
 20
101.11
 30
0.0
 11
197.0
 21
101.11
 31
0.0
  0
LINE
  8
0
  6
CONTINUOUS
 62
     2
 10
200.0
 20
103.0
 30
0.0
 11
198.0
 21
103.0
 31
0.0
  0
LINE
  8
0
  6
CONTINUOUS
 62
     2
 10
200.0
 20
105.0
 30
0.0
 11
197.0
 21
105.0
 31
0.0
  0
LINE
  8
0
  6
CONTINUOUS
 62
     2
 10
200.0
 20
104.89
 30
0.0
 11
197.0
 21
104.89
 31
0.0
  0
LINE
  8
0
  6
CONTINUOUS
 62
     2
 10
200.0
 20
105.11
 30
0.0
 11
197.0
 21
105.11
 31
0.0
  0
LINE
  8
0
  6
CONTINUOUS
 62
     2
 10
200.0
 20
107.0
 30
0.0
 11
198.0
 21
107.0
 31
0.0
  0
LINE
  8
0
  6
CONTINUOUS
 62
     2
 10
200.0
 20
109.0
 30
0.0
 11
197.0
 21
109.0
 31
0.0
  0
LINE
  8
0
  6
CONTINUOUS
 62
     2
 10
200.0
 20
108.89
 30
0.0
 11
197.0
 21
108.89
 31
0.0
  0
LINE
  8
0
  6
CONTINUOUS
 62
     2
 10
200.0
 20
109.11
 30
0.0
 11
197.0
 21
109.11
 31
0.0
  0
LINE
  8
0
  6
CONTINUOUS
 62
     2
 10
200.0
 20
111.0
 30
0.0
 11
198.0
 21
111.0
 31
0.0
  0
LINE
  8
0
  6
CONTINUOUS
 62
     2
 10
200.0
 20
113.0
 30
0.0
 11
197.0
 21
113.0
 31
0.0
  0
LINE
  8
0
  6
CONTINUOUS
 62
     2
 10
200.0
 20
112.89
 30
0.0
 11
197.0
 21
112.89
 31
0.0
  0
LINE
  8
0
  6
CONTINUOUS
 62
     2
 10
200.0
 20
113.11
 30
0.0
 11
197.0
 21
113.11
 31
0.0
  0
LINE
  8
0
  6
CONTINUOUS
 62
     2
 10
200.0
 20
115.0
 30
0.0
 11
198.0
 21
115.0
 31
0.0
  0
LINE
  8
0
  6
CONTINUOUS
 62
     2
 10
200.0
 20
117.0
 30
0.0
 11
197.0
 21
117.0
 31
0.0
  0
LINE
  8
0
  6
CONTINUOUS
 62
     2
 10
200.0
 20
116.89
 30
0.0
 11
197.0
 21
116.89
 31
0.0
  0
LINE
  8
0
  6
CONTINUOUS
 62
     2
 10
200.0
 20
117.11
 30
0.0
 11
197.0
 21
117.11
 31
0.0
  0
LINE
  8
0
  6
CONTINUOUS
 62
     2
 10
200.0
 20
119.0
 30
0.0
 11
198.0
 21
119.0
 31
0.0
  0
LINE
  8
0
  6
CONTINUOUS
 62
     2
 10
200.0
 20
121.0
 30
0.0
 11
197.0
 21
121.0
 31
0.0
  0
LINE
  8
0
  6
CONTINUOUS
 62
     2
 10
200.0
 20
120.89
 30
0.0
 11
197.0
 21
120.89
 31
0.0
  0
LINE
  8
0
  6
CONTINUOUS
 62
     2
 10
200.0
 20
121.11
 30
0.0
 11
197.0
 21
121.11
 31
0.0
  0
LINE
  8
0
  6
CONTINUOUS
 62
     2
 10
200.0
 20
123.0
 30
0.0
 11
198.0
 21
123.0
 31
0.0
  0
LINE
  8
0
  6
CONTINUOUS
 62
     2
 10
200.0
 20
125.0
 30
0.0
 11
197.0
 21
125.0
 31
0.0
  0
LINE
  8
0
  6
CONTINUOUS
 62
     2
 10
200.0
 20
124.89
 30
0.0
 11
197.0
 21
124.89
 31
0.0
  0
LINE
  8
0
  6
CONTINUOUS
 62
     2
 10
200.0
 20
125.11
 30
0.0
 11
197.0
 21
125.11
 31
0.0
  0
LINE
  8
0
  6
CONTINUOUS
 62
     2
 10
200.0
 20
127.0
 30
0.0
 11
198.0
 21
127.0
 31
0.0
  0
LINE
  8
0
  6
CONTINUOUS
 62
     2
 10
200.0
 20
129.0
 30
0.0
 11
197.0
 21
129.0
 31
0.0
  0
LINE
  8
0
  6
CONTINUOUS
 62
     2
 10
200.0
 20
128.89
 30
0.0
 11
197.0
 21
128.89
 31
0.0
  0
LINE
  8
0
  6
CONTINUOUS
 62
     2
 10
200.0
 20
129.11
 30
0.0
 11
197.0
 21
129.11
 31
0.0
  0
LINE
  8
0
  6
CONTINUOUS
 62
     2
 10
200.0
 20
131.0
 30
0.0
 11
198.0
 21
131.0
 31
0.0
  0
LINE
  8
0
  6
CONTINUOUS
 62
     2
 10
200.0
 20
133.0
 30
0.0
 11
197.0
 21
133.0
 31
0.0
  0
LINE
  8
0
  6
CONTINUOUS
 62
     2
 10
200.0
 20
132.89
 30
0.0
 11
197.0
 21
132.89
 31
0.0
  0
LINE
  8
0
  6
CONTINUOUS
 62
     2
 10
200.0
 20
133.11
 30
0.0
 11
197.0
 21
133.11
 31
0.0
  0
LINE
  8
0
  6
CONTINUOUS
 62
     1
 10
194.863761836
 20
92.734724158
 30
0.0
 11
195.006439615
 21
92.700345821
 31
0.0
  0
LINE
  8
0
  6
CONTINUOUS
 62
     1
 10
195.006439615
 20
92.700345821
 30
0.0
 11
195.152193251
 21
92.673371512
 31
0.0
  0
LINE
  8
0
  6
CONTINUOUS
 62
     1
 10
195.152193251
 20
92.673371512
 30
0.0
 11
195.300225314
 21
92.654154384
 31
0.0
  0
LINE
  8
0
  6
CONTINUOUS
 62
     1
 10
195.300225314
 20
92.654154384
 30
0.0
 11
195.449689543
 21
92.642939532
 31
0.0
  0
LINE
  8
0
  6
CONTINUOUS
 62
     1
 10
195.449689543
 20
92.642939532
 30
0.0
 11
195.599710006
 21
92.639856128
 31
0.0
  0
LINE
  8
0
  6
CONTINUOUS
 62
     1
 10
195.599710006
 20
92.639856128
 30
0.0
 11
195.749401572
 21
92.644913617
 31
0.0
  0
LINE
  8
0
  6
CONTINUOUS
 62
     1
 10
195.749401572
 20
92.644913617
 30
0.0
 11
195.897890701
 21
92.658002203
 31
0.0
  0
LINE
  8
0
  6
CONTINUOUS
 62
     1
 10
195.897890701
 20
92.658002203
 30
0.0
 11
196.044335505
 21
92.678897537
 31
0.0
  0
LINE
  8
0
  6
CONTINUOUS
 62
     1
 10
196.044335505
 20
92.678897537
 30
0.0
 11
196.187944147
 21
92.707269289
 31
0.0
  0
LINE
  8
0
  6
CONTINUOUS
 62
     1
 10
196.187944147
 20
92.707269289
 30
0.0
 11
196.327990735
 21
92.742692998
 31
0.0
  0
LINE
  8
0
  6
CONTINUOUS
 62
     1
 10
196.327990735
 20
92.742692998
 30
0.0
 11
196.393266896
 21
92.801780802
 31
0.0
  0
LINE
  8
0
  6
CONTINUOUS
 62
     1
 10
196.393266896
 20
92.801780802
 30
0.0
 11
196.443876003
 21
92.876494675
 31
0.0
  0
LINE
  8
0
  6
CONTINUOUS
 62
     1
 10
196.443876003
 20
92.876494675
 30
0.0
 11
196.471388664
 21
93.001509527
 31
0.0
  0
LINE
  8
0
  6
CONTINUOUS
 62
     1
 10
196.471388664
 20
93.001509527
 30
0.0
 11
196.452134737
 21
93.103715067
 31
0.0
  0
LINE
  8
0
  6
CONTINUOUS
 62
     1
 10
196.452134737
 20
93.103715067
 30
0.0
 11
196.394410342
 21
93.196579301
 31
0.0
  0
LINE
  8
0
  6
CONTINUOUS
 62
     1
 10
196.394410342
 20
93.196579301
 30
0.0
 11
196.334213855
 21
93.246262407
 31
0.0
  0
LINE
  8
0
  6
CONTINUOUS
 62
     1
 10
196.334213855
 20
93.246262407
 30
0.0
 11
196.188307067
 21
93.292239631
 31
0.0
  0
LINE
  8
0
  6
CONTINUOUS
 62
     1
 10
196.188307067
 20
93.292239631
 30
0.0
 11
196.048770173
 21
93.319934917
 31
0.0
  0
LINE
  8
0
  6
CONTINUOUS
 62
     1
 10
196.048770173
 20
93.319934917
 30
0.0
 11
195.898376788
 21
93.341532344
 31
0.0
  0
LINE
  8
0
  6
CONTINUOUS
 62
     1
 10
195.898376788
 20
93.341532344
 30
0.0
 11
195.749178186
 21
93.354690699
 31
0.0
  0
LINE
  8
0
  6
CONTINUOUS
 62
     1
 10
195.749178186
 20
93.354690699
 30
0.0
 11
195.599178491
 21
93.35973805
 31
0.0
  0
LINE
  8
0
  6
CONTINUOUS
 62
     1
 10
195.599178491
 20
93.35973805
 30
0.0
 11
195.444344913
 21
93.356390646
 31
0.0
  0
LINE
  8
0
  6
CONTINUOUS
 62
     1
 10
195.444344913
 20
93.356390646
 30
0.0
 11
195.300463244
 21
93.345460673
 31
0.0
  0
LINE
  8
0
  6
CONTINUOUS
 62
     1
 10
195.300463244
 20
93.345460673
 30
0.0
 11
195.151158341
 21
93.32605607
 31
0.0
  0
LINE
  8
0
  6
CONTINUOUS
 62
     1
 10
195.151158341
 20
93.32605607
 30
0.0
 11
195.007555635
 21
93.29948234
 31
0.0
  0
LINE
  8
0
  6
CONTINUOUS
 62
     1
 10
195.007555635
 20
93.29948234
 30
0.0
 11
194.860719222
 21
93.2634953
 31
0.0
  0
LINE
  8
0
  6
CONTINUOUS
 62
     1
 10
194.860719222
 20
93.2634953
 30
0.0
 11
194.783040927
 21
93.211351881
 31
0.0
  0
LINE
  8
0
  6
CONTINUOUS
 62
     1
 10
194.783040927
 20
93.211351881
 30
0.0
 11
194.719930784
 21
93.125243059
 31
0.0
  0
LINE
  8
0
  6
CONTINUOUS
 62
     1
 10
194.719930784
 20
93.125243059
 30
0.0
 11
194.691586412
 21
93.010365033
 31
0.0
  0
LINE
  8
0
  6
CONTINUOUS
 62
     1
 10
194.691586412
 20
93.010365033
 30
0.0
 11
194.718925746
 21
92.876464263
 31
0.0
  0
LINE
  8
0
  6
CONTINUOUS
 62
     1
 10
194.718925746
 20
92.876464263
 30
0.0
 11
194.784398061
 21
92.78697452
 31
0.0
  0
LINE
  8
0
  6
CONTINUOUS
 62
     1
 10
194.784398061
 20
92.78697452
 30
0.0
 11
194.863761836
 21
92.734724158
 31
0.0
  0
LINE
  8
0
  6
CONTINUOUS
 62
     1
 10
195.08
 20
100.636424909
 30
0.0
 11
194.999992015
 21
100.645428154
 31
0.0
  0
LINE
  8
0
  6
CONTINUOUS
 62
     1
 10
194.999992015
 20
100.645428154
 30
0.0
 11
194.925409751
 21
100.671306692
 31
0.0
  0
LINE
  8
0
  6
CONTINUOUS
 62
     1
 10
194.925409751
 20
100.671306692
 30
0.0
 11
194.865176751
 21
100.707546091
 31
0.0
  0
LINE
  8
0
  6
CONTINUOUS
 62
     1
 10
194.865176751
 20
100.707546091
 30
0.0
 11
194.812684254
 21
100.755297781
 31
0.0
  0
LINE
  8
0
  6
CONTINUOUS
 62
     1
 10
194.812684254
 20
100.755297781
 30
0.0
 11
194.77161928
 21
100.810679569
 31
0.0
  0
LINE
  8
0
  6
CONTINUOUS
 62
     1
 10
194.77161928
 20
100.810679569
 30
0.0
 11
194.738356887
 21
100.882934895
 31
0.0
  0
LINE
  8
0
  6
CONTINUOUS
 62
     1
 10
194.738356887
 20
100.882934895
 30
0.0
 11
194.720243427
 21
100.983188273
 31
0.0
  0
LINE
  8
0
  6
CONTINUOUS
 62
     1
 10
194.720243427
 20
100.983188273
 30
0.0
 11
194.7315147
 21
101.086746532
 31
0.0
  0
LINE
  8
0
  6
CONTINUOUS
 62
     1
 10
194.7315147
 20
101.086746532
 30
0.0
 11
194.759437367
 21
101.160252863
 31
0.0
  0
LINE
  8
0
  6
CONTINUOUS
 62
     1
 10
194.759437367
 20
101.160252863
 30
0.0
 11
194.797556919
 21
101.219642082
 31
0.0
  0
LINE
  8
0
  6
CONTINUOUS
 62
     1
 10
194.797556919
 20
101.219642082
 30
0.0
 11
194.846725123
 21
101.270619788
 31
0.0
  0
LINE
  8
0
  6
CONTINUOUS
 62
     1
 10
194.846725123
 20
101.270619788
 30
0.0
 11
194.902834264
 21
101.30981333
 31
0.0
  0
LINE
  8
0
  6
CONTINUOUS
 62
     1
 10
194.902834264
 20
101.30981333
 30
0.0
 11
194.975948321
 21
101.341059859
 31
0.0
  0
LINE
  8
0
  6
CONTINUOUS
 62
     1
 10
194.975948321
 20
101.341059859
 30
0.0
 11
195.051792574
 21
101.355318126
 31
0.0
  0
LINE
  8
0
  6
CONTINUOUS
 62
     1
 10
195.051792574
 20
101.355318126
 30
0.0
 11
195.126542952
 21
101.353403555
 31
0.0
  0
LINE
  8
0
  6
CONTINUOUS
 62
     1
 10
195.126542952
 20
101.353403555
 30
0.0
 11
195.203767796
 21
101.334480426
 31
0.0
  0
LINE
  8
0
  6
CONTINUOUS
 62
     1
 10
195.203767796
 20
101.334480426
 30
0.0
 11
195.273465756
 21
101.300363182
 31
0.0
  0
LINE
  8
0
  6
CONTINUOUS
 62
     1
 10
195.273465756
 20
101.300363182
 30
0.0
 11
195.34790025
 21
101.257076561
 31
0.0
  0
LINE
  8
0
  6
CONTINUOUS
 62
     1
 10
195.34790025
 20
101.257076561
 30
0.0
 11
195.45999208
 21
101.191890703
 31
0.0
  0
LINE
  8
0
  6
CONTINUOUS
 62
     1
 10
195.45999208
 20
101.191890703
 30
0.0
 11
195.572083909
 21
101.126704844
 31
0.0
  0
LINE
  8
0
  6
CONTINUOUS
 62
     1
 10
195.572083909
 20
101.126704844
 30
0.0
 11
195.684175738
 21
101.061518985
 31
0.0
  0
LINE
  8
0
  6
CONTINUOUS
 62
     1
 10
195.684175738
 20
101.061518985
 30
0.0
 11
195.796267567
 21
100.996333126
 31
0.0
  0
LINE
  8
0
  6
CONTINUOUS
 62
     1
 10
195.796267567
 20
100.996333126
 30
0.0
 11
195.908359397
 21
100.931147267
 31
0.0
  0
LINE
  8
0
  6
CONTINUOUS
 62
     1
 10
195.908359397
 20
100.931147267
 30
0.0
 11
196.020451226
 21
100.865961408
 31
0.0
  0
LINE
  8
0
  6
CONTINUOUS
 62
     1
 10
196.020451226
 20
100.865961408
 30
0.0
 11
196.132543055
 21
100.800775549
 31
0.0
  0
LINE
  8
0
  6
CONTINUOUS
 62
     1
 10
196.132543055
 20
100.800775549
 30
0.0
 11
196.244634884
 21
100.73558969
 31
0.0
  0
LINE
  8
0
  6
CONTINUOUS
 62
     1
 10
196.244634884
 20
100.73558969
 30
0.0
 11
196.356726714
 21
100.670403831
 31
0.0
  0
LINE
  8
0
  6
CONTINUOUS
 62
     1
 10
196.356726714
 20
100.670403831
 30
0.0
 11
196.48
 21
100.59871551
 31
0.0
  0
LINE
  8
0
  6
CONTINUOUS
 62
     1
 10
196.48
 20
100.59871551
 30
0.0
 11
196.48
 21
100.74871551
 31
0.0
  0
LINE
  8
0
  6
CONTINUOUS
 62
     1
 10
196.48
 20
100.74871551
 30
0.0
 11
196.48
 21
100.89871551
 31
0.0
  0
LINE
  8
0
  6
CONTINUOUS
 62
     1
 10
196.48
 20
100.89871551
 30
0.0
 11
196.48
 21
101.04871551
 31
0.0
  0
LINE
  8
0
  6
CONTINUOUS
 62
     1
 10
196.48
 20
101.04871551
 30
0.0
 11
196.48
 21
101.19871551
 31
0.0
  0
LINE
  8
0
  6
CONTINUOUS
 62
     1
 10
196.48
 20
101.19871551
 30
0.0
 11
196.48
 21
101.356424919
 31
0.0
  0
LINE
  8
0
  6
CONTINUOUS
 62
     1
 10
196.48
 20
109.156424909
 30
0.0
 11
196.33
 21
109.156424909
 31
0.0
  0
LINE
  8
0
  6
CONTINUOUS
 62
     1
 10
196.33
 20
109.156424909
 30
0.0
 11
196.18
 21
109.156424909
 31
0.0
  0
LINE
  8
0
  6
CONTINUOUS
 62
     1
 10
196.18
 20
109.156424909
 30
0.0
 11
196.03
 21
109.156424909
 31
0.0
  0
LINE
  8
0
  6
CONTINUOUS
 62
     1
 10
196.03
 20
109.156424909
 30
0.0
 11
195.88
 21
109.156424909
 31
0.0
  0
LINE
  8
0
  6
CONTINUOUS
 62
     1
 10
195.88
 20
109.156424909
 30
0.0
 11
195.73
 21
109.156424909
 31
0.0
  0
LINE
  8
0
  6
CONTINUOUS
 62
     1
 10
195.73
 20
109.156424909
 30
0.0
 11
195.58
 21
109.156424909
 31
0.0
  0
LINE
  8
0
  6
CONTINUOUS
 62
     1
 10
195.58
 20
109.156424909
 30
0.0
 11
195.38
 21
109.156424909
 31
0.0
  0
LINE
  8
0
  6
CONTINUOUS
 62
     1
 10
195.38
 20
109.156424909
 30
0.0
 11
195.53
 21
109.156424909
 31
0.0
  0
LINE
  8
0
  6
CONTINUOUS
 62
     1
 10
195.53
 20
109.156424909
 30
0.0
 11
195.68
 21
109.156424909
 31
0.0
  0
LINE
  8
0
  6
CONTINUOUS
 62
     1
 10
195.68
 20
109.156424909
 30
0.0
 11
195.83
 21
109.156424909
 31
0.0
  0
LINE
  8
0
  6
CONTINUOUS
 62
     1
 10
195.83
 20
109.156424909
 30
0.0
 11
195.98
 21
109.156424909
 31
0.0
  0
LINE
  8
0
  6
CONTINUOUS
 62
     1
 10
195.98
 20
109.156424909
 30
0.0
 11
196.08
 21
109.156424909
 31
0.0
  0
LINE
  8
0
  6
CONTINUOUS
 62
     1
 10
196.08
 20
109.156424909
 30
0.0
 11
196.08
 21
109.356424909
 31
0.0
  0
LINE
  8
0
  6
CONTINUOUS
 62
     1
 10
196.08
 20
109.356424909
 30
0.0
 11
196.08
 21
109.206424909
 31
0.0
  0
LINE
  8
0
  6
CONTINUOUS
 62
     1
 10
196.08
 20
109.206424909
 30
0.0
 11
196.08
 21
109.056424909
 31
0.0
  0
LINE
  8
0
  6
CONTINUOUS
 62
     1
 10
196.08
 20
109.056424909
 30
0.0
 11
196.08
 21
108.906424909
 31
0.0
  0
LINE
  8
0
  6
CONTINUOUS
 62
     1
 10
196.08
 20
108.906424909
 30
0.0
 11
196.08
 21
108.756424909
 31
0.0
  0
LINE
  8
0
  6
CONTINUOUS
 62
     1
 10
196.08
 20
108.756424909
 30
0.0
 11
196.08
 21
108.636424909
 31
0.0
  0
LINE
  8
0
  6
CONTINUOUS
 62
     1
 10
196.08
 20
108.636424909
 30
0.0
 11
195.93837931
 21
108.670873185
 31
0.0
  0
LINE
  8
0
  6
CONTINUOUS
 62
     1
 10
195.93837931
 20
108.670873185
 30
0.0
 11
195.796758621
 21
108.705321461
 31
0.0
  0
LINE
  8
0
  6
CONTINUOUS
 62
     1
 10
195.796758621
 20
108.705321461
 30
0.0
 11
195.655137931
 21
108.739769737
 31
0.0
  0
LINE
  8
0
  6
CONTINUOUS
 62
     1
 10
195.655137931
 20
108.739769737
 30
0.0
 11
195.513517241
 21
108.774218013
 31
0.0
  0
LINE
  8
0
  6
CONTINUOUS
 62
     1
 10
195.513517241
 20
108.774218013
 30
0.0
 11
195.371896552
 21
108.808666289
 31
0.0
  0
LINE
  8
0
  6
CONTINUOUS
 62
     1
 10
195.371896552
 20
108.808666289
 30
0.0
 11
195.230275862
 21
108.843114565
 31
0.0
  0
LINE
  8
0
  6
CONTINUOUS
 62
     1
 10
195.230275862
 20
108.843114565
 30
0.0
 11
195.088655172
 21
108.87756284
 31
0.0
  0
LINE
  8
0
  6
CONTINUOUS
 62
     1
 10
195.088655172
 20
108.87756284
 30
0.0
 11
194.947034483
 21
108.912011116
 31
0.0
  0
LINE
  8
0
  6
CONTINUOUS
 62
     1
 10
194.947034483
 20
108.912011116
 30
0.0
 11
194.805413793
 21
108.946459392
 31
0.0
  0
LINE
  8
0
  6
CONTINUOUS
 62
     1
 10
194.805413793
 20
108.946459392
 30
0.0
 11
194.716600112
 21
108.96806272
 31
0.0
  0
LINE
  8
0
  6
CONTINUOUS
 62
     1
 10
196.0
 20
116.616424909
 30
0.0
 11
195.853189384
 21
116.634635284
 31
0.0
  0
LINE
  8
0
  6
CONTINUOUS
 62
     1
 10
195.853189384
 20
116.634635284
 30
0.0
 11
195.727354183
 21
116.683677237
 31
0.0
  0
LINE
  8
0
  6
CONTINUOUS
 62
     1
 10
195.727354183
 20
116.683677237
 30
0.0
 11
195.626259838
 21
116.757979047
 31
0.0
  0
LINE
  8
0
  6
CONTINUOUS
 62
     1
 10
195.626259838
 20
116.757979047
 30
0.0
 11
195.552762077
 21
116.858442519
 31
0.0
  0
LINE
  8
0
  6
CONTINUOUS
 62
     1
 10
195.552762077
 20
116.858442519
 30
0.0
 11
195.520289149
 21
116.98323708
 31
0.0
  0
LINE
  8
0
  6
CONTINUOUS
 62
     1
 10
195.520289149
 20
116.98323708
 30
0.0
 11
195.558466128
 21
117.145476717
 31
0.0
  0
LINE
  8
0
  6
CONTINUOUS
 62
     1
 10
195.558466128
 20
117.145476717
 30
0.0
 11
195.62246802
 21
117.231097136
 31
0.0
  0
LINE
  8
0
  6
CONTINUOUS
 62
     1
 10
195.62246802
 20
117.231097136
 30
0.0
 11
195.728564152
 21
117.309831515
 31
0.0
  0
LINE
  8
0
  6
CONTINUOUS
 62
     1
 10
195.728564152
 20
117.309831515
 30
0.0
 11
195.850388838
 21
117.357494781
 31
0.0
  0
LINE
  8
0
  6
CONTINUOUS
 62
     1
 10
195.850388838
 20
117.357494781
 30
0.0
 11
196.000392902
 21
117.376424782
 31
0.0
  0
LINE
  8
0
  6
CONTINUOUS
 62
     1
 10
196.000392902
 20
117.376424782
 30
0.0
 11
196.116540461
 21
117.365054631
 31
0.0
  0
LINE
  8
0
  6
CONTINUOUS
 62
     1
 10
196.116540461
 20
117.365054631
 30
0.0
 11
196.246997566
 21
117.322253408
 31
0.0
  0
LINE
  8
0
  6
CONTINUOUS
 62
     1
 10
196.246997566
 20
117.322253408
 30
0.0
 11
196.374674221
 21
117.233950278
 31
0.0
  0
LINE
  8
0
  6
CONTINUOUS
 62
     1
 10
196.374674221
 20
117.233950278
 30
0.0
 11
196.437985053
 21
117.15190045
 31
0.0
  0
LINE
  8
0
  6
CONTINUOUS
 62
     1
 10
196.437985053
 20
117.15190045
 30
0.0
 11
196.479851154
 21
116.98696225
 31
0.0
  0
LINE
  8
0
  6
CONTINUOUS
 62
     1
 10
196.479851154
 20
116.98696225
 30
0.0
 11
196.450594451
 21
116.86546534
 31
0.0
  0
LINE
  8
0
  6
CONTINUOUS
 62
     1
 10
196.450594451
 20
116.86546534
 30
0.0
 11
196.372031844
 21
116.75631056
 31
0.0
  0
LINE
  8
0
  6
CONTINUOUS
 62
     1
 10
196.372031844
 20
116.75631056
 30
0.0
 11
196.263931173
 21
116.679026464
 31
0.0
  0
LINE
  8
0
  6
CONTINUOUS
 62
     1
 10
196.263931173
 20
116.679026464
 30
0.0
 11
196.131814408
 21
116.63103411
 31
0.0
  0
LINE
  8
0
  6
CONTINUOUS
 62
     1
 10
196.131814408
 20
116.63103411
 30
0.0
 11
195.853442132
 21
116.62220788
 31
0.0
  0
LINE
  8
0
  6
CONTINUOUS
 62
     1
 10
195.853442132
 20
116.62220788
 30
0.0
 11
195.728318929
 21
116.636373444
 31
0.0
  0
LINE
  8
0
  6
CONTINUOUS
 62
     1
 10
195.728318929
 20
116.636373444
 30
0.0
 11
195.580427314
 21
116.66436565
 31
0.0
  0
LINE
  8
0
  6
CONTINUOUS
 62
     1
 10
195.580427314
 20
116.66436565
 30
0.0
 11
195.427913737
 21
116.706589519
 31
0.0
  0
LINE
  8
0
  6
CONTINUOUS
 62
     1
 10
195.427913737
 20
116.706589519
 30
0.0
 11
195.297358096
 21
116.754247696
 31
0.0
  0
LINE
  8
0
  6
CONTINUOUS
 62
     1
 10
195.297358096
 20
116.754247696
 30
0.0
 11
195.174729578
 21
116.809532972
 31
0.0
  0
LINE
  8
0
  6
CONTINUOUS
 62
     1
 10
195.174729578
 20
116.809532972
 30
0.0
 11
195.060704708
 21
116.871020177
 31
0.0
  0
LINE
  8
0
  6
CONTINUOUS
 62
     1
 10
195.060704708
 20
116.871020177
 30
0.0
 11
194.955664139
 21
116.937281443
 31
0.0
  0
LINE
  8
0
  6
CONTINUOUS
 62
     1
 10
194.955664139
 20
116.937281443
 30
0.0
 11
194.85972239
 21
117.00694644
 31
0.0
  0
LINE
  8
0
  6
CONTINUOUS
 62
     1
 10
194.85972239
 20
117.00694644
 30
0.0
 11
194.717375504
 21
117.129400633
 31
0.0
  0
LINE
  8
0
  6
CONTINUOUS
 62
     1
 10
195.52
 20
124.996424959
 30
0.0
 11
195.535804237
 21
125.093132408
 31
0.0
  0
LINE
  8
0
  6
CONTINUOUS
 62
     1
 10
195.535804237
 20
125.093132408
 30
0.0
 11
195.574773015
 21
125.172705472
 31
0.0
  0
LINE
  8
0
  6
CONTINUOUS
 62
     1
 10
195.574773015
 20
125.172705472
 30
0.0
 11
195.644333247
 21
125.251608392
 31
0.0
  0
LINE
  8
0
  6
CONTINUOUS
 62
     1
 10
195.644333247
 20
125.251608392
 30
0.0
 11
195.74914109
 21
125.320399254
 31
0.0
  0
LINE
  8
0
  6
CONTINUOUS
 62
     1
 10
195.74914109
 20
125.320399254
 30
0.0
 11
195.876424044
 21
125.363615735
 31
0.0
  0
LINE
  8
0
  6
CONTINUOUS
 62
     1
 10
195.876424044
 20
125.363615735
 30
0.0
 11
196.001473714
 21
125.376423118
 31
0.0
  0
LINE
  8
0
  6
CONTINUOUS
 62
     1
 10
196.001473714
 20
125.376423118
 30
0.0
 11
196.129982597
 21
125.362226762
 31
0.0
  0
LINE
  8
0
  6
CONTINUOUS
 62
     1
 10
196.129982597
 20
125.362226762
 30
0.0
 11
196.241796501
 21
125.32468933
 31
0.0
  0
LINE
  8
0
  6
CONTINUOUS
 62
     1
 10
196.241796501
 20
125.32468933
 30
0.0
 11
196.35281054
 21
125.254081364
 31
0.0
  0
LINE
  8
0
  6
CONTINUOUS
 62
     1
 10
196.35281054
 20
125.254081364
 30
0.0
 11
196.422865337
 21
125.176230705
 31
0.0
  0
LINE
  8
0
  6
CONTINUOUS
 62
     1
 10
196.422865337
 20
125.176230705
 30
0.0
 11
196.464698801
 21
125.091606242
 31
0.0
  0
LINE
  8
0
  6
CONTINUOUS
 62
     1
 10
196.464698801
 20
125.091606242
 30
0.0
 11
196.479999945
 21
124.996606356
 31
0.0
  0
LINE
  8
0
  6
CONTINUOUS
 62
     1
 10
196.479999945
 20
124.996606356
 30
0.0
 11
196.459968919
 21
124.887794528
 31
0.0
  0
LINE
  8
0
  6
CONTINUOUS
 62
     1
 10
196.459968919
 20
124.887794528
 30
0.0
 11
196.420172646
 21
124.812705448
 31
0.0
  0
LINE
  8
0
  6
CONTINUOUS
 62
     1
 10
196.420172646
 20
124.812705448
 30
0.0
 11
196.357279683
 21
124.742657486
 31
0.0
  0
LINE
  8
0
  6
CONTINUOUS
 62
     1
 10
196.357279683
 20
124.742657486
 30
0.0
 11
196.247474144
 21
124.670823133
 31
0.0
  0
LINE
  8
0
  6
CONTINUOUS
 62
     1
 10
196.247474144
 20
124.670823133
 30
0.0
 11
196.13235344
 21
124.631156252
 31
0.0
  0
LINE
  8
0
  6
CONTINUOUS
 62
     1
 10
196.13235344
 20
124.631156252
 30
0.0
 11
196.002383082
 21
124.616429593
 31
0.0
  0
LINE
  8
0
  6
CONTINUOUS
 62
     1
 10
196.002383082
 20
124.616429593
 30
0.0
 11
195.876630878
 21
124.629190497
 31
0.0
  0
LINE
  8
0
  6
CONTINUOUS
 62
     1
 10
195.876630878
 20
124.629190497
 30
0.0
 11
195.747124496
 21
124.673434631
 31
0.0
  0
LINE
  8
0
  6
CONTINUOUS
 62
     1
 10
195.747124496
 20
124.673434631
 30
0.0
 11
195.647369674
 21
124.738613882
 31
0.0
  0
LINE
  8
0
  6
CONTINUOUS
 62
     1
 10
195.647369674
 20
124.738613882
 30
0.0
 11
195.570941939
 21
124.826061664
 31
0.0
  0
LINE
  8
0
  6
CONTINUOUS
 62
     1
 10
195.570941939
 20
124.826061664
 30
0.0
 11
195.528568831
 21
124.924943709
 31
0.0
  0
LINE
  8
0
  6
CONTINUOUS
 62
     1
 10
195.528568831
 20
124.924943709
 30
0.0
 11
195.499970297
 21
125.096417143
 31
0.0
  0
LINE
  8
0
  6
CONTINUOUS
 62
     1
 10
195.499970297
 20
125.096417143
 30
0.0
 11
195.447206286
 21
125.180487588
 31
0.0
  0
LINE
  8
0
  6
CONTINUOUS
 62
     1
 10
195.447206286
 20
125.180487588
 30
0.0
 11
195.368859188
 21
125.246952806
 31
0.0
  0
LINE
  8
0
  6
CONTINUOUS
 62
     1
 10
195.368859188
 20
125.246952806
 30
0.0
 11
195.258684982
 21
125.296575779
 31
0.0
  0
LINE
  8
0
  6
CONTINUOUS
 62
     1
 10
195.258684982
 20
125.296575779
 30
0.0
 11
195.118685609
 21
125.316423182
 31
0.0
  0
LINE
  8
0
  6
CONTINUOUS
 62
     1
 10
195.118685609
 20
125.316423182
 30
0.0
 11
194.983345683
 21
125.297171285
 31
0.0
  0
LINE
  8
0
  6
CONTINUOUS
 62
     1
 10
194.983345683
 20
125.297171285
 30
0.0
 11
194.869571443
 21
125.245949947
 31
0.0
  0
LINE
  8
0
  6
CONTINUOUS
 62
     1
 10
194.869571443
 20
125.245949947
 30
0.0
 11
194.789096688
 21
125.176207886
 31
0.0
  0
LINE
  8
0
  6
CONTINUOUS
 62
     1
 10
194.789096688
 20
125.176207886
 30
0.0
 11
194.740353613
 21
125.09720148
 31
0.0
  0
LINE
  8
0
  6
CONTINUOUS
 62
     1
 10
194.740353613
 20
125.09720148
 30
0.0
 11
194.720001274
 21
124.997232475
 31
0.0
  0
LINE
  8
0
  6
CONTINUOUS
 62
     1
 10
194.720001274
 20
124.997232475
 30
0.0
 11
194.739731052
 21
124.897161938
 31
0.0
  0
LINE
  8
0
  6
CONTINUOUS
 62
     1
 10
194.739731052
 20
124.897161938
 30
0.0
 11
194.788994623
 21
124.81676222
 31
0.0
  0
LINE
  8
0
  6
CONTINUOUS
 62
     1
 10
194.788994623
 20
124.81676222
 30
0.0
 11
194.869305138
 21
124.747071074
 31
0.0
  0
LINE
  8
0
  6
CONTINUOUS
 62
     1
 10
194.869305138
 20
124.747071074
 30
0.0
 11
194.981594671
 21
124.696191438
 31
0.0
  0
LINE
  8
0
  6
CONTINUOUS
 62
     1
 10
194.981594671
 20
124.696191438
 30
0.0
 11
195.121593496
 21
124.676427449
 31
0.0
  0
LINE
  8
0
  6
CONTINUOUS
 62
     1
 10
195.121593496
 20
124.676427449
 30
0.0
 11
195.258944166
 21
124.696350765
 31
0.0
  0
LINE
  8
0
  6
CONTINUOUS
 62
     1
 10
195.258944166
 20
124.696350765
 30
0.0
 11
195.369187725
 21
124.746106101
 31
0.0
  0
LINE
  8
0
  6
CONTINUOUS
 62
     1
 10
195.369187725
 20
124.746106101
 30
0.0
 11
195.455877063
 21
124.822645097
 31
0.0
  0
LINE
  8
0
  6
CONTINUOUS
 62
     1
 10
195.455877063
 20
124.822645097
 30
0.0
 11
195.50568641
 21
124.911587207
 31
0.0
  0
LINE
  8
0
  6
CONTINUOUS
 62
     1
 10
195.50568641
 20
124.911587207
 30
0.0
 11
195.52
 21
124.996424959
 31
0.0
  0
LINE
  8
0
  6
CONTINUOUS
 62
     1
 10
194.723575091
 20
132.371424909
 30
0.0
 11
194.873575091
 21
132.371424909
 31
0.0
  0
LINE
  8
0
  6
CONTINUOUS
 62
     1
 10
194.873575091
 20
132.371424909
 30
0.0
 11
195.023575091
 21
132.371424909
 31
0.0
  0
LINE
  8
0
  6
CONTINUOUS
 62
     1
 10
195.023575091
 20
132.371424909
 30
0.0
 11
195.173575091
 21
132.371424909
 31
0.0
  0
LINE
  8
0
  6
CONTINUOUS
 62
     1
 10
195.173575091
 20
132.371424909
 30
0.0
 11
195.323575091
 21
132.371424909
 31
0.0
  0
LINE
  8
0
  6
CONTINUOUS
 62
     1
 10
195.323575091
 20
132.371424909
 30
0.0
 11
195.473575091
 21
132.371424909
 31
0.0
  0
LINE
  8
0
  6
CONTINUOUS
 62
     1
 10
195.473575091
 20
132.371424909
 30
0.0
 11
195.623575091
 21
132.371424909
 31
0.0
  0
LINE
  8
0
  6
CONTINUOUS
 62
     1
 10
195.623575091
 20
132.371424909
 30
0.0
 11
195.773575091
 21
132.371424909
 31
0.0
  0
LINE
  8
0
  6
CONTINUOUS
 62
     1
 10
195.773575091
 20
132.371424909
 30
0.0
 11
195.923575091
 21
132.371424909
 31
0.0
  0
LINE
  8
0
  6
CONTINUOUS
 62
     1
 10
195.923575091
 20
132.371424909
 30
0.0
 11
196.073575091
 21
132.371424909
 31
0.0
  0
LINE
  8
0
  6
CONTINUOUS
 62
     1
 10
196.073575091
 20
132.371424909
 30
0.0
 11
196.223575091
 21
132.371424909
 31
0.0
  0
LINE
  8
0
  6
CONTINUOUS
 62
     1
 10
196.223575091
 20
132.371424909
 30
0.0
 11
196.373575091
 21
132.371424909
 31
0.0
  0
LINE
  8
0
  6
CONTINUOUS
 62
     1
 10
196.373575091
 20
132.371424909
 30
0.0
 11
196.483575091
 21
132.371424909
 31
0.0
  0
LINE
  8
0
  6
CONTINUOUS
 62
     1
 10
194.875943196
 20
133.366117888
 30
0.0
 11
195.018620975
 21
133.331739551
 31
0.0
  0
LINE
  8
0
  6
CONTINUOUS
 62
     1
 10
195.018620975
 20
133.331739551
 30
0.0
 11
195.164374612
 21
133.304765242
 31
0.0
  0
LINE
  8
0
  6
CONTINUOUS
 62
     1
 10
195.164374612
 20
133.304765242
 30
0.0
 11
195.312406674
 21
133.285548114
 31
0.0
  0
LINE
  8
0
  6
CONTINUOUS
 62
     1
 10
195.312406674
 20
133.285548114
 30
0.0
 11
195.461870903
 21
133.274333262
 31
0.0
  0
LINE
  8
0
  6
CONTINUOUS
 62
     1
 10
195.461870903
 20
133.274333262
 30
0.0
 11
195.611891366
 21
133.271249858
 31
0.0
  0
LINE
  8
0
  6
CONTINUOUS
 62
     1
 10
195.611891366
 20
133.271249858
 30
0.0
 11
195.761582933
 21
133.276307348
 31
0.0
  0
LINE
  8
0
  6
CONTINUOUS
 62
     1
 10
195.761582933
 20
133.276307348
 30
0.0
 11
195.910072061
 21
133.289395933
 31
0.0
  0
LINE
  8
0
  6
CONTINUOUS
 62
     1
 10
195.910072061
 20
133.289395933
 30
0.0
 11
196.056516866
 21
133.310291268
 31
0.0
  0
LINE
  8
0
  6
CONTINUOUS
 62
     1
 10
196.056516866
 20
133.310291268
 30
0.0
 11
196.200125508
 21
133.33866302
 31
0.0
  0
LINE
  8
0
  6
CONTINUOUS
 62
     1
 10
196.200125508
 20
133.33866302
 30
0.0
 11
196.340172095
 21
133.374086729
 31
0.0
  0
LINE
  8
0
  6
CONTINUOUS
 62
     1
 10
196.340172095
 20
133.374086729
 30
0.0
 11
196.405448256
 21
133.433174532
 31
0.0
  0
LINE
  8
0
  6
CONTINUOUS
 62
     1
 10
196.405448256
 20
133.433174532
 30
0.0
 11
196.456057363
 21
133.507888405
 31
0.0
  0
LINE
  8
0
  6
CONTINUOUS
 62
     1
 10
196.456057363
 20
133.507888405
 30
0.0
 11
196.483570024
 21
133.632903257
 31
0.0
  0
LINE
  8
0
  6
CONTINUOUS
 62
     1
 10
196.483570024
 20
133.632903257
 30
0.0
 11
196.464316097
 21
133.735108798
 31
0.0
  0
LINE
  8
0
  6
CONTINUOUS
 62
     1
 10
196.464316097
 20
133.735108798
 30
0.0
 11
196.406591703
 21
133.827973031
 31
0.0
  0
LINE
  8
0
  6
CONTINUOUS
 62
     1
 10
196.406591703
 20
133.827973031
 30
0.0
 11
196.346395215
 21
133.877656137
 31
0.0
  0
LINE
  8
0
  6
CONTINUOUS
 62
     1
 10
196.346395215
 20
133.877656137
 30
0.0
 11
196.200488427
 21
133.923633362
 31
0.0
  0
LINE
  8
0
  6
CONTINUOUS
 62
     1
 10
196.200488427
 20
133.923633362
 30
0.0
 11
196.060951533
 21
133.951328648
 31
0.0
  0
LINE
  8
0
  6
CONTINUOUS
 62
     1
 10
196.060951533
 20
133.951328648
 30
0.0
 11
195.910558148
 21
133.972926075
 31
0.0
  0
LINE
  8
0
  6
CONTINUOUS
 62
     1
 10
195.910558148
 20
133.972926075
 30
0.0
 11
195.761359546
 21
133.986084429
 31
0.0
  0
LINE
  8
0
  6
CONTINUOUS
 62
     1
 10
195.761359546
 20
133.986084429
 30
0.0
 11
195.611359851
 21
133.99113178
 31
0.0
  0
LINE
  8
0
  6
CONTINUOUS
 62
     1
 10
195.611359851
 20
133.99113178
 30
0.0
 11
195.456526273
 21
133.987784376
 31
0.0
  0
LINE
  8
0
  6
CONTINUOUS
 62
     1
 10
195.456526273
 20
133.987784376
 30
0.0
 11
195.312644604
 21
133.976854403
 31
0.0
  0
LINE
  8
0
  6
CONTINUOUS
 62
     1
 10
195.312644604
 20
133.976854403
 30
0.0
 11
195.163339701
 21
133.957449801
 31
0.0
  0
LINE
  8
0
  6
CONTINUOUS
 62
     1
 10
195.163339701
 20
133.957449801
 30
0.0
 11
195.019736995
 21
133.930876071
 31
0.0
  0
LINE
  8
0
  6
CONTINUOUS
 62
     1
 10
195.019736995
 20
133.930876071
 30
0.0
 11
194.872900582
 21
133.89488903
 31
0.0
  0
LINE
  8
0
  6
CONTINUOUS
 62
     1
 10
194.872900582
 20
133.89488903
 30
0.0
 11
194.795222287
 21
133.842745611
 31
0.0
  0
LINE
  8
0
  6
CONTINUOUS
 62
     1
 10
194.795222287
 20
133.842745611
 30
0.0
 11
194.732112144
 21
133.756636789
 31
0.0
  0
LINE
  8
0
  6
CONTINUOUS
 62
     1
 10
194.732112144
 20
133.756636789
 30
0.0
 11
194.703767772
 21
133.641758763
 31
0.0
  0
LINE
  8
0
  6
CONTINUOUS
 62
     1
 10
194.703767772
 20
133.641758763
 30
0.0
 11
194.731107106
 21
133.507857993
 31
0.0
  0
LINE
  8
0
  6
CONTINUOUS
 62
     1
 10
194.731107106
 20
133.507857993
 30
0.0
 11
194.796579421
 21
133.41836825
 31
0.0
  0
LINE
  8
0
  6
CONTINUOUS
 62
     1
 10
194.796579421
 20
133.41836825
 30
0.0
 11
194.875943196
 21
133.366117888
 31
0.0
  0
LINE
  8
0
  6
CONTINUOUS
 62
     1
 10
203.1
 20
112.325
 30
0.0
 11
203.1
 21
113.675
 31
0.0
  0
LINE
  8
0
  6
CONTINUOUS
 62
     1
 10
202.35
 20
113.0
 30
0.0
 11
200.40539448
 21
112.46965304
 31
0.0
  0
LINE
  8
0
  6
CONTINUOUS
 62
     1
 10
200.40539448
 20
113.53034696
 30
0.0
 11
202.35
 21
113.0
 31
0.0
  0
TEXT
  8
0
  6
CONTINUOUS
 62
     2
 10
97.0
 20
116.52
 30
0.3
 40
3.0
  1
４８．６
 50
90.0
 41
0.6
 51
0.0
  7
KANJI0
  0
TEXT
  8
0
  6
CONTINUOUS
 62
     2
 10
97.0
 20
125.07
 30
0.18
 40
1.8
  1
±０．５
 50
90.0
 41
0.6
 51
0.0
  7
KANJI2
  0
LINE
  8
0
  6
CONTINUOUS
 62
     1
 10
18.25
 20
35.75
 30
0.0
 11
33.75
 21
35.75
 31
0.0
  0
LINE
  8
0
  6
CONTINUOUS
 62
     1
 10
33.75
 20
35.75
 30
0.0
 11
33.75
 21
90.25
 31
0.0
  0
LINE
  8
0
  6
CONTINUOUS
 62
     1
 10
33.75
 20
90.25
 30
0.0
 11
18.25
 21
90.25
 31
0.0
  0
LINE
  8
0
  6
CONTINUOUS
 62
     1
 10
18.25
 20
90.25
 30
0.0
 11
18.25
 21
35.75
 31
0.0
  0
CIRCLE
  8
0
  6
CONTINUOUS
 62
     1
 10
26.0
 20
94.0
 30
0.0
 40
2.0
  0
CIRCLE
  8
0
  6
CONTINUOUS
 62
     1
 10
26.0
 20
32.0
 30
0.0
 40
2.0
  0
LINE
  8
0
  6
CONTINUOUS
 62
     2
 10
23.0
 20
94.0
 30
0.0
 11
41.75
 21
94.0
 31
0.0
  0
LINE
  8
0
  6
CONTINUOUS
 62
     2
 10
39.75
 20
94.0
 30
0.0
 11
39.102952387
 21
91.585185434
 31
0.0
  0
LINE
  8
0
  6
CONTINUOUS
 62
     2
 10
39.75
 20
94.0
 30
0.0
 11
40.397047613
 21
91.585185434
 31
0.0
  0
LINE
  8
0
  6
CONTINUOUS
 62
     2
 10
39.75
 20
94.0
 30
0.0
 11
39.75
 21
32.0
 31
0.0
  0
LINE
  8
0
  6
CONTINUOUS
 62
     2
 10
39.75
 20
32.0
 30
0.0
 11
40.397047613
 21
34.414814566
 31
0.0
  0
LINE
  8
0
  6
CONTINUOUS
 62
     2
 10
39.75
 20
32.0
 30
0.0
 11
39.102952387
 21
34.414814566
 31
0.0
  0
LINE
  8
0
  6
CONTINUOUS
 62
     2
 10
23.0
 20
32.0
 30
0.0
 11
41.75
 21
32.0
 31
0.0
  0
TEXT
  8
0
  6
CONTINUOUS
 62
     2
 10
38.75
 20
58.62
 30
0.3
 40
3.0
  1
６２
 50
90.0
 41
0.6
 51
0.0
  7
KANJI0
  0
TEXT
  8
0
  6
CONTINUOUS
 62
     2
 10
38.75
 20
62.97
 30
0.18
 40
1.8
  1
±０．２
 50
90.0
 41
0.6
 51
0.0
  7
KANJI2
  0
LINE
  8
0
  6
CONTINUOUS
 62
     2
 10
18.25
 20
79.0
 30
0.0
 11
20.664814566
 21
78.352952387
 31
0.0
  0
LINE
  8
0
  6
CONTINUOUS
 62
     2
 10
18.25
 20
79.0
 30
0.0
 11
20.664814566
 21
79.647047613
 31
0.0
  0
LINE
  8
0
  6
CONTINUOUS
 62
     2
 10
18.25
 20
79.0
 30
0.0
 11
33.75
 21
79.0
 31
0.0
  0
LINE
  8
0
  6
CONTINUOUS
 62
     2
 10
33.75
 20
79.0
 30
0.0
 11
31.335185434
 21
79.647047613
 31
0.0
  0
LINE
  8
0
  6
CONTINUOUS
 62
     2
 10
33.75
 20
79.0
 30
0.0
 11
31.335185434
 21
78.352952387
 31
0.0
  0
TEXT
  8
0
  6
CONTINUOUS
 62
     2
 10
19.52
 20
80.0
 30
0.3
 40
3.0
  1
１５．５
 50
0.0
 41
0.6
 51
0.0
  7
KANJI0
  0
TEXT
  8
0
  6
CONTINUOUS
 62
     2
 10
28.07
 20
80.0
 30
0.18
 40
1.8
  1
－０
 50
0.0
 41
0.6
 51
0.0
  7
KANJI2
  0
TEXT
  8
0
  6
CONTINUOUS
 62
     2
 10
28.07
 20
81.8
 30
0.18
 40
1.8
  1
＋０．５
 50
0.0
 41
0.6
 51
0.0
  7
KANJI2
  0
LINE
  8
0
  6
CONTINUOUS
 62
     2
 10
23.25
 20
90.25
 30
0.0
 11
22.602952387
 21
87.835185434
 31
0.0
  0
LINE
  8
0
  6
CONTINUOUS
 62
     2
 10
23.25
 20
90.25
 30
0.0
 11
23.897047613
 21
87.835185434
 31
0.0
  0
LINE
  8
0
  6
CONTINUOUS
 62
     2
 10
23.25
 20
35.75
 30
0.0
 11
23.897047613
 21
38.164814566
 31
0.0
  0
LINE
  8
0
  6
CONTINUOUS
 62
     2
 10
23.25
 20
35.75
 30
0.0
 11
22.602952387
 21
38.164814566
 31
0.0
  0
TEXT
  8
0
  6
CONTINUOUS
 62
     2
 10
22.25
 20
56.52
 30
0.3
 40
3.0
  1
５４．５
 50
90.0
 41
0.6
 51
0.0
  7
KANJI0
  0
TEXT
  8
0
  6
CONTINUOUS
 62
     2
 10
22.25
 20
65.07
 30
0.18
 40
1.8
  1
－０
 50
90.0
 41
0.6
 51
0.0
  7
KANJI2
  0
TEXT
  8
0
  6
CONTINUOUS
 62
     2
 10
20.45
 20
65.07
 30
0.18
 40
1.8
  1
＋０．５
 50
90.0
 41
0.6
 51
0.0
  7
KANJI2
  0
TEXT
  8
0
  6
CONTINUOUS
 62
     2
 10
15.65
 20
19.25
 30
0.4
 40
4.0
  1
パネルカット図
 50
0.0
 41
0.9
 51
0.0
  7
KANJI3
  0
LINE
  8
0
  6
CONTINUOUS
 62
     2
 10
14.65
 20
18.25
 30
0.0
 11
43.65
 21
18.25
 31
0.0
  0
LINE
  8
0
  6
CONTINUOUS
 62
     2
 10
26.0
 20
94.0
 30
0.0
 11
27.767766953
 21
95.767766953
 31
0.0
  0
LINE
  8
0
  6
CONTINUOUS
 62
     2
 10
26.0
 20
94.0
 30
0.0
 11
26.647047613
 21
96.414814566
 31
0.0
  0
LINE
  8
0
  6
CONTINUOUS
 62
     2
 10
26.0
 20
94.0
 30
0.0
 11
32.92820323
 21
106.0
 31
0.0
  0
TEXT
  8
0
  6
CONTINUOUS
 62
     2
 10
32.92820323
 20
107.0
 30
0.3
 40
3.0
  1
２－３φ
 50
0.0
 41
0.9
 51
0.0
  7
KANJI1
  0
LINE
  8
0
  6
CONTINUOUS
 62
     2
 10
32.92820323
 20
106.0
 30
0.0
 11
44.52820323
 21
106.0
 31
0.0
  0
LINE
  8
0
  6
CONTINUOUS
 62
     2
 10
51.47
 20
129.0
 30
0.0
 11
50.822952387
 21
126.585185434
 31
0.0
  0
LINE
  8
0
  6
CONTINUOUS
 62
     2
 10
51.47
 20
129.0
 30
0.0
 11
52.117047613
 21
126.585185434
 31
0.0
  0
LINE
  8
0
  6
CONTINUOUS
 62
     2
 10
51.47
 20
129.0
 30
0.0
 11
51.47
 21
97.0
 31
0.0
  0
LINE
  8
0
  6
CONTINUOUS
 62
     2
 10
51.47
 20
97.0
 30
0.0
 11
52.117047613
 21
99.414814566
 31
0.0
  0
LINE
  8
0
  6
CONTINUOUS
 62
     2
 10
51.47
 20
97.0
 30
0.0
 11
50.822952387
 21
99.414814566
 31
0.0
  0
TEXT
  8
0
  6
CONTINUOUS
 62
     2
 10
50.47
 20
111.05
 30
0.3
 40
3.0
  1
３２
 50
90.0
 41
0.6
 51
0.0
  7
KANJI0
  0
LINE
  8
0
  6
CONTINUOUS
 62
     2
 10
55.47
 20
129.0
 30
0.0
 11
49.47
 21
129.0
 31
0.0
  0
LINE
  8
0
  6
CONTINUOUS
 62
     2
 10
55.47
 20
97.0
 30
0.0
 11
49.47
 21
97.0
 31
0.0
  0
LINE
  8
0
  6
LTYPE2
 62
     2
 10
118.5
 20
144.0
 30
0.0
 11
122.5
 21
144.0
 31
0.0
  0
LINE
  8
0
  6
LTYPE2
 62
     2
 10
118.5
 20
82.0
 30
0.0
 11
122.5
 21
82.0
 31
0.0
  0
LINE
  8
0
  6
CONTINUOUS
 62
     2
 10
160.0
 20
93.0
 30
0.0
 11
158.0
 21
93.0
 31
0.0
  0
LINE
  8
0
  6
CONTINUOUS
 62
     2
 10
160.0
 20
93.0
 30
0.0
 11
157.0
 21
93.0
 31
0.0
  0
LINE
  8
0
  6
CONTINUOUS
 62
     2
 10
160.0
 20
92.89
 30
0.0
 11
157.0
 21
92.89
 31
0.0
  0
LINE
  8
0
  6
CONTINUOUS
 62
     2
 10
160.0
 20
93.11
 30
0.0
 11
157.0
 21
93.11
 31
0.0
  0
LINE
  8
0
  6
CONTINUOUS
 62
     2
 10
160.0
 20
95.0
 30
0.0
 11
158.0
 21
95.0
 31
0.0
  0
LINE
  8
0
  6
CONTINUOUS
 62
     2
 10
160.0
 20
97.0
 30
0.0
 11
157.0
 21
97.0
 31
0.0
  0
LINE
  8
0
  6
CONTINUOUS
 62
     2
 10
160.0
 20
96.89
 30
0.0
 11
157.0
 21
96.89
 31
0.0
  0
LINE
  8
0
  6
CONTINUOUS
 62
     2
 10
160.0
 20
97.11
 30
0.0
 11
157.0
 21
97.11
 31
0.0
  0
LINE
  8
0
  6
CONTINUOUS
 62
     2
 10
160.0
 20
99.0
 30
0.0
 11
158.0
 21
99.0
 31
0.0
  0
LINE
  8
0
  6
CONTINUOUS
 62
     2
 10
160.0
 20
101.0
 30
0.0
 11
157.0
 21
101.0
 31
0.0
  0
LINE
  8
0
  6
CONTINUOUS
 62
     2
 10
160.0
 20
100.89
 30
0.0
 11
157.0
 21
100.89
 31
0.0
  0
LINE
  8
0
  6
CONTINUOUS
 62
     2
 10
160.0
 20
101.11
 30
0.0
 11
157.0
 21
101.11
 31
0.0
  0
LINE
  8
0
  6
CONTINUOUS
 62
     2
 10
160.0
 20
103.0
 30
0.0
 11
158.0
 21
103.0
 31
0.0
  0
LINE
  8
0
  6
CONTINUOUS
 62
     2
 10
160.0
 20
105.0
 30
0.0
 11
157.0
 21
105.0
 31
0.0
  0
LINE
  8
0
  6
CONTINUOUS
 62
     2
 10
160.0
 20
104.89
 30
0.0
 11
157.0
 21
104.89
 31
0.0
  0
LINE
  8
0
  6
CONTINUOUS
 62
     2
 10
160.0
 20
105.11
 30
0.0
 11
157.0
 21
105.11
 31
0.0
  0
LINE
  8
0
  6
CONTINUOUS
 62
     2
 10
160.0
 20
107.0
 30
0.0
 11
158.0
 21
107.0
 31
0.0
  0
LINE
  8
0
  6
CONTINUOUS
 62
     2
 10
160.0
 20
109.0
 30
0.0
 11
157.0
 21
109.0
 31
0.0
  0
LINE
  8
0
  6
CONTINUOUS
 62
     2
 10
160.0
 20
108.89
 30
0.0
 11
157.0
 21
108.89
 31
0.0
  0
LINE
  8
0
  6
CONTINUOUS
 62
     2
 10
160.0
 20
109.11
 30
0.0
 11
157.0
 21
109.11
 31
0.0
  0
LINE
  8
0
  6
CONTINUOUS
 62
     2
 10
160.0
 20
111.0
 30
0.0
 11
158.0
 21
111.0
 31
0.0
  0
LINE
  8
0
  6
CONTINUOUS
 62
     2
 10
160.0
 20
113.0
 30
0.0
 11
157.0
 21
113.0
 31
0.0
  0
LINE
  8
0
  6
CONTINUOUS
 62
     2
 10
160.0
 20
112.89
 30
0.0
 11
157.0
 21
112.89
 31
0.0
  0
LINE
  8
0
  6
CONTINUOUS
 62
     2
 10
160.0
 20
113.11
 30
0.0
 11
157.0
 21
113.11
 31
0.0
  0
LINE
  8
0
  6
CONTINUOUS
 62
     2
 10
160.0
 20
115.0
 30
0.0
 11
158.0
 21
115.0
 31
0.0
  0
LINE
  8
0
  6
CONTINUOUS
 62
     2
 10
160.0
 20
117.0
 30
0.0
 11
157.0
 21
117.0
 31
0.0
  0
LINE
  8
0
  6
CONTINUOUS
 62
     2
 10
160.0
 20
116.89
 30
0.0
 11
157.0
 21
116.89
 31
0.0
  0
LINE
  8
0
  6
CONTINUOUS
 62
     2
 10
160.0
 20
117.11
 30
0.0
 11
157.0
 21
117.11
 31
0.0
  0
LINE
  8
0
  6
CONTINUOUS
 62
     2
 10
160.0
 20
119.0
 30
0.0
 11
158.0
 21
119.0
 31
0.0
  0
LINE
  8
0
  6
CONTINUOUS
 62
     2
 10
160.0
 20
121.0
 30
0.0
 11
157.0
 21
121.0
 31
0.0
  0
LINE
  8
0
  6
CONTINUOUS
 62
     2
 10
160.0
 20
120.89
 30
0.0
 11
157.0
 21
120.89
 31
0.0
  0
LINE
  8
0
  6
CONTINUOUS
 62
     2
 10
160.0
 20
121.11
 30
0.0
 11
157.0
 21
121.11
 31
0.0
  0
LINE
  8
0
  6
CONTINUOUS
 62
     2
 10
160.0
 20
123.0
 30
0.0
 11
158.0
 21
123.0
 31
0.0
  0
LINE
  8
0
  6
CONTINUOUS
 62
     2
 10
160.0
 20
125.0
 30
0.0
 11
157.0
 21
125.0
 31
0.0
  0
LINE
  8
0
  6
CONTINUOUS
 62
     2
 10
160.0
 20
124.89
 30
0.0
 11
157.0
 21
124.89
 31
0.0
  0
LINE
  8
0
  6
CONTINUOUS
 62
     2
 10
160.0
 20
125.11
 30
0.0
 11
157.0
 21
125.11
 31
0.0
  0
LINE
  8
0
  6
CONTINUOUS
 62
     2
 10
160.0
 20
127.0
 30
0.0
 11
158.0
 21
127.0
 31
0.0
  0
LINE
  8
0
  6
CONTINUOUS
 62
     2
 10
160.0
 20
129.0
 30
0.0
 11
157.0
 21
129.0
 31
0.0
  0
LINE
  8
0
  6
CONTINUOUS
 62
     2
 10
160.0
 20
128.89
 30
0.0
 11
157.0
 21
128.89
 31
0.0
  0
LINE
  8
0
  6
CONTINUOUS
 62
     2
 10
160.0
 20
129.11
 30
0.0
 11
157.0
 21
129.11
 31
0.0
  0
LINE
  8
0
  6
CONTINUOUS
 62
     2
 10
160.0
 20
131.0
 30
0.0
 11
158.0
 21
131.0
 31
0.0
  0
LINE
  8
0
  6
CONTINUOUS
 62
     2
 10
160.0
 20
133.0
 30
0.0
 11
157.0
 21
133.0
 31
0.0
  0
LINE
  8
0
  6
CONTINUOUS
 62
     2
 10
160.0
 20
132.89
 30
0.0
 11
157.0
 21
132.89
 31
0.0
  0
LINE
  8
0
  6
CONTINUOUS
 62
     2
 10
160.0
 20
133.11
 30
0.0
 11
157.0
 21
133.11
 31
0.0
  0
LINE
  8
0
  6
CONTINUOUS
 62
     1
 10
161.025
 20
111.17496
 30
0.0
 11
162.375
 21
111.17496
 31
0.0
  0
LINE
  8
0
  6
CONTINUOUS
 62
     1
 10
161.7
 20
111.92496
 30
0.0
 11
161.16965304
 21
113.86956552
 31
0.0
  0
LINE
  8
0
  6
CONTINUOUS
 62
     1
 10
162.23034696
 20
113.86956552
 30
0.0
 11
161.7
 21
111.92496
 31
0.0
  0
LINE
  8
0
  6
CONTINUOUS
 62
     1
 10
155.916117888
 20
93.727631895
 30
0.0
 11
155.881739551
 21
93.584954116
 31
0.0
  0
LINE
  8
0
  6
CONTINUOUS
 62
     1
 10
155.881739551
 20
93.584954116
 30
0.0
 11
155.854765242
 21
93.439200479
 31
0.0
  0
LINE
  8
0
  6
CONTINUOUS
 62
     1
 10
155.854765242
 20
93.439200479
 30
0.0
 11
155.835548114
 21
93.291168417
 31
0.0
  0
LINE
  8
0
  6
CONTINUOUS
 62
     1
 10
155.835548114
 20
93.291168417
 30
0.0
 11
155.824333262
 21
93.141704187
 31
0.0
  0
LINE
  8
0
  6
CONTINUOUS
 62
     1
 10
155.824333262
 20
93.141704187
 30
0.0
 11
155.821249858
 21
92.991683724
 31
0.0
  0
LINE
  8
0
  6
CONTINUOUS
 62
     1
 10
155.821249858
 20
92.991683724
 30
0.0
 11
155.826307348
 21
92.841992158
 31
0.0
  0
LINE
  8
0
  6
CONTINUOUS
 62
     1
 10
155.826307348
 20
92.841992158
 30
0.0
 11
155.839395933
 21
92.69350303
 31
0.0
  0
LINE
  8
0
  6
CONTINUOUS
 62
     1
 10
155.839395933
 20
92.69350303
 30
0.0
 11
155.860291268
 21
92.547058225
 31
0.0
  0
LINE
  8
0
  6
CONTINUOUS
 62
     1
 10
155.860291268
 20
92.547058225
 30
0.0
 11
155.88866302
 21
92.403449583
 31
0.0
  0
LINE
  8
0
  6
CONTINUOUS
 62
     1
 10
155.88866302
 20
92.403449583
 30
0.0
 11
155.924086729
 21
92.263402995
 31
0.0
  0
LINE
  8
0
  6
CONTINUOUS
 62
     1
 10
155.924086729
 20
92.263402995
 30
0.0
 11
155.983174532
 21
92.198126835
 31
0.0
  0
LINE
  8
0
  6
CONTINUOUS
 62
     1
 10
155.983174532
 20
92.198126835
 30
0.0
 11
156.057888405
 21
92.147517728
 31
0.0
  0
LINE
  8
0
  6
CONTINUOUS
 62
     1
 10
156.057888405
 20
92.147517728
 30
0.0
 11
156.182903257
 21
92.120005066
 31
0.0
  0
LINE
  8
0
  6
CONTINUOUS
 62
     1
 10
156.182903257
 20
92.120005066
 30
0.0
 11
156.285108798
 21
92.139258994
 31
0.0
  0
LINE
  8
0
  6
CONTINUOUS
 62
     1
 10
156.285108798
 20
92.139258994
 30
0.0
 11
156.377973031
 21
92.196983388
 31
0.0
  0
LINE
  8
0
  6
CONTINUOUS
 62
     1
 10
156.377973031
 20
92.196983388
 30
0.0
 11
156.427656137
 21
92.257179876
 31
0.0
  0
LINE
  8
0
  6
CONTINUOUS
 62
     1
 10
156.427656137
 20
92.257179876
 30
0.0
 11
156.473633362
 21
92.403086664
 31
0.0
  0
LINE
  8
0
  6
CONTINUOUS
 62
     1
 10
156.473633362
 20
92.403086664
 30
0.0
 11
156.501328648
 21
92.542623558
 31
0.0
  0
LINE
  8
0
  6
CONTINUOUS
 62
     1
 10
156.501328648
 20
92.542623558
 30
0.0
 11
156.522926075
 21
92.693016943
 31
0.0
  0
LINE
  8
0
  6
CONTINUOUS
 62
     1
 10
156.522926075
 20
92.693016943
 30
0.0
 11
156.536084429
 21
92.842215545
 31
0.0
  0
LINE
  8
0
  6
CONTINUOUS
 62
     1
 10
156.536084429
 20
92.842215545
 30
0.0
 11
156.54113178
 21
92.99221524
 31
0.0
  0
LINE
  8
0
  6
CONTINUOUS
 62
     1
 10
156.54113178
 20
92.99221524
 30
0.0
 11
156.537784376
 21
93.147048818
 31
0.0
  0
LINE
  8
0
  6
CONTINUOUS
 62
     1
 10
156.537784376
 20
93.147048818
 30
0.0
 11
156.526854403
 21
93.290930487
 31
0.0
  0
LINE
  8
0
  6
CONTINUOUS
 62
     1
 10
156.526854403
 20
93.290930487
 30
0.0
 11
156.507449801
 21
93.44023539
 31
0.0
  0
LINE
  8
0
  6
CONTINUOUS
 62
     1
 10
156.507449801
 20
93.44023539
 30
0.0
 11
156.480876071
 21
93.583838096
 31
0.0
  0
LINE
  8
0
  6
CONTINUOUS
 62
     1
 10
156.480876071
 20
93.583838096
 30
0.0
 11
156.44488903
 21
93.730674508
 31
0.0
  0
LINE
  8
0
  6
CONTINUOUS
 62
     1
 10
156.44488903
 20
93.730674508
 30
0.0
 11
156.392745611
 21
93.808352803
 31
0.0
  0
LINE
  8
0
  6
CONTINUOUS
 62
     1
 10
156.392745611
 20
93.808352803
 30
0.0
 11
156.306636789
 21
93.871462947
 31
0.0
  0
LINE
  8
0
  6
CONTINUOUS
 62
     1
 10
156.306636789
 20
93.871462947
 30
0.0
 11
156.191758763
 21
93.899807318
 31
0.0
  0
LINE
  8
0
  6
CONTINUOUS
 62
     1
 10
156.191758763
 20
93.899807318
 30
0.0
 11
156.057857993
 21
93.872467984
 31
0.0
  0
LINE
  8
0
  6
CONTINUOUS
 62
     1
 10
156.057857993
 20
93.872467984
 30
0.0
 11
155.96836825
 21
93.806995669
 31
0.0
  0
LINE
  8
0
  6
CONTINUOUS
 62
     1
 10
155.96836825
 20
93.806995669
 30
0.0
 11
155.916117888
 21
93.727631895
 31
0.0
  0
LINE
  8
0
  6
CONTINUOUS
 62
     1
 10
155.786424909
 20
101.52
 30
0.0
 11
155.795428154
 21
101.600007985
 31
0.0
  0
LINE
  8
0
  6
CONTINUOUS
 62
     1
 10
155.795428154
 20
101.600007985
 30
0.0
 11
155.821306692
 21
101.674590249
 31
0.0
  0
LINE
  8
0
  6
CONTINUOUS
 62
     1
 10
155.821306692
 20
101.674590249
 30
0.0
 11
155.857546091
 21
101.734823249
 31
0.0
  0
LINE
  8
0
  6
CONTINUOUS
 62
     1
 10
155.857546091
 20
101.734823249
 30
0.0
 11
155.905297781
 21
101.787315746
 31
0.0
  0
LINE
  8
0
  6
CONTINUOUS
 62
     1
 10
155.905297781
 20
101.787315746
 30
0.0
 11
155.960679569
 21
101.82838072
 31
0.0
  0
LINE
  8
0
  6
CONTINUOUS
 62
     1
 10
155.960679569
 20
101.82838072
 30
0.0
 11
156.032934895
 21
101.861643113
 31
0.0
  0
LINE
  8
0
  6
CONTINUOUS
 62
     1
 10
156.032934895
 20
101.861643113
 30
0.0
 11
156.133188273
 21
101.879756573
 31
0.0
  0
LINE
  8
0
  6
CONTINUOUS
 62
     1
 10
156.133188273
 20
101.879756573
 30
0.0
 11
156.236746532
 21
101.8684853
 31
0.0
  0
LINE
  8
0
  6
CONTINUOUS
 62
     1
 10
156.236746532
 20
101.8684853
 30
0.0
 11
156.310252863
 21
101.840562633
 31
0.0
  0
LINE
  8
0
  6
CONTINUOUS
 62
     1
 10
156.310252863
 20
101.840562633
 30
0.0
 11
156.369642082
 21
101.802443081
 31
0.0
  0
LINE
  8
0
  6
CONTINUOUS
 62
     1
 10
156.369642082
 20
101.802443081
 30
0.0
 11
156.420619788
 21
101.753274877
 31
0.0
  0
LINE
  8
0
  6
CONTINUOUS
 62
     1
 10
156.420619788
 20
101.753274877
 30
0.0
 11
156.45981333
 21
101.697165736
 31
0.0
  0
LINE
  8
0
  6
CONTINUOUS
 62
     1
 10
156.45981333
 20
101.697165736
 30
0.0
 11
156.491059859
 21
101.624051679
 31
0.0
  0
LINE
  8
0
  6
CONTINUOUS
 62
     1
 10
156.491059859
 20
101.624051679
 30
0.0
 11
156.505318126
 21
101.548207426
 31
0.0
  0
LINE
  8
0
  6
CONTINUOUS
 62
     1
 10
156.505318126
 20
101.548207426
 30
0.0
 11
156.503403555
 21
101.473457048
 31
0.0
  0
LINE
  8
0
  6
CONTINUOUS
 62
     1
 10
156.503403555
 20
101.473457048
 30
0.0
 11
156.484480426
 21
101.396232204
 31
0.0
  0
LINE
  8
0
  6
CONTINUOUS
 62
     1
 10
156.484480426
 20
101.396232204
 30
0.0
 11
156.450363182
 21
101.326534244
 31
0.0
  0
LINE
  8
0
  6
CONTINUOUS
 62
     1
 10
156.450363182
 20
101.326534244
 30
0.0
 11
156.407076561
 21
101.25209975
 31
0.0
  0
LINE
  8
0
  6
CONTINUOUS
 62
     1
 10
156.407076561
 20
101.25209975
 30
0.0
 11
156.341890703
 21
101.14000792
 31
0.0
  0
LINE
  8
0
  6
CONTINUOUS
 62
     1
 10
156.341890703
 20
101.14000792
 30
0.0
 11
156.276704844
 21
101.027916091
 31
0.0
  0
LINE
  8
0
  6
CONTINUOUS
 62
     1
 10
156.276704844
 20
101.027916091
 30
0.0
 11
156.211518985
 21
100.915824262
 31
0.0
  0
LINE
  8
0
  6
CONTINUOUS
 62
     1
 10
156.211518985
 20
100.915824262
 30
0.0
 11
156.146333126
 21
100.803732433
 31
0.0
  0
LINE
  8
0
  6
CONTINUOUS
 62
     1
 10
156.146333126
 20
100.803732433
 30
0.0
 11
156.081147267
 21
100.691640603
 31
0.0
  0
LINE
  8
0
  6
CONTINUOUS
 62
     1
 10
156.081147267
 20
100.691640603
 30
0.0
 11
156.015961408
 21
100.579548774
 31
0.0
  0
LINE
  8
0
  6
CONTINUOUS
 62
     1
 10
156.015961408
 20
100.579548774
 30
0.0
 11
155.950775549
 21
100.467456945
 31
0.0
  0
LINE
  8
0
  6
CONTINUOUS
 62
     1
 10
155.950775549
 20
100.467456945
 30
0.0
 11
155.88558969
 21
100.355365116
 31
0.0
  0
LINE
  8
0
  6
CONTINUOUS
 62
     1
 10
155.88558969
 20
100.355365116
 30
0.0
 11
155.820403831
 21
100.243273286
 31
0.0
  0
LINE
  8
0
  6
CONTINUOUS
 62
     1
 10
155.820403831
 20
100.243273286
 30
0.0
 11
155.74871551
 21
100.12
 31
0.0
  0
LINE
  8
0
  6
CONTINUOUS
 62
     1
 10
155.74871551
 20
100.12
 30
0.0
 11
155.89871551
 21
100.12
 31
0.0
  0
LINE
  8
0
  6
CONTINUOUS
 62
     1
 10
155.89871551
 20
100.12
 30
0.0
 11
156.04871551
 21
100.12
 31
0.0
  0
LINE
  8
0
  6
CONTINUOUS
 62
     1
 10
156.04871551
 20
100.12
 30
0.0
 11
156.19871551
 21
100.12
 31
0.0
  0
LINE
  8
0
  6
CONTINUOUS
 62
     1
 10
156.19871551
 20
100.12
 30
0.0
 11
156.34871551
 21
100.12
 31
0.0
  0
LINE
  8
0
  6
CONTINUOUS
 62
     1
 10
156.34871551
 20
100.12
 30
0.0
 11
156.506424919
 21
100.12
 31
0.0
  0
LINE
  8
0
  6
CONTINUOUS
 62
     1
 10
156.306424909
 20
108.12
 30
0.0
 11
156.306424909
 21
108.27
 31
0.0
  0
LINE
  8
0
  6
CONTINUOUS
 62
     1
 10
156.306424909
 20
108.27
 30
0.0
 11
156.306424909
 21
108.42
 31
0.0
  0
LINE
  8
0
  6
CONTINUOUS
 62
     1
 10
156.306424909
 20
108.42
 30
0.0
 11
156.306424909
 21
108.57
 31
0.0
  0
LINE
  8
0
  6
CONTINUOUS
 62
     1
 10
156.306424909
 20
108.57
 30
0.0
 11
156.306424909
 21
108.72
 31
0.0
  0
LINE
  8
0
  6
CONTINUOUS
 62
     1
 10
156.306424909
 20
108.72
 30
0.0
 11
156.306424909
 21
108.87
 31
0.0
  0
LINE
  8
0
  6
CONTINUOUS
 62
     1
 10
156.306424909
 20
108.87
 30
0.0
 11
156.306424909
 21
109.02
 31
0.0
  0
LINE
  8
0
  6
CONTINUOUS
 62
     1
 10
156.306424909
 20
109.02
 30
0.0
 11
156.306424909
 21
109.22
 31
0.0
  0
LINE
  8
0
  6
CONTINUOUS
 62
     1
 10
156.306424909
 20
109.22
 30
0.0
 11
156.306424909
 21
109.07
 31
0.0
  0
LINE
  8
0
  6
CONTINUOUS
 62
     1
 10
156.306424909
 20
109.07
 30
0.0
 11
156.306424909
 21
108.92
 31
0.0
  0
LINE
  8
0
  6
CONTINUOUS
 62
     1
 10
156.306424909
 20
108.92
 30
0.0
 11
156.306424909
 21
108.77
 31
0.0
  0
LINE
  8
0
  6
CONTINUOUS
 62
     1
 10
156.306424909
 20
108.77
 30
0.0
 11
156.306424909
 21
108.62
 31
0.0
  0
LINE
  8
0
  6
CONTINUOUS
 62
     1
 10
156.306424909
 20
108.62
 30
0.0
 11
156.306424909
 21
108.52
 31
0.0
  0
LINE
  8
0
  6
CONTINUOUS
 62
     1
 10
156.306424909
 20
108.52
 30
0.0
 11
156.506424909
 21
108.52
 31
0.0
  0
LINE
  8
0
  6
CONTINUOUS
 62
     1
 10
156.506424909
 20
108.52
 30
0.0
 11
156.356424909
 21
108.52
 31
0.0
  0
LINE
  8
0
  6
CONTINUOUS
 62
     1
 10
156.356424909
 20
108.52
 30
0.0
 11
156.206424909
 21
108.52
 31
0.0
  0
LINE
  8
0
  6
CONTINUOUS
 62
     1
 10
156.206424909
 20
108.52
 30
0.0
 11
156.056424909
 21
108.52
 31
0.0
  0
LINE
  8
0
  6
CONTINUOUS
 62
     1
 10
156.056424909
 20
108.52
 30
0.0
 11
155.906424909
 21
108.52
 31
0.0
  0
LINE
  8
0
  6
CONTINUOUS
 62
     1
 10
155.906424909
 20
108.52
 30
0.0
 11
155.786424909
 21
108.52
 31
0.0
  0
LINE
  8
0
  6
CONTINUOUS
 62
     1
 10
155.786424909
 20
108.52
 30
0.0
 11
155.820873185
 21
108.66162069
 31
0.0
  0
LINE
  8
0
  6
CONTINUOUS
 62
     1
 10
155.820873185
 20
108.66162069
 30
0.0
 11
155.855321461
 21
108.803241379
 31
0.0
  0
LINE
  8
0
  6
CONTINUOUS
 62
     1
 10
155.855321461
 20
108.803241379
 30
0.0
 11
155.889769737
 21
108.944862069
 31
0.0
  0
LINE
  8
0
  6
CONTINUOUS
 62
     1
 10
155.889769737
 20
108.944862069
 30
0.0
 11
155.924218013
 21
109.086482759
 31
0.0
  0
LINE
  8
0
  6
CONTINUOUS
 62
     1
 10
155.924218013
 20
109.086482759
 30
0.0
 11
155.958666289
 21
109.228103448
 31
0.0
  0
LINE
  8
0
  6
CONTINUOUS
 62
     1
 10
155.958666289
 20
109.228103448
 30
0.0
 11
155.993114565
 21
109.369724138
 31
0.0
  0
LINE
  8
0
  6
CONTINUOUS
 62
     1
 10
155.993114565
 20
109.369724138
 30
0.0
 11
156.02756284
 21
109.511344828
 31
0.0
  0
LINE
  8
0
  6
CONTINUOUS
 62
     1
 10
156.02756284
 20
109.511344828
 30
0.0
 11
156.062011116
 21
109.652965517
 31
0.0
  0
LINE
  8
0
  6
CONTINUOUS
 62
     1
 10
156.062011116
 20
109.652965517
 30
0.0
 11
156.096459392
 21
109.794586207
 31
0.0
  0
LINE
  8
0
  6
CONTINUOUS
 62
     1
 10
156.096459392
 20
109.794586207
 30
0.0
 11
156.11806272
 21
109.883399888
 31
0.0
  0
LINE
  8
0
  6
CONTINUOUS
 62
     1
 10
155.766424909
 20
116.6
 30
0.0
 11
155.784635284
 21
116.746810616
 31
0.0
  0
LINE
  8
0
  6
CONTINUOUS
 62
     1
 10
155.784635284
 20
116.746810616
 30
0.0
 11
155.833677237
 21
116.872645817
 31
0.0
  0
LINE
  8
0
  6
CONTINUOUS
 62
     1
 10
155.833677237
 20
116.872645817
 30
0.0
 11
155.907979047
 21
116.973740162
 31
0.0
  0
LINE
  8
0
  6
CONTINUOUS
 62
     1
 10
155.907979047
 20
116.973740162
 30
0.0
 11
156.008442519
 21
117.047237923
 31
0.0
  0
LINE
  8
0
  6
CONTINUOUS
 62
     1
 10
156.008442519
 20
117.047237923
 30
0.0
 11
156.13323708
 21
117.079710851
 31
0.0
  0
LINE
  8
0
  6
CONTINUOUS
 62
     1
 10
156.13323708
 20
117.079710851
 30
0.0
 11
156.295476717
 21
117.041533872
 31
0.0
  0
LINE
  8
0
  6
CONTINUOUS
 62
     1
 10
156.295476717
 20
117.041533872
 30
0.0
 11
156.381097136
 21
116.97753198
 31
0.0
  0
LINE
  8
0
  6
CONTINUOUS
 62
     1
 10
156.381097136
 20
116.97753198
 30
0.0
 11
156.459831515
 21
116.871435848
 31
0.0
  0
LINE
  8
0
  6
CONTINUOUS
 62
     1
 10
156.459831515
 20
116.871435848
 30
0.0
 11
156.507494781
 21
116.749611162
 31
0.0
  0
LINE
  8
0
  6
CONTINUOUS
 62
     1
 10
156.507494781
 20
116.749611162
 30
0.0
 11
156.526424782
 21
116.599607098
 31
0.0
  0
LINE
  8
0
  6
CONTINUOUS
 62
     1
 10
156.526424782
 20
116.599607098
 30
0.0
 11
156.515054631
 21
116.483459539
 31
0.0
  0
LINE
  8
0
  6
CONTINUOUS
 62
     1
 10
156.515054631
 20
116.483459539
 30
0.0
 11
156.472253408
 21
116.353002434
 31
0.0
  0
LINE
  8
0
  6
CONTINUOUS
 62
     1
 10
156.472253408
 20
116.353002434
 30
0.0
 11
156.383950278
 21
116.225325779
 31
0.0
  0
LINE
  8
0
  6
CONTINUOUS
 62
     1
 10
156.383950278
 20
116.225325779
 30
0.0
 11
156.30190045
 21
116.162014947
 31
0.0
  0
LINE
  8
0
  6
CONTINUOUS
 62
     1
 10
156.30190045
 20
116.162014947
 30
0.0
 11
156.13696225
 21
116.120148846
 31
0.0
  0
LINE
  8
0
  6
CONTINUOUS
 62
     1
 10
156.13696225
 20
116.120148846
 30
0.0
 11
156.01546534
 21
116.149405549
 31
0.0
  0
LINE
  8
0
  6
CONTINUOUS
 62
     1
 10
156.01546534
 20
116.149405549
 30
0.0
 11
155.90631056
 21
116.227968156
 31
0.0
  0
LINE
  8
0
  6
CONTINUOUS
 62
     1
 10
155.90631056
 20
116.227968156
 30
0.0
 11
155.829026464
 21
116.336068827
 31
0.0
  0
LINE
  8
0
  6
CONTINUOUS
 62
     1
 10
155.829026464
 20
116.336068827
 30
0.0
 11
155.78103411
 21
116.468185592
 31
0.0
  0
LINE
  8
0
  6
CONTINUOUS
 62
     1
 10
155.78103411
 20
116.468185592
 30
0.0
 11
155.77220788
 21
116.746557868
 31
0.0
  0
LINE
  8
0
  6
CONTINUOUS
 62
     1
 10
155.77220788
 20
116.746557868
 30
0.0
 11
155.786373444
 21
116.871681071
 31
0.0
  0
LINE
  8
0
  6
CONTINUOUS
 62
     1
 10
155.786373444
 20
116.871681071
 30
0.0
 11
155.81436565
 21
117.019572686
 31
0.0
  0
LINE
  8
0
  6
CONTINUOUS
 62
     1
 10
155.81436565
 20
117.019572686
 30
0.0
 11
155.856589519
 21
117.172086263
 31
0.0
  0
LINE
  8
0
  6
CONTINUOUS
 62
     1
 10
155.856589519
 20
117.172086263
 30
0.0
 11
155.904247696
 21
117.302641904
 31
0.0
  0
LINE
  8
0
  6
CONTINUOUS
 62
     1
 10
155.904247696
 20
117.302641904
 30
0.0
 11
155.959532972
 21
117.425270422
 31
0.0
  0
LINE
  8
0
  6
CONTINUOUS
 62
     1
 10
155.959532972
 20
117.425270422
 30
0.0
 11
156.021020177
 21
117.539295292
 31
0.0
  0
LINE
  8
0
  6
CONTINUOUS
 62
     1
 10
156.021020177
 20
117.539295292
 30
0.0
 11
156.087281443
 21
117.644335861
 31
0.0
  0
LINE
  8
0
  6
CONTINUOUS
 62
     1
 10
156.087281443
 20
117.644335861
 30
0.0
 11
156.15694644
 21
117.74027761
 31
0.0
  0
LINE
  8
0
  6
CONTINUOUS
 62
     1
 10
156.15694644
 20
117.74027761
 30
0.0
 11
156.279400633
 21
117.882624496
 31
0.0
  0
LINE
  8
0
  6
CONTINUOUS
 62
     1
 10
156.146424959
 20
125.08
 30
0.0
 11
156.243132408
 21
125.064195763
 31
0.0
  0
LINE
  8
0
  6
CONTINUOUS
 62
     1
 10
156.243132408
 20
125.064195763
 30
0.0
 11
156.322705472
 21
125.025226985
 31
0.0
  0
LINE
  8
0
  6
CONTINUOUS
 62
     1
 10
156.322705472
 20
125.025226985
 30
0.0
 11
156.401608392
 21
124.955666753
 31
0.0
  0
LINE
  8
0
  6
CONTINUOUS
 62
     1
 10
156.401608392
 20
124.955666753
 30
0.0
 11
156.470399254
 21
124.85085891
 31
0.0
  0
LINE
  8
0
  6
CONTINUOUS
 62
     1
 10
156.470399254
 20
124.85085891
 30
0.0
 11
156.513615735
 21
124.723575956
 31
0.0
  0
LINE
  8
0
  6
CONTINUOUS
 62
     1
 10
156.513615735
 20
124.723575956
 30
0.0
 11
156.526423118
 21
124.598526286
 31
0.0
  0
LINE
  8
0
  6
CONTINUOUS
 62
     1
 10
156.526423118
 20
124.598526286
 30
0.0
 11
156.512226762
 21
124.470017403
 31
0.0
  0
LINE
  8
0
  6
CONTINUOUS
 62
     1
 10
156.512226762
 20
124.470017403
 30
0.0
 11
156.47468933
 21
124.358203499
 31
0.0
  0
LINE
  8
0
  6
CONTINUOUS
 62
     1
 10
156.47468933
 20
124.358203499
 30
0.0
 11
156.404081364
 21
124.24718946
 31
0.0
  0
LINE
  8
0
  6
CONTINUOUS
 62
     1
 10
156.404081364
 20
124.24718946
 30
0.0
 11
156.326230705
 21
124.177134663
 31
0.0
  0
LINE
  8
0
  6
CONTINUOUS
 62
     1
 10
156.326230705
 20
124.177134663
 30
0.0
 11
156.241606242
 21
124.135301199
 31
0.0
  0
LINE
  8
0
  6
CONTINUOUS
 62
     1
 10
156.241606242
 20
124.135301199
 30
0.0
 11
156.146606356
 21
124.120000055
 31
0.0
  0
LINE
  8
0
  6
CONTINUOUS
 62
     1
 10
156.146606356
 20
124.120000055
 30
0.0
 11
156.037794528
 21
124.140031081
 31
0.0
  0
LINE
  8
0
  6
CONTINUOUS
 62
     1
 10
156.037794528
 20
124.140031081
 30
0.0
 11
155.962705448
 21
124.179827354
 31
0.0
  0
LINE
  8
0
  6
CONTINUOUS
 62
     1
 10
155.962705448
 20
124.179827354
 30
0.0
 11
155.892657486
 21
124.242720317
 31
0.0
  0
LINE
  8
0
  6
CONTINUOUS
 62
     1
 10
155.892657486
 20
124.242720317
 30
0.0
 11
155.820823133
 21
124.352525856
 31
0.0
  0
LINE
  8
0
  6
CONTINUOUS
 62
     1
 10
155.820823133
 20
124.352525856
 30
0.0
 11
155.781156252
 21
124.46764656
 31
0.0
  0
LINE
  8
0
  6
CONTINUOUS
 62
     1
 10
155.781156252
 20
124.46764656
 30
0.0
 11
155.766429593
 21
124.597616918
 31
0.0
  0
LINE
  8
0
  6
CONTINUOUS
 62
     1
 10
155.766429593
 20
124.597616918
 30
0.0
 11
155.779190497
 21
124.723369122
 31
0.0
  0
LINE
  8
0
  6
CONTINUOUS
 62
     1
 10
155.779190497
 20
124.723369122
 30
0.0
 11
155.823434631
 21
124.852875504
 31
0.0
  0
LINE
  8
0
  6
CONTINUOUS
 62
     1
 10
155.823434631
 20
124.852875504
 30
0.0
 11
155.888613882
 21
124.952630326
 31
0.0
  0
LINE
  8
0
  6
CONTINUOUS
 62
     1
 10
155.888613882
 20
124.952630326
 30
0.0
 11
155.976061664
 21
125.029058061
 31
0.0
  0
LINE
  8
0
  6
CONTINUOUS
 62
     1
 10
155.976061664
 20
125.029058061
 30
0.0
 11
156.074943709
 21
125.071431169
 31
0.0
  0
LINE
  8
0
  6
CONTINUOUS
 62
     1
 10
156.074943709
 20
125.071431169
 30
0.0
 11
156.246417143
 21
125.100029703
 31
0.0
  0
LINE
  8
0
  6
CONTINUOUS
 62
     1
 10
156.246417143
 20
125.100029703
 30
0.0
 11
156.330487588
 21
125.152793714
 31
0.0
  0
LINE
  8
0
  6
CONTINUOUS
 62
     1
 10
156.330487588
 20
125.152793714
 30
0.0
 11
156.396952806
 21
125.231140812
 31
0.0
  0
LINE
  8
0
  6
CONTINUOUS
 62
     1
 10
156.396952806
 20
125.231140812
 30
0.0
 11
156.446575779
 21
125.341315018
 31
0.0
  0
LINE
  8
0
  6
CONTINUOUS
 62
     1
 10
156.446575779
 20
125.341315018
 30
0.0
 11
156.466423182
 21
125.481314391
 31
0.0
  0
LINE
  8
0
  6
CONTINUOUS
 62
     1
 10
156.466423182
 20
125.481314391
 30
0.0
 11
156.447171285
 21
125.616654317
 31
0.0
  0
LINE
  8
0
  6
CONTINUOUS
 62
     1
 10
156.447171285
 20
125.616654317
 30
0.0
 11
156.395949947
 21
125.730428557
 31
0.0
  0
LINE
  8
0
  6
CONTINUOUS
 62
     1
 10
156.395949947
 20
125.730428557
 30
0.0
 11
156.326207886
 21
125.810903312
 31
0.0
  0
LINE
  8
0
  6
CONTINUOUS
 62
     1
 10
156.326207886
 20
125.810903312
 30
0.0
 11
156.24720148
 21
125.859646387
 31
0.0
  0
LINE
  8
0
  6
CONTINUOUS
 62
     1
 10
156.24720148
 20
125.859646387
 30
0.0
 11
156.147232475
 21
125.879998726
 31
0.0
  0
LINE
  8
0
  6
CONTINUOUS
 62
     1
 10
156.147232475
 20
125.879998726
 30
0.0
 11
156.047161938
 21
125.860268948
 31
0.0
  0
LINE
  8
0
  6
CONTINUOUS
 62
     1
 10
156.047161938
 20
125.860268948
 30
0.0
 11
155.96676222
 21
125.811005377
 31
0.0
  0
LINE
  8
0
  6
CONTINUOUS
 62
     1
 10
155.96676222
 20
125.811005377
 30
0.0
 11
155.897071074
 21
125.730694862
 31
0.0
  0
LINE
  8
0
  6
CONTINUOUS
 62
     1
 10
155.897071074
 20
125.730694862
 30
0.0
 11
155.846191438
 21
125.618405329
 31
0.0
  0
LINE
  8
0
  6
CONTINUOUS
 62
     1
 10
155.846191438
 20
125.618405329
 30
0.0
 11
155.826427449
 21
125.478406504
 31
0.0
  0
LINE
  8
0
  6
CONTINUOUS
 62
     1
 10
155.826427449
 20
125.478406504
 30
0.0
 11
155.846350765
 21
125.341055834
 31
0.0
  0
LINE
  8
0
  6
CONTINUOUS
 62
     1
 10
155.846350765
 20
125.341055834
 30
0.0
 11
155.896106101
 21
125.230812275
 31
0.0
  0
LINE
  8
0
  6
CONTINUOUS
 62
     1
 10
155.896106101
 20
125.230812275
 30
0.0
 11
155.972645097
 21
125.144122937
 31
0.0
  0
LINE
  8
0
  6
CONTINUOUS
 62
     1
 10
155.972645097
 20
125.144122937
 30
0.0
 11
156.061587207
 21
125.09431359
 31
0.0
  0
LINE
  8
0
  6
CONTINUOUS
 62
     1
 10
156.061587207
 20
125.09431359
 30
0.0
 11
156.146424959
 21
125.08
 31
0.0
  0
LINE
  8
0
  6
CONTINUOUS
 62
     1
 10
154.825
 20
133.88
 30
0.0
 11
154.825
 21
133.73
 31
0.0
  0
LINE
  8
0
  6
CONTINUOUS
 62
     1
 10
154.825
 20
133.73
 30
0.0
 11
154.825
 21
133.58
 31
0.0
  0
LINE
  8
0
  6
CONTINUOUS
 62
     1
 10
154.825
 20
133.58
 30
0.0
 11
154.825
 21
133.43
 31
0.0
  0
LINE
  8
0
  6
CONTINUOUS
 62
     1
 10
154.825
 20
133.43
 30
0.0
 11
154.825
 21
133.28
 31
0.0
  0
LINE
  8
0
  6
CONTINUOUS
 62
     1
 10
154.825
 20
133.28
 30
0.0
 11
154.825
 21
133.13
 31
0.0
  0
LINE
  8
0
  6
CONTINUOUS
 62
     1
 10
154.825
 20
133.13
 30
0.0
 11
154.825
 21
132.98
 31
0.0
  0
LINE
  8
0
  6
CONTINUOUS
 62
     1
 10
154.825
 20
132.98
 30
0.0
 11
154.825
 21
132.83
 31
0.0
  0
LINE
  8
0
  6
CONTINUOUS
 62
     1
 10
154.825
 20
132.83
 30
0.0
 11
154.825
 21
132.68
 31
0.0
  0
LINE
  8
0
  6
CONTINUOUS
 62
     1
 10
154.825
 20
132.68
 30
0.0
 11
154.825
 21
132.53
 31
0.0
  0
LINE
  8
0
  6
CONTINUOUS
 62
     1
 10
154.825
 20
132.53
 30
0.0
 11
154.825
 21
132.38
 31
0.0
  0
LINE
  8
0
  6
CONTINUOUS
 62
     1
 10
154.825
 20
132.38
 30
0.0
 11
154.825
 21
132.23
 31
0.0
  0
LINE
  8
0
  6
CONTINUOUS
 62
     1
 10
154.825
 20
132.23
 30
0.0
 11
154.825
 21
132.12
 31
0.0
  0
LINE
  8
0
  6
CONTINUOUS
 62
     1
 10
155.819692979
 20
133.727631895
 30
0.0
 11
155.785314642
 21
133.584954116
 31
0.0
  0
LINE
  8
0
  6
CONTINUOUS
 62
     1
 10
155.785314642
 20
133.584954116
 30
0.0
 11
155.758340333
 21
133.439200479
 31
0.0
  0
LINE
  8
0
  6
CONTINUOUS
 62
     1
 10
155.758340333
 20
133.439200479
 30
0.0
 11
155.739123205
 21
133.291168417
 31
0.0
  0
LINE
  8
0
  6
CONTINUOUS
 62
     1
 10
155.739123205
 20
133.291168417
 30
0.0
 11
155.727908353
 21
133.141704187
 31
0.0
  0
LINE
  8
0
  6
CONTINUOUS
 62
     1
 10
155.727908353
 20
133.141704187
 30
0.0
 11
155.724824949
 21
132.991683724
 31
0.0
  0
LINE
  8
0
  6
CONTINUOUS
 62
     1
 10
155.724824949
 20
132.991683724
 30
0.0
 11
155.729882439
 21
132.841992158
 31
0.0
  0
LINE
  8
0
  6
CONTINUOUS
 62
     1
 10
155.729882439
 20
132.841992158
 30
0.0
 11
155.742971024
 21
132.69350303
 31
0.0
  0
LINE
  8
0
  6
CONTINUOUS
 62
     1
 10
155.742971024
 20
132.69350303
 30
0.0
 11
155.763866358
 21
132.547058225
 31
0.0
  0
LINE
  8
0
  6
CONTINUOUS
 62
     1
 10
155.763866358
 20
132.547058225
 30
0.0
 11
155.79223811
 21
132.403449583
 31
0.0
  0
LINE
  8
0
  6
CONTINUOUS
 62
     1
 10
155.79223811
 20
132.403449583
 30
0.0
 11
155.827661819
 21
132.263402995
 31
0.0
  0
LINE
  8
0
  6
CONTINUOUS
 62
     1
 10
155.827661819
 20
132.263402995
 30
0.0
 11
155.886749623
 21
132.198126835
 31
0.0
  0
LINE
  8
0
  6
CONTINUOUS
 62
     1
 10
155.886749623
 20
132.198126835
 30
0.0
 11
155.961463496
 21
132.147517728
 31
0.0
  0
LINE
  8
0
  6
CONTINUOUS
 62
     1
 10
155.961463496
 20
132.147517728
 30
0.0
 11
156.086478348
 21
132.120005066
 31
0.0
  0
LINE
  8
0
  6
CONTINUOUS
 62
     1
 10
156.086478348
 20
132.120005066
 30
0.0
 11
156.188683888
 21
132.139258994
 31
0.0
  0
LINE
  8
0
  6
CONTINUOUS
 62
     1
 10
156.188683888
 20
132.139258994
 30
0.0
 11
156.281548122
 21
132.196983388
 31
0.0
  0
LINE
  8
0
  6
CONTINUOUS
 62
     1
 10
156.281548122
 20
132.196983388
 30
0.0
 11
156.331231228
 21
132.257179876
 31
0.0
  0
LINE
  8
0
  6
CONTINUOUS
 62
     1
 10
156.331231228
 20
132.257179876
 30
0.0
 11
156.377208452
 21
132.403086664
 31
0.0
  0
LINE
  8
0
  6
CONTINUOUS
 62
     1
 10
156.377208452
 20
132.403086664
 30
0.0
 11
156.404903738
 21
132.542623558
 31
0.0
  0
LINE
  8
0
  6
CONTINUOUS
 62
     1
 10
156.404903738
 20
132.542623558
 30
0.0
 11
156.426501165
 21
132.693016943
 31
0.0
  0
LINE
  8
0
  6
CONTINUOUS
 62
     1
 10
156.426501165
 20
132.693016943
 30
0.0
 11
156.43965952
 21
132.842215545
 31
0.0
  0
LINE
  8
0
  6
CONTINUOUS
 62
     1
 10
156.43965952
 20
132.842215545
 30
0.0
 11
156.444706871
 21
132.99221524
 31
0.0
  0
LINE
  8
0
  6
CONTINUOUS
 62
     1
 10
156.444706871
 20
132.99221524
 30
0.0
 11
156.441359467
 21
133.147048818
 31
0.0
  0
LINE
  8
0
  6
CONTINUOUS
 62
     1
 10
156.441359467
 20
133.147048818
 30
0.0
 11
156.430429494
 21
133.290930487
 31
0.0
  0
LINE
  8
0
  6
CONTINUOUS
 62
     1
 10
156.430429494
 20
133.290930487
 30
0.0
 11
156.411024891
 21
133.44023539
 31
0.0
  0
LINE
  8
0
  6
CONTINUOUS
 62
     1
 10
156.411024891
 20
133.44023539
 30
0.0
 11
156.384451161
 21
133.583838096
 31
0.0
  0
LINE
  8
0
  6
CONTINUOUS
 62
     1
 10
156.384451161
 20
133.583838096
 30
0.0
 11
156.348464121
 21
133.730674508
 31
0.0
  0
LINE
  8
0
  6
CONTINUOUS
 62
     1
 10
156.348464121
 20
133.730674508
 30
0.0
 11
156.296320702
 21
133.808352803
 31
0.0
  0
LINE
  8
0
  6
CONTINUOUS
 62
     1
 10
156.296320702
 20
133.808352803
 30
0.0
 11
156.21021188
 21
133.871462947
 31
0.0
  0
LINE
  8
0
  6
CONTINUOUS
 62
     1
 10
156.21021188
 20
133.871462947
 30
0.0
 11
156.095333854
 21
133.899807318
 31
0.0
  0
LINE
  8
0
  6
CONTINUOUS
 62
     1
 10
156.095333854
 20
133.899807318
 30
0.0
 11
155.961433084
 21
133.872467984
 31
0.0
  0
LINE
  8
0
  6
CONTINUOUS
 62
     1
 10
155.961433084
 20
133.872467984
 30
0.0
 11
155.871943341
 21
133.806995669
 31
0.0
  0
LINE
  8
0
  6
CONTINUOUS
 62
     1
 10
155.871943341
 20
133.806995669
 30
0.0
 11
155.819692979
 21
133.727631895
 31
0.0
  0
TEXT
  8
0
  6
CONTINUOUS
 62
     2
 10
156.7
 20
58.6
 30
0.3
 40
3.0
  1
注）目盛は一例を示します。
 50
0.0
 41
0.9
 51
0.0
  7
KANJI1
  0
LINE
  8
0
  6
CONTINUOUS
 62
     2
 10
156.7
 20
57.6
 30
0.0
 11
193.7
 21
57.6
 31
0.0
  0
LINE
  8
0
  6
CONTINUOUS
 62
     2
 10
59.0
 20
129.2875
 30
0.0
 11
58.378781759
 21
131.709087888
 31
0.0
  0
LINE
  8
0
  6
CONTINUOUS
 62
     2
 10
59.0
 20
129.2875
 30
0.0
 11
57.251215278
 21
131.074047508
 31
0.0
  0
TEXT
  8
0
  6
CONTINUOUS
 62
     2
 10
13.092241503
 20
148.031506921
 30
0.3
 40
3.0
  1
＋端子（直流計器の場合）
 50
0.0
 41
0.9
 51
0.0
  7
KANJI1
  0
LINE
  8
0
  6
CONTINUOUS
 62
     2
 10
59.0
 20
129.2875
 30
0.0
 11
49.006654961
 21
147.031506921
 31
0.0
  0
LINE
  8
0
  6
CONTINUOUS
 62
     2
 10
49.006654961
 20
147.031506921
 30
0.0
 11
12.692241503
 21
147.031506921
 31
0.0
  0
TEXT
  8
0
  6
CONTINUOUS
 62
     2
 10
164.42820323
 20
157.0
 30
0.3
 40
3.0
  1
２－Ｍ２．６タップ
 50
0.0
 41
0.9
 51
0.0
  7
KANJI1
  0
LINE
  8
0
  6
LTYPE2
 62
     2
 10
154.5
 20
144.0
 30
0.0
 11
160.5
 21
144.0
 31
0.0
  0
LINE
  8
0
  6
LTYPE2
 62
     2
 10
194.5
 20
144.0
 30
0.0
 11
200.5
 21
144.0
 31
0.0
  0
LINE
  8
0
  6
LTYPE2
 62
     2
 10
194.5
 20
82.0
 30
0.0
 11
200.5
 21
82.0
 31
0.0
  0
LINE
  8
0
  6
LTYPE2
 62
     2
 10
154.5
 20
82.0
 30
0.0
 11
160.5
 21
82.0
 31
0.0
  0
LINE
  8
0
  6
CONTINUOUS
 62
     2
 10
153.5
 20
92.75
 30
0.0
 11
160.0
 21
92.75
 31
0.0
  0
LINE
  8
0
  6
CONTINUOUS
 62
     2
 10
153.5
 20
93.25
 30
0.0
 11
153.5
 21
92.75
 31
0.0
  0
LINE
  8
0
  6
CONTINUOUS
 62
     2
 10
160.0
 20
93.25
 30
0.0
 11
153.5
 21
93.25
 31
0.0
  0
LINE
  8
0
  6
CONTINUOUS
 62
     2
 10
160.0
 20
92.75
 30
0.0
 11
160.0
 21
93.25
 31
0.0
  0
LINE
  8
0
  6
CONTINUOUS
 62
     2
 10
193.5
 20
92.75
 30
0.0
 11
200.0
 21
92.75
 31
0.0
  0
LINE
  8
0
  6
CONTINUOUS
 62
     2
 10
193.5
 20
93.25
 30
0.0
 11
193.5
 21
92.75
 31
0.0
  0
LINE
  8
0
  6
CONTINUOUS
 62
     2
 10
200.0
 20
93.25
 30
0.0
 11
193.5
 21
93.25
 31
0.0
  0
LINE
  8
0
  6
LTYPE2
 62
     2
 10
200.0
 20
92.75
 30
0.0
 11
200.0
 21
93.25
 31
0.0
  0
LINE
  8
0
  6
CONTINUOUS
 62
     2
 10
153.5
 20
93.0
 30
0.0
 11
147.162880782
 21
82.4
 31
0.0
  0
TEXT
  8
0
  6
CONTINUOUS
 62
     2
 10
140.822947342
 20
83.4
 30
0.3
 40
3.0
  1
指針
 50
0.0
 41
0.9
 51
0.0
  7
KANJI1
  0
LINE
  8
0
  6
CONTINUOUS
 62
     2
 10
140.722947342
 20
82.4
 30
0.0
 11
147.162880782
 21
82.4
 31
0.0
  0
LINE
  8
0
  6
CONTINUOUS
 62
     2
 10
153.5
 20
93.0
 30
0.0
 11
152.816246334
 21
90.595321035
 31
0.0
  0
LINE
  8
0
  6
CONTINUOUS
 62
     2
 10
153.5
 20
93.0
 30
0.0
 11
151.705512473
 21
91.259363761
 31
0.0
  0
LINE
  8
0
  6
CONTINUOUS
 62
     2
 10
158.3
 20
145.385640646
 30
0.0
 11
160.067766953
 21
147.153407599
 31
0.0
  0
LINE
  8
0
  6
CONTINUOUS
 62
     2
 10
158.3
 20
145.385640646
 30
0.0
 11
158.947047613
 21
147.800455212
 31
0.0
  0
LINE
  8
0
  6
CONTINUOUS
 62
     2
 10
164.42820323
 20
156.0
 30
0.0
 11
189.7
 21
156.0
 31
0.0
  0
LINE
  8
0
  6
CONTINUOUS
 62
     2
 10
158.3
 20
145.385640646
 30
0.0
 11
164.42820323
 21
156.0
 31
0.0
  0
CIRCLE
  8
0
  6
CONTINUOUS
 62
     1
 10
109.0
 20
130.5
 30
0.0
 40
2.44999902
  0
LINE
  8
0
  6
CONTINUOUS
 62
     1
 10
107.570833905
 20
130.173333464
 30
0.0
 11
107.570833905
 21
130.826666536
 31
0.0
  0
LINE
  8
0
  6
CONTINUOUS
 62
     1
 10
107.570833905
 20
130.826666536
 30
0.0
 11
108.346666928
 21
130.826666536
 31
0.0
  0
ARC
  8
0
  6
CONTINUOUS
 62
     1
 10
108.346666928
 20
131.153333072
 30
0.0
 40
0.326666536
 50
270.0
 51
0.0
  0
LINE
  8
0
  6
CONTINUOUS
 62
     1
 10
108.673333464
 20
131.153333072
 30
0.0
 11
108.673333464
 21
131.929166095
 31
0.0
  0
LINE
  8
0
  6
CONTINUOUS
 62
     1
 10
108.673333464
 20
131.929166095
 30
0.0
 11
109.326666536
 21
131.929166095
 31
0.0
  0
LINE
  8
0
  6
CONTINUOUS
 62
     1
 10
109.326666536
 20
131.929166095
 30
0.0
 11
109.326666536
 21
131.153333072
 31
0.0
  0
ARC
  8
0
  6
CONTINUOUS
 62
     1
 10
109.653333072
 20
131.153333072
 30
0.0
 40
0.326666536
 50
180.0
 51
270.0
  0
LINE
  8
0
  6
CONTINUOUS
 62
     1
 10
109.653333072
 20
130.826666536
 30
0.0
 11
110.429166095
 21
130.826666536
 31
0.0
  0
LINE
  8
0
  6
CONTINUOUS
 62
     1
 10
110.429166095
 20
130.826666536
 30
0.0
 11
110.429166095
 21
130.173333464
 31
0.0
  0
LINE
  8
0
  6
CONTINUOUS
 62
     1
 10
110.429166095
 20
130.173333464
 30
0.0
 11
109.653333072
 21
130.173333464
 31
0.0
  0
ARC
  8
0
  6
CONTINUOUS
 62
     1
 10
109.653333072
 20
129.846666928
 30
0.0
 40
0.326666536
 50
90.0
 51
180.0
  0
LINE
  8
0
  6
CONTINUOUS
 62
     1
 10
109.326666536
 20
129.846666928
 30
0.0
 11
109.326666536
 21
129.070833905
 31
0.0
  0
LINE
  8
0
  6
CONTINUOUS
 62
     1
 10
109.326666536
 20
129.070833905
 30
0.0
 11
108.673333464
 21
129.070833905
 31
0.0
  0
LINE
  8
0
  6
CONTINUOUS
 62
     1
 10
108.673333464
 20
129.070833905
 30
0.0
 11
108.673333464
 21
129.846666928
 31
0.0
  0
ARC
  8
0
  6
CONTINUOUS
 62
     1
 10
108.346666928
 20
129.846666928
 30
0.0
 40
0.326666536
 50
0.0
 51
90.0
  0
LINE
  8
0
  6
CONTINUOUS
 62
     1
 10
108.346666928
 20
130.173333464
 30
0.0
 11
107.570833905
 21
130.173333464
 31
0.0
  0
CIRCLE
  8
0
  6
CONTINUOUS
 62
     1
 10
109.0
 20
95.5
 30
0.0
 40
2.44999902
  0
LINE
  8
0
  6
CONTINUOUS
 62
     1
 10
107.570833905
 20
95.173333464
 30
0.0
 11
107.570833905
 21
95.826666536
 31
0.0
  0
LINE
  8
0
  6
CONTINUOUS
 62
     1
 10
107.570833905
 20
95.826666536
 30
0.0
 11
108.346666928
 21
95.826666536
 31
0.0
  0
ARC
  8
0
  6
CONTINUOUS
 62
     1
 10
108.346666928
 20
96.153333072
 30
0.0
 40
0.326666536
 50
270.0
 51
0.0
  0
LINE
  8
0
  6
CONTINUOUS
 62
     1
 10
108.673333464
 20
96.153333072
 30
0.0
 11
108.673333464
 21
96.929166095
 31
0.0
  0
LINE
  8
0
  6
CONTINUOUS
 62
     1
 10
108.673333464
 20
96.929166095
 30
0.0
 11
109.326666536
 21
96.929166095
 31
0.0
  0
LINE
  8
0
  6
CONTINUOUS
 62
     1
 10
109.326666536
 20
96.929166095
 30
0.0
 11
109.326666536
 21
96.153333072
 31
0.0
  0
ARC
  8
0
  6
CONTINUOUS
 62
     1
 10
109.653333072
 20
96.153333072
 30
0.0
 40
0.326666536
 50
180.0
 51
270.0
  0
LINE
  8
0
  6
CONTINUOUS
 62
     1
 10
109.653333072
 20
95.826666536
 30
0.0
 11
110.429166095
 21
95.826666536
 31
0.0
  0
LINE
  8
0
  6
CONTINUOUS
 62
     1
 10
110.429166095
 20
95.826666536
 30
0.0
 11
110.429166095
 21
95.173333464
 31
0.0
  0
LINE
  8
0
  6
CONTINUOUS
 62
     1
 10
110.429166095
 20
95.173333464
 30
0.0
 11
109.653333072
 21
95.173333464
 31
0.0
  0
ARC
  8
0
  6
CONTINUOUS
 62
     1
 10
109.653333072
 20
94.846666928
 30
0.0
 40
0.326666536
 50
90.0
 51
180.0
  0
LINE
  8
0
  6
CONTINUOUS
 62
     1
 10
109.326666536
 20
94.846666928
 30
0.0
 11
109.326666536
 21
94.070833905
 31
0.0
  0
LINE
  8
0
  6
CONTINUOUS
 62
     1
 10
109.326666536
 20
94.070833905
 30
0.0
 11
108.673333464
 21
94.070833905
 31
0.0
  0
LINE
  8
0
  6
CONTINUOUS
 62
     1
 10
108.673333464
 20
94.070833905
 30
0.0
 11
108.673333464
 21
94.846666928
 31
0.0
  0
ARC
  8
0
  6
CONTINUOUS
 62
     1
 10
108.346666928
 20
94.846666928
 30
0.0
 40
0.326666536
 50
0.0
 51
90.0
  0
LINE
  8
0
  6
CONTINUOUS
 62
     1
 10
108.346666928
 20
95.173333464
 30
0.0
 11
107.570833905
 21
95.173333464
 31
0.0
  0
LINE
  8
0
  6
CONTINUOUS
 62
     1
 10
166.0
 20
97.949998
 30
0.0
 11
166.0
 21
93.050002
 31
0.0
  0
LINE
  8
0
  6
LTYPE1
 62
     2
 10
109.0
 20
68.5044424
 30
0.0
 11
109.0
 21
63.0
 31
0.0
  0
LINE
  8
0
  6
LTYPE1
 62
     2
 10
109.0
 20
40.4955576
 30
0.0
 11
109.0
 21
46.0
 31
0.0
  0
ARC
  8
0
  6
CONTINUOUS
 62
     1
 10
107.4211124
 20
63.3288896
 30
0.0
 40
0.8711104
 50
90.0
 51
180.0
  0
LINE
  8
0
  6
CONTINUOUS
 62
     1
 10
107.4211124
 20
64.2
 30
0.0
 11
108.6733336
 21
64.2
 31
0.0
  0
LINE
  8
0
  6
CONTINUOUS
 62
     1
 10
108.6733336
 20
64.2
 30
0.0
 11
108.6733336
 21
63.2200008
 31
0.0
  0
LINE
  8
0
  6
CONTINUOUS
 62
     1
 10
108.6733336
 20
63.2200008
 30
0.0
 11
109.3266664
 21
63.2200008
 31
0.0
  0
LINE
  8
0
  6
CONTINUOUS
 62
     1
 10
109.3266664
 20
63.2200008
 30
0.0
 11
109.3266664
 21
64.2
 31
0.0
  0
LINE
  8
0
  6
CONTINUOUS
 62
     1
 10
109.3266664
 20
64.2
 30
0.0
 11
110.5788876
 21
64.2
 31
0.0
  0
ARC
  8
0
  6
CONTINUOUS
 62
     1
 10
110.5788876
 20
63.3288896
 30
0.0
 40
0.8711104
 50
0.0
 51
90.0
  0
LINE
  8
0
  6
CONTINUOUS
 62
     1
 10
106.550002
 20
63.0
 30
0.0
 11
106.550002
 21
63.3288896
 31
0.0
  0
LINE
  8
0
  6
CONTINUOUS
 62
     1
 10
111.449998
 20
63.3288896
 30
0.0
 11
111.449998
 21
63.0
 31
0.0
  0
ARC
  8
0
  6
CONTINUOUS
 62
     1
 10
107.4211124
 20
45.6711104
 30
0.0
 40
0.8711104
 50
180.0
 51
270.0
  0
LINE
  8
0
  6
CONTINUOUS
 62
     1
 10
107.4211124
 20
44.8
 30
0.0
 11
108.6733336
 21
44.8
 31
0.0
  0
LINE
  8
0
  6
CONTINUOUS
 62
     1
 10
108.6733336
 20
44.8
 30
0.0
 11
108.6733336
 21
45.7799992
 31
0.0
  0
LINE
  8
0
  6
CONTINUOUS
 62
     1
 10
108.6733336
 20
45.7799992
 30
0.0
 11
109.3266664
 21
45.7799992
 31
0.0
  0
LINE
  8
0
  6
CONTINUOUS
 62
     1
 10
109.3266664
 20
45.7799992
 30
0.0
 11
109.3266664
 21
44.8
 31
0.0
  0
LINE
  8
0
  6
CONTINUOUS
 62
     1
 10
109.3266664
 20
44.8
 30
0.0
 11
110.5788876
 21
44.8
 31
0.0
  0
ARC
  8
0
  6
CONTINUOUS
 62
     1
 10
110.5788876
 20
45.6711104
 30
0.0
 40
0.8711104
 50
270.0
 51
0.0
  0
LINE
  8
0
  6
CONTINUOUS
 62
     1
 10
106.550002
 20
46.0
 30
0.0
 11
106.550002
 21
45.6711104
 31
0.0
  0
LINE
  8
0
  6
CONTINUOUS
 62
     1
 10
111.449998
 20
45.6711104
 30
0.0
 11
111.449998
 21
46.0
 31
0.0
  0
ARC
  8
0
  6
CONTINUOUS
 62
     1
 10
148.6711104
 20
93.9211124
 30
0.0
 40
0.8711104
 50
180.0
 51
270.0
  0
LINE
  8
0
  6
CONTINUOUS
 62
     1
 10
147.8
 20
93.9211124
 30
0.0
 11
147.8
 21
95.1733336
 31
0.0
  0
LINE
  8
0
  6
CONTINUOUS
 62
     1
 10
147.8
 20
95.1733336
 30
0.0
 11
148.7799992
 21
95.1733336
 31
0.0
  0
LINE
  8
0
  6
CONTINUOUS
 62
     1
 10
148.7799992
 20
95.1733336
 30
0.0
 11
148.7799992
 21
95.8266664
 31
0.0
  0
LINE
  8
0
  6
CONTINUOUS
 62
     1
 10
148.7799992
 20
95.8266664
 30
0.0
 11
147.8
 21
95.8266664
 31
0.0
  0
LINE
  8
0
  6
CONTINUOUS
 62
     1
 10
147.8
 20
95.8266664
 30
0.0
 11
147.8
 21
97.0788876
 31
0.0
  0
ARC
  8
0
  6
CONTINUOUS
 62
     1
 10
148.6711104
 20
97.0788876
 30
0.0
 40
0.8711104
 50
90.0
 51
180.0
  0
LINE
  8
0
  6
CONTINUOUS
 62
     1
 10
149.0
 20
93.050002
 30
0.0
 11
148.6711104
 21
93.050002
 31
0.0
  0
LINE
  8
0
  6
CONTINUOUS
 62
     1
 10
148.6711104
 20
97.949998
 30
0.0
 11
149.0
 21
97.949998
 31
0.0
  0
ARC
  8
0
  6
CONTINUOUS
 62
     1
 10
166.3288896
 20
93.9211124
 30
0.0
 40
0.8711104
 50
270.0
 51
0.0
  0
LINE
  8
0
  6
CONTINUOUS
 62
     1
 10
167.2
 20
93.9211124
 30
0.0
 11
167.2
 21
95.1733336
 31
0.0
  0
LINE
  8
0
  6
CONTINUOUS
 62
     1
 10
167.2
 20
95.1733336
 30
0.0
 11
166.2200008
 21
95.1733336
 31
0.0
  0
LINE
  8
0
  6
CONTINUOUS
 62
     1
 10
166.2200008
 20
95.1733336
 30
0.0
 11
166.2200008
 21
95.8266664
 31
0.0
  0
LINE
  8
0
  6
CONTINUOUS
 62
     1
 10
166.2200008
 20
95.8266664
 30
0.0
 11
167.2
 21
95.8266664
 31
0.0
  0
LINE
  8
0
  6
CONTINUOUS
 62
     1
 10
167.2
 20
95.8266664
 30
0.0
 11
167.2
 21
97.0788876
 31
0.0
  0
ARC
  8
0
  6
CONTINUOUS
 62
     1
 10
166.3288896
 20
97.0788876
 30
0.0
 40
0.8711104
 50
0.0
 51
90.0
  0
LINE
  8
0
  6
CONTINUOUS
 62
     1
 10
166.0
 20
93.050002
 30
0.0
 11
166.3288896
 21
93.050002
 31
0.0
  0
LINE
  8
0
  6
CONTINUOUS
 62
     1
 10
166.3288896
 20
97.949998
 30
0.0
 11
166.0
 21
97.949998
 31
0.0
  0
ARC
  8
0
  6
CONTINUOUS
 62
     1
 10
148.6711104
 20
128.9211124
 30
0.0
 40
0.8711104
 50
180.0
 51
270.0
  0
LINE
  8
0
  6
CONTINUOUS
 62
     1
 10
147.8
 20
128.9211124
 30
0.0
 11
147.8
 21
130.1733336
 31
0.0
  0
LINE
  8
0
  6
CONTINUOUS
 62
     1
 10
147.8
 20
130.1733336
 30
0.0
 11
148.7799992
 21
130.1733336
 31
0.0
  0
LINE
  8
0
  6
CONTINUOUS
 62
     1
 10
148.7799992
 20
130.1733336
 30
0.0
 11
148.7799992
 21
130.8266664
 31
0.0
  0
LINE
  8
0
  6
CONTINUOUS
 62
     1
 10
148.7799992
 20
130.8266664
 30
0.0
 11
147.8
 21
130.8266664
 31
0.0
  0
LINE
  8
0
  6
CONTINUOUS
 62
     1
 10
147.8
 20
130.8266664
 30
0.0
 11
147.8
 21
132.0788876
 31
0.0
  0
ARC
  8
0
  6
CONTINUOUS
 62
     1
 10
148.6711104
 20
132.0788876
 30
0.0
 40
0.8711104
 50
90.0
 51
180.0
  0
LINE
  8
0
  6
CONTINUOUS
 62
     1
 10
149.0
 20
128.050002
 30
0.0
 11
148.6711104
 21
128.050002
 31
0.0
  0
LINE
  8
0
  6
CONTINUOUS
 62
     1
 10
148.6711104
 20
132.949998
 30
0.0
 11
149.0
 21
132.949998
 31
0.0
  0
ARC
  8
0
  6
CONTINUOUS
 62
     1
 10
166.3288896
 20
128.9211124
 30
0.0
 40
0.8711104
 50
270.0
 51
0.0
  0
LINE
  8
0
  6
CONTINUOUS
 62
     1
 10
167.2
 20
128.9211124
 30
0.0
 11
167.2
 21
130.1733336
 31
0.0
  0
LINE
  8
0
  6
CONTINUOUS
 62
     1
 10
167.2
 20
130.1733336
 30
0.0
 11
166.2200008
 21
130.1733336
 31
0.0
  0
LINE
  8
0
  6
CONTINUOUS
 62
     1
 10
166.2200008
 20
130.1733336
 30
0.0
 11
166.2200008
 21
130.8266664
 31
0.0
  0
LINE
  8
0
  6
CONTINUOUS
 62
     1
 10
166.2200008
 20
130.8266664
 30
0.0
 11
167.2
 21
130.8266664
 31
0.0
  0
LINE
  8
0
  6
CONTINUOUS
 62
     1
 10
167.2
 20
130.8266664
 30
0.0
 11
167.2
 21
132.0788876
 31
0.0
  0
ARC
  8
0
  6
CONTINUOUS
 62
     1
 10
166.3288896
 20
132.0788876
 30
0.0
 40
0.8711104
 50
0.0
 51
90.0
  0
LINE
  8
0
  6
CONTINUOUS
 62
     1
 10
166.0
 20
128.050002
 30
0.0
 11
166.3288896
 21
128.050002
 31
0.0
  0
LINE
  8
0
  6
CONTINUOUS
 62
     1
 10
166.3288896
 20
132.949998
 30
0.0
 11
166.0
 21
132.949998
 31
0.0
  0
ARC
  8
0
  6
CONTINUOUS
 62
     1
 10
188.6711104
 20
93.9211124
 30
0.0
 40
0.8711104
 50
180.0
 51
270.0
  0
LINE
  8
0
  6
CONTINUOUS
 62
     1
 10
187.8
 20
93.9211124
 30
0.0
 11
187.8
 21
95.1733336
 31
0.0
  0
LINE
  8
0
  6
CONTINUOUS
 62
     1
 10
187.8
 20
95.1733336
 30
0.0
 11
188.7799992
 21
95.1733336
 31
0.0
  0
LINE
  8
0
  6
CONTINUOUS
 62
     1
 10
188.7799992
 20
95.1733336
 30
0.0
 11
188.7799992
 21
95.8266664
 31
0.0
  0
LINE
  8
0
  6
CONTINUOUS
 62
     1
 10
188.7799992
 20
95.8266664
 30
0.0
 11
187.8
 21
95.8266664
 31
0.0
  0
LINE
  8
0
  6
CONTINUOUS
 62
     1
 10
187.8
 20
95.8266664
 30
0.0
 11
187.8
 21
97.0788876
 31
0.0
  0
ARC
  8
0
  6
CONTINUOUS
 62
     1
 10
188.6711104
 20
97.0788876
 30
0.0
 40
0.8711104
 50
90.0
 51
180.0
  0
LINE
  8
0
  6
CONTINUOUS
 62
     1
 10
189.0
 20
93.050002
 30
0.0
 11
188.6711104
 21
93.050002
 31
0.0
  0
LINE
  8
0
  6
CONTINUOUS
 62
     1
 10
188.6711104
 20
97.949998
 30
0.0
 11
189.0
 21
97.949998
 31
0.0
  0
ARC
  8
0
  6
CONTINUOUS
 62
     1
 10
188.6711104
 20
128.9211124
 30
0.0
 40
0.8711104
 50
180.0
 51
270.0
  0
LINE
  8
0
  6
CONTINUOUS
 62
     1
 10
187.8
 20
128.9211124
 30
0.0
 11
187.8
 21
130.1733336
 31
0.0
  0
LINE
  8
0
  6
CONTINUOUS
 62
     1
 10
187.8
 20
130.1733336
 30
0.0
 11
188.7799992
 21
130.1733336
 31
0.0
  0
LINE
  8
0
  6
CONTINUOUS
 62
     1
 10
188.7799992
 20
130.1733336
 30
0.0
 11
188.7799992
 21
130.8266664
 31
0.0
  0
LINE
  8
0
  6
CONTINUOUS
 62
     1
 10
188.7799992
 20
130.8266664
 30
0.0
 11
187.8
 21
130.8266664
 31
0.0
  0
LINE
  8
0
  6
CONTINUOUS
 62
     1
 10
187.8
 20
130.8266664
 30
0.0
 11
187.8
 21
132.0788876
 31
0.0
  0
ARC
  8
0
  6
CONTINUOUS
 62
     1
 10
188.6711104
 20
132.0788876
 30
0.0
 40
0.8711104
 50
90.0
 51
180.0
  0
LINE
  8
0
  6
CONTINUOUS
 62
     1
 10
189.0
 20
128.050002
 30
0.0
 11
188.6711104
 21
128.050002
 31
0.0
  0
LINE
  8
0
  6
CONTINUOUS
 62
     1
 10
188.6711104
 20
132.949998
 30
0.0
 11
189.0
 21
132.949998
 31
0.0
  0
ARC
  8
0
  6
CONTINUOUS
 62
     1
 10
206.3288896
 20
93.9211124
 30
0.0
 40
0.8711104
 50
270.0
 51
0.0
  0
LINE
  8
0
  6
CONTINUOUS
 62
     1
 10
207.2
 20
93.9211124
 30
0.0
 11
207.2
 21
95.1733336
 31
0.0
  0
LINE
  8
0
  6
CONTINUOUS
 62
     1
 10
207.2
 20
95.1733336
 30
0.0
 11
206.2200008
 21
95.1733336
 31
0.0
  0
LINE
  8
0
  6
CONTINUOUS
 62
     1
 10
206.2200008
 20
95.1733336
 30
0.0
 11
206.2200008
 21
95.8266664
 31
0.0
  0
LINE
  8
0
  6
CONTINUOUS
 62
     1
 10
206.2200008
 20
95.8266664
 30
0.0
 11
207.2
 21
95.8266664
 31
0.0
  0
LINE
  8
0
  6
CONTINUOUS
 62
     1
 10
207.2
 20
95.8266664
 30
0.0
 11
207.2
 21
97.0788876
 31
0.0
  0
ARC
  8
0
  6
CONTINUOUS
 62
     1
 10
206.3288896
 20
97.0788876
 30
0.0
 40
0.8711104
 50
0.0
 51
90.0
  0
LINE
  8
0
  6
CONTINUOUS
 62
     1
 10
206.0
 20
93.050002
 30
0.0
 11
206.3288896
 21
93.050002
 31
0.0
  0
LINE
  8
0
  6
CONTINUOUS
 62
     1
 10
206.3288896
 20
97.949998
 30
0.0
 11
206.0
 21
97.949998
 31
0.0
  0
ARC
  8
0
  6
CONTINUOUS
 62
     1
 10
206.3288896
 20
128.9211124
 30
0.0
 40
0.8711104
 50
270.0
 51
0.0
  0
LINE
  8
0
  6
CONTINUOUS
 62
     1
 10
207.2
 20
128.9211124
 30
0.0
 11
207.2
 21
130.1733336
 31
0.0
  0
LINE
  8
0
  6
CONTINUOUS
 62
     1
 10
207.2
 20
130.1733336
 30
0.0
 11
206.2200008
 21
130.1733336
 31
0.0
  0
LINE
  8
0
  6
CONTINUOUS
 62
     1
 10
206.2200008
 20
130.1733336
 30
0.0
 11
206.2200008
 21
130.8266664
 31
0.0
  0
LINE
  8
0
  6
CONTINUOUS
 62
     1
 10
206.2200008
 20
130.8266664
 30
0.0
 11
207.2
 21
130.8266664
 31
0.0
  0
LINE
  8
0
  6
CONTINUOUS
 62
     1
 10
207.2
 20
130.8266664
 30
0.0
 11
207.2
 21
132.0788876
 31
0.0
  0
ARC
  8
0
  6
CONTINUOUS
 62
     1
 10
206.3288896
 20
132.0788876
 30
0.0
 40
0.8711104
 50
0.0
 51
90.0
  0
LINE
  8
0
  6
CONTINUOUS
 62
     1
 10
206.0
 20
128.050002
 30
0.0
 11
206.3288896
 21
128.050002
 31
0.0
  0
LINE
  8
0
  6
CONTINUOUS
 62
     1
 10
206.3288896
 20
132.949998
 30
0.0
 11
206.0
 21
132.949998
 31
0.0
  0
LINE
  8
0
  6
CONTINUOUS
 62
     1
 10
150.0
 20
148.5
 30
0.0
 11
150.0
 21
140.422618402
 31
0.0
  0
ARC
  8
0
  6
CONTINUOUS
 62
     1
 10
150.5
 20
148.5
 30
0.0
 40
0.5
 50
90.0
 51
180.0
  0
LINE
  8
0
  6
CONTINUOUS
 62
     1
 10
165.0
 20
140.422618402
 30
0.0
 11
165.0
 21
148.5
 31
0.0
  0
LINE
  8
0
  6
CONTINUOUS
 62
     1
 10
164.5
 20
149.0
 30
0.0
 11
150.5
 21
149.0
 31
0.0
  0
ARC
  8
0
  6
CONTINUOUS
 62
     1
 10
164.5
 20
148.5
 30
0.0
 40
0.5
 50
0.0
 51
90.0
  0
LINE
  8
0
  6
CONTINUOUS
 62
     1
 10
150.0
 20
85.422618402
 30
0.0
 11
150.0
 21
77.5
 31
0.0
  0
ARC
  8
0
  6
CONTINUOUS
 62
     1
 10
150.5
 20
77.5
 30
0.0
 40
0.5
 50
180.0
 51
270.0
  0
LINE
  8
0
  6
CONTINUOUS
 62
     1
 10
165.0
 20
77.5
 30
0.0
 11
165.0
 21
85.422618402
 31
0.0
  0
LINE
  8
0
  6
CONTINUOUS
 62
     1
 10
164.5
 20
77.0
 30
0.0
 11
150.5
 21
77.0
 31
0.0
  0
ARC
  8
0
  6
CONTINUOUS
 62
     1
 10
164.5
 20
77.5
 30
0.0
 40
0.5
 50
270.0
 51
0.0
  0
LINE
  8
0
  6
CONTINUOUS
 62
     1
 10
190.0
 20
85.422618402
 30
0.0
 11
190.0
 21
77.5
 31
0.0
  0
ARC
  8
0
  6
CONTINUOUS
 62
     1
 10
190.5
 20
77.5
 30
0.0
 40
0.5
 50
180.0
 51
270.0
  0
LINE
  8
0
  6
CONTINUOUS
 62
     1
 10
205.0
 20
77.5
 30
0.0
 11
205.0
 21
85.422618402
 31
0.0
  0
LINE
  8
0
  6
CONTINUOUS
 62
     1
 10
204.5
 20
77.0
 30
0.0
 11
190.5
 21
77.0
 31
0.0
  0
ARC
  8
0
  6
CONTINUOUS
 62
     1
 10
204.5
 20
77.5
 30
0.0
 40
0.5
 50
270.0
 51
0.0
  0
LINE
  8
0
  6
CONTINUOUS
 62
     1
 10
190.0
 20
148.5
 30
0.0
 11
190.0
 21
140.422618402
 31
0.0
  0
ARC
  8
0
  6
CONTINUOUS
 62
     1
 10
190.5
 20
148.5
 30
0.0
 40
0.5
 50
90.0
 51
180.0
  0
LINE
  8
0
  6
CONTINUOUS
 62
     1
 10
205.0
 20
140.422618402
 30
0.0
 11
205.0
 21
148.5
 31
0.0
  0
LINE
  8
0
  6
CONTINUOUS
 62
     1
 10
204.5
 20
149.0
 30
0.0
 11
190.5
 21
149.0
 31
0.0
  0
ARC
  8
0
  6
CONTINUOUS
 62
     1
 10
204.5
 20
148.5
 30
0.0
 40
0.5
 50
0.0
 51
90.0
  0
TEXT
  8
0
  6
CONTINUOUS
 62
     2
 10
189.2
 20
65.0
 30
0.3
 40
3.0
  1
（□Ｅｆ－５４ＳＹ）
 50
0.0
 41
0.9
 51
0.0
  7
KANJI1
  0
TEXT
  8
0
  6
CONTINUOUS
 62
     2
 10
149.2
 20
65.0
 30
0.3
 40
3.0
  1
（□Ｅｆ－５４ＳＴ）
 50
0.0
 41
0.9
 51
0.0
  7
KANJI1
  0
LINE
  8
0
  6
CONTINUOUS
 62
     2
 10
106.4211124
 20
64.2
 30
0.0
 11
98.0
 21
64.2
 31
0.0
  0
LINE
  8
0
  6
CONTINUOUS
 62
     2
 10
100.0
 20
64.2
 30
0.0
 11
99.352952387
 21
61.785185434
 31
0.0
  0
LINE
  8
0
  6
CONTINUOUS
 62
     2
 10
100.0
 20
64.2
 30
0.0
 11
100.647047613
 21
61.785185434
 31
0.0
  0
LINE
  8
0
  6
CONTINUOUS
 62
     2
 10
100.0
 20
64.2
 30
0.0
 11
100.0
 21
44.8
 31
0.0
  0
LINE
  8
0
  6
CONTINUOUS
 62
     2
 10
100.0
 20
44.8
 30
0.0
 11
100.647047613
 21
47.214814566
 31
0.0
  0
LINE
  8
0
  6
CONTINUOUS
 62
     2
 10
100.0
 20
44.8
 30
0.0
 11
99.352952387
 21
47.214814566
 31
0.0
  0
LINE
  8
0
  6
CONTINUOUS
 62
     2
 10
106.4211124
 20
44.8
 30
0.0
 11
98.0
 21
44.8
 31
0.0
  0
TEXT
  8
0
  6
CONTINUOUS
 62
     2
 10
99.0
 20
50.45
 30
0.3
 40
3.0
  1
１９．４
 50
90.0
 41
0.6
 51
0.0
  7
KANJI0
  0
CIRCLE
  8
0
  6
CONTINUOUS
 62
     2
 10
157.5
 20
144.0
 30
0.0
 40
1.3
  0
CIRCLE
  8
0
  6
CONTINUOUS
 62
     2
 10
157.5
 20
144.0
 30
0.0
 40
1.04
  0
CIRCLE
  8
0
  6
CONTINUOUS
 62
     2
 10
197.5
 20
144.0
 30
0.0
 40
1.3
  0
CIRCLE
  8
0
  6
CONTINUOUS
 62
     2
 10
197.5
 20
144.0
 30
0.0
 40
1.04
  0
CIRCLE
  8
0
  6
CONTINUOUS
 62
     2
 10
157.5
 20
82.0
 30
0.0
 40
1.3
  0
CIRCLE
  8
0
  6
CONTINUOUS
 62
     2
 10
157.5
 20
82.0
 30
0.0
 40
1.04
  0
CIRCLE
  8
0
  6
CONTINUOUS
 62
     2
 10
197.5
 20
82.0
 30
0.0
 40
1.3
  0
CIRCLE
  8
0
  6
CONTINUOUS
 62
     2
 10
197.5
 20
82.0
 30
0.0
 40
1.04
  0
LINE
  8
0
  6
CONTINUOUS
 62
     1
 10
119.5
 20
80.25
 30
0.0
 11
119.5
 21
83.75
 31
0.0
  0
LINE
  8
0
  6
CONTINUOUS
 62
     1
 10
120.0
 20
84.0
 30
0.0
 11
119.5
 21
83.75
 31
0.0
  0
LINE
  8
0
  6
CONTINUOUS
 62
     1
 10
119.5
 20
80.25
 30
0.0
 11
120.0
 21
80.0
 31
0.0
  0
LINE
  8
0
  6
CONTINUOUS
 62
     1
 10
119.5
 20
145.75
 30
0.0
 11
119.5
 21
142.25
 31
0.0
  0
LINE
  8
0
  6
CONTINUOUS
 62
     1
 10
120.0
 20
142.0
 30
0.0
 11
119.5
 21
142.25
 31
0.0
  0
LINE
  8
0
  6
CONTINUOUS
 62
     1
 10
119.5
 20
145.75
 30
0.0
 11
120.0
 21
146.0
 31
0.0
  0
TEXT
  8
0
  6
CONTINUOUS
 62
     2
 10
175.7
 20
109.05
 30
0.3
 40
3.0
  1
６２
 50
90.0
 41
0.6
 51
0.0
  7
KANJI0
  0
TEXT
  8
0
  6
CONTINUOUS
 62
     2
 10
175.7
 20
113.4
 30
0.18
 40
1.8
  1
±０．５
 50
90.0
 41
0.6
 51
0.0
  7
KANJI2
  0
TEXT
  8
0
  6
CONTINUOUS
 62
     2
 10
170.7
 20
109.62
 30
0.3
 40
3.0
  1
５４
 50
90.0
 41
0.6
 51
0.0
  7
KANJI0
  0
TEXT
  8
0
  6
CONTINUOUS
 62
     2
 10
72.2
 20
119.6
 30
0.4
 40
4.0
  1
Ｎ．Ｐ．
 50
270.0
 41
0.9
 51
0.0
  7
KANJI3
  0
LINE
  8
0
  6
CONTINUOUS
 62
     2
 10
81.0
 20
98.0
 30
0.0
 11
81.0
 21
128.0
 31
0.0
  0
LINE
  8
0
  6
CONTINUOUS
 62
     2
 10
81.0
 20
128.0
 30
0.0
 11
67.0
 21
128.0
 31
0.0
  0
LINE
  8
0
  6
CONTINUOUS
 62
     2
 10
67.0
 20
98.0
 30
0.0
 11
81.0
 21
98.0
 31
0.0
  0
LINE
  8
0
  6
CONTINUOUS
 62
     2
 10
67.0
 20
128.0
 30
0.0
 11
67.0
 21
98.0
 31
0.0
  0
LINE
  8
0
  6
CONTINUOUS
 62
     1
 10
61.07
 20
129.0
 30
0.0
 11
60.495
 21
129.331976405
 31
0.0
  0
LINE
  8
0
  6
CONTINUOUS
 62
     1
 10
60.495
 20
129.0
 30
0.0
 11
61.07
 21
128.668023595
 31
0.0
  0
LINE
  8
0
  6
CONTINUOUS
 62
     1
 10
61.07
 20
126.815
 30
0.0
 11
60.495
 21
126.815
 31
0.0
  0
LINE
  8
0
  6
CONTINUOUS
 62
     1
 10
60.495
 20
126.815
 30
0.0
 11
60.495
 21
131.185
 31
0.0
  0
LINE
  8
0
  6
CONTINUOUS
 62
     1
 10
60.495
 20
131.185
 30
0.0
 11
61.07
 21
131.185
 31
0.0
  0
LINE
  8
0
  6
CONTINUOUS
 62
     1
 10
60.495
 20
126.9875
 30
0.0
 11
59.7475
 21
126.9875
 31
0.0
  0
ARC
  8
0
  6
CONTINUOUS
 62
     1
 10
59.7475
 20
127.735
 30
0.0
 40
0.7475
 50
180.0
 51
270.0
  0
LINE
  8
0
  6
CONTINUOUS
 62
     1
 10
59.0
 20
127.735
 30
0.0
 11
59.0
 21
128.7125
 31
0.0
  0
LINE
  8
0
  6
CONTINUOUS
 62
     1
 10
59.0
 20
128.7125
 30
0.0
 11
59.805
 21
128.7125
 31
0.0
  0
LINE
  8
0
  6
CONTINUOUS
 62
     1
 10
59.805
 20
128.7125
 30
0.0
 11
59.805
 21
129.2875
 31
0.0
  0
LINE
  8
0
  6
CONTINUOUS
 62
     1
 10
59.805
 20
129.2875
 30
0.0
 11
59.0
 21
129.2875
 31
0.0
  0
LINE
  8
0
  6
CONTINUOUS
 62
     1
 10
59.0
 20
129.2875
 30
0.0
 11
59.0
 21
130.265
 31
0.0
  0
ARC
  8
0
  6
CONTINUOUS
 62
     1
 10
59.7475
 20
130.265
 30
0.0
 40
0.7475
 50
90.0
 51
180.0
  0
LINE
  8
0
  6
CONTINUOUS
 62
     1
 10
59.7475
 20
131.0125
 30
0.0
 11
60.495
 21
131.0125
 31
0.0
  0
LINE
  8
0
  6
LTYPE1
 62
     2
 10
56.47
 20
129.0
 30
0.0
 11
61.07
 21
129.0
 31
0.0
  0
LINE
  8
0
  6
CONTINUOUS
 62
     1
 10
61.07
 20
126.815
 30
0.0
 11
61.07
 21
131.185
 31
0.0
  0
LINE
  8
0
  6
CONTINUOUS
 62
     2
 10
61.07
 20
120.0
 30
0.0
 11
61.07
 21
126.815
 31
0.0
  0
LINE
  8
0
  6
CONTINUOUS
 62
     2
 10
61.57
 20
132.0
 30
0.0
 11
61.57
 21
120.0
 31
0.0
  0
LINE
  8
0
  6
CONTINUOUS
 62
     2
 10
61.57
 20
120.0
 30
0.0
 11
61.07
 21
120.0
 31
0.0
  0
LINE
  8
0
  6
CONTINUOUS
 62
     2
 10
61.07
 20
132.0
 30
0.0
 11
61.07
 21
131.185
 31
0.0
  0
LINE
  8
0
  6
CONTINUOUS
 62
     2
 10
61.07
 20
132.0
 30
0.0
 11
61.57
 21
132.0
 31
0.0
  0
LINE
  8
0
  6
CONTINUOUS
 62
     1
 10
65.0
 20
131.0
 30
0.0
 11
61.57
 21
131.0
 31
0.0
  0
LINE
  8
0
  6
CONTINUOUS
 62
     1
 10
65.0
 20
127.0
 30
0.0
 11
61.57
 21
127.0
 31
0.0
  0
LINE
  8
0
  6
CONTINUOUS
 62
     1
 10
61.07
 20
97.0
 30
0.0
 11
60.495
 21
96.668023595
 31
0.0
  0
LINE
  8
0
  6
CONTINUOUS
 62
     1
 10
60.495
 20
97.0
 30
0.0
 11
61.07
 21
97.331976405
 31
0.0
  0
LINE
  8
0
  6
CONTINUOUS
 62
     1
 10
61.07
 20
99.185
 30
0.0
 11
60.495
 21
99.185
 31
0.0
  0
LINE
  8
0
  6
CONTINUOUS
 62
     1
 10
60.495
 20
99.185
 30
0.0
 11
60.495
 21
94.815
 31
0.0
  0
LINE
  8
0
  6
CONTINUOUS
 62
     1
 10
60.495
 20
94.815
 30
0.0
 11
61.07
 21
94.815
 31
0.0
  0
LINE
  8
0
  6
CONTINUOUS
 62
     1
 10
60.495
 20
99.0125
 30
0.0
 11
59.7475
 21
99.0125
 31
0.0
  0
ARC
  8
0
  6
CONTINUOUS
 62
     1
 10
59.7475
 20
98.265
 30
0.0
 40
0.7475
 50
90.0
 51
180.0
  0
LINE
  8
0
  6
CONTINUOUS
 62
     1
 10
59.0
 20
98.265
 30
0.0
 11
59.0
 21
97.2875
 31
0.0
  0
LINE
  8
0
  6
CONTINUOUS
 62
     1
 10
59.0
 20
97.2875
 30
0.0
 11
59.805
 21
97.2875
 31
0.0
  0
LINE
  8
0
  6
CONTINUOUS
 62
     1
 10
59.805
 20
97.2875
 30
0.0
 11
59.805
 21
96.7125
 31
0.0
  0
LINE
  8
0
  6
CONTINUOUS
 62
     1
 10
59.805
 20
96.7125
 30
0.0
 11
59.0
 21
96.7125
 31
0.0
  0
LINE
  8
0
  6
CONTINUOUS
 62
     1
 10
59.0
 20
96.7125
 30
0.0
 11
59.0
 21
95.735
 31
0.0
  0
ARC
  8
0
  6
CONTINUOUS
 62
     1
 10
59.7475
 20
95.735
 30
0.0
 40
0.7475
 50
180.0
 51
270.0
  0
LINE
  8
0
  6
CONTINUOUS
 62
     1
 10
59.7475
 20
94.9875
 30
0.0
 11
60.495
 21
94.9875
 31
0.0
  0
LINE
  8
0
  6
LTYPE1
 62
     2
 10
56.47
 20
97.0
 30
0.0
 11
61.07
 21
97.0
 31
0.0
  0
LINE
  8
0
  6
CONTINUOUS
 62
     1
 10
61.07
 20
99.185
 30
0.0
 11
61.07
 21
94.815
 31
0.0
  0
LINE
  8
0
  6
CONTINUOUS
 62
     2
 10
61.07
 20
106.0
 30
0.0
 11
61.07
 21
99.185
 31
0.0
  0
LINE
  8
0
  6
CONTINUOUS
 62
     2
 10
61.57
 20
94.0
 30
0.0
 11
61.57
 21
106.0
 31
0.0
  0
LINE
  8
0
  6
CONTINUOUS
 62
     2
 10
61.57
 20
106.0
 30
0.0
 11
61.07
 21
106.0
 31
0.0
  0
LINE
  8
0
  6
CONTINUOUS
 62
     2
 10
61.07
 20
94.0
 30
0.0
 11
61.07
 21
94.815
 31
0.0
  0
LINE
  8
0
  6
CONTINUOUS
 62
     2
 10
61.07
 20
94.0
 30
0.0
 11
61.57
 21
94.0
 31
0.0
  0
LINE
  8
0
  6
CONTINUOUS
 62
     1
 10
65.0
 20
95.0
 30
0.0
 11
61.57
 21
95.0
 31
0.0
  0
LINE
  8
0
  6
CONTINUOUS
 62
     1
 10
65.0
 20
99.0
 30
0.0
 11
61.57
 21
99.0
 31
0.0
  0
LINE
  8
0
  6
CONTINUOUS
 62
     2
 10
61.07
 20
51.5
 30
0.0
 11
61.57
 21
51.5
 31
0.0
  0
LINE
  8
0
  6
CONTINUOUS
 62
     2
 10
61.57
 20
51.5
 30
0.0
 11
61.57
 21
57.5
 31
0.0
  0
LINE
  8
0
  6
CONTINUOUS
 62
     2
 10
61.07
 20
57.5
 30
0.0
 11
61.57
 21
57.5
 31
0.0
  0
LINE
  8
0
  6
CONTINUOUS
 62
     2
 10
61.07
 20
51.5
 30
0.0
 11
61.07
 21
57.5
 31
0.0
  0
LINE
  8
0
  6
CONTINUOUS
 62
     1
 10
65.0
 20
56.5
 30
0.0
 11
61.57
 21
56.5
 31
0.0
  0
LINE
  8
0
  6
CONTINUOUS
 62
     1
 10
65.0
 20
52.5
 30
0.0
 11
61.57
 21
52.5
 31
0.0
  0
LINE
  8
0
  6
CONTINUOUS
 62
     1
 10
119.5
 20
52.75
 30
0.0
 11
119.5
 21
56.25
 31
0.0
  0
LINE
  8
0
  6
CONTINUOUS
 62
     1
 10
120.0
 20
56.5
 30
0.0
 11
119.5
 21
56.25
 31
0.0
  0
LINE
  8
0
  6
CONTINUOUS
 62
     1
 10
119.5
 20
52.75
 30
0.0
 11
120.0
 21
52.5
 31
0.0
  0
LINE
  8
0
  6
CONTINUOUS
 62
     2
 10
89.492757148
 20
114.931506921
 30
0.0
 11
74.117519707
 21
142.231506921
 31
0.0
  0
TEXT
  8
0
  6
CONTINUOUS
 62
     2
 10
74.392241503
 20
143.231506921
 30
0.3
 40
3.0
  1
零位調整器
 50
0.0
 41
0.9
 51
0.0
  7
KANJI1
  0
LINE
  8
0
  6
CONTINUOUS
 62
     2
 10
89.092241503
 20
142.231506921
 30
0.0
 11
74.117519707
 21
142.231506921
 31
0.0
  0
LINE
  8
0
  6
CONTINUOUS
 62
     2
 10
91.0
 20
156.0
 30
0.0
 11
88.585185434
 21
156.647047613
 31
0.0
  0
LINE
  8
0
  6
CONTINUOUS
 62
     2
 10
91.0
 20
156.0
 30
0.0
 11
88.585185434
 21
155.352952387
 31
0.0
  0
LINE
  8
0
  6
CONTINUOUS
 62
     2
 10
91.0
 20
114.0
 30
0.0
 11
91.0
 21
158.0
 31
0.0
  0
LINE
  8
0
  6
CONTINUOUS
 62
     2
 10
64.0
 20
156.0
 30
0.0
 11
91.0
 21
156.0
 31
0.0
  0
CIRCLE
  8
0
  6
CONTINUOUS
 62
     2
 10
91.0
 20
113.0
 30
0.0
 40
2.45
  0
LINE
  8
0
  6
CONTINUOUS
 62
     2
 10
92.61034518
 20
111.813918889
 30
0.0
 11
89.813918889
 21
114.61034518
 31
0.0
  0
LINE
  8
0
  6
CONTINUOUS
 62
     2
 10
89.38965482
 20
114.186081111
 30
0.0
 11
92.186081111
 21
111.38965482
 31
0.0
  0
ARC
  8
0
  6
CONTINUOUS
 62
     2
 10
91.0
 20
113.0
 30
0.0
 40
2.0
 50
143.626926559
 51
306.373073441
  0
ARC
  8
0
  6
CONTINUOUS
 62
     2
 10
91.0
 20
113.0
 30
0.0
 40
2.0
 50
323.626926559
 51
126.373073441
  0
LINE
  8
0
  6
CONTINUOUS
 62
     2
 10
89.492757148
 20
114.931506921
 30
0.0
 11
87.743972426
 21
116.718054428
 31
0.0
  0
LINE
  8
0
  6
CONTINUOUS
 62
     2
 10
89.492757148
 20
114.931506921
 30
0.0
 11
88.871538907
 21
117.353094808
 31
0.0
  0
TEXT
  8
0
  6
CONTINUOUS
 62
     2
 10
75.2
 20
157.0
 30
0.3
 40
3.0
  1
２６
 50
0.0
 41
0.6
 51
0.0
  7
KANJI0
  0
TEXT
  8
0
  6
CONTINUOUS
 62
     3
 10
234.0
 20
12.0
 30
0.6
 40
6.0
  1
ＭＳ－９３７１Ｃ
 50
0.0
 41
0.9
 51
0.0
  7
KANJI4
  0
TEXT
  8
0
  6
CONTINUOUS
 62
     2
 10
150.289
 20
38.561
 30
0.3
 40
3.0
  1
計器の取り付け方
 50
0.0
 41
0.866666667
 51
0.0
  7
KANJI5
  0
TEXT
  8
0
  6
CONTINUOUS
 62
     2
 10
150.065
 20
32.76
 30
0.3
 40
3.0
  1
１．計器本体から取付ネジを取り外す。（上下２箇所）
 50
0.0
 41
0.866666667
 51
0.0
  7
KANJI5
  0
TEXT
  8
0
  6
CONTINUOUS
 62
     2
 10
150.065
 20
26.959
 30
0.3
 40
3.0
  1
２．パネルカット後方から計器をはめ込み保持する。
 50
0.0
 41
0.866666667
 51
0.0
  7
KANJI5
  0
TEXT
  8
0
  6
CONTINUOUS
 62
     2
 10
150.065
 20
21.158
 30
0.3
 40
3.0
  1
３．パネル前面から取付ネジで取り付ける。（上下２箇所）
 50
0.0
 41
0.866666667
 51
0.0
  7
KANJI5
  0
LINE
  8
0
  6
CONTINUOUS
 62
     2
 10
67.522
 20
26.877
 30
0.0
 11
96.522
 21
26.877
 31
0.0
  0
TEXT
  8
0
  6
CONTINUOUS
 62
     2
 10
68.522
 20
27.877
 30
0.4
 40
4.0
  1
質量：約６０ｇ
 50
0.0
 41
0.9
 51
0.0
  7
KANJI3
  0
TEXT
  8
0
  6
CONTINUOUS
 62
     2
 10
236.0
 20
30.0
 30
0.3
 40
3.0
  1
取付金具付
 50
0.0
 41
0.9
 51
0.0
  7
KANJI1
  0
TEXT
  8
0
  6
CONTINUOUS
 62
     1
 10
236.0
 20
34.0
 30
0.4
 40
4.0
  1
□Ｅｆ－５４Ｓ
 50
0.0
 41
0.9
 51
0.0
  7
KANJI3
  0
TEXT
  8
0
  6
CONTINUOUS
 62
     1
 10
235.0
 20
22.0
 30
0.4
 40
4.0
  1
計器外形図
 50
0.0
 41
0.9
 51
0.0
  7
KANJI3
  0
LINE
  8
0
  6
CONTINUOUS
 62
     2
 10
23.25
 20
77.0
 30
0.0
 11
23.25
 21
35.75
 31
0.0
  0
LINE
  8
0
  6
CONTINUOUS
 62
     2
 10
23.25
 20
90.25
 30
0.0
 11
23.25
 21
85.0
 31
0.0
  0
LINE
  8
0
  6
LTYPE2
 62
     2
 10
26.0
 20
100.0
 30
0.0
 11
26.0
 21
86.0
 31
0.0
  0
LINE
  8
0
  6
LTYPE2
 62
     2
 10
26.0
 20
77.0
 30
0.0
 11
26.0
 21
26.0
 31
0.0
  0
LINE
  8
0
  6
LTYPE2
 62
     2
 10
80.0
 20
54.5
 30
0.0
 11
57.0
 21
54.5
 31
0.0
  0
LINE
  8
0
  6
LTYPE2
 62
     2
 10
95.0
 20
54.5
 30
0.0
 11
88.0
 21
54.5
 31
0.0
  0
LINE
  8
0
  6
LTYPE2
 62
     2
 10
137.0
 20
54.5
 30
0.0
 11
102.0
 21
54.5
 31
0.0
  0
TEXT
  8
0
  6
CONTINUOUS
 62
     2
 10
102.0
 20
119.6
 30
0.18
 40
1.8
  1
±０．５
 50
90.0
 41
0.6
 51
0.0
  7
KANJI2
  0
TEXT
  8
0
  6
CONTINUOUS
 62
     2
 10
102.0
 20
115.05
 30
0.3
 40
3.0
  1
３５
 50
90.0
 41
0.6
 51
0.0
  7
KANJI0
  0
LINE
  8
0
  6
LTYPE2
 62
     2
 10
59.0
 20
113.0
 30
0.0
 11
139.0
 21
113.0
 31
0.0
  0
LINE
  8
0
  6
LTYPE2
 62
     2
 10
147.0
 20
113.0
 30
0.0
 11
167.0
 21
113.0
 31
0.0
  0
LINE
  8
0
  6
LTYPE1
 62
     2
 10
170.0
 20
130.5
 30
0.0
 11
166.0
 21
130.5
 31
0.0
  0
LINE
  8
0
  6
LTYPE1
 62
     2
 10
145.0
 20
130.5
 30
0.0
 11
149.0
 21
130.5
 31
0.0
  0
LINE
  8
0
  6
LTYPE1
 62
     2
 10
145.0
 20
95.5
 30
0.0
 11
149.0
 21
95.5
 31
0.0
  0
LINE
  8
0
  6
LTYPE1
 62
     2
 10
170.0
 20
95.5
 30
0.0
 11
166.0
 21
95.5
 31
0.0
  0
LINE
  8
0
  6
LTYPE2
 62
     2
 10
186.0
 20
113.0
 30
0.0
 11
208.0
 21
113.0
 31
0.0
  0
LINE
  8
0
  6
LTYPE1
 62
     2
 10
186.0
 20
130.5
 30
0.0
 11
189.0
 21
130.5
 31
0.0
  0
LINE
  8
0
  6
LTYPE1
 62
     2
 10
209.0
 20
130.5
 30
0.0
 11
206.0
 21
130.5
 31
0.0
  0
LINE
  8
0
  6
LTYPE1
 62
     2
 10
209.0
 20
95.5
 30
0.0
 11
206.0
 21
95.5
 31
0.0
  0
LINE
  8
0
  6
LTYPE1
 62
     2
 10
186.0
 20
95.5
 30
0.0
 11
189.0
 21
95.5
 31
0.0
  0
LINE
  8
0
  6
LTYPE2
 62
     2
 10
197.5
 20
152.0
 30
0.0
 11
197.5
 21
75.0
 31
0.0
  0
LINE
  8
0
  6
LTYPE2
 62
     2
 10
157.5
 20
152.0
 30
0.0
 11
157.5
 21
75.0
 31
0.0
  0
ENDSEC
  0
EOF
