  0
SECTION
  2
HEADER
  9
$ACADVER
  1
AC1009
  9
$DWGCODEPAGE
  3
dos932
  9
$EXTMIN
 10
0.0
 20
0.0
 30
0.0
  9
$EXTMAX
 10
297.0
 20
210.0
 30
0.0
  9
$LIMMIN
 10
0.0
 20
0.0
  9
$LIMMAX
 10
297.0
 20
210.0
  9
$LTSCALE
 40
1.0
  9
$PDMODE
 70
     0
  0
ENDSEC
  0
SECTION
  2
TABLES
  0
TABLE
  2
VPORT
 70
     1
  0
VPORT
  2
*ACTIVE
 70
     0
 10
0.0
 20
0.0
 11
1.0
 21
1.0
 12
148.5
 22
105.0
 13
0.0
 23
0.0
 14
10.0
 24
10.0
 15
10.0
 25
10.0
 16
0.0
 26
0.0
 36
1.0
 17
0.0
 27
0.0
 37
0.0
 40
297.0
 41
1.414285714
 42
50.0
 43
0.0
 44
0.0
 50
0.0
 51
0.0
 71
     0
 72
  1000
 73
     1
 74
     3
 75
     0
 76
     0
 77
     0
 78
     0
  0
ENDTAB
  0
TABLE
  2
LTYPE
 70
     4
  0
LTYPE
  2
CONTINUOUS
 70
    64
  3
Solid line
 72
    65
 73
     0
 40
0.0
  0
LTYPE
  2
LTYPE1
 70
    64
  3
CENTER
 72
    65
 73
     4
 40
5.0
 49
3.5
 49
-0.5
 49
0.5
 49
-0.5
  0
LTYPE
  2
LTYPE2
 70
    64
  3
CENTER
 72
    65
 73
     4
 40
3.0
 49
2.1
 49
-0.3
 49
0.3
 49
-0.3
  0
LTYPE
  2
LTYPE3
 70
    64
  3
CENTER
 72
    65
 73
     4
 40
6.0
 49
4.2
 49
-0.6
 49
0.6
 49
-0.6
  0
ENDTAB
  0
TABLE
  2
LAYER
 70
   128
  0
LAYER
  2
0
 70
     0
 62
     7
  6
CONTINUOUS
  0
LAYER
  2
2
 70
     0
 62
     7
  6
CONTINUOUS
  0
LAYER
  2
3
 70
     0
 62
     7
  6
CONTINUOUS
  0
LAYER
  2
4
 70
     0
 62
     7
  6
CONTINUOUS
  0
LAYER
  2
5
 70
     0
 62
     7
  6
CONTINUOUS
  0
LAYER
  2
6
 70
     0
 62
     7
  6
CONTINUOUS
  0
LAYER
  2
7
 70
     0
 62
     7
  6
CONTINUOUS
  0
LAYER
  2
8
 70
     0
 62
     7
  6
CONTINUOUS
  0
LAYER
  2
9
 70
     0
 62
     7
  6
CONTINUOUS
  0
LAYER
  2
10
 70
     0
 62
     7
  6
CONTINUOUS
  0
LAYER
  2
11
 70
     0
 62
     7
  6
CONTINUOUS
  0
LAYER
  2
12
 70
     0
 62
     7
  6
CONTINUOUS
  0
LAYER
  2
13
 70
     0
 62
     7
  6
CONTINUOUS
  0
LAYER
  2
14
 70
     0
 62
     7
  6
CONTINUOUS
  0
LAYER
  2
15
 70
     0
 62
     7
  6
CONTINUOUS
  0
LAYER
  2
16
 70
     0
 62
     7
  6
CONTINUOUS
  0
LAYER
  2
17
 70
     0
 62
     7
  6
CONTINUOUS
  0
LAYER
  2
18
 70
     0
 62
     7
  6
CONTINUOUS
  0
LAYER
  2
19
 70
     0
 62
     7
  6
CONTINUOUS
  0
LAYER
  2
20
 70
     0
 62
     7
  6
CONTINUOUS
  0
LAYER
  2
21
 70
     0
 62
     7
  6
CONTINUOUS
  0
LAYER
  2
22
 70
     0
 62
     7
  6
CONTINUOUS
  0
LAYER
  2
23
 70
     0
 62
     7
  6
CONTINUOUS
  0
LAYER
  2
24
 70
     0
 62
     7
  6
CONTINUOUS
  0
LAYER
  2
25
 70
     0
 62
     7
  6
CONTINUOUS
  0
LAYER
  2
26
 70
     0
 62
     7
  6
CONTINUOUS
  0
LAYER
  2
27
 70
     0
 62
     7
  6
CONTINUOUS
  0
LAYER
  2
28
 70
     0
 62
     7
  6
CONTINUOUS
  0
LAYER
  2
29
 70
     0
 62
     7
  6
CONTINUOUS
  0
LAYER
  2
30
 70
     0
 62
     7
  6
CONTINUOUS
  0
LAYER
  2
31
 70
     0
 62
     7
  6
CONTINUOUS
  0
LAYER
  2
32
 70
     0
 62
     7
  6
CONTINUOUS
  0
LAYER
  2
33
 70
     0
 62
     7
  6
CONTINUOUS
  0
LAYER
  2
34
 70
     0
 62
     7
  6
CONTINUOUS
  0
LAYER
  2
35
 70
     0
 62
     7
  6
CONTINUOUS
  0
LAYER
  2
36
 70
     0
 62
     7
  6
CONTINUOUS
  0
LAYER
  2
37
 70
     0
 62
     7
  6
CONTINUOUS
  0
LAYER
  2
38
 70
     0
 62
     7
  6
CONTINUOUS
  0
LAYER
  2
39
 70
     0
 62
     7
  6
CONTINUOUS
  0
LAYER
  2
40
 70
     0
 62
     7
  6
CONTINUOUS
  0
LAYER
  2
41
 70
     0
 62
     7
  6
CONTINUOUS
  0
LAYER
  2
42
 70
     0
 62
     7
  6
CONTINUOUS
  0
LAYER
  2
43
 70
     0
 62
     7
  6
CONTINUOUS
  0
LAYER
  2
44
 70
     0
 62
     7
  6
CONTINUOUS
  0
LAYER
  2
45
 70
     0
 62
     7
  6
CONTINUOUS
  0
LAYER
  2
46
 70
     0
 62
     7
  6
CONTINUOUS
  0
LAYER
  2
47
 70
     0
 62
     7
  6
CONTINUOUS
  0
LAYER
  2
48
 70
     0
 62
     7
  6
CONTINUOUS
  0
LAYER
  2
49
 70
     0
 62
     7
  6
CONTINUOUS
  0
LAYER
  2
50
 70
     0
 62
     7
  6
CONTINUOUS
  0
LAYER
  2
51
 70
     0
 62
     7
  6
CONTINUOUS
  0
LAYER
  2
52
 70
     0
 62
     7
  6
CONTINUOUS
  0
LAYER
  2
53
 70
     0
 62
     7
  6
CONTINUOUS
  0
LAYER
  2
54
 70
     0
 62
     7
  6
CONTINUOUS
  0
LAYER
  2
55
 70
     0
 62
     7
  6
CONTINUOUS
  0
LAYER
  2
56
 70
     0
 62
     7
  6
CONTINUOUS
  0
LAYER
  2
57
 70
     0
 62
     7
  6
CONTINUOUS
  0
LAYER
  2
58
 70
     0
 62
     7
  6
CONTINUOUS
  0
LAYER
  2
59
 70
     0
 62
     7
  6
CONTINUOUS
  0
LAYER
  2
60
 70
     0
 62
     7
  6
CONTINUOUS
  0
LAYER
  2
61
 70
     0
 62
     7
  6
CONTINUOUS
  0
LAYER
  2
62
 70
     0
 62
     7
  6
CONTINUOUS
  0
LAYER
  2
63
 70
     0
 62
     7
  6
CONTINUOUS
  0
LAYER
  2
64
 70
     0
 62
     7
  6
CONTINUOUS
  0
LAYER
  2
65
 70
     0
 62
     7
  6
CONTINUOUS
  0
LAYER
  2
66
 70
     0
 62
     7
  6
CONTINUOUS
  0
LAYER
  2
67
 70
     0
 62
     7
  6
CONTINUOUS
  0
LAYER
  2
68
 70
     0
 62
     7
  6
CONTINUOUS
  0
LAYER
  2
69
 70
     0
 62
     7
  6
CONTINUOUS
  0
LAYER
  2
70
 70
     0
 62
     7
  6
CONTINUOUS
  0
LAYER
  2
71
 70
     0
 62
     7
  6
CONTINUOUS
  0
LAYER
  2
72
 70
     0
 62
     7
  6
CONTINUOUS
  0
LAYER
  2
73
 70
     0
 62
     7
  6
CONTINUOUS
  0
LAYER
  2
74
 70
     0
 62
     7
  6
CONTINUOUS
  0
LAYER
  2
75
 70
     0
 62
     7
  6
CONTINUOUS
  0
LAYER
  2
76
 70
     0
 62
     7
  6
CONTINUOUS
  0
LAYER
  2
77
 70
     0
 62
     7
  6
CONTINUOUS
  0
LAYER
  2
78
 70
     0
 62
     7
  6
CONTINUOUS
  0
LAYER
  2
79
 70
     0
 62
     7
  6
CONTINUOUS
  0
LAYER
  2
80
 70
     0
 62
     7
  6
CONTINUOUS
  0
LAYER
  2
81
 70
     0
 62
     7
  6
CONTINUOUS
  0
LAYER
  2
82
 70
     0
 62
     7
  6
CONTINUOUS
  0
LAYER
  2
83
 70
     0
 62
     7
  6
CONTINUOUS
  0
LAYER
  2
84
 70
     0
 62
     7
  6
CONTINUOUS
  0
LAYER
  2
85
 70
     0
 62
     7
  6
CONTINUOUS
  0
LAYER
  2
86
 70
     0
 62
     7
  6
CONTINUOUS
  0
LAYER
  2
87
 70
     0
 62
     7
  6
CONTINUOUS
  0
LAYER
  2
88
 70
     0
 62
     7
  6
CONTINUOUS
  0
LAYER
  2
89
 70
     0
 62
     7
  6
CONTINUOUS
  0
LAYER
  2
90
 70
     0
 62
     7
  6
CONTINUOUS
  0
LAYER
  2
91
 70
     0
 62
     7
  6
CONTINUOUS
  0
LAYER
  2
92
 70
     0
 62
     7
  6
CONTINUOUS
  0
LAYER
  2
93
 70
     0
 62
     7
  6
CONTINUOUS
  0
LAYER
  2
94
 70
     0
 62
     7
  6
CONTINUOUS
  0
LAYER
  2
95
 70
     0
 62
     7
  6
CONTINUOUS
  0
LAYER
  2
96
 70
     0
 62
     7
  6
CONTINUOUS
  0
LAYER
  2
97
 70
     0
 62
     7
  6
CONTINUOUS
  0
LAYER
  2
98
 70
     0
 62
     7
  6
CONTINUOUS
  0
LAYER
  2
99
 70
     0
 62
     7
  6
CONTINUOUS
  0
LAYER
  2
100
 70
     0
 62
     7
  6
CONTINUOUS
  0
LAYER
  2
101
 70
     0
 62
     7
  6
CONTINUOUS
  0
LAYER
  2
102
 70
     0
 62
     7
  6
CONTINUOUS
  0
LAYER
  2
103
 70
     0
 62
     7
  6
CONTINUOUS
  0
LAYER
  2
104
 70
     0
 62
     7
  6
CONTINUOUS
  0
LAYER
  2
105
 70
     0
 62
     7
  6
CONTINUOUS
  0
LAYER
  2
106
 70
     0
 62
     7
  6
CONTINUOUS
  0
LAYER
  2
107
 70
     0
 62
     7
  6
CONTINUOUS
  0
LAYER
  2
108
 70
     0
 62
     7
  6
CONTINUOUS
  0
LAYER
  2
109
 70
     0
 62
     7
  6
CONTINUOUS
  0
LAYER
  2
110
 70
     0
 62
     7
  6
CONTINUOUS
  0
LAYER
  2
111
 70
     0
 62
     7
  6
CONTINUOUS
  0
LAYER
  2
112
 70
     0
 62
     7
  6
CONTINUOUS
  0
LAYER
  2
113
 70
     0
 62
     7
  6
CONTINUOUS
  0
LAYER
  2
114
 70
     0
 62
     7
  6
CONTINUOUS
  0
LAYER
  2
115
 70
     0
 62
     7
  6
CONTINUOUS
  0
LAYER
  2
116
 70
     0
 62
     7
  6
CONTINUOUS
  0
LAYER
  2
117
 70
     0
 62
     7
  6
CONTINUOUS
  0
LAYER
  2
118
 70
     0
 62
     7
  6
CONTINUOUS
  0
LAYER
  2
119
 70
     0
 62
     7
  6
CONTINUOUS
  0
LAYER
  2
120
 70
     0
 62
     7
  6
CONTINUOUS
  0
LAYER
  2
121
 70
     0
 62
     7
  6
CONTINUOUS
  0
LAYER
  2
122
 70
     0
 62
     7
  6
CONTINUOUS
  0
LAYER
  2
123
 70
     0
 62
     7
  6
CONTINUOUS
  0
LAYER
  2
124
 70
     0
 62
     7
  6
CONTINUOUS
  0
LAYER
  2
125
 70
     0
 62
     7
  6
CONTINUOUS
  0
LAYER
  2
126
 70
     0
 62
     7
  6
CONTINUOUS
  0
LAYER
  2
127
 70
     0
 62
     7
  6
CONTINUOUS
  0
LAYER
  2
128
 70
     0
 62
     7
  6
CONTINUOUS
  0
ENDTAB
  0
TABLE
  2
STYLE
 70
    21
  0
STYLE
  2
STANDARD
 70
     0
 40
0.0
 41
1.0
 50
0.0
 71
     0
 42
0.2
  3
txt.shx
  4
extfont.shx
  0
STYLE
  2
KANJI0
 70
     0
 40
3.0
 41
0.6
 50
0.0
 71
     0
 42
3.0
  3
txt.shx
  4
extfont.shx
  0
STYLE
  2
KANJI1
 70
     0
 40
1.5
 41
0.9
 50
0.0
 71
     0
 42
1.5
  3
txt.shx
  4
extfont.shx
  0
STYLE
  2
KANJI2
 70
     0
 40
1.8
 41
0.6
 50
0.0
 71
     0
 42
1.8
  3
txt.shx
  4
extfont.shx
  0
STYLE
  2
KANJI3
 70
     0
 40
3.0
 41
0.9
 50
0.0
 71
     0
 42
3.0
  3
txt.shx
  4
extfont.shx
  0
STYLE
  2
KANJI4
 70
     0
 40
3.0
 41
0.6
 50
0.0
 71
     0
 42
3.0
  3
txt.shx
  4
extfont.shx
  0
STYLE
  2
KANJI5
 70
     0
 40
3.0
 41
0.6
 50
0.0
 71
     0
 42
3.0
  3
txt.shx
  4
extfont.shx
  0
STYLE
  2
KANJI6
 70
     0
 40
2.8
 41
0.714285714
 50
0.0
 71
     0
 42
2.8
  3
txt.shx
  4
extfont.shx
  0
STYLE
  2
KANJI7
 70
     0
 40
1.44
 41
0.6
 50
0.0
 71
     0
 42
1.44
  3
txt.shx
  4
extfont.shx
  0
STYLE
  2
KANJI8
 70
     0
 40
3.0
 41
0.833333333
 50
0.0
 71
     0
 42
3.0
  3
txt.shx
  4
extfont.shx
  0
STYLE
  2
KANJI9
 70
     0
 40
3.0
 41
0.8
 50
0.0
 71
     0
 42
3.0
  3
txt.shx
  4
extfont.shx
  0
STYLE
  2
KANJI10
 70
     0
 40
3.0
 41
0.75
 50
0.0
 71
     0
 42
3.0
  3
txt.shx
  4
extfont.shx
  0
STYLE
  2
KANJI11
 70
     0
 40
3.0
 41
0.666666667
 50
0.0
 71
     0
 42
3.0
  3
txt.shx
  4
extfont.shx
  0
STYLE
  2
KANJI12
 70
     0
 40
3.0
 41
0.45
 50
0.0
 71
     0
 42
3.0
  3
txt.shx
  4
extfont.shx
  0
STYLE
  2
KANJI13
 70
     0
 40
2.8
 41
1.0
 50
0.0
 71
     0
 42
2.8
  3
txt.shx
  4
extfont.shx
  0
STYLE
  2
KANJI14
 70
     0
 40
4.0
 41
0.75
 50
0.0
 71
     0
 42
4.0
  3
txt.shx
  4
extfont.shx
  0
STYLE
  2
KANJI15
 70
     0
 40
3.0
 41
0.666666667
 50
0.0
 71
     0
 42
3.0
  3
txt.shx
  4
extfont.shx
  0
STYLE
  2
KANJI16
 70
     0
 40
6.0
 41
0.9
 50
0.0
 71
     0
 42
6.0
  3
txt.shx
  4
extfont.shx
  0
STYLE
  2
KANJI17
 70
     0
 40
4.0
 41
0.9
 50
0.0
 71
     0
 42
4.0
  3
txt.shx
  4
extfont.shx
  0
STYLE
  2
KANJI18
 70
     0
 40
5.0
 41
0.9
 50
0.0
 71
     0
 42
5.0
  3
txt.shx
  4
extfont.shx
  0
STYLE
  2
KANJI19
 70
     0
 40
4.0
 41
1.0
 50
0.0
 71
     0
 42
4.0
  3
txt.shx
  4
extfont.shx
  0
ENDTAB
  0
TABLE
  2
VIEW
 70
     0
  0
ENDTAB
  0
ENDSEC
  0
SECTION
  2
BLOCKS
  0
ENDSEC
  0
SECTION
  2
ENTITIES
  0
POLYLINE
  8
0
  6
CONTINUOUS
 62
     1
 66
     1
  0
VERTEX
  8
0
  6
CONTINUOUS
 62
     1
 10
97.0
 20
109.0
 30
0.0
  0
VERTEX
  8
0
  6
CONTINUOUS
 62
     1
 10
100.0
 20
109.0
 30
0.0
  0
VERTEX
  8
0
  6
CONTINUOUS
 62
     1
 10
100.0
 20
159.0
 30
0.0
  0
VERTEX
  8
0
  6
CONTINUOUS
 62
     1
 10
97.0
 20
159.0
 30
0.0
  0
SEQEND
  0
LINE
  8
0
  6
CONTINUOUS
 62
     1
 10
100.25
 20
109.0
 30
0.0
 11
100.25
 21
158.95
 31
0.0
  0
LINE
  8
0
  6
CONTINUOUS
 62
     1
 10
100.25
 20
157.95
 30
0.0
 11
116.55
 21
157.95
 31
0.0
  0
LINE
  8
0
  6
CONTINUOUS
 62
     1
 10
116.5
 20
110.0
 30
0.0
 11
100.3
 21
110.0
 31
0.0
  0
LINE
  8
0
  6
CONTINUOUS
 62
     1
 10
152.5
 20
131.5
 30
0.0
 11
152.5
 21
121.5
 31
0.0
  0
LINE
  8
0
  6
CONTINUOUS
 62
     1
 10
152.5
 20
136.5
 30
0.0
 11
152.5
 21
146.5
 31
0.0
  0
LINE
  8
0
  6
CONTINUOUS
 62
     1
 10
152.5
 20
136.5
 30
0.0
 11
151.5
 21
136.5
 31
0.0
  0
LINE
  8
0
  6
CONTINUOUS
 62
     1
 10
151.5
 20
136.5
 30
0.0
 11
151.5
 21
131.6
 31
0.0
  0
LINE
  8
0
  6
CONTINUOUS
 62
     1
 10
151.5
 20
131.6
 30
0.0
 11
152.5
 21
131.6
 31
0.0
  0
ARC
  8
0
  6
CONTINUOUS
 62
     1
 10
165.0
 20
134.0
 30
0.0
 40
72.5
 50
160.0
 51
200.0
  0
LINE
  8
0
  6
CONTINUOUS
 62
     1
 10
95.271639
 20
114.5
 30
0.0
 11
97.0
 21
115.25
 31
0.0
  0
LINE
  8
0
  6
CONTINUOUS
 62
     1
 10
97.0
 20
115.25
 30
0.0
 11
97.0
 21
152.75
 31
0.0
  0
LINE
  8
0
  6
CONTINUOUS
 62
     1
 10
97.0
 20
152.75
 30
0.0
 11
95.171639
 21
153.5
 31
0.0
  0
LINE
  8
0
  6
CONTINUOUS
 62
     1
 10
112.5
 20
157.95
 30
0.0
 11
112.5
 21
110.05
 31
0.0
  0
LINE
  8
0
  6
CONTINUOUS
 62
     1
 10
100.35
 20
135.6
 30
0.0
 11
112.45
 21
135.6
 31
0.0
  0
LINE
  8
0
  6
CONTINUOUS
 62
     1
 10
112.45
 20
132.6
 30
0.0
 11
100.35
 21
132.6
 31
0.0
  0
LINE
  8
0
  6
CONTINUOUS
 62
     1
 10
103.5
 20
132.8
 30
0.0
 11
103.5
 21
135.5
 31
0.0
  0
LINE
  8
0
  6
CONTINUOUS
 62
     1
 10
116.5
 20
116.67
 30
0.0
 11
115.0
 21
116.67
 31
0.0
  0
LINE
  8
0
  6
CONTINUOUS
 62
     1
 10
115.0
 20
116.67
 30
0.0
 11
115.0
 21
111.43
 31
0.0
  0
LINE
  8
0
  6
CONTINUOUS
 62
     1
 10
115.0
 20
111.43
 30
0.0
 11
116.5
 21
111.43
 31
0.0
  0
LINE
  8
0
  6
CONTINUOUS
 62
     1
 10
116.55
 20
156.62
 30
0.0
 11
115.05
 21
156.62
 31
0.0
  0
LINE
  8
0
  6
CONTINUOUS
 62
     1
 10
115.05
 20
156.62
 30
0.0
 11
115.05
 21
151.37
 31
0.0
  0
LINE
  8
0
  6
CONTINUOUS
 62
     1
 10
115.05
 20
151.37
 30
0.0
 11
116.46
 21
151.37
 31
0.0
  0
ARC
  8
0
  6
CONTINUOUS
 62
     1
 10
117.1
 20
155.0
 30
0.0
 40
0.75
 50
0.0
 51
90.0
  0
ARC
  8
0
  6
CONTINUOUS
 62
     1
 10
117.1
 20
153.05
 30
0.0
 40
0.75
 50
270.0
 51
0.0
  0
LINE
  8
0
  6
CONTINUOUS
 62
     1
 10
117.85
 20
153.05
 30
0.0
 11
117.85
 21
155.0
 31
0.0
  0
LINE
  8
0
  6
CONTINUOUS
 62
     1
 10
117.1
 20
155.75
 30
0.0
 11
116.55
 21
155.75
 31
0.0
  0
LINE
  8
0
  6
CONTINUOUS
 62
     1
 10
116.55
 20
155.75
 30
0.0
 11
116.55
 21
152.3
 31
0.0
  0
LINE
  8
0
  6
CONTINUOUS
 62
     1
 10
116.55
 20
152.3
 30
0.0
 11
117.1
 21
152.3
 31
0.0
  0
LINE
  8
0
  6
CONTINUOUS
 62
     1
 10
117.85
 20
154.2
 30
0.0
 11
117.45
 21
154.2
 31
0.0
  0
LINE
  8
0
  6
CONTINUOUS
 62
     1
 10
117.45
 20
154.2
 30
0.0
 11
117.45
 21
153.85
 31
0.0
  0
LINE
  8
0
  6
CONTINUOUS
 62
     1
 10
117.45
 20
153.85
 30
0.0
 11
117.85
 21
153.85
 31
0.0
  0
ARC
  8
0
  6
CONTINUOUS
 62
     1
 10
117.05
 20
115.0
 30
0.0
 40
0.75
 50
0.0
 51
90.0
  0
ARC
  8
0
  6
CONTINUOUS
 62
     1
 10
117.05
 20
113.05
 30
0.0
 40
0.75
 50
270.0
 51
0.0
  0
LINE
  8
0
  6
CONTINUOUS
 62
     1
 10
117.8
 20
113.05
 30
0.0
 11
117.8
 21
115.0
 31
0.0
  0
LINE
  8
0
  6
CONTINUOUS
 62
     1
 10
117.05
 20
115.75
 30
0.0
 11
116.5
 21
115.75
 31
0.0
  0
LINE
  8
0
  6
CONTINUOUS
 62
     1
 10
116.5
 20
115.75
 30
0.0
 11
116.5
 21
112.3
 31
0.0
  0
LINE
  8
0
  6
CONTINUOUS
 62
     1
 10
116.5
 20
112.3
 30
0.0
 11
117.05
 21
112.3
 31
0.0
  0
LINE
  8
0
  6
CONTINUOUS
 62
     1
 10
117.8
 20
114.2
 30
0.0
 11
117.4
 21
114.2
 31
0.0
  0
LINE
  8
0
  6
CONTINUOUS
 62
     1
 10
117.4
 20
114.2
 30
0.0
 11
117.4
 21
113.85
 31
0.0
  0
LINE
  8
0
  6
CONTINUOUS
 62
     1
 10
117.4
 20
113.85
 30
0.0
 11
117.8
 21
113.85
 31
0.0
  0
ARC
  8
0
  6
CONTINUOUS
 62
     1
 10
156.7
 20
141.25
 30
0.0
 40
0.75
 50
0.0
 51
90.0
  0
ARC
  8
0
  6
CONTINUOUS
 62
     1
 10
156.7
 20
139.3
 30
0.0
 40
0.75
 50
270.0
 51
0.0
  0
LINE
  8
0
  6
CONTINUOUS
 62
     1
 10
157.45
 20
139.3
 30
0.0
 11
157.45
 21
141.25
 31
0.0
  0
LINE
  8
0
  6
CONTINUOUS
 62
     1
 10
156.7
 20
142.0
 30
0.0
 11
156.15
 21
142.0
 31
0.0
  0
LINE
  8
0
  6
CONTINUOUS
 62
     1
 10
156.15
 20
142.0
 30
0.0
 11
156.15
 21
138.55
 31
0.0
  0
LINE
  8
0
  6
CONTINUOUS
 62
     1
 10
156.15
 20
138.55
 30
0.0
 11
156.7
 21
138.55
 31
0.0
  0
LINE
  8
0
  6
CONTINUOUS
 62
     1
 10
157.45
 20
140.45
 30
0.0
 11
157.05
 21
140.45
 31
0.0
  0
LINE
  8
0
  6
CONTINUOUS
 62
     1
 10
157.05
 20
140.45
 30
0.0
 11
157.05
 21
140.1
 31
0.0
  0
LINE
  8
0
  6
CONTINUOUS
 62
     1
 10
157.05
 20
140.1
 30
0.0
 11
157.45
 21
140.1
 31
0.0
  0
ARC
  8
0
  6
CONTINUOUS
 62
     1
 10
156.8
 20
128.7
 30
0.0
 40
0.75
 50
0.0
 51
90.0
  0
ARC
  8
0
  6
CONTINUOUS
 62
     1
 10
156.8
 20
126.75
 30
0.0
 40
0.75
 50
270.0
 51
0.0
  0
LINE
  8
0
  6
CONTINUOUS
 62
     1
 10
157.55
 20
126.75
 30
0.0
 11
157.55
 21
128.7
 31
0.0
  0
LINE
  8
0
  6
CONTINUOUS
 62
     1
 10
156.8
 20
129.45
 30
0.0
 11
156.25
 21
129.45
 31
0.0
  0
LINE
  8
0
  6
CONTINUOUS
 62
     1
 10
156.25
 20
129.45
 30
0.0
 11
156.25
 21
126.0
 31
0.0
  0
LINE
  8
0
  6
CONTINUOUS
 62
     1
 10
156.25
 20
126.0
 30
0.0
 11
156.8
 21
126.0
 31
0.0
  0
LINE
  8
0
  6
CONTINUOUS
 62
     1
 10
157.55
 20
127.9
 30
0.0
 11
157.15
 21
127.9
 31
0.0
  0
LINE
  8
0
  6
CONTINUOUS
 62
     1
 10
157.15
 20
127.9
 30
0.0
 11
157.15
 21
127.55
 31
0.0
  0
LINE
  8
0
  6
CONTINUOUS
 62
     1
 10
157.15
 20
127.55
 30
0.0
 11
157.55
 21
127.55
 31
0.0
  0
POINT
  8
0
  6
CONTINUOUS
 62
     1
 10
156.2
 20
129.45
 30
0.0
  0
POINT
  8
0
  6
CONTINUOUS
 62
     1
 10
156.2
 20
129.45
 30
0.0
  0
POINT
  8
0
  6
CONTINUOUS
 62
     1
 10
156.2
 20
129.45
 30
0.0
  0
POINT
  8
0
  6
CONTINUOUS
 62
     1
 10
156.2
 20
129.45
 30
0.0
  0
POINT
  8
0
  6
CONTINUOUS
 62
     1
 10
156.2
 20
129.45
 30
0.0
  0
POINT
  8
0
  6
CONTINUOUS
 62
     1
 10
156.2
 20
129.45
 30
0.0
  0
POINT
  8
0
  6
CONTINUOUS
 62
     1
 10
156.2
 20
129.45
 30
0.0
  0
POINT
  8
0
  6
CONTINUOUS
 62
     1
 10
156.2
 20
129.45
 30
0.0
  0
POINT
  8
0
  6
CONTINUOUS
 62
     1
 10
156.2
 20
129.45
 30
0.0
  0
POINT
  8
0
  6
CONTINUOUS
 62
     1
 10
156.2
 20
129.45
 30
0.0
  0
POINT
  8
0
  6
CONTINUOUS
 62
     1
 10
156.2
 20
129.45
 30
0.0
  0
POINT
  8
0
  6
CONTINUOUS
 62
     1
 10
156.2
 20
129.45
 30
0.0
  0
POINT
  8
0
  6
CONTINUOUS
 62
     1
 10
156.2
 20
129.45
 30
0.0
  0
POINT
  8
0
  6
CONTINUOUS
 62
     1
 10
156.2
 20
129.45
 30
0.0
  0
LINE
  8
0
  6
CONTINUOUS
 62
     1
 10
156.2
 20
129.45
 30
0.0
 11
155.8
 21
129.45
 31
0.0
  0
LINE
  8
0
  6
CONTINUOUS
 62
     1
 10
155.8
 20
129.45
 30
0.0
 11
155.8
 21
126.0
 31
0.0
  0
POINT
  8
0
  6
CONTINUOUS
 62
     1
 10
155.8
 20
126.0
 30
0.0
  0
LINE
  8
0
  6
CONTINUOUS
 62
     1
 10
155.8
 20
126.0
 30
0.0
 11
156.15
 21
126.0
 31
0.0
  0
LINE
  8
0
  6
CONTINUOUS
 62
     1
 10
155.75
 20
129.5
 30
0.0
 11
152.5
 21
129.5
 31
0.0
  0
LINE
  8
0
  6
CONTINUOUS
 62
     1
 10
152.5
 20
126.0
 30
0.0
 11
155.7
 21
126.0
 31
0.0
  0
LINE
  8
0
  6
CONTINUOUS
 62
     1
 10
156.1
 20
142.0
 30
0.0
 11
152.5
 21
142.0
 31
0.0
  0
LINE
  8
0
  6
CONTINUOUS
 62
     1
 10
152.5
 20
138.5
 30
0.0
 11
156.15
 21
138.5
 31
0.0
  0
LINE
  8
0
  6
CONTINUOUS
 62
     1
 10
155.75
 20
138.5
 30
0.0
 11
155.75
 21
142.0
 31
0.0
  0
LINE
  8
0
  6
CONTINUOUS
 62
     1
 10
46.5
 20
109.0
 30
0.0
 11
61.5
 21
109.0
 31
0.0
  0
LINE
  8
0
  6
CONTINUOUS
 62
     1
 10
61.5
 20
109.0
 30
0.0
 11
61.5
 21
159.0
 31
0.0
  0
LINE
  8
0
  6
CONTINUOUS
 62
     1
 10
61.5
 20
159.0
 30
0.0
 11
46.5
 21
159.0
 31
0.0
  0
LINE
  8
0
  6
CONTINUOUS
 62
     1
 10
46.5
 20
159.0
 30
0.0
 11
46.5
 21
109.0
 31
0.0
  0
POINT
  8
0
  6
CONTINUOUS
 62
     1
 10
51.5
 20
159.025
 30
0.0
  0
LINE
  8
0
  6
CONTINUOUS
 62
     1
 10
54.0
 20
151.0
 30
0.0
 11
52.0
 21
151.0
 31
0.0
  0
LINE
  8
0
  6
CONTINUOUS
 62
     1
 10
52.0
 20
147.6
 30
0.0
 11
54.0
 21
147.6
 31
0.0
  0
LINE
  8
0
  6
CONTINUOUS
 62
     1
 10
54.0
 20
144.2
 30
0.0
 11
52.0
 21
144.2
 31
0.0
  0
LINE
  8
0
  6
CONTINUOUS
 62
     1
 10
54.0
 20
140.8
 30
0.0
 11
52.0
 21
140.8
 31
0.0
  0
LINE
  8
0
  6
CONTINUOUS
 62
     1
 10
52.0
 20
137.4
 30
0.0
 11
54.0
 21
137.4
 31
0.0
  0
LINE
  8
0
  6
CONTINUOUS
 62
     1
 10
54.0
 20
134.0
 30
0.0
 11
52.0
 21
134.0
 31
0.0
  0
LINE
  8
0
  6
CONTINUOUS
 62
     1
 10
52.0
 20
130.6
 30
0.0
 11
54.0
 21
130.6
 31
0.0
  0
LINE
  8
0
  6
CONTINUOUS
 62
     1
 10
54.0
 20
127.2
 30
0.0
 11
52.0
 21
127.2
 31
0.0
  0
LINE
  8
0
  6
CONTINUOUS
 62
     1
 10
54.0
 20
123.8
 30
0.0
 11
51.95
 21
123.8
 31
0.0
  0
LINE
  8
0
  6
CONTINUOUS
 62
     1
 10
51.95
 20
120.4
 30
0.0
 11
54.0
 21
120.4
 31
0.0
  0
LINE
  8
0
  6
CONTINUOUS
 62
     1
 10
54.0
 20
117.0
 30
0.0
 11
52.0
 21
117.0
 31
0.0
  0
LINE
  8
0
  6
CONTINUOUS
 62
     1
 10
28.29
 20
55.53
 30
0.0
 11
28.29
 21
40.53
 31
0.0
  0
LINE
  8
0
  6
CONTINUOUS
 62
     1
 10
28.29
 20
40.53
 30
0.0
 11
78.29
 21
40.53
 31
0.0
  0
LINE
  8
0
  6
CONTINUOUS
 62
     1
 10
78.29
 20
40.53
 30
0.0
 11
78.29
 21
55.53
 31
0.0
  0
LINE
  8
0
  6
CONTINUOUS
 62
     1
 10
78.29
 20
55.53
 30
0.0
 11
28.29
 21
55.53
 31
0.0
  0
POINT
  8
0
  6
CONTINUOUS
 62
     1
 10
78.315
 20
50.53
 30
0.0
  0
LINE
  8
0
  6
CONTINUOUS
 62
     1
 10
70.29
 20
48.03
 30
0.0
 11
70.29
 21
50.03
 31
0.0
  0
LINE
  8
0
  6
CONTINUOUS
 62
     1
 10
66.89
 20
50.03
 30
0.0
 11
66.89
 21
48.03
 31
0.0
  0
LINE
  8
0
  6
CONTINUOUS
 62
     1
 10
63.49
 20
48.03
 30
0.0
 11
63.49
 21
50.03
 31
0.0
  0
LINE
  8
0
  6
CONTINUOUS
 62
     1
 10
60.09
 20
48.03
 30
0.0
 11
60.09
 21
50.03
 31
0.0
  0
LINE
  8
0
  6
CONTINUOUS
 62
     1
 10
56.69
 20
50.03
 30
0.0
 11
56.69
 21
48.03
 31
0.0
  0
LINE
  8
0
  6
CONTINUOUS
 62
     1
 10
53.29
 20
48.03
 30
0.0
 11
53.29
 21
50.03
 31
0.0
  0
LINE
  8
0
  6
CONTINUOUS
 62
     1
 10
49.89
 20
50.03
 30
0.0
 11
49.89
 21
48.03
 31
0.0
  0
LINE
  8
0
  6
CONTINUOUS
 62
     1
 10
46.49
 20
48.03
 30
0.0
 11
46.49
 21
50.03
 31
0.0
  0
LINE
  8
0
  6
CONTINUOUS
 62
     1
 10
43.09
 20
48.03
 30
0.0
 11
43.09
 21
50.08
 31
0.0
  0
LINE
  8
0
  6
CONTINUOUS
 62
     1
 10
39.69
 20
50.08
 30
0.0
 11
39.69
 21
48.03
 31
0.0
  0
LINE
  8
0
  6
CONTINUOUS
 62
     1
 10
36.29
 20
48.03
 30
0.0
 11
36.29
 21
50.03
 31
0.0
  0
LINE
  8
0
  6
CONTINUOUS
 62
     1
 10
49.8
 20
132.51
 30
0.0
 11
51.7
 21
132.51
 31
0.0
  0
LINE
  8
0
  6
CONTINUOUS
 62
     1
 10
51.7
 20
132.51
 30
0.0
 11
51.7
 21
135.51
 31
0.0
  0
LINE
  8
0
  6
CONTINUOUS
 62
     1
 10
51.7
 20
135.51
 30
0.0
 11
49.8
 21
135.51
 31
0.0
  0
LINE
  8
0
  6
CONTINUOUS
 62
     1
 10
49.8
 20
135.51
 30
0.0
 11
49.8
 21
132.51
 31
0.0
  0
LINE
  8
0
  6
CONTINUOUS
 62
     1
 10
52.29
 20
50.355
 30
0.0
 11
54.29
 21
50.355
 31
0.0
  0
LINE
  8
0
  6
CONTINUOUS
 62
     1
 10
54.29
 20
50.355
 30
0.0
 11
54.29
 21
52.275
 31
0.0
  0
LINE
  8
0
  6
CONTINUOUS
 62
     1
 10
54.29
 20
52.275
 30
0.0
 11
52.29
 21
52.275
 31
0.0
  0
LINE
  8
0
  6
CONTINUOUS
 62
     1
 10
52.29
 20
52.275
 30
0.0
 11
52.29
 21
50.355
 31
0.0
  0
LINE
  8
0
  6
CONTINUOUS
 62
     2
 10
92.5
 20
174.000008741
 30
0.0
 11
94.914814566
 21
173.352961128
 31
0.0
  0
LINE
  8
0
  6
CONTINUOUS
 62
     2
 10
92.5
 20
174.000008741
 30
0.0
 11
94.914814566
 21
174.647056353
 31
0.0
  0
TEXT
  8
0
  6
CONTINUOUS
 62
     2
 10
94.425
 20
175.000008741
 30
0.3
 40
3.0
  1
１５
 50
0.0
 41
0.6
 51
0.0
  7
KANJI0
  0
TEXT
  8
0
  6
CONTINUOUS
 62
     2
 10
153.025
 20
175.045
 30
0.3
 40
3.0
  1
１０
 50
0.0
 41
0.6
 51
0.0
  7
KANJI0
  0
LINE
  8
0
  6
CONTINUOUS
 62
     2
 10
153.0
 20
146.5
 30
0.0
 11
167.0
 21
146.5
 31
0.0
  0
LINE
  8
0
  6
CONTINUOUS
 62
     2
 10
165.0
 20
146.5
 30
0.0
 11
164.352952387
 21
144.085185434
 31
0.0
  0
LINE
  8
0
  6
CONTINUOUS
 62
     2
 10
165.0
 20
146.5
 30
0.0
 11
165.647047613
 21
144.085185434
 31
0.0
  0
LINE
  8
0
  6
CONTINUOUS
 62
     2
 10
165.0
 20
146.5
 30
0.0
 11
165.0
 21
121.5
 31
0.0
  0
LINE
  8
0
  6
CONTINUOUS
 62
     2
 10
165.0
 20
121.5
 30
0.0
 11
165.647047613
 21
123.914814566
 31
0.0
  0
LINE
  8
0
  6
CONTINUOUS
 62
     2
 10
165.0
 20
121.5
 30
0.0
 11
164.352952387
 21
123.914814566
 31
0.0
  0
LINE
  8
0
  6
CONTINUOUS
 62
     2
 10
153.0
 20
121.5
 30
0.0
 11
167.0
 21
121.5
 31
0.0
  0
TEXT
  8
0
  6
CONTINUOUS
 62
     2
 10
164.0
 20
132.05
 30
0.3
 40
3.0
  1
５０
 50
90.0
 41
0.6
 51
0.0
  7
KANJI0
  0
LINE
  8
0
  6
CONTINUOUS
 62
     2
 10
117.76
 20
113.4
 30
0.0
 11
118.281938491
 21
110.955090961
 31
0.0
  0
LINE
  8
0
  6
CONTINUOUS
 62
     2
 10
117.76
 20
113.4
 30
0.0
 11
119.434466512
 21
111.543615907
 31
0.0
  0
LINE
  8
0
  6
CONTINUOUS
 62
     2
 10
117.76
 20
113.4
 30
0.0
 11
124.96
 21
99.3
 31
0.0
  0
LINE
  8
0
  6
CONTINUOUS
 62
     2
 10
124.96
 20
99.3
 30
0.0
 11
137.26
 21
99.3
 31
0.0
  0
TEXT
  8
0
  6
CONTINUOUS
 62
     2
 10
124.96
 20
100.3
 30
0.3
 40
3.0
  1
Ｍ４取付ネジ
 50
0.0
 41
0.6
 51
0.0
  7
KANJI0
  0
ARC
  8
0
  6
CONTINUOUS
 62
     2
 10
45.75
 20
109.5
 30
0.0
 40
0.5
 50
180.0
 51
270.0
  0
ARC
  8
0
  6
CONTINUOUS
 62
     2
 10
45.75
 20
158.5
 30
0.0
 40
0.5
 50
90.0
 51
180.0
  0
ARC
  8
0
  6
CONTINUOUS
 62
     2
 10
62.25
 20
158.5
 30
0.0
 40
0.5
 50
0.0
 51
90.0
  0
ARC
  8
0
  6
CONTINUOUS
 62
     2
 10
62.25
 20
109.5
 30
0.0
 40
0.5
 50
270.0
 51
0.0
  0
LINE
  8
0
  6
CONTINUOUS
 62
     2
 10
62.25
 20
109.0
 30
0.0
 11
61.5
 21
109.0
 31
0.0
  0
LINE
  8
0
  6
CONTINUOUS
 62
     2
 10
46.5
 20
109.0
 30
0.0
 11
45.75
 21
109.0
 31
0.0
  0
LINE
  8
0
  6
CONTINUOUS
 62
     2
 10
45.25
 20
109.5
 30
0.0
 11
45.25
 21
158.5
 31
0.0
  0
LINE
  8
0
  6
CONTINUOUS
 62
     2
 10
45.75
 20
159.0
 30
0.0
 11
46.5
 21
159.0
 31
0.0
  0
LINE
  8
0
  6
CONTINUOUS
 62
     2
 10
61.5
 20
159.0
 30
0.0
 11
62.25
 21
159.0
 31
0.0
  0
LINE
  8
0
  6
CONTINUOUS
 62
     2
 10
62.75
 20
158.5
 30
0.0
 11
62.75
 21
109.5
 31
0.0
  0
LINE
  8
0
  6
CONTINUOUS
 62
     2
 10
61.55
 20
114.525
 30
0.0
 11
46.5
 21
114.525
 31
0.0
  0
LINE
  8
0
  6
CONTINUOUS
 62
     2
 10
61.4875
 20
153.475
 30
0.0
 11
46.5375
 21
153.475
 31
0.0
  0
LINE
  8
0
  6
CONTINUOUS
 62
     2
 10
46.5
 20
154.275
 30
0.0
 11
61.5
 21
154.275
 31
0.0
  0
LINE
  8
0
  6
CONTINUOUS
 62
     2
 10
61.5
 20
155.075
 30
0.0
 11
46.5
 21
155.075
 31
0.0
  0
LINE
  8
0
  6
CONTINUOUS
 62
     2
 10
46.5
 20
155.875
 30
0.0
 11
61.5
 21
155.875
 31
0.0
  0
LINE
  8
0
  6
CONTINUOUS
 62
     2
 10
61.5
 20
156.675
 30
0.0
 11
46.5
 21
156.675
 31
0.0
  0
LINE
  8
0
  6
CONTINUOUS
 62
     2
 10
46.5
 20
157.475
 30
0.0
 11
61.5
 21
157.475
 31
0.0
  0
LINE
  8
0
  6
CONTINUOUS
 62
     2
 10
61.5
 20
158.275
 30
0.0
 11
46.5
 21
158.275
 31
0.0
  0
LINE
  8
0
  6
CONTINUOUS
 62
     2
 10
46.5
 20
113.775
 30
0.0
 11
61.5
 21
113.775
 31
0.0
  0
LINE
  8
0
  6
CONTINUOUS
 62
     2
 10
46.4875
 20
110.575
 30
0.0
 11
61.5
 21
110.575
 31
0.0
  0
LINE
  8
0
  6
CONTINUOUS
 62
     2
 10
61.5
 20
109.775
 30
0.0
 11
46.5
 21
109.775
 31
0.0
  0
CIRCLE
  8
0
  6
CONTINUOUS
 62
     2
 10
54.0
 20
112.175
 30
0.0
 40
1.325
  0
LINE
  8
0
  6
CONTINUOUS
 62
     2
 10
55.3
 20
112.175
 30
0.0
 11
61.5
 21
112.175
 31
0.0
  0
LINE
  8
0
  6
CONTINUOUS
 62
     2
 10
46.5
 20
112.175
 30
0.0
 11
52.7
 21
112.175
 31
0.0
  0
LINE
  8
0
  6
CONTINUOUS
 62
     2
 10
52.95
 20
111.375
 30
0.0
 11
46.4875
 21
111.375
 31
0.0
  0
LINE
  8
0
  6
CONTINUOUS
 62
     2
 10
61.5
 20
111.375
 30
0.0
 11
55.0
 21
111.375
 31
0.0
  0
LINE
  8
0
  6
CONTINUOUS
 62
     2
 10
52.95
 20
112.975
 30
0.0
 11
46.5
 21
112.975
 31
0.0
  0
LINE
  8
0
  6
CONTINUOUS
 62
     2
 10
61.5
 20
112.975
 30
0.0
 11
55.05
 21
112.975
 31
0.0
  0
LINE
  8
0
  6
CONTINUOUS
 62
     2
 10
53.85
 20
113.475
 30
0.0
 11
53.85
 21
110.925
 31
0.0
  0
LINE
  8
0
  6
CONTINUOUS
 62
     2
 10
54.15
 20
110.925
 30
0.0
 11
54.15
 21
113.475
 31
0.0
  0
LINE
  8
0
  6
CONTINUOUS
 62
     2
 10
59.7125
 20
114.575
 30
0.0
 11
59.7125
 21
153.475
 31
0.0
  0
LINE
  8
0
  6
CONTINUOUS
 62
     2
 10
48.0
 20
153.475
 30
0.0
 11
48.0
 21
114.575
 31
0.0
  0
LINE
  8
0
  6
CONTINUOUS
 62
     2
 10
49.53
 20
152.97
 30
0.0
 11
59.71
 21
152.97
 31
0.0
  0
LINE
  8
0
  6
CONTINUOUS
 62
     2
 10
49.5
 20
152.97
 30
0.0
 11
48.02
 21
152.97
 31
0.0
  0
LINE
  8
0
  6
CONTINUOUS
 62
     2
 10
48.0
 20
115.025
 30
0.0
 11
59.7
 21
115.025
 31
0.0
  0
LINE
  8
0
  6
CONTINUOUS
 62
     2
 10
53.5
 20
118.7
 30
0.0
 11
52.0
 21
118.7
 31
0.0
  0
LINE
  8
0
  6
CONTINUOUS
 62
     2
 10
52.0
 20
122.1
 30
0.0
 11
53.5
 21
122.1
 31
0.0
  0
LINE
  8
0
  6
CONTINUOUS
 62
     2
 10
53.5
 20
125.5
 30
0.0
 11
52.0
 21
125.5
 31
0.0
  0
LINE
  8
0
  6
CONTINUOUS
 62
     2
 10
52.0
 20
128.9
 30
0.0
 11
53.5
 21
128.9
 31
0.0
  0
LINE
  8
0
  6
CONTINUOUS
 62
     2
 10
53.5
 20
132.3
 30
0.0
 11
52.0
 21
132.3
 31
0.0
  0
LINE
  8
0
  6
CONTINUOUS
 62
     2
 10
52.0
 20
135.7
 30
0.0
 11
53.5
 21
135.7
 31
0.0
  0
LINE
  8
0
  6
CONTINUOUS
 62
     2
 10
53.5
 20
139.1
 30
0.0
 11
52.0
 21
139.1
 31
0.0
  0
LINE
  8
0
  6
CONTINUOUS
 62
     2
 10
52.0
 20
142.5
 30
0.0
 11
53.5
 21
142.5
 31
0.0
  0
LINE
  8
0
  6
CONTINUOUS
 62
     2
 10
53.5
 20
145.9
 30
0.0
 11
52.0
 21
145.9
 31
0.0
  0
LINE
  8
0
  6
CONTINUOUS
 62
     2
 10
52.0
 20
149.3
 30
0.0
 11
53.5
 21
149.3
 31
0.0
  0
TEXT
  8
0
  6
CONTINUOUS
 62
     2
 10
54.0
 20
150.25
 30
0.15
 40
1.5
  1
１００
 50
0.0
 41
0.9
 51
0.0
  7
KANJI1
  0
TEXT
  8
0
  6
CONTINUOUS
 62
     2
 10
54.25
 20
143.45
 30
0.15
 40
1.5
  1
８０
 50
0.0
 41
0.9
 51
0.0
  7
KANJI1
  0
TEXT
  8
0
  6
CONTINUOUS
 62
     2
 10
54.25
 20
136.65
 30
0.15
 40
1.5
  1
６０
 50
0.0
 41
0.9
 51
0.0
  7
KANJI1
  0
TEXT
  8
0
  6
CONTINUOUS
 62
     2
 10
54.25
 20
129.85
 30
0.15
 40
1.5
  1
４０
 50
0.0
 41
0.9
 51
0.0
  7
KANJI1
  0
TEXT
  8
0
  6
CONTINUOUS
 62
     2
 10
54.25
 20
123.05
 30
0.15
 40
1.5
  1
２０
 50
0.0
 41
0.9
 51
0.0
  7
KANJI1
  0
TEXT
  8
0
  6
CONTINUOUS
 62
     2
 10
54.25
 20
116.25
 30
0.15
 40
1.5
  1
０
 50
0.0
 41
0.9
 51
0.0
  7
KANJI1
  0
LINE
  8
0
  6
CONTINUOUS
 62
     2
 10
51.645
 20
117.025
 30
0.0
 11
48.895
 21
118.025
 31
0.0
  0
LINE
  8
0
  6
CONTINUOUS
 62
     2
 10
48.895
 20
118.025
 30
0.0
 11
48.795
 21
117.025
 31
0.0
  0
LINE
  8
0
  6
CONTINUOUS
 62
     2
 10
48.795
 20
117.025
 30
0.0
 11
48.895
 21
116.025
 31
0.0
  0
LINE
  8
0
  6
CONTINUOUS
 62
     2
 10
48.895
 20
116.025
 30
0.0
 11
51.645
 21
117.025
 31
0.0
  0
LINE
  8
0
  6
CONTINUOUS
 62
     2
 10
49.5
 20
117.805
 30
0.0
 11
49.5
 21
153.475
 31
0.0
  0
LINE
  8
0
  6
CONTINUOUS
 62
     2
 10
49.5
 20
114.575
 30
0.0
 11
49.5
 21
116.245
 31
0.0
  0
LINE
  8
0
  6
CONTINUOUS
 62
     2
 10
51.975
 20
115.025
 30
0.0
 11
51.975
 21
152.975
 31
0.0
  0
LINE
  8
0
  6
CONTINUOUS
 62
     2
 10
62.75
 20
158.95
 30
0.0
 11
62.75
 21
176.000008741
 31
0.0
  0
LINE
  8
0
  6
CONTINUOUS
 62
     2
 10
62.75
 20
174.000008741
 30
0.0
 11
60.335185434
 21
174.647056353
 31
0.0
  0
LINE
  8
0
  6
CONTINUOUS
 62
     2
 10
62.75
 20
174.000008741
 30
0.0
 11
60.335185434
 21
173.352961128
 31
0.0
  0
LINE
  8
0
  6
CONTINUOUS
 62
     2
 10
62.75
 20
174.000008741
 30
0.0
 11
45.25
 21
174.000008741
 31
0.0
  0
LINE
  8
0
  6
CONTINUOUS
 62
     2
 10
45.25
 20
174.000008741
 30
0.0
 11
47.664814566
 21
173.352961128
 31
0.0
  0
LINE
  8
0
  6
CONTINUOUS
 62
     2
 10
45.25
 20
174.000008741
 30
0.0
 11
47.664814566
 21
174.647056353
 31
0.0
  0
LINE
  8
0
  6
CONTINUOUS
 62
     2
 10
45.25
 20
158.95
 30
0.0
 11
45.25
 21
176.000008741
 31
0.0
  0
TEXT
  8
0
  6
CONTINUOUS
 62
     2
 10
52.05
 20
175.000008741
 30
0.3
 40
3.0
  1
３５
 50
0.0
 41
0.6
 51
0.0
  7
KANJI0
  0
LINE
  8
0
  6
CONTINUOUS
 62
     2
 10
46.5
 20
169.8
 30
0.0
 11
48.914814566
 21
169.152952387
 31
0.0
  0
LINE
  8
0
  6
CONTINUOUS
 62
     2
 10
46.5
 20
169.8
 30
0.0
 11
48.914814566
 21
170.447047613
 31
0.0
  0
LINE
  8
0
  6
CONTINUOUS
 62
     2
 10
46.5
 20
169.8
 30
0.0
 11
61.5
 21
169.8
 31
0.0
  0
LINE
  8
0
  6
CONTINUOUS
 62
     2
 10
61.5
 20
169.8
 30
0.0
 11
59.085185434
 21
170.447047613
 31
0.0
  0
LINE
  8
0
  6
CONTINUOUS
 62
     2
 10
61.5
 20
169.8
 30
0.0
 11
59.085185434
 21
169.152952387
 31
0.0
  0
TEXT
  8
0
  6
CONTINUOUS
 62
     2
 10
53.52
 20
170.8
 30
0.18
 40
1.8
  1
±０．５
 50
0.0
 41
0.6
 51
0.0
  7
KANJI2
  0
TEXT
  8
0
  6
CONTINUOUS
 62
     2
 10
49.62
 20
170.8
 30
0.3
 40
3.0
  1
３０
 50
0.0
 41
0.6
 51
0.0
  7
KANJI0
  0
TEXT
  8
0
  6
CONTINUOUS
 62
     2
 10
56.07
 20
174.9
 30
0.18
 40
1.8
  1
±０．５
 50
0.0
 41
0.6
 51
0.0
  7
KANJI2
  0
LINE
  8
0
  6
CONTINUOUS
 62
     2
 10
45.4
 20
159.025
 30
0.0
 11
31.55
 21
159.025
 31
0.0
  0
LINE
  8
0
  6
CONTINUOUS
 62
     2
 10
33.55
 20
159.025
 30
0.0
 11
32.902952387
 21
156.610185434
 31
0.0
  0
LINE
  8
0
  6
CONTINUOUS
 62
     2
 10
33.55
 20
159.025
 30
0.0
 11
34.197047613
 21
156.610185434
 31
0.0
  0
LINE
  8
0
  6
CONTINUOUS
 62
     2
 10
33.55
 20
159.025
 30
0.0
 11
33.55
 21
109.025
 31
0.0
  0
LINE
  8
0
  6
CONTINUOUS
 62
     2
 10
33.55
 20
109.025
 30
0.0
 11
34.197047613
 21
111.439814566
 31
0.0
  0
LINE
  8
0
  6
CONTINUOUS
 62
     2
 10
33.55
 20
109.025
 30
0.0
 11
32.902952387
 21
111.439814566
 31
0.0
  0
TEXT
  8
0
  6
CONTINUOUS
 62
     2
 10
32.55
 20
131.025
 30
0.3
 40
3.0
  1
１００
 50
90.0
 41
0.6
 51
0.0
  7
KANJI0
  0
LINE
  8
0
  6
CONTINUOUS
 62
     2
 10
45.875
 20
109.325
 30
0.0
 11
43.69301792
 21
108.104772888
 31
0.0
  0
LINE
  8
0
  6
CONTINUOUS
 62
     2
 10
45.875
 20
109.325
 30
0.0
 11
44.595461644
 21
107.177261283
 31
0.0
  0
LINE
  8
0
  6
CONTINUOUS
 62
     2
 10
45.875
 20
109.325
 30
0.0
 11
36.625
 21
100.325
 31
0.0
  0
LINE
  8
0
  6
CONTINUOUS
 62
     2
 10
42.425
 20
95.275
 30
0.0
 11
66.075
 21
95.275
 31
0.0
  0
CIRCLE
  8
0
  6
CONTINUOUS
 62
     2
 10
106.4
 20
154.55
 30
0.0
 40
1.5
  0
LINE
  8
0
  6
CONTINUOUS
 62
     2
 10
105.525
 20
154.75
 30
0.0
 11
106.0
 21
154.75
 31
0.0
  0
ARC
  8
0
  6
CONTINUOUS
 62
     2
 10
106.0
 20
154.95
 30
0.0
 40
0.2
 50
270.0
 51
0.0
  0
LINE
  8
0
  6
CONTINUOUS
 62
     2
 10
106.2
 20
154.95
 30
0.0
 11
106.2
 21
155.425
 31
0.0
  0
LINE
  8
0
  6
CONTINUOUS
 62
     2
 10
106.2
 20
155.425
 30
0.0
 11
106.6
 21
155.425
 31
0.0
  0
LINE
  8
0
  6
CONTINUOUS
 62
     2
 10
106.6
 20
155.425
 30
0.0
 11
106.6
 21
154.95
 31
0.0
  0
ARC
  8
0
  6
CONTINUOUS
 62
     2
 10
106.8
 20
154.95
 30
0.0
 40
0.2
 50
180.0
 51
270.0
  0
LINE
  8
0
  6
CONTINUOUS
 62
     2
 10
106.8
 20
154.75
 30
0.0
 11
107.275
 21
154.75
 31
0.0
  0
LINE
  8
0
  6
CONTINUOUS
 62
     2
 10
107.275
 20
154.75
 30
0.0
 11
107.275
 21
154.35
 31
0.0
  0
LINE
  8
0
  6
CONTINUOUS
 62
     2
 10
107.275
 20
154.35
 30
0.0
 11
106.8
 21
154.35
 31
0.0
  0
ARC
  8
0
  6
CONTINUOUS
 62
     2
 10
106.8
 20
154.15
 30
0.0
 40
0.2
 50
90.0
 51
180.0
  0
LINE
  8
0
  6
CONTINUOUS
 62
     2
 10
106.6
 20
154.15
 30
0.0
 11
106.6
 21
153.675
 31
0.0
  0
LINE
  8
0
  6
CONTINUOUS
 62
     2
 10
106.6
 20
153.675
 30
0.0
 11
106.2
 21
153.675
 31
0.0
  0
LINE
  8
0
  6
CONTINUOUS
 62
     2
 10
106.2
 20
153.675
 30
0.0
 11
106.2
 21
154.15
 31
0.0
  0
ARC
  8
0
  6
CONTINUOUS
 62
     2
 10
106.0
 20
154.15
 30
0.0
 40
0.2
 50
0.0
 51
90.0
  0
LINE
  8
0
  6
CONTINUOUS
 62
     2
 10
106.0
 20
154.35
 30
0.0
 11
105.525
 21
154.35
 31
0.0
  0
LINE
  8
0
  6
CONTINUOUS
 62
     2
 10
105.525
 20
154.35
 30
0.0
 11
105.525
 21
154.75
 31
0.0
  0
LINE
  8
0
  6
LTYPE1
 62
     2
 10
104.4
 20
154.55
 30
0.0
 11
108.4
 21
154.55
 31
0.0
  0
LINE
  8
0
  6
LTYPE1
 62
     2
 10
106.4
 20
156.55
 30
0.0
 11
106.4
 21
152.55
 31
0.0
  0
CIRCLE
  8
0
  6
CONTINUOUS
 62
     2
 10
106.4
 20
113.575
 30
0.0
 40
1.5
  0
LINE
  8
0
  6
CONTINUOUS
 62
     2
 10
105.525
 20
113.775
 30
0.0
 11
106.0
 21
113.775
 31
0.0
  0
ARC
  8
0
  6
CONTINUOUS
 62
     2
 10
106.0
 20
113.975
 30
0.0
 40
0.2
 50
270.0
 51
0.0
  0
LINE
  8
0
  6
CONTINUOUS
 62
     2
 10
106.2
 20
113.975
 30
0.0
 11
106.2
 21
114.45
 31
0.0
  0
LINE
  8
0
  6
CONTINUOUS
 62
     2
 10
106.2
 20
114.45
 30
0.0
 11
106.6
 21
114.45
 31
0.0
  0
LINE
  8
0
  6
CONTINUOUS
 62
     2
 10
106.6
 20
114.45
 30
0.0
 11
106.6
 21
113.975
 31
0.0
  0
ARC
  8
0
  6
CONTINUOUS
 62
     2
 10
106.8
 20
113.975
 30
0.0
 40
0.2
 50
180.0
 51
270.0
  0
LINE
  8
0
  6
CONTINUOUS
 62
     2
 10
106.8
 20
113.775
 30
0.0
 11
107.275
 21
113.775
 31
0.0
  0
LINE
  8
0
  6
CONTINUOUS
 62
     2
 10
107.275
 20
113.775
 30
0.0
 11
107.275
 21
113.375
 31
0.0
  0
LINE
  8
0
  6
CONTINUOUS
 62
     2
 10
107.275
 20
113.375
 30
0.0
 11
106.8
 21
113.375
 31
0.0
  0
ARC
  8
0
  6
CONTINUOUS
 62
     2
 10
106.8
 20
113.175
 30
0.0
 40
0.2
 50
90.0
 51
180.0
  0
LINE
  8
0
  6
CONTINUOUS
 62
     2
 10
106.6
 20
113.175
 30
0.0
 11
106.6
 21
112.7
 31
0.0
  0
LINE
  8
0
  6
CONTINUOUS
 62
     2
 10
106.6
 20
112.7
 30
0.0
 11
106.2
 21
112.7
 31
0.0
  0
LINE
  8
0
  6
CONTINUOUS
 62
     2
 10
106.2
 20
112.7
 30
0.0
 11
106.2
 21
113.175
 31
0.0
  0
ARC
  8
0
  6
CONTINUOUS
 62
     2
 10
106.0
 20
113.175
 30
0.0
 40
0.2
 50
0.0
 51
90.0
  0
LINE
  8
0
  6
CONTINUOUS
 62
     2
 10
106.0
 20
113.375
 30
0.0
 11
105.525
 21
113.375
 31
0.0
  0
LINE
  8
0
  6
CONTINUOUS
 62
     2
 10
105.525
 20
113.375
 30
0.0
 11
105.525
 21
113.775
 31
0.0
  0
LINE
  8
0
  6
LTYPE1
 62
     2
 10
104.4
 20
113.575
 30
0.0
 11
108.4
 21
113.575
 31
0.0
  0
LINE
  8
0
  6
LTYPE1
 62
     2
 10
106.4
 20
115.575
 30
0.0
 11
106.4
 21
111.575
 31
0.0
  0
TEXT
  8
0
  6
CONTINUOUS
 62
     2
 10
128.16
 20
113.5
 30
0.3
 40
3.0
  1
２－Ｍ４ターミナルネジ
 50
0.0
 41
0.6
 51
0.0
  7
KANJI0
  0
TEXT
  8
0
  6
CONTINUOUS
 62
     2
 10
99.0
 20
60.965
 30
0.18
 40
1.8
  1
－０
 50
90.0
 41
0.6
 51
0.0
  7
KANJI2
  0
TEXT
  8
0
  6
CONTINUOUS
 62
     2
 10
97.2
 20
60.965
 30
0.18
 40
1.8
  1
＋０．５
 50
90.0
 41
0.6
 51
0.0
  7
KANJI2
  0
TEXT
  8
0
  6
CONTINUOUS
 62
     2
 10
99.0
 20
52.865
 30
0.3
 40
3.0
  1
９６．５
 50
90.0
 41
0.6
 51
0.0
  7
KANJI0
  0
LINE
  8
0
  6
LTYPE1
 62
     2
 10
148.99
 20
140.295
 30
0.0
 11
159.59
 21
140.295
 31
0.0
  0
LINE
  8
0
  6
LTYPE1
 62
     2
 10
149.19
 20
127.745
 30
0.0
 11
159.54
 21
127.745
 31
0.0
  0
LINE
  8
0
  6
LTYPE1
 62
     2
 10
107.36
 20
59.365
 30
0.0
 11
131.36
 21
59.365
 31
0.0
  0
LINE
  8
0
  6
LTYPE1
 62
     2
 10
119.1
 20
86.815
 30
0.0
 11
119.1
 21
31.765
 31
0.0
  0
LINE
  8
0
  6
CONTINUOUS
 62
     2
 10
55.0
 20
112.0
 30
0.0
 11
56.316331322
 21
109.874612541
 31
0.0
  0
LINE
  8
0
  6
CONTINUOUS
 62
     2
 10
55.0
 20
112.0
 30
0.0
 11
57.202670094
 21
110.817526128
 31
0.0
  0
LINE
  8
0
  6
CONTINUOUS
 62
     2
 10
55.0
 20
112.0
 30
0.0
 11
67.5
 21
100.25
 31
0.0
  0
LINE
  8
0
  6
CONTINUOUS
 62
     2
 10
49.0
 20
116.75
 30
0.0
 11
46.98776059
 21
118.233540548
 31
0.0
  0
LINE
  8
0
  6
CONTINUOUS
 62
     2
 10
49.0
 20
116.75
 30
0.0
 11
46.515579279
 21
117.028664098
 31
0.0
  0
LINE
  8
0
  6
CONTINUOUS
 62
     2
 10
49.0
 20
116.75
 30
0.0
 11
30.5
 21
124.0
 31
0.0
  0
LINE
  8
0
  6
CONTINUOUS
 62
     2
 10
30.5
 20
124.0
 30
0.0
 11
26.4
 21
124.0
 31
0.0
  0
LINE
  8
0
  6
CONTINUOUS
 62
     2
 10
36.625
 20
100.325
 30
0.0
 11
30.225
 21
100.325
 31
0.0
  0
TEXT
  8
0
  6
CONTINUOUS
 62
     2
 10
30.225
 20
101.325
 30
0.3
 40
3.0
  1
化粧枠
 50
0.0
 41
0.6
 51
0.0
  7
KANJI0
  0
LINE
  8
0
  6
CONTINUOUS
 62
     2
 10
44.9
 20
109.025
 30
0.0
 11
31.55
 21
109.025
 31
0.0
  0
LINE
  8
0
  6
CONTINUOUS
 62
     2
 10
46.5
 20
159.5
 30
0.0
 11
46.5
 21
171.8
 31
0.0
  0
LINE
  8
0
  6
CONTINUOUS
 62
     2
 10
61.5
 20
159.5
 30
0.0
 11
61.5
 21
171.8
 31
0.0
  0
TEXT
  8
0
  6
CONTINUOUS
 62
     2
 10
110.6
 20
26.825
 30
0.3
 40
3.0
  1
パネルカット
 50
0.0
 41
0.9
 51
0.0
  7
KANJI3
  0
LINE
  8
0
  6
CONTINUOUS
 62
     2
 10
109.1
 20
25.525
 30
0.0
 11
128.5
 21
25.525
 31
0.0
  0
LINE
  8
0
  6
CONTINUOUS
 62
     2
 10
157.5
 20
141.550002697
 30
0.0
 11
157.5
 21
176.045
 31
0.0
  0
LINE
  8
0
  6
CONTINUOUS
 62
     2
 10
152.5
 20
147.0
 30
0.0
 11
152.5
 21
176.045
 31
0.0
  0
TEXT
  8
0
  6
CONTINUOUS
 62
     2
 10
26.9
 20
125.0
 30
0.6
 40
3.0
  1
指針
 50
0.0
 41
0.6
 51
0.0
  7
KANJI4
  0
TEXT
  8
0
  6
CONTINUOUS
 62
     2
 10
43.325
 20
95.925
 30
0.4
 40
3.0
  1
縦形　□Ｅｆ－１００Ｔ
 50
0.0
 41
0.6
 51
0.0
  7
KANJI5
  0
LINE
  8
0
  6
CONTINUOUS
 62
     2
 10
110.66
 20
167.8
 30
0.0
 11
102.56
 21
167.8
 31
0.0
  0
TEXT
  8
0
  6
CONTINUOUS
 62
     2
 10
102.56
 20
168.8
 30
0.3
 40
3.0
  1
取付金具
 50
0.0
 41
0.6
 51
0.0
  7
KANJI0
  0
LINE
  8
0
  6
CONTINUOUS
 62
     2
 10
114.96
 20
162.3
 30
0.0
 11
113.98241141
 21
164.600939058
 31
0.0
  0
LINE
  8
0
  6
CONTINUOUS
 62
     2
 10
114.96
 20
162.3
 30
0.0
 11
112.962913918
 21
163.803877382
 31
0.0
  0
LINE
  8
0
  6
CONTINUOUS
 62
     2
 10
114.96
 20
162.3
 30
0.0
 11
110.66
 21
167.8
 31
0.0
  0
TEXT
  8
0
  6
CONTINUOUS
 62
     2
 10
131.53
 20
175.045
 30
0.3
 40
3.0
  1
７２
 50
0.0
 41
0.6
 51
0.0
  7
KANJI0
  0
LINE
  8
0
  6
CONTINUOUS
 62
     2
 10
110.96
 20
166.52
 30
0.0
 11
121.26
 21
166.52
 31
0.0
  0
LINE
  8
0
  6
CONTINUOUS
 62
     2
 10
113.56
 20
167.02
 30
0.0
 11
114.96
 21
166.52
 31
0.0
  0
LINE
  8
0
  6
CONTINUOUS
 62
     2
 10
114.96
 20
166.52
 30
0.0
 11
113.56
 21
166.02
 31
0.0
  0
LINE
  8
0
  6
CONTINUOUS
 62
     2
 10
117.86
 20
167.12
 30
0.0
 11
116.46
 21
166.52
 31
0.0
  0
LINE
  8
0
  6
CONTINUOUS
 62
     2
 10
116.46
 20
166.52
 30
0.0
 11
117.96
 21
165.92
 31
0.0
  0
TEXT
  8
0
  6
CONTINUOUS
 62
     2
 10
111.76
 20
88.47
 30
0.1
 40
2.8
  1
（３１．８　　）
 50
0.0
 41
0.714285714
 51
0.0
  7
KANJI6
  0
TEXT
  8
0
  6
CONTINUOUS
 62
     2
 10
121.424
 20
89.95
 30
0.144
 40
1.44
  1
＋０．５
 50
0.0
 41
0.6
 51
0.0
  7
KANJI7
  0
TEXT
  8
0
  6
CONTINUOUS
 62
     2
 10
121.424
 20
88.51
 30
0.144
 40
1.44
  1
－０
 50
0.0
 41
0.6
 51
0.0
  7
KANJI7
  0
ARC
  8
0
  6
CONTINUOUS
 62
     2
 10
28.79
 20
56.28
 30
0.0
 40
0.5
 50
90.0
 51
180.0
  0
ARC
  8
0
  6
CONTINUOUS
 62
     2
 10
77.79
 20
56.28
 30
0.0
 40
0.5
 50
0.0
 51
90.0
  0
ARC
  8
0
  6
CONTINUOUS
 62
     2
 10
77.79
 20
39.78
 30
0.0
 40
0.5
 50
270.0
 51
0.0
  0
ARC
  8
0
  6
CONTINUOUS
 62
     2
 10
28.79
 20
39.78
 30
0.0
 40
0.5
 50
180.0
 51
270.0
  0
LINE
  8
0
  6
CONTINUOUS
 62
     2
 10
28.29
 20
39.78
 30
0.0
 11
28.29
 21
40.53
 31
0.0
  0
LINE
  8
0
  6
CONTINUOUS
 62
     2
 10
28.29
 20
55.53
 30
0.0
 11
28.29
 21
56.28
 31
0.0
  0
LINE
  8
0
  6
CONTINUOUS
 62
     2
 10
28.79
 20
56.78
 30
0.0
 11
77.79
 21
56.78
 31
0.0
  0
LINE
  8
0
  6
CONTINUOUS
 62
     2
 10
78.29
 20
56.28
 30
0.0
 11
78.29
 21
55.53
 31
0.0
  0
LINE
  8
0
  6
CONTINUOUS
 62
     2
 10
78.29
 20
40.53
 30
0.0
 11
78.29
 21
39.78
 31
0.0
  0
LINE
  8
0
  6
CONTINUOUS
 62
     2
 10
77.79
 20
39.28
 30
0.0
 11
28.79
 21
39.28
 31
0.0
  0
LINE
  8
0
  6
CONTINUOUS
 62
     2
 10
33.815
 20
40.48
 30
0.0
 11
33.815
 21
55.53
 31
0.0
  0
LINE
  8
0
  6
CONTINUOUS
 62
     2
 10
72.765
 20
40.5425
 30
0.0
 11
72.765
 21
55.4925
 31
0.0
  0
LINE
  8
0
  6
CONTINUOUS
 62
     2
 10
73.565
 20
55.53
 30
0.0
 11
73.565
 21
40.53
 31
0.0
  0
LINE
  8
0
  6
CONTINUOUS
 62
     2
 10
74.365
 20
40.53
 30
0.0
 11
74.365
 21
55.53
 31
0.0
  0
LINE
  8
0
  6
CONTINUOUS
 62
     2
 10
75.165
 20
55.53
 30
0.0
 11
75.165
 21
40.53
 31
0.0
  0
LINE
  8
0
  6
CONTINUOUS
 62
     2
 10
75.965
 20
40.53
 30
0.0
 11
75.965
 21
55.53
 31
0.0
  0
LINE
  8
0
  6
CONTINUOUS
 62
     2
 10
76.765
 20
55.53
 30
0.0
 11
76.765
 21
40.53
 31
0.0
  0
LINE
  8
0
  6
CONTINUOUS
 62
     2
 10
77.565
 20
40.53
 30
0.0
 11
77.565
 21
55.53
 31
0.0
  0
LINE
  8
0
  6
CONTINUOUS
 62
     2
 10
33.065
 20
55.53
 30
0.0
 11
33.065
 21
40.53
 31
0.0
  0
LINE
  8
0
  6
CONTINUOUS
 62
     2
 10
29.865
 20
55.5425
 30
0.0
 11
29.865
 21
40.53
 31
0.0
  0
LINE
  8
0
  6
CONTINUOUS
 62
     2
 10
29.065
 20
40.53
 30
0.0
 11
29.065
 21
55.53
 31
0.0
  0
CIRCLE
  8
0
  6
CONTINUOUS
 62
     2
 10
31.465
 20
48.03
 30
0.0
 40
1.325
  0
LINE
  8
0
  6
CONTINUOUS
 62
     2
 10
31.465
 20
46.73
 30
0.0
 11
31.465
 21
40.53
 31
0.0
  0
LINE
  8
0
  6
CONTINUOUS
 62
     2
 10
31.465
 20
55.53
 30
0.0
 11
31.465
 21
49.33
 31
0.0
  0
LINE
  8
0
  6
CONTINUOUS
 62
     2
 10
30.665
 20
49.08
 30
0.0
 11
30.665
 21
55.5425
 31
0.0
  0
LINE
  8
0
  6
CONTINUOUS
 62
     2
 10
30.665
 20
40.53
 30
0.0
 11
30.665
 21
47.03
 31
0.0
  0
LINE
  8
0
  6
CONTINUOUS
 62
     2
 10
32.265
 20
49.08
 30
0.0
 11
32.265
 21
55.53
 31
0.0
  0
LINE
  8
0
  6
CONTINUOUS
 62
     2
 10
32.265
 20
40.53
 30
0.0
 11
32.265
 21
46.98
 31
0.0
  0
LINE
  8
0
  6
CONTINUOUS
 62
     2
 10
32.765
 20
48.18
 30
0.0
 11
30.215
 21
48.18
 31
0.0
  0
LINE
  8
0
  6
CONTINUOUS
 62
     2
 10
30.215
 20
47.88
 30
0.0
 11
32.765
 21
47.88
 31
0.0
  0
LINE
  8
0
  6
CONTINUOUS
 62
     2
 10
33.865
 20
42.3175
 30
0.0
 11
72.765
 21
42.3175
 31
0.0
  0
LINE
  8
0
  6
CONTINUOUS
 62
     2
 10
72.765
 20
54.03
 30
0.0
 11
33.865
 21
54.03
 31
0.0
  0
LINE
  8
0
  6
CONTINUOUS
 62
     2
 10
72.26
 20
52.5
 30
0.0
 11
72.26
 21
42.32
 31
0.0
  0
LINE
  8
0
  6
CONTINUOUS
 62
     2
 10
72.26
 20
52.53
 30
0.0
 11
72.26
 21
54.01
 31
0.0
  0
LINE
  8
0
  6
CONTINUOUS
 62
     2
 10
34.315
 20
54.03
 30
0.0
 11
34.315
 21
42.33
 31
0.0
  0
LINE
  8
0
  6
CONTINUOUS
 62
     2
 10
37.99
 20
48.53
 30
0.0
 11
37.99
 21
50.03
 31
0.0
  0
LINE
  8
0
  6
CONTINUOUS
 62
     2
 10
41.39
 20
50.03
 30
0.0
 11
41.39
 21
48.53
 31
0.0
  0
LINE
  8
0
  6
CONTINUOUS
 62
     2
 10
44.79
 20
48.53
 30
0.0
 11
44.79
 21
50.03
 31
0.0
  0
LINE
  8
0
  6
CONTINUOUS
 62
     2
 10
48.19
 20
50.03
 30
0.0
 11
48.19
 21
48.53
 31
0.0
  0
LINE
  8
0
  6
CONTINUOUS
 62
     2
 10
51.59
 20
48.53
 30
0.0
 11
51.59
 21
50.03
 31
0.0
  0
LINE
  8
0
  6
CONTINUOUS
 62
     2
 10
54.99
 20
50.03
 30
0.0
 11
54.99
 21
48.53
 31
0.0
  0
LINE
  8
0
  6
CONTINUOUS
 62
     2
 10
58.39
 20
48.53
 30
0.0
 11
58.39
 21
50.03
 31
0.0
  0
LINE
  8
0
  6
CONTINUOUS
 62
     2
 10
61.79
 20
50.03
 30
0.0
 11
61.79
 21
48.53
 31
0.0
  0
LINE
  8
0
  6
CONTINUOUS
 62
     2
 10
65.19
 20
48.53
 30
0.0
 11
65.19
 21
50.03
 31
0.0
  0
LINE
  8
0
  6
CONTINUOUS
 62
     2
 10
68.59
 20
50.03
 30
0.0
 11
68.59
 21
48.53
 31
0.0
  0
LINE
  8
0
  6
CONTINUOUS
 62
     2
 10
36.315
 20
50.385
 30
0.0
 11
37.315
 21
53.135
 31
0.0
  0
LINE
  8
0
  6
CONTINUOUS
 62
     2
 10
37.315
 20
53.135
 30
0.0
 11
36.315
 21
53.235
 31
0.0
  0
LINE
  8
0
  6
CONTINUOUS
 62
     2
 10
36.315
 20
53.235
 30
0.0
 11
35.315
 21
53.135
 31
0.0
  0
LINE
  8
0
  6
CONTINUOUS
 62
     2
 10
35.315
 20
53.135
 30
0.0
 11
36.315
 21
50.385
 31
0.0
  0
LINE
  8
0
  6
CONTINUOUS
 62
     2
 10
37.095
 20
52.53
 30
0.0
 11
72.765
 21
52.53
 31
0.0
  0
LINE
  8
0
  6
CONTINUOUS
 62
     2
 10
33.865
 20
52.53
 30
0.0
 11
35.535
 21
52.53
 31
0.0
  0
LINE
  8
0
  6
CONTINUOUS
 62
     2
 10
34.315
 20
50.055
 30
0.0
 11
72.265
 21
50.055
 31
0.0
  0
TEXT
  8
0
  6
CONTINUOUS
 62
     2
 10
35.65
 20
46.05
 30
0.15
 40
1.5
  1
０
 50
0.0
 41
0.9
 51
0.0
  7
KANJI1
  0
TEXT
  8
0
  6
CONTINUOUS
 62
     2
 10
41.65
 20
46.15
 30
0.15
 40
1.5
  1
２０
 50
0.0
 41
0.9
 51
0.0
  7
KANJI1
  0
TEXT
  8
0
  6
CONTINUOUS
 62
     2
 10
48.55
 20
46.15
 30
0.15
 40
1.5
  1
４０
 50
0.0
 41
0.9
 51
0.0
  7
KANJI1
  0
TEXT
  8
0
  6
CONTINUOUS
 62
     2
 10
55.35
 20
46.05
 30
0.15
 40
1.5
  1
６０
 50
0.0
 41
0.9
 51
0.0
  7
KANJI1
  0
TEXT
  8
0
  6
CONTINUOUS
 62
     2
 10
62.15
 20
46.15
 30
0.15
 40
1.5
  1
８０
 50
0.0
 41
0.9
 51
0.0
  7
KANJI1
  0
TEXT
  8
0
  6
CONTINUOUS
 62
     2
 10
67.9
 20
46.05
 30
0.15
 40
1.5
  1
１００
 50
0.0
 41
0.9
 51
0.0
  7
KANJI1
  0
LINE
  8
0
  6
CONTINUOUS
 62
     2
 10
35.91
 20
53.27
 30
0.0
 11
37.359689109
 21
55.306762501
 31
0.0
  0
LINE
  8
0
  6
CONTINUOUS
 62
     2
 10
35.91
 20
53.27
 30
0.0
 11
36.147086346
 21
55.758732622
 31
0.0
  0
LINE
  8
0
  6
CONTINUOUS
 62
     2
 10
35.91
 20
53.27
 30
0.0
 11
40.01
 21
64.27
 31
0.0
  0
LINE
  8
0
  6
CONTINUOUS
 62
     2
 10
40.01
 20
64.27
 30
0.0
 11
47.01
 21
64.27
 31
0.0
  0
TEXT
  8
0
  6
CONTINUOUS
 62
     2
 10
40.01
 20
65.27
 30
2.0
 40
3.0
  1
指針
 50
0.0
 41
0.833333333
 51
0.0
  7
KANJI8
  0
TEXT
  8
0
  6
CONTINUOUS
 62
     2
 10
133.6
 20
109.7
 30
0.3
 40
3.0
  1
スプリングワッシャー付
 50
0.0
 41
0.9
 51
0.0
  7
KANJI3
  0
LINE
  8
0
  6
CONTINUOUS
 62
     2
 10
156.8
 20
125.7
 30
0.0
 11
157.744594377
 21
123.38532044
 31
0.0
  0
LINE
  8
0
  6
CONTINUOUS
 62
     2
 10
156.8
 20
125.7
 30
0.0
 11
158.775382506
 21
124.167725888
 31
0.0
  0
LINE
  8
0
  6
CONTINUOUS
 62
     2
 10
156.8
 20
125.7
 30
0.0
 11
169.4
 21
109.1
 31
0.0
  0
LINE
  8
0
  6
CONTINUOUS
 62
     2
 10
169.4
 20
109.1
 30
0.0
 11
131.9
 21
109.1
 31
0.0
  0
LINE
  8
0
  6
CONTINUOUS
 62
     2
 10
50.1
 20
134.81
 30
0.0
 11
48.270637477
 21
136.513946232
 31
0.0
  0
LINE
  8
0
  6
CONTINUOUS
 62
     2
 10
50.1
 20
134.81
 30
0.0
 11
47.663752467
 21
135.370979462
 31
0.0
  0
TEXT
  8
0
  6
CONTINUOUS
 62
     2
 10
42.425
 20
90.275
 30
0.3
 40
3.0
  1
目盛は一例を示します。
 50
0.0
 41
0.8
 51
0.0
  7
KANJI9
  0
LINE
  8
0
  6
CONTINUOUS
 62
     2
 10
53.29
 20
51.975
 30
0.0
 11
54.895272108
 21
53.891533709
 31
0.0
  0
LINE
  8
0
  6
CONTINUOUS
 62
     2
 10
53.29
 20
51.975
 30
0.0
 11
53.721939571
 21
54.437402934
 31
0.0
  0
LINE
  8
0
  6
CONTINUOUS
 62
     2
 10
53.29
 20
51.975
 30
0.0
 11
59.01
 21
64.27
 31
0.0
  0
LINE
  8
0
  6
CONTINUOUS
 62
     2
 10
59.01
 20
64.27
 30
0.0
 11
74.91
 21
64.27
 31
0.0
  0
TEXT
  8
0
  6
CONTINUOUS
 62
     2
 10
59.01
 20
65.27
 30
0.3
 40
3.0
  1
単位表示位置
 50
0.0
 41
0.8
 51
0.0
  7
KANJI9
  0
TEXT
  8
0
  6
CONTINUOUS
 62
     2
 10
40.01
 20
31.37
 30
0.2
 40
3.0
  1
横形　　Ｅｆ－１００Ｙ
 50
0.0
 41
0.75
 51
0.0
  7
KANJI10
  0
LINE
  8
0
  6
CONTINUOUS
 62
     2
 10
47.91
 20
31.47
 30
0.0
 11
49.21
 21
31.47
 31
0.0
  0
LINE
  8
0
  6
CONTINUOUS
 62
     2
 10
49.21
 20
31.47
 30
0.0
 11
49.21
 21
33.97
 31
0.0
  0
LINE
  8
0
  6
CONTINUOUS
 62
     2
 10
49.21
 20
33.97
 30
0.0
 11
47.91
 21
33.97
 31
0.0
  0
LINE
  8
0
  6
CONTINUOUS
 62
     2
 10
47.91
 20
33.97
 30
0.0
 11
47.91
 21
31.47
 31
0.0
  0
LINE
  8
0
  6
CONTINUOUS
 62
     2
 10
39.01
 20
30.77
 30
0.0
 11
67.01
 21
30.77
 31
0.0
  0
TEXT
  8
0
  6
CONTINUOUS
 62
     2
 10
140.46
 20
92.97
 30
0.1
 40
3.0
  1
注）１，（　）内寸法は，ＡＥｆ－１００形シールドケース付の場合を示します。
 50
0.0
 41
0.666666667
 51
0.0
  7
KANJI11
  0
TEXT
  8
0
  6
CONTINUOUS
 62
     2
 10
144.46
 20
87.27
 30
0.1
 40
3.0
  1
２，連結の場合は下記による。
 50
0.0
 41
0.666666667
 51
0.0
  7
KANJI11
  0
TEXT
  8
0
  6
CONTINUOUS
 62
     2
 10
150.46
 20
75.97
 30
0.3
 40
3.0
  1
２連結
 50
0.0
 41
0.9
 51
0.0
  7
KANJI3
  0
TEXT
  8
0
  6
CONTINUOUS
 62
     2
 10
150.46
 20
70.97
 30
0.3
 40
3.0
  1
３連結
 50
0.0
 41
0.9
 51
0.0
  7
KANJI3
  0
TEXT
  8
0
  6
CONTINUOUS
 62
     2
 10
150.46
 20
65.97
 30
0.3
 40
3.0
  1
Ｎ連結
 50
0.0
 41
0.9
 51
0.0
  7
KANJI3
  0
LINE
  8
0
  6
CONTINUOUS
 62
     2
 10
160.46
 20
84.97
 30
0.0
 11
160.46
 21
64.97
 31
0.0
  0
TEXT
  8
0
  6
CONTINUOUS
 62
     2
 10
161.46
 20
65.97
 30
0.3
 40
3.0
  1
（３０．１５×Ｎ）＋１．５
 50
0.0
 41
0.9
 51
0.0
  7
KANJI3
  0
LINE
  8
0
  6
CONTINUOUS
 62
     2
 10
186.46
 20
84.97
 30
0.0
 11
186.46
 21
64.97
 31
0.0
  0
TEXT
  8
0
  6
CONTINUOUS
 62
     2
 10
187.46
 20
80.97
 30
0.3
 40
3.0
  1
ＡＥｆ－１００Ｙ
 50
0.0
 41
0.9
 51
0.0
  7
KANJI3
  0
LINE
  8
0
  6
CONTINUOUS
 62
     2
 10
149.46
 20
84.97
 30
0.0
 11
212.46
 21
84.97
 31
0.0
  0
LINE
  8
0
  6
CONTINUOUS
 62
     2
 10
149.46
 20
79.97
 30
0.0
 11
212.46
 21
79.97
 31
0.0
  0
LINE
  8
0
  6
CONTINUOUS
 62
     2
 10
149.46
 20
74.97
 30
0.0
 11
212.46
 21
74.97
 31
0.0
  0
LINE
  8
0
  6
CONTINUOUS
 62
     2
 10
149.46
 20
69.97
 30
0.0
 11
212.46
 21
69.97
 31
0.0
  0
LINE
  8
0
  6
CONTINUOUS
 62
     2
 10
149.46
 20
64.97
 30
0.0
 11
212.46
 21
64.97
 31
0.0
  0
TEXT
  8
0
  6
CONTINUOUS
 62
     2
 10
163.46
 20
80.97
 30
0.3
 40
3.0
  1
右記以外の計器
 50
0.0
 41
0.9
 51
0.0
  7
KANJI3
  0
TEXT
  8
0
  6
CONTINUOUS
 62
     2
 10
167.46
 20
75.97
 30
0.3
 40
3.0
  1
６１．５
 50
0.0
 41
0.45
 51
0.0
  7
KANJI12
  0
TEXT
  8
0
  6
CONTINUOUS
 62
     2
 10
174.81
 20
75.97
 30
0.18
 40
1.8
  1
－０
 50
0.0
 41
0.6
 51
0.0
  7
KANJI2
  0
TEXT
  8
0
  6
CONTINUOUS
 62
     2
 10
174.81
 20
77.77
 30
0.18
 40
1.8
  1
＋０．５
 50
0.0
 41
0.6
 51
0.0
  7
KANJI2
  0
TEXT
  8
0
  6
CONTINUOUS
 62
     2
 10
169.46
 20
70.97
 30
0.3
 40
3.0
  1
９２
 50
0.0
 41
0.45
 51
0.0
  7
KANJI12
  0
TEXT
  8
0
  6
CONTINUOUS
 62
     2
 10
173.31
 20
70.97
 30
0.18
 40
1.8
  1
－０
 50
0.0
 41
0.6
 51
0.0
  7
KANJI2
  0
TEXT
  8
0
  6
CONTINUOUS
 62
     2
 10
173.31
 20
72.77
 30
0.18
 40
1.8
  1
＋０．５
 50
0.0
 41
0.6
 51
0.0
  7
KANJI2
  0
TEXT
  8
0
  6
CONTINUOUS
 62
     2
 10
199.31
 20
75.97
 30
0.18
 40
1.8
  1
－０
 50
0.0
 41
0.6
 51
0.0
  7
KANJI2
  0
TEXT
  8
0
  6
CONTINUOUS
 62
     2
 10
199.31
 20
77.77
 30
0.18
 40
1.8
  1
＋０．５
 50
0.0
 41
0.6
 51
0.0
  7
KANJI2
  0
TEXT
  8
0
  6
CONTINUOUS
 62
     2
 10
200.81
 20
70.97
 30
0.18
 40
1.8
  1
－０
 50
0.0
 41
0.6
 51
0.0
  7
KANJI2
  0
TEXT
  8
0
  6
CONTINUOUS
 62
     2
 10
200.81
 20
72.77
 30
0.18
 40
1.8
  1
＋０．５
 50
0.0
 41
0.6
 51
0.0
  7
KANJI2
  0
TEXT
  8
0
  6
CONTINUOUS
 62
     2
 10
195.46
 20
75.97
 30
0.3
 40
3.0
  1
６５
 50
0.0
 41
0.45
 51
0.0
  7
KANJI12
  0
TEXT
  8
0
  6
CONTINUOUS
 62
     2
 10
193.46
 20
70.97
 30
0.3
 40
3.0
  1
９７．５
 50
0.0
 41
0.45
 51
0.0
  7
KANJI12
  0
TEXT
  8
0
  6
CONTINUOUS
 62
     2
 10
194.46
 20
65.97
 30
0.3
 40
3.0
  1
３２．５×Ｎ
 50
0.0
 41
0.9
 51
0.0
  7
KANJI3
  0
TEXT
  8
0
  6
CONTINUOUS
 62
     2
 10
114.715
 20
93.495
 30
0.3
 40
3.0
  1
３１
 50
0.0
 41
0.6
 51
0.0
  7
KANJI0
  0
TEXT
  8
0
  6
CONTINUOUS
 62
     2
 10
119.065
 20
93.495
 30
0.18
 40
1.8
  1
－０
 50
0.0
 41
0.6
 51
0.0
  7
KANJI2
  0
TEXT
  8
0
  6
CONTINUOUS
 62
     2
 10
119.065
 20
95.295
 30
0.18
 40
1.8
  1
＋０．５
 50
0.0
 41
0.6
 51
0.0
  7
KANJI2
  0
TEXT
  8
0
  6
CONTINUOUS
 62
     2
 10
114.715
 20
97.495
 30
0.3
 40
3.0
  1
注２
 50
0.0
 41
0.6
 51
0.0
  7
KANJI0
  0
TEXT
  8
0
  6
CONTINUOUS
 62
     2
 10
113.715
 20
84.495
 30
0.3
 40
3.0
  1
注１
 50
0.0
 41
0.6
 51
0.0
  7
KANJI0
  0
LINE
  8
0
  6
CONTINUOUS
 62
     2
 10
100.0
 20
174.000008741
 30
0.0
 11
97.585185434
 21
174.647056353
 31
0.0
  0
LINE
  8
0
  6
CONTINUOUS
 62
     2
 10
100.0
 20
174.000008741
 30
0.0
 11
97.585185434
 21
173.352961128
 31
0.0
  0
LINE
  8
0
  6
CONTINUOUS
 62
     2
 10
100.0
 20
159.15
 30
0.0
 11
100.0
 21
176.000008741
 31
0.0
  0
LINE
  8
0
  6
CONTINUOUS
 62
     2
 10
92.5
 20
174.000008741
 30
0.0
 11
100.0
 21
174.000008741
 31
0.0
  0
LINE
  8
0
  6
CONTINUOUS
 62
     2
 10
100.0
 20
174.000008741
 30
0.0
 11
163.25
 21
174.000008741
 31
0.0
  0
LINE
  8
0
  6
CONTINUOUS
 62
     2
 10
100.0
 20
174.000008741
 30
0.0
 11
102.414814566
 21
173.352961128
 31
0.0
  0
LINE
  8
0
  6
CONTINUOUS
 62
     2
 10
100.0
 20
174.000008741
 30
0.0
 11
102.414814566
 21
174.647056353
 31
0.0
  0
LINE
  8
0
  6
CONTINUOUS
 62
     2
 10
116.448387097
 20
173.983879708
 30
0.0
 11
115.048387097
 21
173.483879708
 31
0.0
  0
LINE
  8
0
  6
CONTINUOUS
 62
     2
 10
116.448387097
 20
173.983879708
 30
0.0
 11
118.048387097
 21
174.483879708
 31
0.0
  0
LINE
  8
0
  6
CONTINUOUS
 62
     2
 10
118.048387097
 20
173.483879708
 30
0.0
 11
115.048387097
 21
174.483879708
 31
0.0
  0
LINE
  8
0
  6
CONTINUOUS
 62
     2
 10
152.5
 20
174.000008741
 30
0.0
 11
150.085185434
 21
174.647056353
 31
0.0
  0
LINE
  8
0
  6
CONTINUOUS
 62
     2
 10
152.5
 20
174.000008741
 30
0.0
 11
150.085185434
 21
173.352961128
 31
0.0
  0
LINE
  8
0
  6
CONTINUOUS
 62
     2
 10
157.5
 20
174.000008741
 30
0.0
 11
159.914814566
 21
173.352961128
 31
0.0
  0
LINE
  8
0
  6
CONTINUOUS
 62
     2
 10
157.5
 20
174.000008741
 30
0.0
 11
159.914814566
 21
174.647056353
 31
0.0
  0
LINE
  8
0
  6
CONTINUOUS
 62
     1
 10
116.55
 20
157.95
 30
0.0
 11
116.55
 21
150.0
 31
0.0
  0
LINE
  8
0
  6
CONTINUOUS
 62
     1
 10
116.5
 20
118.0
 30
0.0
 11
116.5
 21
110.0
 31
0.0
  0
LINE
  8
0
  6
CONTINUOUS
 62
     1
 10
152.5
 20
146.5
 30
0.0
 11
116.55
 21
150.0
 31
0.0
  0
LINE
  8
0
  6
CONTINUOUS
 62
     1
 10
116.5
 20
118.0
 30
0.0
 11
152.5
 21
121.5
 31
0.0
  0
LINE
  8
0
  6
CONTINUOUS
 62
     2
 10
122.925
 20
150.0
 30
0.0
 11
122.277952387
 21
147.585185434
 31
0.0
  0
LINE
  8
0
  6
CONTINUOUS
 62
     2
 10
122.925
 20
150.0
 30
0.0
 11
123.572047613
 21
147.585185434
 31
0.0
  0
LINE
  8
0
  6
CONTINUOUS
 62
     2
 10
117.55
 20
150.0
 30
0.0
 11
124.925
 21
150.0
 31
0.0
  0
LINE
  8
0
  6
CONTINUOUS
 62
     2
 10
117.525
 20
118.0
 30
0.0
 11
124.925
 21
118.0
 31
0.0
  0
LINE
  8
0
  6
CONTINUOUS
 62
     2
 10
122.925
 20
118.0
 30
0.0
 11
123.572047613
 21
120.414814566
 31
0.0
  0
LINE
  8
0
  6
CONTINUOUS
 62
     2
 10
122.925
 20
118.0
 30
0.0
 11
122.277952387
 21
120.414814566
 31
0.0
  0
LINE
  8
0
  6
CONTINUOUS
 62
     2
 10
122.925
 20
118.0
 30
0.0
 11
122.925
 21
150.0
 31
0.0
  0
TEXT
  8
0
  6
CONTINUOUS
 62
     2
 10
67.5
 20
101.25
 30
0.3
 40
3.0
  1
機械的零位調整器
 50
0.0
 41
0.9
 51
0.0
  7
KANJI3
  0
LINE
  8
0
  6
CONTINUOUS
 62
     2
 10
67.5
 20
100.25
 30
0.0
 11
92.624562641
 21
100.25
 31
0.0
  0
LINE
  8
0
  6
CONTINUOUS
 62
     1
 10
183.86
 20
134.0
 30
0.0
 11
183.86
 21
158.0
 31
0.0
  0
LINE
  8
0
  6
CONTINUOUS
 62
     1
 10
183.86
 20
158.0
 30
0.0
 11
188.86
 21
158.0
 31
0.0
  0
LINE
  8
0
  6
CONTINUOUS
 62
     1
 10
198.86
 20
158.0
 30
0.0
 11
198.86
 21
134.0
 31
0.0
  0
LINE
  8
0
  6
CONTINUOUS
 62
     1
 10
198.86
 20
158.0
 30
0.0
 11
193.86
 21
158.0
 31
0.0
  0
ARC
  8
0
  6
CONTINUOUS
 62
     1
 10
183.86
 20
158.025
 30
0.0
 40
1.0
 50
90.0
 51
180.0
  0
ARC
  8
0
  6
CONTINUOUS
 62
     1
 10
198.86
 20
158.0
 30
0.0
 40
1.0
 50
0.0
 51
90.0
  0
LINE
  8
0
  6
CONTINUOUS
 62
     1
 10
198.86
 20
159.0
 30
0.0
 11
193.86
 21
159.0
 31
0.0
  0
LINE
  8
0
  6
CONTINUOUS
 62
     1
 10
188.86
 20
159.0
 30
0.0
 11
183.86
 21
159.025
 31
0.0
  0
LINE
  8
0
  6
CONTINUOUS
 62
     1
 10
182.91
 20
158.0372499
 30
0.0
 11
182.91
 21
133.9872499
 31
0.0
  0
LINE
  8
0
  6
CONTINUOUS
 62
     1
 10
199.86
 20
158.0
 30
0.0
 11
199.86
 21
134.0122499
 31
0.0
  0
POINT
  8
0
  6
CONTINUOUS
 62
     1
 10
183.8625
 20
149.95
 30
0.0
  0
LINE
  8
0
  6
CONTINUOUS
 62
     1
 10
183.8625
 20
146.5
 30
0.0
 11
198.8625
 21
146.5
 31
0.0
  0
LINE
  8
0
  6
CONTINUOUS
 62
     1
 10
198.8625
 20
136.65
 30
0.0
 11
183.8625
 21
136.65
 31
0.0
  0
CIRCLE
  8
0
  6
CONTINUOUS
 62
     1
 10
191.36
 20
140.25
 30
0.0
 40
1.675
  0
LINE
  8
0
  6
CONTINUOUS
 62
     1
 10
183.86
 20
134.0
 30
0.0
 11
183.86
 21
110.0
 31
0.0
  0
LINE
  8
0
  6
CONTINUOUS
 62
     1
 10
183.86
 20
110.0
 30
0.0
 11
188.86
 21
110.0
 31
0.0
  0
LINE
  8
0
  6
CONTINUOUS
 62
     1
 10
198.86
 20
110.0
 30
0.0
 11
198.86
 21
134.0
 31
0.0
  0
LINE
  8
0
  6
CONTINUOUS
 62
     1
 10
198.86
 20
110.0
 30
0.0
 11
193.86
 21
110.0
 31
0.0
  0
ARC
  8
0
  6
CONTINUOUS
 62
     1
 10
183.86
 20
109.975
 30
0.0
 40
1.0
 50
180.0
 51
270.0
  0
ARC
  8
0
  6
CONTINUOUS
 62
     1
 10
198.86
 20
110.0
 30
0.0
 40
1.0
 50
270.0
 51
0.0
  0
LINE
  8
0
  6
CONTINUOUS
 62
     1
 10
198.86
 20
109.0
 30
0.0
 11
193.86
 21
109.0
 31
0.0
  0
LINE
  8
0
  6
CONTINUOUS
 62
     1
 10
188.86
 20
109.0
 30
0.0
 11
183.86
 21
108.975
 31
0.0
  0
LINE
  8
0
  6
CONTINUOUS
 62
     1
 10
182.91
 20
109.9627501
 30
0.0
 11
182.91
 21
134.0127501
 31
0.0
  0
LINE
  8
0
  6
CONTINUOUS
 62
     1
 10
199.86
 20
110.0
 30
0.0
 11
199.86
 21
133.9877501
 31
0.0
  0
POINT
  8
0
  6
CONTINUOUS
 62
     1
 10
183.8625
 20
118.05
 30
0.0
  0
LINE
  8
0
  6
CONTINUOUS
 62
     1
 10
183.8625
 20
118.05
 30
0.0
 11
198.8625
 21
118.05
 31
0.0
  0
LINE
  8
0
  6
CONTINUOUS
 62
     1
 10
183.8625
 20
121.5
 30
0.0
 11
198.8625
 21
121.5
 31
0.0
  0
LINE
  8
0
  6
CONTINUOUS
 62
     1
 10
198.8625
 20
131.35
 30
0.0
 11
183.8625
 21
131.35
 31
0.0
  0
CIRCLE
  8
0
  6
CONTINUOUS
 62
     1
 10
191.36
 20
127.75
 30
0.0
 40
1.675
  0
CIRCLE
  8
0
  6
CONTINUOUS
 62
     2
 10
196.3625
 20
154.0
 30
0.0
 40
1.25
  0
CIRCLE
  8
0
  6
CONTINUOUS
 62
     2
 10
196.3625
 20
154.0
 30
0.0
 40
0.625
  0
CIRCLE
  8
0
  6
CONTINUOUS
 62
     2
 10
186.3625
 20
154.0
 30
0.0
 40
0.625
  0
CIRCLE
  8
0
  6
CONTINUOUS
 62
     2
 10
186.3625
 20
154.0
 30
0.0
 40
1.25
  0
LINE
  8
0
  6
CONTINUOUS
 62
     2
 10
188.8125
 20
156.5
 30
0.0
 11
183.8625
 21
156.5
 31
0.0
  0
LINE
  8
0
  6
CONTINUOUS
 62
     2
 10
193.8625
 20
156.5
 30
0.0
 11
198.8625
 21
156.5
 31
0.0
  0
ARC
  8
0
  6
CONTINUOUS
 62
     2
 10
191.89
 20
140.87
 30
0.0
 40
0.35
 50
180.0
 51
270.0
  0
ARC
  8
0
  6
CONTINUOUS
 62
     2
 10
191.89
 20
139.67
 30
0.0
 40
0.35
 50
90.0
 51
180.0
  0
ARC
  8
0
  6
CONTINUOUS
 62
     2
 10
190.83
 20
139.67
 30
0.0
 40
0.35
 50
0.0
 51
90.0
  0
ARC
  8
0
  6
CONTINUOUS
 62
     2
 10
190.83
 20
140.89
 30
0.0
 40
0.35
 50
270.0
 51
0.0
  0
LINE
  8
0
  6
CONTINUOUS
 62
     2
 10
190.83
 20
140.54
 30
0.0
 11
189.706904419
 21
140.52
 31
0.0
  0
LINE
  8
0
  6
CONTINUOUS
 62
     2
 10
189.706904419
 20
140.0
 30
0.0
 11
190.83
 21
140.02
 31
0.0
  0
LINE
  8
0
  6
CONTINUOUS
 62
     2
 10
191.18
 20
139.67
 30
0.0
 11
191.18
 21
139.3
 31
0.0
  0
LINE
  8
0
  6
CONTINUOUS
 62
     2
 10
191.18
 20
139.3
 30
0.0
 11
191.55
 21
139.3
 31
0.0
  0
LINE
  8
0
  6
CONTINUOUS
 62
     2
 10
191.55
 20
139.31
 30
0.0
 11
191.54
 21
139.67
 31
0.0
  0
LINE
  8
0
  6
CONTINUOUS
 62
     2
 10
191.89
 20
140.02
 30
0.0
 11
192.98
 21
140.02
 31
0.0
  0
LINE
  8
0
  6
CONTINUOUS
 62
     2
 10
192.98
 20
140.54
 30
0.0
 11
191.89
 21
140.54
 31
0.0
  0
LINE
  8
0
  6
CONTINUOUS
 62
     2
 10
191.54
 20
140.87
 30
0.0
 11
191.54
 21
141.21
 31
0.0
  0
LINE
  8
0
  6
CONTINUOUS
 62
     2
 10
191.54
 20
141.21
 30
0.0
 11
191.18
 21
141.21
 31
0.0
  0
LINE
  8
0
  6
CONTINUOUS
 62
     2
 10
191.18
 20
141.21
 30
0.0
 11
191.18
 21
140.89
 31
0.0
  0
CIRCLE
  8
0
  6
CONTINUOUS
 62
     2
 10
196.3625
 20
114.0
 30
0.0
 40
1.25
  0
CIRCLE
  8
0
  6
CONTINUOUS
 62
     2
 10
196.3625
 20
114.0
 30
0.0
 40
0.625
  0
CIRCLE
  8
0
  6
CONTINUOUS
 62
     2
 10
186.3625
 20
114.0
 30
0.0
 40
0.625
  0
CIRCLE
  8
0
  6
CONTINUOUS
 62
     2
 10
186.3625
 20
114.0
 30
0.0
 40
1.25
  0
LINE
  8
0
  6
CONTINUOUS
 62
     2
 10
188.8125
 20
111.5
 30
0.0
 11
183.8625
 21
111.5
 31
0.0
  0
LINE
  8
0
  6
CONTINUOUS
 62
     2
 10
193.8625
 20
111.5
 30
0.0
 11
198.8625
 21
111.5
 31
0.0
  0
ARC
  8
0
  6
CONTINUOUS
 62
     2
 10
191.89
 20
127.13
 30
0.0
 40
0.35
 50
90.0
 51
180.0
  0
ARC
  8
0
  6
CONTINUOUS
 62
     2
 10
191.89
 20
128.33
 30
0.0
 40
0.35
 50
180.0
 51
270.0
  0
ARC
  8
0
  6
CONTINUOUS
 62
     2
 10
190.83
 20
128.33
 30
0.0
 40
0.35
 50
270.0
 51
0.0
  0
ARC
  8
0
  6
CONTINUOUS
 62
     2
 10
190.83
 20
127.11
 30
0.0
 40
0.35
 50
0.0
 51
90.0
  0
LINE
  8
0
  6
CONTINUOUS
 62
     2
 10
190.83
 20
127.46
 30
0.0
 11
189.706904419
 21
127.48
 31
0.0
  0
LINE
  8
0
  6
CONTINUOUS
 62
     2
 10
189.706904419
 20
128.0
 30
0.0
 11
190.83
 21
127.98
 31
0.0
  0
LINE
  8
0
  6
CONTINUOUS
 62
     2
 10
191.18
 20
128.33
 30
0.0
 11
191.18
 21
128.7
 31
0.0
  0
LINE
  8
0
  6
CONTINUOUS
 62
     2
 10
191.18
 20
128.7
 30
0.0
 11
191.55
 21
128.7
 31
0.0
  0
LINE
  8
0
  6
CONTINUOUS
 62
     2
 10
191.55
 20
128.69
 30
0.0
 11
191.54
 21
128.33
 31
0.0
  0
LINE
  8
0
  6
CONTINUOUS
 62
     2
 10
191.89
 20
127.98
 30
0.0
 11
192.98
 21
127.98
 31
0.0
  0
LINE
  8
0
  6
CONTINUOUS
 62
     2
 10
192.98
 20
127.46
 30
0.0
 11
191.89
 21
127.46
 31
0.0
  0
LINE
  8
0
  6
CONTINUOUS
 62
     2
 10
191.54
 20
127.13
 30
0.0
 11
191.54
 21
126.79
 31
0.0
  0
LINE
  8
0
  6
CONTINUOUS
 62
     2
 10
191.54
 20
126.79
 30
0.0
 11
191.18
 21
126.79
 31
0.0
  0
LINE
  8
0
  6
CONTINUOUS
 62
     2
 10
191.18
 20
126.79
 30
0.0
 11
191.18
 21
127.11
 31
0.0
  0
TEXT
  8
0
  6
CONTINUOUS
 62
     2
 10
194.2
 20
138.78
 30
0.3
 40
3.0
  1
＋
 50
0.0
 41
0.9
 51
0.0
  7
KANJI3
  0
CIRCLE
  8
0
  6
CONTINUOUS
 62
     2
 10
195.46
 20
140.27
 30
0.0
 40
1.675
  0
LINE
  8
0
  6
CONTINUOUS
 62
     2
 10
189.5225
 20
140.25
 30
0.0
 11
176.7225
 21
140.25
 31
0.0
  0
LINE
  8
0
  6
CONTINUOUS
 62
     2
 10
178.7225
 20
140.25
 30
0.0
 11
178.075452387
 21
137.835185434
 31
0.0
  0
LINE
  8
0
  6
CONTINUOUS
 62
     2
 10
178.7225
 20
140.25
 30
0.0
 11
179.369547613
 21
137.835185434
 31
0.0
  0
LINE
  8
0
  6
CONTINUOUS
 62
     2
 10
178.7225
 20
140.25
 30
0.0
 11
178.7225
 21
127.75
 31
0.0
  0
LINE
  8
0
  6
CONTINUOUS
 62
     2
 10
178.7225
 20
127.75
 30
0.0
 11
179.369547613
 21
130.164814566
 31
0.0
  0
LINE
  8
0
  6
CONTINUOUS
 62
     2
 10
178.7225
 20
127.75
 30
0.0
 11
178.075452387
 21
130.164814566
 31
0.0
  0
LINE
  8
0
  6
CONTINUOUS
 62
     2
 10
189.5225
 20
127.75
 30
0.0
 11
176.7225
 21
127.75
 31
0.0
  0
TEXT
  8
0
  6
CONTINUOUS
 62
     2
 10
177.7225
 20
132.05
 30
0.3
 40
3.0
  1
２５
 50
90.0
 41
0.6
 51
0.0
  7
KANJI0
  0
LINE
  8
0
  6
CONTINUOUS
 62
     2
 10
200.185
 20
110.0
 30
0.0
 11
215.485
 21
110.0
 31
0.0
  0
LINE
  8
0
  6
CONTINUOUS
 62
     2
 10
213.485
 20
110.0
 30
0.0
 11
214.132047613
 21
112.414814566
 31
0.0
  0
LINE
  8
0
  6
CONTINUOUS
 62
     2
 10
213.485
 20
110.0
 30
0.0
 11
212.837952387
 21
112.414814566
 31
0.0
  0
LINE
  8
0
  6
CONTINUOUS
 62
     2
 10
213.485
 20
110.0
 30
0.0
 11
213.485
 21
158.0
 31
0.0
  0
LINE
  8
0
  6
CONTINUOUS
 62
     2
 10
213.485
 20
158.0
 30
0.0
 11
212.837952387
 21
155.585185434
 31
0.0
  0
LINE
  8
0
  6
CONTINUOUS
 62
     2
 10
213.485
 20
158.0
 30
0.0
 11
214.132047613
 21
155.585185434
 31
0.0
  0
LINE
  8
0
  6
CONTINUOUS
 62
     2
 10
200.06
 20
158.0
 30
0.0
 11
215.485
 21
158.0
 31
0.0
  0
TEXT
  8
0
  6
CONTINUOUS
 62
     2
 10
212.485
 20
130.25
 30
0.3
 40
3.0
  1
９６
 50
90.0
 41
0.6
 51
0.0
  7
KANJI0
  0
TEXT
  8
0
  6
CONTINUOUS
 62
     2
 10
210.685
 20
134.15
 30
0.18
 40
1.8
  1
＋０．５
 50
90.0
 41
0.6
 51
0.0
  7
KANJI2
  0
TEXT
  8
0
  6
CONTINUOUS
 62
     2
 10
212.485
 20
134.15
 30
0.18
 40
1.8
  1
－０
 50
90.0
 41
0.6
 51
0.0
  7
KANJI2
  0
LINE
  8
0
  6
CONTINUOUS
 62
     2
 10
183.86
 20
159.35
 30
0.0
 11
183.86
 21
176.05
 31
0.0
  0
LINE
  8
0
  6
CONTINUOUS
 62
     2
 10
183.86
 20
174.05
 30
0.0
 11
186.274814566
 21
173.402952387
 31
0.0
  0
LINE
  8
0
  6
CONTINUOUS
 62
     2
 10
183.86
 20
174.05
 30
0.0
 11
186.274814566
 21
174.697047613
 31
0.0
  0
LINE
  8
0
  6
CONTINUOUS
 62
     2
 10
183.86
 20
174.05
 30
0.0
 11
198.86
 21
174.05
 31
0.0
  0
LINE
  8
0
  6
CONTINUOUS
 62
     2
 10
198.86
 20
174.05
 30
0.0
 11
196.445185434
 21
174.697047613
 31
0.0
  0
LINE
  8
0
  6
CONTINUOUS
 62
     2
 10
198.86
 20
174.05
 30
0.0
 11
196.445185434
 21
173.402952387
 31
0.0
  0
LINE
  8
0
  6
CONTINUOUS
 62
     2
 10
198.86
 20
159.35
 30
0.0
 11
198.86
 21
176.05
 31
0.0
  0
TEXT
  8
0
  6
CONTINUOUS
 62
     2
 10
189.41
 20
175.05
 30
0.3
 40
3.0
  1
３０
 50
0.0
 41
0.6
 51
0.0
  7
KANJI0
  0
LINE
  8
0
  6
CONTINUOUS
 62
     2
 10
183.9275
 20
151.37
 30
0.0
 11
188.8275
 21
151.37
 31
0.0
  0
LINE
  8
0
  6
CONTINUOUS
 62
     2
 10
193.9275
 20
151.37
 30
0.0
 11
198.6275
 21
151.37
 31
0.0
  0
LINE
  8
0
  6
CONTINUOUS
 62
     2
 10
183.9275
 20
116.67
 30
0.0
 11
188.7275
 21
116.67
 31
0.0
  0
LINE
  8
0
  6
CONTINUOUS
 62
     2
 10
193.8275
 20
116.67
 30
0.0
 11
198.6275
 21
116.67
 31
0.0
  0
LINE
  8
0
  6
CONTINUOUS
 62
     2
 10
197.16
 20
141.52
 30
0.0
 11
198.679335893
 21
143.505350962
 31
0.0
  0
LINE
  8
0
  6
CONTINUOUS
 62
     2
 10
197.16
 20
141.52
 30
0.0
 11
197.483107999
 21
143.999032315
 31
0.0
  0
LINE
  8
0
  6
LTYPE1
 62
     2
 10
191.35
 20
167.56
 30
0.0
 11
191.35
 21
99.7
 31
0.0
  0
LINE
  8
0
  6
CONTINUOUS
 62
     1
 10
191.066800878
 20
150.50021844
 30
0.0
 11
191.556617091
 21
150.50021844
 31
0.0
  0
LINE
  8
0
  6
CONTINUOUS
 62
     1
 10
193.008005446
 20
149.95
 30
0.0
 11
198.8625
 21
149.95
 31
0.0
  0
LINE
  8
0
  6
CONTINUOUS
 62
     2
 10
197.16
 20
141.52
 30
0.0
 11
210.16
 21
173.02
 31
0.0
  0
CIRCLE
  8
0
  6
CONTINUOUS
 62
     2
 10
191.35
 20
153.995
 30
0.0
 40
1.5
  0
LINE
  8
0
  6
CONTINUOUS
 62
     2
 10
190.475
 20
153.795
 30
0.0
 11
190.95
 21
153.795
 31
0.0
  0
ARC
  8
0
  6
CONTINUOUS
 62
     2
 10
190.95
 20
153.595
 30
0.0
 40
0.2
 50
0.0
 51
90.0
  0
LINE
  8
0
  6
CONTINUOUS
 62
     2
 10
191.15
 20
153.595
 30
0.0
 11
191.15
 21
153.12
 31
0.0
  0
LINE
  8
0
  6
CONTINUOUS
 62
     2
 10
191.15
 20
153.12
 30
0.0
 11
191.55
 21
153.12
 31
0.0
  0
LINE
  8
0
  6
CONTINUOUS
 62
     2
 10
191.55
 20
153.12
 30
0.0
 11
191.55
 21
153.595
 31
0.0
  0
ARC
  8
0
  6
CONTINUOUS
 62
     2
 10
191.75
 20
153.595
 30
0.0
 40
0.2
 50
90.0
 51
180.0
  0
LINE
  8
0
  6
CONTINUOUS
 62
     2
 10
191.75
 20
153.795
 30
0.0
 11
192.225
 21
153.795
 31
0.0
  0
LINE
  8
0
  6
CONTINUOUS
 62
     2
 10
192.225
 20
153.795
 30
0.0
 11
192.225
 21
154.195
 31
0.0
  0
LINE
  8
0
  6
CONTINUOUS
 62
     2
 10
192.225
 20
154.195
 30
0.0
 11
191.75
 21
154.195
 31
0.0
  0
ARC
  8
0
  6
CONTINUOUS
 62
     2
 10
191.75
 20
154.395
 30
0.0
 40
0.2
 50
180.0
 51
270.0
  0
LINE
  8
0
  6
CONTINUOUS
 62
     2
 10
191.55
 20
154.395
 30
0.0
 11
191.55
 21
154.87
 31
0.0
  0
LINE
  8
0
  6
CONTINUOUS
 62
     2
 10
191.55
 20
154.87
 30
0.0
 11
191.15
 21
154.87
 31
0.0
  0
LINE
  8
0
  6
CONTINUOUS
 62
     2
 10
191.15
 20
154.87
 30
0.0
 11
191.15
 21
154.395
 31
0.0
  0
ARC
  8
0
  6
CONTINUOUS
 62
     2
 10
190.95
 20
154.395
 30
0.0
 40
0.2
 50
270.0
 51
0.0
  0
LINE
  8
0
  6
CONTINUOUS
 62
     2
 10
190.95
 20
154.195
 30
0.0
 11
190.475
 21
154.195
 31
0.0
  0
LINE
  8
0
  6
CONTINUOUS
 62
     2
 10
190.475
 20
154.195
 30
0.0
 11
190.475
 21
153.795
 31
0.0
  0
LINE
  8
0
  6
LTYPE1
 62
     2
 10
191.35
 20
151.995
 30
0.0
 11
191.35
 21
155.995
 31
0.0
  0
CIRCLE
  8
0
  6
CONTINUOUS
 62
     2
 10
191.35
 20
159.495
 30
0.0
 40
1.5
  0
LINE
  8
0
  6
CONTINUOUS
 62
     2
 10
190.475
 20
159.295
 30
0.0
 11
190.95
 21
159.295
 31
0.0
  0
ARC
  8
0
  6
CONTINUOUS
 62
     2
 10
190.95
 20
159.095
 30
0.0
 40
0.2
 50
0.0
 51
90.0
  0
LINE
  8
0
  6
CONTINUOUS
 62
     2
 10
191.15
 20
159.095
 30
0.0
 11
191.15
 21
158.62
 31
0.0
  0
LINE
  8
0
  6
CONTINUOUS
 62
     2
 10
191.15
 20
158.62
 30
0.0
 11
191.55
 21
158.62
 31
0.0
  0
LINE
  8
0
  6
CONTINUOUS
 62
     2
 10
191.55
 20
158.62
 30
0.0
 11
191.55
 21
159.095
 31
0.0
  0
ARC
  8
0
  6
CONTINUOUS
 62
     2
 10
191.75
 20
159.095
 30
0.0
 40
0.2
 50
90.0
 51
180.0
  0
LINE
  8
0
  6
CONTINUOUS
 62
     2
 10
191.75
 20
159.295
 30
0.0
 11
192.225
 21
159.295
 31
0.0
  0
LINE
  8
0
  6
CONTINUOUS
 62
     2
 10
192.225
 20
159.295
 30
0.0
 11
192.225
 21
159.695
 31
0.0
  0
LINE
  8
0
  6
CONTINUOUS
 62
     2
 10
192.225
 20
159.695
 30
0.0
 11
191.75
 21
159.695
 31
0.0
  0
ARC
  8
0
  6
CONTINUOUS
 62
     2
 10
191.75
 20
159.895
 30
0.0
 40
0.2
 50
180.0
 51
270.0
  0
LINE
  8
0
  6
CONTINUOUS
 62
     2
 10
191.55
 20
159.895
 30
0.0
 11
191.55
 21
160.37
 31
0.0
  0
LINE
  8
0
  6
CONTINUOUS
 62
     2
 10
191.55
 20
160.37
 30
0.0
 11
191.15
 21
160.37
 31
0.0
  0
LINE
  8
0
  6
CONTINUOUS
 62
     2
 10
191.15
 20
160.37
 30
0.0
 11
191.15
 21
159.895
 31
0.0
  0
ARC
  8
0
  6
CONTINUOUS
 62
     2
 10
190.95
 20
159.895
 30
0.0
 40
0.2
 50
270.0
 51
0.0
  0
LINE
  8
0
  6
CONTINUOUS
 62
     2
 10
190.95
 20
159.695
 30
0.0
 11
190.475
 21
159.695
 31
0.0
  0
LINE
  8
0
  6
CONTINUOUS
 62
     2
 10
190.475
 20
159.695
 30
0.0
 11
190.475
 21
159.295
 31
0.0
  0
LINE
  8
0
  6
LTYPE1
 62
     2
 10
189.35
 20
159.495
 30
0.0
 11
193.35
 21
159.495
 31
0.0
  0
LINE
  8
0
  6
LTYPE1
 62
     2
 10
191.35
 20
157.495
 30
0.0
 11
191.35
 21
161.495
 31
0.0
  0
LINE
  8
0
  6
CONTINUOUS
 62
     1
 10
193.85
 20
117.5
 30
0.0
 11
188.85
 21
117.5
 31
0.0
  0
LINE
  8
0
  6
CONTINUOUS
 62
     1
 10
188.85
 20
117.5
 30
0.0
 11
188.85
 21
106.0
 31
0.0
  0
LINE
  8
0
  6
CONTINUOUS
 62
     1
 10
193.85
 20
106.0
 30
0.0
 11
193.85
 21
117.5
 31
0.0
  0
CIRCLE
  8
0
  6
CONTINUOUS
 62
     2
 10
191.35
 20
114.0
 30
0.0
 40
1.5
  0
LINE
  8
0
  6
CONTINUOUS
 62
     2
 10
192.225
 20
114.2
 30
0.0
 11
191.75
 21
114.2
 31
0.0
  0
ARC
  8
0
  6
CONTINUOUS
 62
     2
 10
191.75
 20
114.4
 30
0.0
 40
0.2
 50
180.0
 51
270.0
  0
LINE
  8
0
  6
CONTINUOUS
 62
     2
 10
191.55
 20
114.4
 30
0.0
 11
191.55
 21
114.875
 31
0.0
  0
LINE
  8
0
  6
CONTINUOUS
 62
     2
 10
191.55
 20
114.875
 30
0.0
 11
191.15
 21
114.875
 31
0.0
  0
LINE
  8
0
  6
CONTINUOUS
 62
     2
 10
191.15
 20
114.875
 30
0.0
 11
191.15
 21
114.4
 31
0.0
  0
ARC
  8
0
  6
CONTINUOUS
 62
     2
 10
190.95
 20
114.4
 30
0.0
 40
0.2
 50
270.0
 51
0.0
  0
LINE
  8
0
  6
CONTINUOUS
 62
     2
 10
190.95
 20
114.2
 30
0.0
 11
190.475
 21
114.2
 31
0.0
  0
LINE
  8
0
  6
CONTINUOUS
 62
     2
 10
190.475
 20
114.2
 30
0.0
 11
190.475
 21
113.8
 31
0.0
  0
LINE
  8
0
  6
CONTINUOUS
 62
     2
 10
190.475
 20
113.8
 30
0.0
 11
190.95
 21
113.8
 31
0.0
  0
ARC
  8
0
  6
CONTINUOUS
 62
     2
 10
190.95
 20
113.6
 30
0.0
 40
0.2
 50
0.0
 51
90.0
  0
LINE
  8
0
  6
CONTINUOUS
 62
     2
 10
191.15
 20
113.6
 30
0.0
 11
191.15
 21
113.125
 31
0.0
  0
LINE
  8
0
  6
CONTINUOUS
 62
     2
 10
191.15
 20
113.125
 30
0.0
 11
191.55
 21
113.125
 31
0.0
  0
LINE
  8
0
  6
CONTINUOUS
 62
     2
 10
191.55
 20
113.125
 30
0.0
 11
191.55
 21
113.6
 31
0.0
  0
ARC
  8
0
  6
CONTINUOUS
 62
     2
 10
191.75
 20
113.6
 30
0.0
 40
0.2
 50
90.0
 51
180.0
  0
LINE
  8
0
  6
CONTINUOUS
 62
     2
 10
191.75
 20
113.8
 30
0.0
 11
192.225
 21
113.8
 31
0.0
  0
LINE
  8
0
  6
CONTINUOUS
 62
     2
 10
192.225
 20
113.8
 30
0.0
 11
192.225
 21
114.2
 31
0.0
  0
LINE
  8
0
  6
LTYPE1
 62
     2
 10
191.35
 20
116.0
 30
0.0
 11
191.35
 21
112.0
 31
0.0
  0
CIRCLE
  8
0
  6
CONTINUOUS
 62
     2
 10
191.35
 20
108.5
 30
0.0
 40
1.5
  0
LINE
  8
0
  6
CONTINUOUS
 62
     2
 10
192.225
 20
108.7
 30
0.0
 11
191.75
 21
108.7
 31
0.0
  0
ARC
  8
0
  6
CONTINUOUS
 62
     2
 10
191.75
 20
108.9
 30
0.0
 40
0.2
 50
180.0
 51
270.0
  0
LINE
  8
0
  6
CONTINUOUS
 62
     2
 10
191.55
 20
108.9
 30
0.0
 11
191.55
 21
109.375
 31
0.0
  0
LINE
  8
0
  6
CONTINUOUS
 62
     2
 10
191.55
 20
109.375
 30
0.0
 11
191.15
 21
109.375
 31
0.0
  0
LINE
  8
0
  6
CONTINUOUS
 62
     2
 10
191.15
 20
109.375
 30
0.0
 11
191.15
 21
108.9
 31
0.0
  0
ARC
  8
0
  6
CONTINUOUS
 62
     2
 10
190.95
 20
108.9
 30
0.0
 40
0.2
 50
270.0
 51
0.0
  0
LINE
  8
0
  6
CONTINUOUS
 62
     2
 10
190.95
 20
108.7
 30
0.0
 11
190.475
 21
108.7
 31
0.0
  0
LINE
  8
0
  6
CONTINUOUS
 62
     2
 10
190.475
 20
108.7
 30
0.0
 11
190.475
 21
108.3
 31
0.0
  0
LINE
  8
0
  6
CONTINUOUS
 62
     2
 10
190.475
 20
108.3
 30
0.0
 11
190.95
 21
108.3
 31
0.0
  0
ARC
  8
0
  6
CONTINUOUS
 62
     2
 10
190.95
 20
108.1
 30
0.0
 40
0.2
 50
0.0
 51
90.0
  0
LINE
  8
0
  6
CONTINUOUS
 62
     2
 10
191.15
 20
108.1
 30
0.0
 11
191.15
 21
107.625
 31
0.0
  0
LINE
  8
0
  6
CONTINUOUS
 62
     2
 10
191.15
 20
107.625
 30
0.0
 11
191.55
 21
107.625
 31
0.0
  0
LINE
  8
0
  6
CONTINUOUS
 62
     2
 10
191.55
 20
107.625
 30
0.0
 11
191.55
 21
108.1
 31
0.0
  0
ARC
  8
0
  6
CONTINUOUS
 62
     2
 10
191.75
 20
108.1
 30
0.0
 40
0.2
 50
90.0
 51
180.0
  0
LINE
  8
0
  6
CONTINUOUS
 62
     2
 10
191.75
 20
108.3
 30
0.0
 11
192.225
 21
108.3
 31
0.0
  0
LINE
  8
0
  6
CONTINUOUS
 62
     2
 10
192.225
 20
108.3
 30
0.0
 11
192.225
 21
108.7
 31
0.0
  0
LINE
  8
0
  6
LTYPE1
 62
     2
 10
193.35
 20
108.5
 30
0.0
 11
189.35
 21
108.5
 31
0.0
  0
LINE
  8
0
  6
LTYPE1
 62
     2
 10
191.35
 20
110.5
 30
0.0
 11
191.35
 21
106.5
 31
0.0
  0
LINE
  8
0
  6
CONTINUOUS
 62
     2
 10
194.35
 20
159.495
 30
0.0
 11
223.6
 21
159.495
 31
0.0
  0
LINE
  8
0
  6
CONTINUOUS
 62
     2
 10
221.6
 20
159.495
 30
0.0
 11
221.6
 21
108.5
 31
0.0
  0
LINE
  8
0
  6
CONTINUOUS
 62
     2
 10
194.35
 20
108.5
 30
0.0
 11
223.6
 21
108.5
 31
0.0
  0
LINE
  8
0
  6
CONTINUOUS
 62
     2
 10
221.6
 20
108.5
 30
0.0
 11
222.247047613
 21
110.914814566
 31
0.0
  0
LINE
  8
0
  6
CONTINUOUS
 62
     2
 10
221.6
 20
108.5
 30
0.0
 11
220.952952387
 21
110.914814566
 31
0.0
  0
LINE
  8
0
  6
CONTINUOUS
 62
     2
 10
221.6
 20
159.495
 30
0.0
 11
220.952952387
 21
157.080185434
 31
0.0
  0
LINE
  8
0
  6
CONTINUOUS
 62
     2
 10
221.6
 20
159.495
 30
0.0
 11
222.247047613
 21
157.080185434
 31
0.0
  0
LINE
  8
0
  6
CONTINUOUS
 62
     1
 10
193.85
 20
106.0
 30
0.0
 11
188.85
 21
106.0
 31
0.0
  0
LINE
  8
0
  6
LTYPE2
 62
     2
 10
186.3625
 20
155.8
 30
0.0
 11
186.3625
 21
155.541
 31
0.0
  0
LINE
  8
0
  6
LTYPE3
 62
     2
 10
186.3625
 20
155.541
 30
0.0
 11
186.3625
 21
151.882
 31
0.0
  0
LINE
  8
0
  6
LTYPE2
 62
     2
 10
186.3625
 20
116.284
 30
0.0
 11
186.3625
 21
115.812
 31
0.0
  0
LINE
  8
0
  6
LTYPE3
 62
     2
 10
186.3625
 20
115.812
 30
0.0
 11
186.3625
 21
111.751
 31
0.0
  0
LINE
  8
0
  6
LTYPE3
 62
     2
 10
196.3625
 20
115.623
 30
0.0
 11
196.3625
 21
111.869
 31
0.0
  0
LINE
  8
0
  6
LTYPE2
 62
     2
 10
196.3625
 20
155.517
 30
0.0
 11
196.3625
 21
152.19
 31
0.0
  0
LINE
  8
0
  6
LTYPE1
 62
     2
 10
188.076
 20
114.0
 30
0.0
 11
184.417
 21
114.0
 31
0.0
  0
LINE
  8
0
  6
LTYPE1
 62
     2
 10
193.293
 20
114.0
 30
0.0
 11
189.398
 21
114.0
 31
0.0
  0
LINE
  8
0
  6
LTYPE1
 62
     2
 10
198.321
 20
114.0
 30
0.0
 11
194.638
 21
114.0
 31
0.0
  0
LINE
  8
0
  6
LTYPE1
 62
     2
 10
184.275
 20
153.995
 30
0.0
 11
188.146
 21
153.995
 31
0.0
  0
LINE
  8
0
  6
LTYPE1
 62
     2
 10
194.497
 20
153.995
 30
0.0
 11
198.3685
 21
153.995
 31
0.0
  0
LINE
  8
0
  6
LTYPE1
 62
     2
 10
189.374
 20
153.995
 30
0.0
 11
193.222
 21
153.995
 31
0.0
  0
LINE
  8
0
  6
CONTINUOUS
 62
     1
 10
188.85
 20
162.0
 30
0.0
 11
193.85
 21
162.0
 31
0.0
  0
CIRCLE
  8
0
  6
CONTINUOUS
 62
     2
 10
186.36
 20
134.01
 30
0.0
 40
1.0
  0
CIRCLE
  8
0
  6
CONTINUOUS
 62
     2
 10
186.36
 20
134.01
 30
0.0
 40
0.5
  0
CIRCLE
  8
0
  6
CONTINUOUS
 62
     2
 10
196.36
 20
134.01
 30
0.0
 40
0.5
  0
CIRCLE
  8
0
  6
CONTINUOUS
 62
     2
 10
196.36
 20
134.01
 30
0.0
 40
1.0
  0
LINE
  8
0
  6
LTYPE2
 62
     2
 10
186.3625
 20
135.631
 30
0.0
 11
186.3625
 21
135.442
 31
0.0
  0
LINE
  8
0
  6
LTYPE3
 62
     2
 10
196.3625
 20
136.174
 30
0.0
 11
196.3625
 21
131.901
 31
0.0
  0
LINE
  8
0
  6
LTYPE3
 62
     2
 10
186.3625
 20
135.442
 30
0.0
 11
186.3625
 21
131.948
 31
0.0
  0
LINE
  8
0
  6
LTYPE1
 62
     2
 10
181.324
 20
134.0
 30
0.0
 11
194.756
 21
134.0
 31
0.0
  0
LINE
  8
0
  6
LTYPE1
 62
     2
 10
194.756
 20
134.0
 30
0.0
 11
202.57
 21
134.0
 31
0.0
  0
LINE
  8
0
  6
CONTINUOUS
 62
     2
 10
173.2865
 20
162.0
 30
0.0
 11
172.639452387
 21
159.585185434
 31
0.0
  0
LINE
  8
0
  6
CONTINUOUS
 62
     2
 10
173.2865
 20
162.0
 30
0.0
 11
173.933547613
 21
159.585185434
 31
0.0
  0
LINE
  8
0
  6
CONTINUOUS
 62
     2
 10
187.214
 20
162.0
 30
0.0
 11
171.2865
 21
162.0
 31
0.0
  0
LINE
  8
0
  6
CONTINUOUS
 62
     2
 10
173.2865
 20
106.0
 30
0.0
 11
173.933547613
 21
108.414814566
 31
0.0
  0
LINE
  8
0
  6
CONTINUOUS
 62
     2
 10
173.2865
 20
106.0
 30
0.0
 11
172.639452387
 21
108.414814566
 31
0.0
  0
LINE
  8
0
  6
CONTINUOUS
 62
     2
 10
187.167
 20
106.0
 30
0.0
 11
171.2865
 21
106.0
 31
0.0
  0
LINE
  8
0
  6
CONTINUOUS
 62
     2
 10
173.2865
 20
162.0
 30
0.0
 11
173.2865
 21
106.0
 31
0.0
  0
CIRCLE
  8
0
  6
CONTINUOUS
 62
     2
 10
232.26
 20
175.37
 30
0.0
 40
1.5
  0
TEXT
  8
0
  6
CONTINUOUS
 62
     2
 10
230.86
 20
174.07
 30
0.093333333
 40
2.8
  1
＋
 50
0.0
 41
1.0
 51
0.0
  7
KANJI13
  0
LINE
  8
0
  6
CONTINUOUS
 62
     2
 10
210.16
 20
173.02
 30
0.0
 11
244.76
 21
173.02
 31
0.0
  0
TEXT
  8
0
  6
CONTINUOUS
 62
     2
 10
210.16
 20
174.02
 30
0.1
 40
3.0
  1
ＤＥｆ－１００形のみ　　表示します
 50
0.0
 41
0.666666667
 51
0.0
  7
KANJI11
  0
TEXT
  8
0
  6
CONTINUOUS
 62
     2
 10
184.56
 20
169.42
 30
0.1
 40
3.0
  1
（３１．４　　）
 50
0.0
 41
0.666666667
 51
0.0
  7
KANJI11
  0
TEXT
  8
0
  6
CONTINUOUS
 62
     2
 10
193.728
 20
170.144
 30
0.144
 40
1.44
  1
±０．５
 50
0.0
 41
0.6
 51
0.0
  7
KANJI7
  0
LINE
  8
0
  6
CONTINUOUS
 62
     2
 10
139.36
 20
51.993
 30
0.0
 11
164.36
 21
51.993
 31
0.0
  0
TEXT
  8
0
  6
CONTINUOUS
 62
     6
 10
140.16
 20
53.093
 30
0.3
 40
4.0
  1
計器の取付け方
 50
0.0
 41
0.75
 51
0.0
  7
KANJI14
  0
TEXT
  8
0
  6
CONTINUOUS
 62
     2
 10
140.16
 20
45.293
 30
0.2
 40
3.0
  1
１，計器本体から取り付け金具を取り外す。（上下２箇所）
 50
0.0
 41
0.75
 51
0.0
  7
KANJI10
  0
TEXT
  8
0
  6
CONTINUOUS
 62
     2
 10
140.16
 20
40.194
 30
0.2
 40
3.0
  1
２，パネルカット後，パネル前面から計器をはめ込む。
 50
0.0
 41
0.75
 51
0.0
  7
KANJI10
  0
TEXT
  8
0
  6
CONTINUOUS
 62
     2
 10
140.46
 20
30.042
 30
0.2
 40
3.0
  1
４，Ｍ４×４５押ネジでパネル面を押しつけて固定する。
 50
0.0
 41
0.75
 51
0.0
  7
KANJI10
  0
TEXT
  8
0
  6
CONTINUOUS
 62
     2
 10
140.46
 20
24.794
 30
0.2
 40
3.0
  1
５，Ｍ４ナットでロックする。
 50
0.0
 41
0.75
 51
0.0
  7
KANJI10
  0
TEXT
  8
0
  6
CONTINUOUS
 62
     2
 10
140.46
 20
35.089
 30
0.2
 40
3.0
  1
３，計器本体に取外した取付金具をＭ４ネジで止める。
 50
0.0
 41
0.75
 51
0.0
  7
KANJI10
  0
POLYLINE
  8
0
  6
CONTINUOUS
 62
     1
 66
     1
  0
VERTEX
  8
0
  6
CONTINUOUS
 62
     1
 10
111.35
 20
35.24
 30
0.0
  0
VERTEX
  8
0
  6
CONTINUOUS
 62
     1
 10
126.85
 20
35.24
 30
0.0
  0
VERTEX
  8
0
  6
CONTINUOUS
 62
     1
 10
126.85
 20
83.49
 30
0.0
  0
SEQEND
  0
LINE
  8
0
  6
CONTINUOUS
 62
     1
 10
111.35
 20
83.49
 30
0.0
 11
111.35
 21
35.24
 31
0.0
  0
LINE
  8
0
  6
CONTINUOUS
 62
     1
 10
126.85
 20
83.49
 30
0.0
 11
111.35
 21
83.49
 31
0.0
  0
LINE
  8
0
  6
CONTINUOUS
 62
     2
 10
100.0
 20
35.24
 30
0.0
 11
100.647047613
 21
37.654814566
 31
0.0
  0
LINE
  8
0
  6
CONTINUOUS
 62
     2
 10
100.0
 20
35.24
 30
0.0
 11
99.352952387
 21
37.654814566
 31
0.0
  0
LINE
  8
0
  6
CONTINUOUS
 62
     2
 10
110.315
 20
35.24
 30
0.0
 11
98.0
 21
35.24
 31
0.0
  0
LINE
  8
0
  6
CONTINUOUS
 62
     2
 10
110.315
 20
83.49
 30
0.0
 11
98.0
 21
83.49
 31
0.0
  0
LINE
  8
0
  6
CONTINUOUS
 62
     2
 10
100.0
 20
83.49
 30
0.0
 11
99.352952387
 21
81.075185434
 31
0.0
  0
LINE
  8
0
  6
CONTINUOUS
 62
     2
 10
100.0
 20
83.49
 30
0.0
 11
100.647047613
 21
81.075185434
 31
0.0
  0
LINE
  8
0
  6
CONTINUOUS
 62
     2
 10
100.0
 20
83.489
 30
0.0
 11
100.0
 21
35.24
 31
0.0
  0
LINE
  8
0
  6
CONTINUOUS
 62
     2
 10
111.35
 20
84.495
 30
0.0
 11
111.35
 21
94.495
 31
0.0
  0
LINE
  8
0
  6
CONTINUOUS
 62
     2
 10
111.35
 20
92.495
 30
0.0
 11
113.764814566
 21
91.847952387
 31
0.0
  0
LINE
  8
0
  6
CONTINUOUS
 62
     2
 10
111.35
 20
92.495
 30
0.0
 11
113.764814566
 21
93.142047613
 31
0.0
  0
LINE
  8
0
  6
CONTINUOUS
 62
     2
 10
126.85
 20
92.495
 30
0.0
 11
124.435185434
 21
93.142047613
 31
0.0
  0
LINE
  8
0
  6
CONTINUOUS
 62
     2
 10
126.85
 20
92.495
 30
0.0
 11
124.435185434
 21
91.847952387
 31
0.0
  0
LINE
  8
0
  6
CONTINUOUS
 62
     2
 10
126.85
 20
84.495
 30
0.0
 11
126.85
 21
94.495
 31
0.0
  0
LINE
  8
0
  6
CONTINUOUS
 62
     2
 10
111.35
 20
92.495
 30
0.0
 11
126.85
 21
92.495
 31
0.0
  0
TEXT
  8
0
  6
CONTINUOUS
 62
     2
 10
106.06
 20
175.02
 30
0.3
 40
3.0
  1
３３
 50
0.0
 41
0.6
 51
0.0
  7
KANJI0
  0
TEXT
  8
0
  6
CONTINUOUS
 62
     2
 10
118.96
 20
167.22
 30
0.3
 40
3.0
  1
３
 50
0.0
 41
0.6
 51
0.0
  7
KANJI0
  0
LINE
  8
0
  6
CONTINUOUS
 62
     1
 10
102.7
 20
106.98
 30
0.0
 11
102.7
 21
109.98
 31
0.0
  0
LINE
  8
0
  6
CONTINUOUS
 62
     1
 10
106.7
 20
109.98
 30
0.0
 11
106.7
 21
106.98
 31
0.0
  0
LINE
  8
0
  6
CONTINUOUS
 62
     1
 10
106.7
 20
106.98
 30
0.0
 11
102.7
 21
106.98
 31
0.0
  0
LINE
  8
0
  6
CONTINUOUS
 62
     1
 10
106.7
 20
109.48
 30
0.0
 11
114.95
 21
109.48
 31
0.0
  0
LINE
  8
0
  6
CONTINUOUS
 62
     1
 10
114.95
 20
107.48
 30
0.0
 11
106.7
 21
107.48
 31
0.0
  0
LINE
  8
0
  6
CONTINUOUS
 62
     1
 10
126.2
 20
106.73
 30
0.0
 11
126.2
 21
110.23
 31
0.0
  0
ARC
  8
0
  6
CONTINUOUS
 62
     1
 10
126.85
 20
109.58
 30
0.0
 40
0.65
 50
0.0
 51
90.0
  0
ARC
  8
0
  6
CONTINUOUS
 62
     1
 10
126.85
 20
107.38
 30
0.0
 40
0.65
 50
270.0
 51
0.0
  0
LINE
  8
0
  6
CONTINUOUS
 62
     1
 10
126.85
 20
106.73
 30
0.0
 11
126.2
 21
106.73
 31
0.0
  0
LINE
  8
0
  6
CONTINUOUS
 62
     1
 10
126.2
 20
110.23
 30
0.0
 11
126.85
 21
110.23
 31
0.0
  0
LINE
  8
0
  6
CONTINUOUS
 62
     1
 10
127.5
 20
109.58
 30
0.0
 11
127.5
 21
107.38
 31
0.0
  0
LINE
  8
0
  6
CONTINUOUS
 62
     1
 10
127.5
 20
108.28
 30
0.0
 11
127.2
 21
108.28
 31
0.0
  0
LINE
  8
0
  6
CONTINUOUS
 62
     1
 10
127.2
 20
108.28
 30
0.0
 11
127.2
 21
108.68
 31
0.0
  0
LINE
  8
0
  6
CONTINUOUS
 62
     1
 10
127.2
 20
108.68
 30
0.0
 11
127.5
 21
108.68
 31
0.0
  0
LINE
  8
0
  6
CONTINUOUS
 62
     1
 10
116.86
 20
106.48
 30
0.0
 11
116.86
 21
110.48
 31
0.0
  0
ARC
  8
0
  6
CONTINUOUS
 62
     1
 10
118.21
 20
110.23
 30
0.0
 40
0.25
 50
0.0
 51
90.0
  0
ARC
  8
0
  6
CONTINUOUS
 62
     1
 10
118.21
 20
106.73
 30
0.0
 40
0.25
 50
270.0
 51
0.0
  0
LINE
  8
0
  6
CONTINUOUS
 62
     1
 10
118.21
 20
106.48
 30
0.0
 11
116.86
 21
106.48
 31
0.0
  0
LINE
  8
0
  6
CONTINUOUS
 62
     1
 10
118.46
 20
106.73
 30
0.0
 11
118.46
 21
110.23
 31
0.0
  0
ARC
  8
0
  6
CONTINUOUS
 62
     1
 10
118.21
 20
109.73
 30
0.0
 40
0.25
 50
270.0
 51
0.0
  0
ARC
  8
0
  6
CONTINUOUS
 62
     1
 10
118.21
 20
109.23
 30
0.0
 40
0.25
 50
0.0
 51
90.0
  0
ARC
  8
0
  6
CONTINUOUS
 62
     1
 10
118.21
 20
107.23
 30
0.0
 40
0.25
 50
0.0
 51
90.0
  0
ARC
  8
0
  6
CONTINUOUS
 62
     1
 10
118.21
 20
107.73
 30
0.0
 40
0.25
 50
270.0
 51
0.0
  0
LINE
  8
0
  6
CONTINUOUS
 62
     1
 10
118.21
 20
110.48
 30
0.0
 11
116.86
 21
110.48
 31
0.0
  0
LINE
  8
0
  6
CONTINUOUS
 62
     1
 10
116.5
 20
106.0
 30
0.0
 11
115.0
 21
106.0
 31
0.0
  0
LINE
  8
0
  6
LTYPE1
 62
     2
 10
129.39
 20
108.5
 30
0.0
 11
100.19
 21
108.5
 31
0.0
  0
LINE
  8
0
  6
CONTINUOUS
 62
     1
 10
116.5
 20
110.0
 30
0.0
 11
116.5
 21
106.0
 31
0.0
  0
LINE
  8
0
  6
CONTINUOUS
 62
     1
 10
115.0
 20
106.0
 30
0.0
 11
115.0
 21
110.0
 31
0.0
  0
LINE
  8
0
  6
CONTINUOUS
 62
     1
 10
126.2
 20
107.48
 30
0.0
 11
116.5
 21
107.48
 31
0.0
  0
LINE
  8
0
  6
CONTINUOUS
 62
     1
 10
116.5
 20
109.48
 30
0.0
 11
126.2
 21
109.48
 31
0.0
  0
LINE
  8
0
  6
CONTINUOUS
 62
     1
 10
116.5
 20
106.58
 30
0.0
 11
116.86
 21
106.58
 31
0.0
  0
LINE
  8
0
  6
CONTINUOUS
 62
     1
 10
116.86
 20
108.23
 30
0.0
 11
116.5
 21
108.68
 31
0.0
  0
LINE
  8
0
  6
CONTINUOUS
 62
     1
 10
116.5
 20
108.83
 30
0.0
 11
116.86
 21
108.38
 31
0.0
  0
LINE
  8
0
  6
CONTINUOUS
 62
     1
 10
116.86
 20
110.38
 30
0.0
 11
116.5
 21
110.38
 31
0.0
  0
LINE
  8
0
  6
CONTINUOUS
 62
     1
 10
102.7
 20
160.975
 30
0.0
 11
102.7
 21
157.975
 31
0.0
  0
LINE
  8
0
  6
CONTINUOUS
 62
     1
 10
106.7
 20
157.975
 30
0.0
 11
106.7
 21
160.975
 31
0.0
  0
LINE
  8
0
  6
CONTINUOUS
 62
     1
 10
106.7
 20
160.975
 30
0.0
 11
102.7
 21
160.975
 31
0.0
  0
LINE
  8
0
  6
CONTINUOUS
 62
     1
 10
106.7
 20
158.475
 30
0.0
 11
114.95
 21
158.475
 31
0.0
  0
LINE
  8
0
  6
CONTINUOUS
 62
     1
 10
114.95
 20
160.475
 30
0.0
 11
106.7
 21
160.475
 31
0.0
  0
LINE
  8
0
  6
CONTINUOUS
 62
     1
 10
126.2
 20
161.225
 30
0.0
 11
126.2
 21
157.725
 31
0.0
  0
ARC
  8
0
  6
CONTINUOUS
 62
     1
 10
126.85
 20
158.375
 30
0.0
 40
0.65
 50
270.0
 51
0.0
  0
ARC
  8
0
  6
CONTINUOUS
 62
     1
 10
126.85
 20
160.575
 30
0.0
 40
0.65
 50
0.0
 51
90.0
  0
LINE
  8
0
  6
CONTINUOUS
 62
     1
 10
126.85
 20
161.225
 30
0.0
 11
126.2
 21
161.225
 31
0.0
  0
LINE
  8
0
  6
CONTINUOUS
 62
     1
 10
126.2
 20
157.725
 30
0.0
 11
126.85
 21
157.725
 31
0.0
  0
LINE
  8
0
  6
CONTINUOUS
 62
     1
 10
127.5
 20
158.375
 30
0.0
 11
127.5
 21
160.575
 31
0.0
  0
LINE
  8
0
  6
CONTINUOUS
 62
     1
 10
127.5
 20
159.675
 30
0.0
 11
127.2
 21
159.675
 31
0.0
  0
LINE
  8
0
  6
CONTINUOUS
 62
     1
 10
127.2
 20
159.675
 30
0.0
 11
127.2
 21
159.275
 31
0.0
  0
LINE
  8
0
  6
CONTINUOUS
 62
     1
 10
127.2
 20
159.275
 30
0.0
 11
127.5
 21
159.275
 31
0.0
  0
LINE
  8
0
  6
CONTINUOUS
 62
     1
 10
116.9
 20
161.475
 30
0.0
 11
116.9
 21
157.475
 31
0.0
  0
ARC
  8
0
  6
CONTINUOUS
 62
     1
 10
118.25
 20
157.725
 30
0.0
 40
0.25
 50
270.0
 51
0.0
  0
ARC
  8
0
  6
CONTINUOUS
 62
     1
 10
118.25
 20
161.225
 30
0.0
 40
0.25
 50
0.0
 51
90.0
  0
LINE
  8
0
  6
CONTINUOUS
 62
     1
 10
118.25
 20
161.475
 30
0.0
 11
116.9
 21
161.475
 31
0.0
  0
LINE
  8
0
  6
CONTINUOUS
 62
     1
 10
118.5
 20
161.225
 30
0.0
 11
118.5
 21
157.725
 31
0.0
  0
ARC
  8
0
  6
CONTINUOUS
 62
     1
 10
118.25
 20
158.225
 30
0.0
 40
0.25
 50
0.0
 51
90.0
  0
ARC
  8
0
  6
CONTINUOUS
 62
     1
 10
118.25
 20
158.725
 30
0.0
 40
0.25
 50
270.0
 51
0.0
  0
ARC
  8
0
  6
CONTINUOUS
 62
     1
 10
118.25
 20
160.725
 30
0.0
 40
0.25
 50
270.0
 51
0.0
  0
ARC
  8
0
  6
CONTINUOUS
 62
     1
 10
118.25
 20
160.225
 30
0.0
 40
0.25
 50
0.0
 51
90.0
  0
LINE
  8
0
  6
CONTINUOUS
 62
     1
 10
118.25
 20
157.475
 30
0.0
 11
116.9
 21
157.475
 31
0.0
  0
LINE
  8
0
  6
CONTINUOUS
 62
     1
 10
116.5
 20
161.375
 30
0.0
 11
116.9
 21
161.375
 31
0.0
  0
LINE
  8
0
  6
CONTINUOUS
 62
     1
 10
116.9
 20
159.725
 30
0.0
 11
116.5
 21
159.225
 31
0.0
  0
LINE
  8
0
  6
CONTINUOUS
 62
     1
 10
116.5
 20
159.075
 30
0.0
 11
116.9
 21
159.575
 31
0.0
  0
LINE
  8
0
  6
CONTINUOUS
 62
     1
 10
126.2
 20
160.475
 30
0.0
 11
116.5
 21
160.475
 31
0.0
  0
LINE
  8
0
  6
CONTINUOUS
 62
     1
 10
116.5
 20
158.475
 30
0.0
 11
126.2
 21
158.475
 31
0.0
  0
LINE
  8
0
  6
LTYPE1
 62
     2
 10
130.64
 20
159.495
 30
0.0
 11
101.09
 21
159.495
 31
0.0
  0
LINE
  8
0
  6
CONTINUOUS
 62
     1
 10
115.0
 20
162.0
 30
0.0
 11
116.5
 21
162.0
 31
0.0
  0
LINE
  8
0
  6
CONTINUOUS
 62
     1
 10
115.0
 20
158.07
 30
0.0
 11
115.0
 21
162.0
 31
0.0
  0
LINE
  8
0
  6
CONTINUOUS
 62
     1
 10
116.5
 20
162.0
 30
0.0
 11
116.5
 21
158.1
 31
0.0
  0
LINE
  8
0
  6
CONTINUOUS
 62
     1
 10
116.9
 20
157.575
 30
0.0
 11
116.55
 21
157.575
 31
0.0
  0
LINE
  8
0
  6
CONTINUOUS
 62
     2
 10
116.5
 20
162.86588346
 30
0.0
 11
116.5
 21
176.000008741
 31
0.0
  0
LINE
  8
0
  6
CONTINUOUS
 62
     2
 10
114.96
 20
162.86588346
 30
0.0
 11
114.96
 21
168.32
 31
0.0
  0
LINE
  8
0
  6
CONTINUOUS
 62
     2
 10
127.223
 20
161.203
 30
0.0
 11
129.484391707
 21
162.26888346
 31
0.0
  0
LINE
  8
0
  6
CONTINUOUS
 62
     2
 10
127.223
 20
161.203
 30
0.0
 11
128.648480936
 21
163.256778007
 31
0.0
  0
LINE
  8
0
  6
CONTINUOUS
 62
     2
 10
127.223
 20
161.203
 30
0.0
 11
131.123
 21
164.503
 31
0.0
  0
LINE
  8
0
  6
CONTINUOUS
 62
     2
 10
131.123
 20
164.503
 30
0.0
 11
147.623
 21
164.503
 31
0.0
  0
TEXT
  8
0
  6
CONTINUOUS
 62
     2
 10
131.123
 20
165.503
 30
0.3
 40
3.0
  1
Ｍ４×４５押ネジ
 50
0.0
 41
0.6
 51
0.0
  7
KANJI0
  0
LINE
  8
0
  6
CONTINUOUS
 62
     2
 10
118.25
 20
161.475
 30
0.0
 11
120.613143112
 21
162.290815317
 31
0.0
  0
LINE
  8
0
  6
CONTINUOUS
 62
     2
 10
118.25
 20
161.475
 30
0.0
 11
119.888634309
 21
163.363088346
 31
0.0
  0
LINE
  8
0
  6
CONTINUOUS
 62
     2
 10
118.25
 20
161.475
 30
0.0
 11
129.35
 21
168.975
 31
0.0
  0
LINE
  8
0
  6
CONTINUOUS
 62
     2
 10
129.35
 20
168.975
 30
0.0
 11
143.75
 21
168.975
 31
0.0
  0
TEXT
  8
0
  6
CONTINUOUS
 62
     2
 10
129.35
 20
169.975
 30
0.3
 40
3.0
  1
Ｍ４ナットＳＷ
 50
0.0
 41
0.6
 51
0.0
  7
KANJI0
  0
LINE
  8
0
  6
CONTINUOUS
 62
     2
 10
103.075
 20
161.112
 30
0.0
 11
101.681075127
 21
163.187324902
 31
0.0
  0
LINE
  8
0
  6
CONTINUOUS
 62
     2
 10
103.075
 20
161.112
 30
0.0
 11
100.830163198
 21
162.21232165
 31
0.0
  0
LINE
  8
0
  6
CONTINUOUS
 62
     2
 10
92.5
 20
170.116
 30
0.0
 11
92.5
 21
176.000008741
 31
0.0
  0
LINE
  8
0
  6
LTYPE1
 62
     2
 10
58.1375
 20
108.5
 30
0.0
 11
49.0875
 21
108.5
 31
0.0
  0
LINE
  8
0
  6
CONTINUOUS
 62
     1
 10
56.5
 20
106.0
 30
0.0
 11
51.5
 21
106.0
 31
0.0
  0
LINE
  8
0
  6
LTYPE1
 62
     2
 10
58.1875
 20
159.495
 30
0.0
 11
49.6375
 21
159.495
 31
0.0
  0
LINE
  8
0
  6
CONTINUOUS
 62
     1
 10
51.5
 20
162.0
 30
0.0
 11
56.5
 21
162.0
 31
0.0
  0
LINE
  8
0
  6
CONTINUOUS
 62
     1
 10
51.5
 20
159.0
 30
0.0
 11
51.5
 21
162.0
 31
0.0
  0
LINE
  8
0
  6
CONTINUOUS
 62
     1
 10
56.5
 20
162.0
 30
0.0
 11
56.5
 21
159.0
 31
0.0
  0
ARC
  8
0
  6
CONTINUOUS
 62
     1
 10
54.0
 20
159.495
 30
0.0
 40
1.5
 50
340.731224508
 51
199.268775492
  0
LINE
  8
0
  6
CONTINUOUS
 62
     1
 10
51.5
 20
106.0
 30
0.0
 11
51.5
 21
109.0
 31
0.0
  0
LINE
  8
0
  6
CONTINUOUS
 62
     1
 10
56.5
 20
109.0
 30
0.0
 11
56.5
 21
106.0
 31
0.0
  0
ARC
  8
0
  6
CONTINUOUS
 62
     1
 10
54.0
 20
108.5
 30
0.0
 40
1.5
 50
160.528779366
 51
19.471220634
  0
LINE
  8
0
  6
LTYPE1
 62
     2
 10
27.795
 20
52.2175
 30
0.0
 11
27.795
 21
43.6675
 31
0.0
  0
LINE
  8
0
  6
CONTINUOUS
 62
     1
 10
25.29
 20
45.53
 30
0.0
 11
25.29
 21
50.53
 31
0.0
  0
LINE
  8
0
  6
LTYPE1
 62
     2
 10
21.85
 20
48.03
 30
0.0
 11
35.85
 21
48.03
 31
0.0
  0
LINE
  8
0
  6
CONTINUOUS
 62
     1
 10
28.29
 20
45.53
 30
0.0
 11
25.29
 21
45.53
 31
0.0
  0
LINE
  8
0
  6
CONTINUOUS
 62
     1
 10
25.29
 20
50.53
 30
0.0
 11
28.29
 21
50.53
 31
0.0
  0
ARC
  8
0
  6
CONTINUOUS
 62
     1
 10
27.795
 20
48.03
 30
0.0
 40
1.5
 50
70.731224508
 51
289.268775492
  0
LINE
  8
0
  6
LTYPE1
 62
     2
 10
78.785
 20
43.8425
 30
0.0
 11
78.785
 21
52.3925
 31
0.0
  0
LINE
  8
0
  6
CONTINUOUS
 62
     1
 10
81.29
 20
50.53
 30
0.0
 11
81.29
 21
45.53
 31
0.0
  0
LINE
  8
0
  6
LTYPE1
 62
     2
 10
84.73
 20
48.03
 30
0.0
 11
70.73
 21
48.03
 31
0.0
  0
LINE
  8
0
  6
CONTINUOUS
 62
     1
 10
78.29
 20
50.53
 30
0.0
 11
81.29
 21
50.53
 31
0.0
  0
LINE
  8
0
  6
CONTINUOUS
 62
     1
 10
81.29
 20
45.53
 30
0.0
 11
78.29
 21
45.53
 31
0.0
  0
ARC
  8
0
  6
CONTINUOUS
 62
     1
 10
78.785
 20
48.03
 30
0.0
 40
1.5
 50
250.731224508
 51
109.268775492
  0
LINE
  8
0
  6
CONTINUOUS
 62
     1
 10
183.8625
 20
149.95
 30
0.0
 11
193.008005446
 21
149.95
 31
0.0
  0
LINE
  8
0
  6
CONTINUOUS
 62
     1
 10
193.85
 20
150.5
 30
0.0
 11
193.85
 21
162.0
 31
0.0
  0
LINE
  8
0
  6
CONTINUOUS
 62
     1
 10
188.85
 20
150.5
 30
0.0
 11
193.85
 21
150.5
 31
0.0
  0
LINE
  8
0
  6
CONTINUOUS
 62
     1
 10
188.85
 20
162.0
 30
0.0
 11
188.85
 21
150.5
 31
0.0
  0
TEXT
  8
0
  6
CONTINUOUS
 62
     2
 10
221.1
 20
130.0405
 30
0.0
 40
3.0
  1
１０２
 50
90.0
 41
0.666666667
 51
0.0
  7
KANJI15
  0
TEXT
  8
0
  6
CONTINUOUS
 62
     2
 10
172.2865
 20
132.225
 30
0.3
 40
3.0
  1
１１２
 50
90.0
 41
0.6
 51
0.0
  7
KANJI0
  0
TEXT
  8
0
  6
CONTINUOUS
 62
     3
 10
233.878
 20
16.811
 30
0.3
 40
6.0
  1
ＭＳ－９８２６Ａ
 50
0.0
 41
0.9
 51
0.0
  7
KANJI16
  0
TEXT
  8
0
  6
CONTINUOUS
 62
     1
 10
236.1
 20
27.1
 30
0.4
 40
4.0
  1
エッジワイズ形計器外形図
 50
0.0
 41
0.9
 51
0.0
  7
KANJI17
  0
TEXT
  8
0
  6
CONTINUOUS
 62
     1
 10
238.2
 20
36.6
 30
0.5
 40
5.0
  1
Ｅｆ－１００
 50
0.0
 41
0.9
 51
0.0
  7
KANJI18
  0
TEXT
  8
0
  6
CONTINUOUS
 62
     1
 10
234.0
 20
37.2
 30
0.4
 40
4.0
  1
□
 50
0.0
 41
1.0
 51
0.0
  7
KANJI19
  0
TEXT
  8
0
  6
CONTINUOUS
 62
     1
 10
268.0
 20
37.0
 30
0.4
 40
4.0
  1
□
 50
0.0
 41
1.0
 51
0.0
  7
KANJI19
  0
TEXT
  8
0
  6
CONTINUOUS
 62
     2
 10
73.775
 20
172.812
 30
0.3
 40
3.0
  1
取付ネジキャップ
 50
0.0
 41
0.6
 51
0.0
  7
KANJI0
  0
LINE
  8
0
  6
CONTINUOUS
 62
     2
 10
90.814583333
 20
171.812
 30
0.0
 11
73.775
 21
171.812
 31
0.0
  0
LINE
  8
0
  6
CONTINUOUS
 62
     2
 10
103.075
 20
161.112
 30
0.0
 11
90.814583333
 21
171.812
 31
0.0
  0
LINE
  8
0
  6
CONTINUOUS
 62
     2
 10
92.5
 20
134.500008741
 30
0.0
 11
92.5
 21
170.116
 31
0.0
  0
LINE
  8
0
  6
LTYPE1
 62
     2
 10
89.9
 20
134.0
 30
0.0
 11
158.5
 21
134.0
 31
0.0
  0
LINE
  8
0
  6
LTYPE1
 62
     2
 10
43.1
 20
134.0
 30
0.0
 11
64.9
 21
134.0
 31
0.0
  0
LINE
  8
0
  6
LTYPE1
 62
     2
 10
54.0
 20
163.416
 30
0.0
 11
54.0
 21
151.44
 31
0.0
  0
LINE
  8
0
  6
LTYPE1
 62
     2
 10
54.0
 20
117.09
 30
0.0
 11
54.0
 21
104.116
 31
0.0
  0
TEXT
  8
0
  6
CONTINUOUS
 62
     2
 10
122.125
 20
120.471653631
 30
0.3
 40
3.0
  1
６４（６６）
 50
90.0
 41
0.6
 51
0.0
  7
KANJI0
  0
TEXT
  8
0
  6
CONTINUOUS
 62
     2
 10
14.8
 20
146.31
 30
0.3
 40
3.0
  1
単位表示位置
 50
0.0
 41
0.8
 51
0.0
  7
KANJI9
  0
LINE
  8
0
  6
CONTINUOUS
 62
     2
 10
30.325
 20
145.31
 30
0.0
 11
14.8
 21
145.31
 31
0.0
  0
LINE
  8
0
  6
CONTINUOUS
 62
     2
 10
50.1
 20
134.81
 30
0.0
 11
30.325
 21
145.31
 31
0.0
  0
ENDSEC
  0
EOF
