  0
SECTION
  2
HEADER
  9
$ACADVER
  1
AC1009
  9
$DWGCODEPAGE
  3
dos932
  9
$EXTMIN
 10
0.0
 20
0.0
 30
0.0
  9
$EXTMAX
 10
297.0
 20
210.0
 30
0.0
  9
$LIMMIN
 10
0.0
 20
0.0
  9
$LIMMAX
 10
297.0
 20
210.0
  9
$LTSCALE
 40
1.0
  9
$PDMODE
 70
     0
  0
ENDSEC
  0
SECTION
  2
TABLES
  0
TABLE
  2
VPORT
 70
     1
  0
VPORT
  2
*ACTIVE
 70
     0
 10
0.0
 20
0.0
 11
1.0
 21
1.0
 12
148.5
 22
105.0
 13
0.0
 23
0.0
 14
10.0
 24
10.0
 15
10.0
 25
10.0
 16
0.0
 26
0.0
 36
1.0
 17
0.0
 27
0.0
 37
0.0
 40
297.0
 41
1.414285714
 42
50.0
 43
0.0
 44
0.0
 50
0.0
 51
0.0
 71
     0
 72
  1000
 73
     1
 74
     3
 75
     0
 76
     0
 77
     0
 78
     0
  0
ENDTAB
  0
TABLE
  2
LTYPE
 70
     5
  0
LTYPE
  2
CONTINUOUS
 70
    64
  3
Solid line
 72
    65
 73
     0
 40
0.0
  0
LTYPE
  2
LTYPE1
 70
    64
  3
CENTER
 72
    65
 73
     4
 40
5.0
 49
3.5
 49
-0.5
 49
0.5
 49
-0.5
  0
LTYPE
  2
LTYPE2
 70
    64
  3
CENTERX2
 72
    65
 73
     4
 40
15.0
 49
12.75
 49
-0.75
 49
0.75
 49
-0.75
  0
LTYPE
  2
LTYPE3
 70
    64
  3
CENTER
 72
    65
 73
     4
 40
15.0
 49
10.5
 49
-1.5
 49
1.5
 49
-1.5
  0
LTYPE
  2
LTYPE4
 70
    64
  3
CENTER
 72
    65
 73
     4
 40
8.0
 49
5.6
 49
-0.8
 49
0.8
 49
-0.8
  0
ENDTAB
  0
TABLE
  2
LAYER
 70
   128
  0
LAYER
  2
0
 70
     0
 62
     7
  6
CONTINUOUS
  0
LAYER
  2
2
 70
     0
 62
     7
  6
CONTINUOUS
  0
LAYER
  2
3
 70
     0
 62
     7
  6
CONTINUOUS
  0
LAYER
  2
4
 70
     0
 62
     7
  6
CONTINUOUS
  0
LAYER
  2
5
 70
     0
 62
     7
  6
CONTINUOUS
  0
LAYER
  2
6
 70
     0
 62
     7
  6
CONTINUOUS
  0
LAYER
  2
7
 70
     0
 62
     7
  6
CONTINUOUS
  0
LAYER
  2
8
 70
     0
 62
     7
  6
CONTINUOUS
  0
LAYER
  2
9
 70
     0
 62
     7
  6
CONTINUOUS
  0
LAYER
  2
10
 70
     0
 62
     7
  6
CONTINUOUS
  0
LAYER
  2
11
 70
     0
 62
     7
  6
CONTINUOUS
  0
LAYER
  2
12
 70
     0
 62
     7
  6
CONTINUOUS
  0
LAYER
  2
13
 70
     0
 62
     7
  6
CONTINUOUS
  0
LAYER
  2
14
 70
     0
 62
     7
  6
CONTINUOUS
  0
LAYER
  2
15
 70
     0
 62
     7
  6
CONTINUOUS
  0
LAYER
  2
16
 70
     0
 62
     7
  6
CONTINUOUS
  0
LAYER
  2
17
 70
     0
 62
     7
  6
CONTINUOUS
  0
LAYER
  2
18
 70
     0
 62
     7
  6
CONTINUOUS
  0
LAYER
  2
19
 70
     0
 62
     7
  6
CONTINUOUS
  0
LAYER
  2
20
 70
     0
 62
     7
  6
CONTINUOUS
  0
LAYER
  2
21
 70
     0
 62
     7
  6
CONTINUOUS
  0
LAYER
  2
22
 70
     0
 62
     7
  6
CONTINUOUS
  0
LAYER
  2
23
 70
     0
 62
     7
  6
CONTINUOUS
  0
LAYER
  2
24
 70
     0
 62
     7
  6
CONTINUOUS
  0
LAYER
  2
25
 70
     0
 62
     7
  6
CONTINUOUS
  0
LAYER
  2
26
 70
     0
 62
     7
  6
CONTINUOUS
  0
LAYER
  2
27
 70
     0
 62
     7
  6
CONTINUOUS
  0
LAYER
  2
28
 70
     0
 62
     7
  6
CONTINUOUS
  0
LAYER
  2
29
 70
     0
 62
     7
  6
CONTINUOUS
  0
LAYER
  2
30
 70
     0
 62
     7
  6
CONTINUOUS
  0
LAYER
  2
31
 70
     0
 62
     7
  6
CONTINUOUS
  0
LAYER
  2
32
 70
     0
 62
     7
  6
CONTINUOUS
  0
LAYER
  2
33
 70
     0
 62
     7
  6
CONTINUOUS
  0
LAYER
  2
34
 70
     0
 62
     7
  6
CONTINUOUS
  0
LAYER
  2
35
 70
     0
 62
     7
  6
CONTINUOUS
  0
LAYER
  2
36
 70
     0
 62
     7
  6
CONTINUOUS
  0
LAYER
  2
37
 70
     0
 62
     7
  6
CONTINUOUS
  0
LAYER
  2
38
 70
     0
 62
     7
  6
CONTINUOUS
  0
LAYER
  2
39
 70
     0
 62
     7
  6
CONTINUOUS
  0
LAYER
  2
40
 70
     0
 62
     7
  6
CONTINUOUS
  0
LAYER
  2
41
 70
     0
 62
     7
  6
CONTINUOUS
  0
LAYER
  2
42
 70
     0
 62
     7
  6
CONTINUOUS
  0
LAYER
  2
43
 70
     0
 62
     7
  6
CONTINUOUS
  0
LAYER
  2
44
 70
     0
 62
     7
  6
CONTINUOUS
  0
LAYER
  2
45
 70
     0
 62
     7
  6
CONTINUOUS
  0
LAYER
  2
46
 70
     0
 62
     7
  6
CONTINUOUS
  0
LAYER
  2
47
 70
     0
 62
     7
  6
CONTINUOUS
  0
LAYER
  2
48
 70
     0
 62
     7
  6
CONTINUOUS
  0
LAYER
  2
49
 70
     0
 62
     7
  6
CONTINUOUS
  0
LAYER
  2
50
 70
     0
 62
     7
  6
CONTINUOUS
  0
LAYER
  2
51
 70
     0
 62
     7
  6
CONTINUOUS
  0
LAYER
  2
52
 70
     0
 62
     7
  6
CONTINUOUS
  0
LAYER
  2
53
 70
     0
 62
     7
  6
CONTINUOUS
  0
LAYER
  2
54
 70
     0
 62
     7
  6
CONTINUOUS
  0
LAYER
  2
55
 70
     0
 62
     7
  6
CONTINUOUS
  0
LAYER
  2
56
 70
     0
 62
     7
  6
CONTINUOUS
  0
LAYER
  2
57
 70
     0
 62
     7
  6
CONTINUOUS
  0
LAYER
  2
58
 70
     0
 62
     7
  6
CONTINUOUS
  0
LAYER
  2
59
 70
     0
 62
     7
  6
CONTINUOUS
  0
LAYER
  2
60
 70
     0
 62
     7
  6
CONTINUOUS
  0
LAYER
  2
61
 70
     0
 62
     7
  6
CONTINUOUS
  0
LAYER
  2
62
 70
     0
 62
     7
  6
CONTINUOUS
  0
LAYER
  2
63
 70
     0
 62
     7
  6
CONTINUOUS
  0
LAYER
  2
64
 70
     0
 62
     7
  6
CONTINUOUS
  0
LAYER
  2
65
 70
     0
 62
     7
  6
CONTINUOUS
  0
LAYER
  2
66
 70
     0
 62
     7
  6
CONTINUOUS
  0
LAYER
  2
67
 70
     0
 62
     7
  6
CONTINUOUS
  0
LAYER
  2
68
 70
     0
 62
     7
  6
CONTINUOUS
  0
LAYER
  2
69
 70
     0
 62
     7
  6
CONTINUOUS
  0
LAYER
  2
70
 70
     0
 62
     7
  6
CONTINUOUS
  0
LAYER
  2
71
 70
     0
 62
     7
  6
CONTINUOUS
  0
LAYER
  2
72
 70
     0
 62
     7
  6
CONTINUOUS
  0
LAYER
  2
73
 70
     0
 62
     7
  6
CONTINUOUS
  0
LAYER
  2
74
 70
     0
 62
     7
  6
CONTINUOUS
  0
LAYER
  2
75
 70
     0
 62
     7
  6
CONTINUOUS
  0
LAYER
  2
76
 70
     0
 62
     7
  6
CONTINUOUS
  0
LAYER
  2
77
 70
     0
 62
     7
  6
CONTINUOUS
  0
LAYER
  2
78
 70
     0
 62
     7
  6
CONTINUOUS
  0
LAYER
  2
79
 70
     0
 62
     7
  6
CONTINUOUS
  0
LAYER
  2
80
 70
     0
 62
     7
  6
CONTINUOUS
  0
LAYER
  2
81
 70
     0
 62
     7
  6
CONTINUOUS
  0
LAYER
  2
82
 70
     0
 62
     7
  6
CONTINUOUS
  0
LAYER
  2
83
 70
     0
 62
     7
  6
CONTINUOUS
  0
LAYER
  2
84
 70
     0
 62
     7
  6
CONTINUOUS
  0
LAYER
  2
85
 70
     0
 62
     7
  6
CONTINUOUS
  0
LAYER
  2
86
 70
     0
 62
     7
  6
CONTINUOUS
  0
LAYER
  2
87
 70
     0
 62
     7
  6
CONTINUOUS
  0
LAYER
  2
88
 70
     0
 62
     7
  6
CONTINUOUS
  0
LAYER
  2
89
 70
     0
 62
     7
  6
CONTINUOUS
  0
LAYER
  2
90
 70
     0
 62
     7
  6
CONTINUOUS
  0
LAYER
  2
91
 70
     0
 62
     7
  6
CONTINUOUS
  0
LAYER
  2
92
 70
     0
 62
     7
  6
CONTINUOUS
  0
LAYER
  2
93
 70
     0
 62
     7
  6
CONTINUOUS
  0
LAYER
  2
94
 70
     0
 62
     7
  6
CONTINUOUS
  0
LAYER
  2
95
 70
     0
 62
     7
  6
CONTINUOUS
  0
LAYER
  2
96
 70
     0
 62
     7
  6
CONTINUOUS
  0
LAYER
  2
97
 70
     0
 62
     7
  6
CONTINUOUS
  0
LAYER
  2
98
 70
     0
 62
     7
  6
CONTINUOUS
  0
LAYER
  2
99
 70
     0
 62
     7
  6
CONTINUOUS
  0
LAYER
  2
100
 70
     0
 62
     7
  6
CONTINUOUS
  0
LAYER
  2
101
 70
     0
 62
     7
  6
CONTINUOUS
  0
LAYER
  2
102
 70
     0
 62
     7
  6
CONTINUOUS
  0
LAYER
  2
103
 70
     0
 62
     7
  6
CONTINUOUS
  0
LAYER
  2
104
 70
     0
 62
     7
  6
CONTINUOUS
  0
LAYER
  2
105
 70
     0
 62
     7
  6
CONTINUOUS
  0
LAYER
  2
106
 70
     0
 62
     7
  6
CONTINUOUS
  0
LAYER
  2
107
 70
     0
 62
     7
  6
CONTINUOUS
  0
LAYER
  2
108
 70
     0
 62
     7
  6
CONTINUOUS
  0
LAYER
  2
109
 70
     0
 62
     7
  6
CONTINUOUS
  0
LAYER
  2
110
 70
     0
 62
     7
  6
CONTINUOUS
  0
LAYER
  2
111
 70
     0
 62
     7
  6
CONTINUOUS
  0
LAYER
  2
112
 70
     0
 62
     7
  6
CONTINUOUS
  0
LAYER
  2
113
 70
     0
 62
     7
  6
CONTINUOUS
  0
LAYER
  2
114
 70
     0
 62
     7
  6
CONTINUOUS
  0
LAYER
  2
115
 70
     0
 62
     7
  6
CONTINUOUS
  0
LAYER
  2
116
 70
     0
 62
     7
  6
CONTINUOUS
  0
LAYER
  2
117
 70
     0
 62
     7
  6
CONTINUOUS
  0
LAYER
  2
118
 70
     0
 62
     7
  6
CONTINUOUS
  0
LAYER
  2
119
 70
     0
 62
     7
  6
CONTINUOUS
  0
LAYER
  2
120
 70
     0
 62
     7
  6
CONTINUOUS
  0
LAYER
  2
121
 70
     0
 62
     7
  6
CONTINUOUS
  0
LAYER
  2
122
 70
     0
 62
     7
  6
CONTINUOUS
  0
LAYER
  2
123
 70
     0
 62
     7
  6
CONTINUOUS
  0
LAYER
  2
124
 70
     0
 62
     7
  6
CONTINUOUS
  0
LAYER
  2
125
 70
     0
 62
     7
  6
CONTINUOUS
  0
LAYER
  2
126
 70
     0
 62
     7
  6
CONTINUOUS
  0
LAYER
  2
127
 70
     0
 62
     7
  6
CONTINUOUS
  0
LAYER
  2
128
 70
     0
 62
     7
  6
CONTINUOUS
  0
ENDTAB
  0
TABLE
  2
STYLE
 70
    10
  0
STYLE
  2
STANDARD
 70
     0
 40
0.0
 41
1.0
 50
0.0
 71
     0
 42
0.2
  3
txt.shx
  4
extfont.shx
  0
STYLE
  2
KANJI0
 70
     0
 40
3.0
 41
0.9
 50
0.0
 71
     0
 42
3.0
  3
txt.shx
  4
extfont.shx
  0
STYLE
  2
KANJI1
 70
     0
 40
1.8
 41
0.666666667
 50
0.0
 71
     0
 42
1.8
  3
txt.shx
  4
extfont.shx
  0
STYLE
  2
KANJI2
 70
     0
 40
3.0
 41
0.666666667
 50
0.0
 71
     0
 42
3.0
  3
txt.shx
  4
extfont.shx
  0
STYLE
  2
KANJI3
 70
     0
 40
3.0
 41
0.6
 50
0.0
 71
     0
 42
3.0
  3
txt.shx
  4
extfont.shx
  0
STYLE
  2
KANJI4
 70
     0
 40
3.0
 41
0.9
 50
0.0
 71
     0
 42
3.0
  3
txt.shx
  4
extfont.shx
  0
STYLE
  2
KANJI5
 70
     0
 40
1.8
 41
0.6
 50
0.0
 71
     0
 42
1.8
  3
txt.shx
  4
extfont.shx
  0
STYLE
  2
KANJI6
 70
     0
 40
3.0
 41
0.666666667
 50
0.0
 71
     0
 42
3.0
  3
txt.shx
  4
extfont.shx
  0
STYLE
  2
KANJI7
 70
     0
 40
5.8
 41
0.827586207
 50
0.0
 71
     0
 42
5.8
  3
txt.shx
  4
extfont.shx
  0
STYLE
  2
KANJI8
 70
     0
 40
4.0
 41
0.9
 50
0.0
 71
     0
 42
4.0
  3
txt.shx
  4
extfont.shx
  0
ENDTAB
  0
TABLE
  2
VIEW
 70
     0
  0
ENDTAB
  0
ENDSEC
  0
SECTION
  2
BLOCKS
  0
ENDSEC
  0
SECTION
  2
ENTITIES
  0
TEXT
  8
0
  6
CONTINUOUS
 62
     1
 10
165.65
 20
24.65
 30
0.5
 40
3.0
  1
パネルカット
 50
0.0
 41
0.9
 51
0.0
  7
KANJI0
  0
LINE
  8
0
  6
CONTINUOUS
 62
     1
 10
163.85
 20
22.55
 30
0.0
 11
186.05
 21
22.55
 31
0.0
  0
TEXT
  8
0
  6
CONTINUOUS
 62
     2
 10
222.0
 20
131.1
 30
0.3
 40
1.8
  1
±１
 50
90.0
 41
0.666666667
 51
0.0
  7
KANJI1
  0
LINE
  8
0
  6
CONTINUOUS
 62
     2
 10
217.0
 20
130.0
 30
0.0
 11
216.352952387
 21
127.585185434
 31
0.0
  0
LINE
  8
0
  6
CONTINUOUS
 62
     2
 10
217.0
 20
130.0
 30
0.0
 11
217.647047613
 21
127.585185434
 31
0.0
  0
LINE
  8
0
  6
CONTINUOUS
 62
     2
 10
217.0
 20
130.0
 30
0.0
 11
217.647047613
 21
132.414814566
 31
0.0
  0
LINE
  8
0
  6
CONTINUOUS
 62
     2
 10
217.0
 20
130.0
 30
0.0
 11
216.352952387
 21
132.414814566
 31
0.0
  0
LINE
  8
0
  6
CONTINUOUS
 62
     2
 10
208.022
 20
130.0
 30
0.0
 11
219.0
 21
130.0
 31
0.0
  0
LINE
  8
0
  6
LTYPE1
 62
     2
 10
175.0
 20
162.0
 30
0.0
 11
175.0
 21
98.25
 31
0.0
  0
LINE
  8
0
  6
CONTINUOUS
 62
     2
 10
175.0
 20
172.0
 30
0.0
 11
172.585185434
 21
172.647047613
 31
0.0
  0
LINE
  8
0
  6
CONTINUOUS
 62
     2
 10
175.0
 20
172.0
 30
0.0
 11
172.585185434
 21
171.352952387
 31
0.0
  0
LINE
  8
0
  6
CONTINUOUS
 62
     2
 10
175.0
 20
172.0
 30
0.0
 11
177.414814566
 21
171.352952387
 31
0.0
  0
LINE
  8
0
  6
CONTINUOUS
 62
     2
 10
175.0
 20
172.0
 30
0.0
 11
177.414814566
 21
172.647047613
 31
0.0
  0
TEXT
  8
0
  6
CONTINUOUS
 62
     2
 10
177.1
 20
179.0
 30
0.3
 40
1.8
  1
±１
 50
0.0
 41
0.666666667
 51
0.0
  7
KANJI1
  0
LINE
  8
0
  6
CONTINUOUS
 62
     2
 10
175.0
 20
162.873
 30
0.0
 11
175.0
 21
174.0
 31
0.0
  0
LINE
  8
0
  6
CONTINUOUS
 62
     2
 10
223.0
 20
160.0
 30
0.0
 11
222.352952387
 21
157.585185434
 31
0.0
  0
LINE
  8
0
  6
CONTINUOUS
 62
     2
 10
223.0
 20
160.0
 30
0.0
 11
223.647047613
 21
157.585185434
 31
0.0
  0
LINE
  8
0
  6
CONTINUOUS
 62
     2
 10
217.0
 20
130.0
 30
0.0
 11
217.0
 21
155.0
 31
0.0
  0
LINE
  8
0
  6
CONTINUOUS
 62
     2
 10
217.0
 20
155.0
 30
0.0
 11
216.352952387
 21
152.585185434
 31
0.0
  0
LINE
  8
0
  6
CONTINUOUS
 62
     2
 10
217.0
 20
155.0
 30
0.0
 11
217.647047613
 21
152.585185434
 31
0.0
  0
LINE
  8
0
  6
CONTINUOUS
 62
     2
 10
175.0
 20
172.0
 30
0.0
 11
200.0
 21
172.0
 31
0.0
  0
LINE
  8
0
  6
CONTINUOUS
 62
     2
 10
200.0
 20
172.0
 30
0.0
 11
197.585185434
 21
172.647047613
 31
0.0
  0
LINE
  8
0
  6
CONTINUOUS
 62
     2
 10
200.0
 20
172.0
 30
0.0
 11
197.585185434
 21
171.352952387
 31
0.0
  0
LINE
  8
0
  6
CONTINUOUS
 62
     2
 10
200.0
 20
161.0
 30
0.0
 11
200.0
 21
174.0
 31
0.0
  0
LINE
  8
0
  6
CONTINUOUS
 62
     2
 10
205.0
 20
178.0
 30
0.0
 11
202.585185434
 21
178.647047613
 31
0.0
  0
LINE
  8
0
  6
CONTINUOUS
 62
     2
 10
205.0
 20
178.0
 30
0.0
 11
202.585185434
 21
177.352952387
 31
0.0
  0
LINE
  8
0
  6
CONTINUOUS
 62
     2
 10
206.0
 20
160.0
 30
0.0
 11
225.0
 21
160.0
 31
0.0
  0
LINE
  8
0
  6
CONTINUOUS
 62
     2
 10
206.0
 20
155.0
 30
0.0
 11
219.0
 21
155.0
 31
0.0
  0
LINE
  8
0
  6
CONTINUOUS
 62
     2
 10
205.0
 20
161.0
 30
0.0
 11
205.0
 21
180.0
 31
0.0
  0
ARC
  8
0
  6
CONTINUOUS
 62
     1
 10
200.0
 20
155.0
 30
0.0
 40
5.0
 50
0.0
 51
90.0
  0
ARC
  8
0
  6
CONTINUOUS
 62
     2
 10
200.0
 20
155.0
 30
0.0
 40
4.0
 50
0.0
 51
90.0
  0
LINE
  8
0
  6
CONTINUOUS
 62
     2
 10
175.0
 20
172.0
 30
0.0
 11
150.0
 21
172.0
 31
0.0
  0
LINE
  8
0
  6
CONTINUOUS
 62
     2
 10
150.0
 20
172.0
 30
0.0
 11
152.414814566
 21
171.352952387
 31
0.0
  0
LINE
  8
0
  6
CONTINUOUS
 62
     2
 10
150.0
 20
172.0
 30
0.0
 11
152.414814566
 21
172.647047613
 31
0.0
  0
LINE
  8
0
  6
CONTINUOUS
 62
     2
 10
150.0
 20
161.0
 30
0.0
 11
150.0
 21
174.0
 31
0.0
  0
LINE
  8
0
  6
CONTINUOUS
 62
     2
 10
145.0
 20
178.0
 30
0.0
 11
147.414814566
 21
177.352952387
 31
0.0
  0
LINE
  8
0
  6
CONTINUOUS
 62
     2
 10
145.0
 20
178.0
 30
0.0
 11
147.414814566
 21
178.647047613
 31
0.0
  0
LINE
  8
0
  6
CONTINUOUS
 62
     2
 10
145.0
 20
161.0
 30
0.0
 11
145.0
 21
180.0
 31
0.0
  0
ARC
  8
0
  6
CONTINUOUS
 62
     1
 10
150.0
 20
155.0
 30
0.0
 40
5.0
 50
90.0
 51
180.0
  0
ARC
  8
0
  6
CONTINUOUS
 62
     2
 10
150.0
 20
155.0
 30
0.0
 40
4.0
 50
90.0
 51
180.0
  0
LINE
  8
0
  6
CONTINUOUS
 62
     2
 10
145.0
 20
178.0
 30
0.0
 11
205.0
 21
178.0
 31
0.0
  0
LINE
  8
0
  6
CONTINUOUS
 62
     1
 10
150.0
 20
160.0
 30
0.0
 11
200.0
 21
160.0
 31
0.0
  0
LINE
  8
0
  6
CONTINUOUS
 62
     2
 10
200.0
 20
159.0
 30
0.0
 11
150.0
 21
159.0
 31
0.0
  0
LINE
  8
0
  6
CONTINUOUS
 62
     2
 10
223.0
 20
100.0
 30
0.0
 11
223.647047613
 21
102.414814566
 31
0.0
  0
LINE
  8
0
  6
CONTINUOUS
 62
     2
 10
223.0
 20
100.0
 30
0.0
 11
222.352952387
 21
102.414814566
 31
0.0
  0
LINE
  8
0
  6
CONTINUOUS
 62
     2
 10
217.0
 20
105.0
 30
0.0
 11
217.647047613
 21
107.414814566
 31
0.0
  0
LINE
  8
0
  6
CONTINUOUS
 62
     2
 10
217.0
 20
105.0
 30
0.0
 11
216.352952387
 21
107.414814566
 31
0.0
  0
LINE
  8
0
  6
CONTINUOUS
 62
     2
 10
217.0
 20
105.0
 30
0.0
 11
217.0
 21
130.0
 31
0.0
  0
LINE
  8
0
  6
CONTINUOUS
 62
     2
 10
206.0
 20
105.0
 30
0.0
 11
219.0
 21
105.0
 31
0.0
  0
LINE
  8
0
  6
CONTINUOUS
 62
     2
 10
206.0
 20
100.0
 30
0.0
 11
225.0
 21
100.0
 31
0.0
  0
ARC
  8
0
  6
CONTINUOUS
 62
     1
 10
200.0
 20
105.0
 30
0.0
 40
5.0
 50
270.0
 51
0.0
  0
ARC
  8
0
  6
CONTINUOUS
 62
     2
 10
200.0
 20
105.0
 30
0.0
 40
4.0
 50
270.0
 51
0.0
  0
ARC
  8
0
  6
CONTINUOUS
 62
     1
 10
150.0
 20
105.0
 30
0.0
 40
5.0
 50
180.0
 51
270.0
  0
ARC
  8
0
  6
CONTINUOUS
 62
     2
 10
150.0
 20
105.0
 30
0.0
 40
4.0
 50
180.0
 51
270.0
  0
LINE
  8
0
  6
CONTINUOUS
 62
     1
 10
200.0
 20
100.0
 30
0.0
 11
150.0
 21
100.0
 31
0.0
  0
LINE
  8
0
  6
CONTINUOUS
 62
     2
 10
150.0
 20
101.0
 30
0.0
 11
200.0
 21
101.0
 31
0.0
  0
LINE
  8
0
  6
CONTINUOUS
 62
     2
 10
223.0
 20
160.0
 30
0.0
 11
223.0
 21
100.0
 31
0.0
  0
LINE
  8
0
  6
CONTINUOUS
 62
     1
 10
205.0
 20
155.0
 30
0.0
 11
205.0
 21
105.0
 31
0.0
  0
LINE
  8
0
  6
CONTINUOUS
 62
     2
 10
204.0
 20
105.0
 30
0.0
 11
204.0
 21
155.0
 31
0.0
  0
LINE
  8
0
  6
CONTINUOUS
 62
     1
 10
145.0
 20
105.0
 30
0.0
 11
145.0
 21
155.0
 31
0.0
  0
LINE
  8
0
  6
CONTINUOUS
 62
     2
 10
146.0
 20
155.0
 30
0.0
 11
146.0
 21
105.0
 31
0.0
  0
LINE
  8
0
  6
CONTINUOUS
 62
     2
 10
83.55
 20
178.0
 30
0.0
 11
85.964814566
 21
177.352952387
 31
0.0
  0
LINE
  8
0
  6
CONTINUOUS
 62
     2
 10
83.55
 20
178.0
 30
0.0
 11
85.964814566
 21
178.647047613
 31
0.0
  0
LINE
  8
0
  6
CONTINUOUS
 62
     2
 10
83.55
 20
161.0
 30
0.0
 11
83.55
 21
180.0
 31
0.0
  0
ARC
  8
0
  6
CONTINUOUS
 62
     1
 10
85.55
 20
158.0
 30
0.0
 40
2.0
 50
90.0
 51
180.0
  0
ARC
  8
0
  6
CONTINUOUS
 62
     1
 10
85.55
 20
102.0
 30
0.0
 40
2.0
 50
180.0
 51
270.0
  0
LINE
  8
0
  6
CONTINUOUS
 62
     1
 10
83.55
 20
158.0
 30
0.0
 11
83.55
 21
102.0
 31
0.0
  0
CIRCLE
  8
0
  6
CONTINUOUS
 62
     1
 10
175.0
 20
130.0
 30
0.0
 40
27.0
  0
TEXT
  8
0
  6
CONTINUOUS
 62
     2
 10
170.2
 20
179.0
 30
0.5
 40
3.0
  1
１２０
 50
0.0
 41
0.666666667
 51
0.0
  7
KANJI2
  0
TEXT
  8
0
  6
CONTINUOUS
 62
     2
 10
222.0
 20
124.01
 30
0.5
 40
3.0
  1
１２０
 50
90.0
 41
0.666666667
 51
0.0
  7
KANJI2
  0
LINE
  8
0
  6
CONTINUOUS
 62
     2
 10
217.0
 20
59.0
 30
0.0
 11
216.352952387
 21
56.585185434
 31
0.0
  0
LINE
  8
0
  6
CONTINUOUS
 62
     2
 10
217.0
 20
59.0
 30
0.0
 11
217.647047613
 21
56.585185434
 31
0.0
  0
LINE
  8
0
  6
CONTINUOUS
 62
     2
 10
217.0
 20
59.0
 30
0.0
 11
217.647047613
 21
61.414814566
 31
0.0
  0
LINE
  8
0
  6
CONTINUOUS
 62
     2
 10
217.0
 20
59.0
 30
0.0
 11
216.352952387
 21
61.414814566
 31
0.0
  0
LINE
  8
0
  6
CONTINUOUS
 62
     2
 10
214.5
 20
59.0
 30
0.0
 11
219.0
 21
59.0
 31
0.0
  0
LINE
  8
0
  6
CONTINUOUS
 62
     2
 10
175.0
 20
92.0
 30
0.0
 11
172.585185434
 21
92.647047613
 31
0.0
  0
LINE
  8
0
  6
CONTINUOUS
 62
     2
 10
175.0
 20
92.0
 30
0.0
 11
172.585185434
 21
91.352952387
 31
0.0
  0
LINE
  8
0
  6
CONTINUOUS
 62
     2
 10
175.0
 20
92.0
 30
0.0
 11
177.414814566
 21
91.352952387
 31
0.0
  0
LINE
  8
0
  6
CONTINUOUS
 62
     2
 10
175.0
 20
92.0
 30
0.0
 11
177.414814566
 21
92.647047613
 31
0.0
  0
LINE
  8
0
  6
CONTINUOUS
 62
     2
 10
175.0
 20
89.0
 30
0.0
 11
175.0
 21
94.0
 31
0.0
  0
CIRCLE
  8
0
  6
CONTINUOUS
 62
     1
 10
175.0
 20
59.0
 30
0.0
 40
27.75
  0
LINE
  8
0
  6
CONTINUOUS
 62
     2
 10
160.264358003
 20
35.485677664
 30
0.0
 11
160.998374464
 21
37.875493522
 31
0.0
  0
LINE
  8
0
  6
CONTINUOUS
 62
     2
 10
189.735641997
 20
82.514322336
 30
0.0
 11
189.001625536
 21
80.124506478
 31
0.0
  0
LINE
  8
0
  6
CONTINUOUS
 62
     2
 10
189.735641997
 20
82.514322336
 30
0.0
 11
187.905057166
 21
80.811689323
 31
0.0
  0
LINE
  8
0
  6
CONTINUOUS
 62
     2
 10
160.264358003
 20
35.485677664
 30
0.0
 11
162.094942834
 21
37.188310677
 31
0.0
  0
LINE
  8
0
  6
CONTINUOUS
 62
     2
 10
189.735641997
 20
82.514322336
 30
0.0
 11
160.264358003
 21
35.485677664
 31
0.0
  0
LINE
  8
0
  6
LTYPE1
 62
     2
 10
145.75
 20
59.0
 30
0.0
 11
204.25
 21
59.0
 31
0.0
  0
LINE
  8
0
  6
LTYPE1
 62
     2
 10
175.0
 20
88.25
 30
0.0
 11
175.0
 21
29.75
 31
0.0
  0
LINE
  8
0
  6
LTYPE2
 62
     2
 10
203.0
 20
84.0
 30
0.0
 11
197.0
 21
84.0
 31
0.0
  0
LINE
  8
0
  6
LTYPE2
 62
     2
 10
200.0
 20
87.0
 30
0.0
 11
200.0
 21
81.0
 31
0.0
  0
CIRCLE
  8
0
  6
CONTINUOUS
 62
     1
 10
200.0
 20
84.0
 30
0.0
 40
1.5
  0
LINE
  8
0
  6
LTYPE2
 62
     2
 10
153.0
 20
84.0
 30
0.0
 11
147.0
 21
84.0
 31
0.0
  0
LINE
  8
0
  6
LTYPE2
 62
     2
 10
150.0
 20
87.0
 30
0.0
 11
150.0
 21
81.0
 31
0.0
  0
CIRCLE
  8
0
  6
CONTINUOUS
 62
     1
 10
150.0
 20
84.0
 30
0.0
 40
1.5
  0
LINE
  8
0
  6
LTYPE2
 62
     2
 10
203.0
 20
34.0
 30
0.0
 11
197.0
 21
34.0
 31
0.0
  0
LINE
  8
0
  6
LTYPE2
 62
     2
 10
200.0
 20
37.0
 30
0.0
 11
200.0
 21
31.0
 31
0.0
  0
CIRCLE
  8
0
  6
CONTINUOUS
 62
     1
 10
200.0
 20
34.0
 30
0.0
 40
1.5
  0
LINE
  8
0
  6
LTYPE2
 62
     2
 10
153.0
 20
34.0
 30
0.0
 11
147.0
 21
34.0
 31
0.0
  0
LINE
  8
0
  6
LTYPE2
 62
     2
 10
150.0
 20
37.0
 30
0.0
 11
150.0
 21
31.0
 31
0.0
  0
CIRCLE
  8
0
  6
CONTINUOUS
 62
     1
 10
150.0
 20
34.0
 30
0.0
 40
1.5
  0
LINE
  8
0
  6
CONTINUOUS
 62
     2
 10
217.0
 20
59.0
 30
0.0
 11
217.0
 21
84.0
 31
0.0
  0
LINE
  8
0
  6
CONTINUOUS
 62
     2
 10
217.0
 20
84.0
 30
0.0
 11
216.352952387
 21
81.585185434
 31
0.0
  0
LINE
  8
0
  6
CONTINUOUS
 62
     2
 10
217.0
 20
84.0
 30
0.0
 11
217.647047613
 21
81.585185434
 31
0.0
  0
LINE
  8
0
  6
CONTINUOUS
 62
     2
 10
211.0
 20
84.0
 30
0.0
 11
219.0
 21
84.0
 31
0.0
  0
LINE
  8
0
  6
CONTINUOUS
 62
     2
 10
217.0
 20
34.0
 30
0.0
 11
217.647047613
 21
36.414814566
 31
0.0
  0
LINE
  8
0
  6
CONTINUOUS
 62
     2
 10
217.0
 20
34.0
 30
0.0
 11
216.352952387
 21
36.414814566
 31
0.0
  0
LINE
  8
0
  6
CONTINUOUS
 62
     2
 10
217.0
 20
34.0
 30
0.0
 11
217.0
 21
59.0
 31
0.0
  0
LINE
  8
0
  6
CONTINUOUS
 62
     2
 10
211.0
 20
34.0
 30
0.0
 11
219.0
 21
34.0
 31
0.0
  0
LINE
  8
0
  6
CONTINUOUS
 62
     2
 10
175.0
 20
92.0
 30
0.0
 11
150.0
 21
92.0
 31
0.0
  0
LINE
  8
0
  6
CONTINUOUS
 62
     2
 10
150.0
 20
92.0
 30
0.0
 11
152.414814566
 21
91.352952387
 31
0.0
  0
LINE
  8
0
  6
CONTINUOUS
 62
     2
 10
150.0
 20
92.0
 30
0.0
 11
152.414814566
 21
92.647047613
 31
0.0
  0
LINE
  8
0
  6
CONTINUOUS
 62
     2
 10
150.0
 20
89.0
 30
0.0
 11
150.0
 21
94.0
 31
0.0
  0
LINE
  8
0
  6
CONTINUOUS
 62
     2
 10
175.0
 20
92.0
 30
0.0
 11
200.0
 21
92.0
 31
0.0
  0
LINE
  8
0
  6
CONTINUOUS
 62
     2
 10
200.0
 20
92.0
 30
0.0
 11
197.585185434
 21
92.647047613
 31
0.0
  0
LINE
  8
0
  6
CONTINUOUS
 62
     2
 10
200.0
 20
92.0
 30
0.0
 11
197.585185434
 21
91.352952387
 31
0.0
  0
LINE
  8
0
  6
CONTINUOUS
 62
     2
 10
200.0
 20
89.0
 30
0.0
 11
200.0
 21
94.0
 31
0.0
  0
LINE
  8
0
  6
LTYPE1
 62
     2
 10
47.0
 20
166.75
 30
0.0
 11
47.0
 21
93.3
 31
0.0
  0
ARC
  8
0
  6
CONTINUOUS
 62
     2
 10
20.0
 20
127.25
 30
0.0
 40
2.0
 50
180.0
 51
270.0
  0
ARC
  8
0
  6
CONTINUOUS
 62
     2
 10
20.0
 20
127.25
 30
0.0
 40
1.25
 50
180.0
 51
270.0
  0
ARC
  8
0
  6
CONTINUOUS
 62
     2
 10
74.0
 20
127.25
 30
0.0
 40
2.0
 50
270.0
 51
0.0
  0
ARC
  8
0
  6
CONTINUOUS
 62
     2
 10
74.0
 20
127.25
 30
0.0
 40
1.25
 50
270.0
 51
0.0
  0
LINE
  8
0
  6
CONTINUOUS
 62
     2
 10
74.0
 20
125.25
 30
0.0
 11
20.0
 21
125.25
 31
0.0
  0
LINE
  8
0
  6
CONTINUOUS
 62
     2
 10
74.0
 20
126.0
 30
0.0
 11
20.0
 21
126.0
 31
0.0
  0
LINE
  8
0
  6
CONTINUOUS
 62
     2
 10
24.2
 20
140.75
 30
0.0
 11
38.05
 21
126.0
 31
0.0
  0
LINE
  8
0
  6
CONTINUOUS
 62
     2
 10
40.35
 20
126.0
 30
0.0
 11
24.25
 21
140.85
 31
0.0
  0
LINE
  8
0
  6
CONTINUOUS
 62
     2
 10
94.05
 20
170.525
 30
0.0
 11
94.05
 21
174.0
 31
0.0
  0
LINE
  8
0
  6
CONTINUOUS
 62
     2
 10
93.8
 20
172.0
 30
0.0
 11
91.385185434
 21
172.647047613
 31
0.0
  0
LINE
  8
0
  6
CONTINUOUS
 62
     2
 10
93.8
 20
172.0
 30
0.0
 11
91.385185434
 21
171.352952387
 31
0.0
  0
LINE
  8
0
  6
CONTINUOUS
 62
     2
 10
93.8
 20
172.0
 30
0.0
 11
89.75
 21
172.0
 31
0.0
  0
LINE
  8
0
  6
CONTINUOUS
 62
     2
 10
94.05
 20
172.0
 30
0.0
 11
95.874524064
 21
171.51112025
 31
0.0
  0
LINE
  8
0
  6
CONTINUOUS
 62
     2
 10
94.05
 20
172.0
 30
0.0
 11
95.894524064
 21
172.494238733
 31
0.0
  0
LINE
  8
0
  6
CONTINUOUS
 62
     2
 10
93.8
 20
174.0
 30
0.0
 11
93.8
 21
161.0
 31
0.0
  0
TEXT
  8
0
  6
CONTINUOUS
 62
     2
 10
88.775
 20
173.0
 30
0.3
 40
3.0
  1
０．５
 50
0.0
 41
0.6
 51
0.0
  7
KANJI3
  0
LINE
  8
0
  6
CONTINUOUS
 62
     2
 10
101.55
 20
172.0
 30
0.0
 11
99.764524064
 21
172.478416835
 31
0.0
  0
LINE
  8
0
  6
CONTINUOUS
 62
     2
 10
101.55
 20
172.0
 30
0.0
 11
99.764524064
 21
171.521583165
 31
0.0
  0
LINE
  8
0
  6
CONTINUOUS
 62
     2
 10
101.55
 20
172.0
 30
0.0
 11
93.8
 21
172.0
 31
0.0
  0
LINE
  8
0
  6
CONTINUOUS
 62
     2
 10
94.05
 20
178.0
 30
0.0
 11
96.464814566
 21
177.352952387
 31
0.0
  0
LINE
  8
0
  6
CONTINUOUS
 62
     2
 10
94.05
 20
178.0
 30
0.0
 11
96.464814566
 21
178.647047613
 31
0.0
  0
LINE
  8
0
  6
CONTINUOUS
 62
     2
 10
94.05
 20
178.0
 30
0.0
 11
91.635185434
 21
177.352952387
 31
0.0
  0
LINE
  8
0
  6
CONTINUOUS
 62
     2
 10
94.05
 20
178.0
 30
0.0
 11
91.635185434
 21
178.647047613
 31
0.0
  0
LINE
  8
0
  6
CONTINUOUS
 62
     2
 10
94.05
 20
161.0
 30
0.0
 11
94.05
 21
180.0
 31
0.0
  0
LINE
  8
0
  6
CONTINUOUS
 62
     1
 10
85.55
 20
160.0
 30
0.0
 11
93.8
 21
160.0
 31
0.0
  0
TEXT
  8
0
  6
CONTINUOUS
 62
     2
 10
95.265
 20
173.0
 30
0.3
 40
3.0
  1
１５
 50
0.0
 41
0.6
 51
0.0
  7
KANJI3
  0
TEXT
  8
0
  6
CONTINUOUS
 62
     2
 10
99.334
 20
174.33
 30
0.3
 40
1.8
  1
±０．８
 50
0.0
 41
0.666666667
 51
0.0
  7
KANJI1
  0
LINE
  8
0
  6
CONTINUOUS
 62
     2
 10
101.55
 20
157.25
 30
0.0
 11
101.55
 21
174.0
 31
0.0
  0
LINE
  8
0
  6
CONTINUOUS
 62
     1
 10
93.8
 20
100.0
 30
0.0
 11
85.55
 21
100.0
 31
0.0
  0
LINE
  8
0
  6
CONTINUOUS
 62
     2
 10
99.571
 20
102.746
 30
0.0
 11
99.972822151
 21
100.278503504
 31
0.0
  0
LINE
  8
0
  6
CONTINUOUS
 62
     2
 10
99.571
 20
102.746
 30
0.0
 11
101.152736439
 21
100.809996426
 31
0.0
  0
LINE
  8
0
  6
CONTINUOUS
 62
     2
 10
99.571
 20
102.746
 30
0.0
 11
104.571
 21
91.646
 31
0.0
  0
LINE
  8
0
  6
CONTINUOUS
 62
     1
 10
93.8
 20
160.0
 30
0.0
 11
93.8
 21
100.0
 31
0.0
  0
TEXT
  8
0
  6
CONTINUOUS
 62
     2
 10
109.5
 20
132.67
 30
0.3
 40
1.8
  1
±１
 50
90.0
 41
0.666666667
 51
0.0
  7
KANJI1
  0
LINE
  8
0
  6
CONTINUOUS
 62
     2
 10
115.05
 20
178.0
 30
0.0
 11
112.635185434
 21
178.647047613
 31
0.0
  0
LINE
  8
0
  6
CONTINUOUS
 62
     2
 10
115.05
 20
178.0
 30
0.0
 11
112.635185434
 21
177.352952387
 31
0.0
  0
LINE
  8
0
  6
CONTINUOUS
 62
     2
 10
115.05
 20
178.0
 30
0.0
 11
112.635185434
 21
177.352952387
 31
0.0
  0
LINE
  8
0
  6
CONTINUOUS
 62
     2
 10
115.05
 20
178.0
 30
0.0
 11
112.635185434
 21
178.647047613
 31
0.0
  0
LINE
  8
0
  6
CONTINUOUS
 62
     2
 10
83.55
 20
178.0
 30
0.0
 11
115.05
 21
178.0
 31
0.0
  0
LINE
  8
0
  6
CONTINUOUS
 62
     2
 10
115.05
 20
178.0
 30
0.0
 11
117.464814566
 21
177.352952387
 31
0.0
  0
LINE
  8
0
  6
CONTINUOUS
 62
     2
 10
115.05
 20
178.0
 30
0.0
 11
117.464814566
 21
178.647047613
 31
0.0
  0
LINE
  8
0
  6
CONTINUOUS
 62
     2
 10
115.05
 20
157.25
 30
0.0
 11
115.05
 21
180.0
 31
0.0
  0
ARC
  8
0
  6
CONTINUOUS
 62
     1
 10
114.55
 20
156.5
 30
0.0
 40
0.5
 50
360.0
 51
90.0
  0
LINE
  8
0
  6
CONTINUOUS
 62
     2
 10
110.5
 20
157.0
 30
0.0
 11
109.852952387
 21
154.585185434
 31
0.0
  0
LINE
  8
0
  6
CONTINUOUS
 62
     2
 10
110.5
 20
157.0
 30
0.0
 11
111.147047613
 21
154.585185434
 31
0.0
  0
ARC
  8
0
  6
CONTINUOUS
 62
     1
 10
114.55
 20
103.5
 30
0.0
 40
0.5
 50
270.0
 51
360.0
  0
LINE
  8
0
  6
CONTINUOUS
 62
     2
 10
110.5
 20
103.0
 30
0.0
 11
111.147047613
 21
105.414814566
 31
0.0
  0
LINE
  8
0
  6
CONTINUOUS
 62
     2
 10
110.5
 20
103.0
 30
0.0
 11
109.852952387
 21
105.414814566
 31
0.0
  0
LINE
  8
0
  6
CONTINUOUS
 62
     1
 10
115.05
 20
156.5
 30
0.0
 11
115.05
 21
103.5
 31
0.0
  0
LINE
  8
0
  6
CONTINUOUS
 62
     2
 10
110.5
 20
157.0
 30
0.0
 11
110.5
 21
103.0
 31
0.0
  0
LINE
  8
0
  6
CONTINUOUS
 62
     2
 10
115.05
 20
178.0
 30
0.0
 11
125.05
 21
178.0
 31
0.0
  0
LINE
  8
0
  6
CONTINUOUS
 62
     2
 10
125.05
 20
178.0
 30
0.0
 11
122.635185434
 21
178.647047613
 31
0.0
  0
LINE
  8
0
  6
CONTINUOUS
 62
     2
 10
125.05
 20
178.0
 30
0.0
 11
122.635185434
 21
177.352952387
 31
0.0
  0
TEXT
  8
0
  6
CONTINUOUS
 62
     2
 10
118.255495779
 20
179.0
 30
0.3
 40
3.0
  1
２０
 50
0.0
 41
0.6
 51
0.0
  7
KANJI3
  0
LINE
  8
0
  6
CONTINUOUS
 62
     1
 10
116.55
 20
137.5
 30
0.0
 11
115.05
 21
137.0
 31
0.0
  0
LINE
  8
0
  6
CONTINUOUS
 62
     1
 10
116.55
 20
147.5
 30
0.0
 11
116.55
 21
137.5
 31
0.0
  0
LINE
  8
0
  6
CONTINUOUS
 62
     1
 10
116.55
 20
147.5
 30
0.0
 11
115.05
 21
148.0
 31
0.0
  0
LINE
  8
0
  6
LTYPE1
 62
     2
 10
112.275
 20
142.5
 30
0.0
 11
127.592
 21
142.5
 31
0.0
  0
LINE
  8
0
  6
LTYPE1
 62
     2
 10
112.275
 20
124.5
 30
0.0
 11
127.592
 21
124.5
 31
0.0
  0
CIRCLE
  8
0
  6
CONTINUOUS
 62
     1
 10
162.5
 20
124.5
 30
0.0
 40
11.0
  0
CIRCLE
  8
0
  6
CONTINUOUS
 62
     1
 10
169.5
 20
124.5
 30
0.0
 40
2.25
  0
CIRCLE
  8
0
  6
CONTINUOUS
 62
     1
 10
167.449747468
 20
119.550252532
 30
0.0
 40
2.25
  0
CIRCLE
  8
0
  6
CONTINUOUS
 62
     1
 10
162.5
 20
117.5
 30
0.0
 40
2.25
  0
CIRCLE
  8
0
  6
CONTINUOUS
 62
     1
 10
155.5
 20
124.5
 30
0.0
 40
2.25
  0
CIRCLE
  8
0
  6
CONTINUOUS
 62
     1
 10
157.550252532
 20
129.449747468
 30
0.0
 40
2.25
  0
CIRCLE
  8
0
  6
CONTINUOUS
 62
     1
 10
162.5
 20
131.5
 30
0.0
 40
2.25
  0
CIRCLE
  8
0
  6
CONTINUOUS
 62
     1
 10
187.5
 20
124.5
 30
0.0
 40
11.0
  0
CIRCLE
  8
0
  6
CONTINUOUS
 62
     1
 10
180.5
 20
124.5
 30
0.0
 40
2.25
  0
CIRCLE
  8
0
  6
CONTINUOUS
 62
     1
 10
182.550252532
 20
119.550252532
 30
0.0
 40
2.25
  0
CIRCLE
  8
0
  6
CONTINUOUS
 62
     1
 10
187.5
 20
117.5
 30
0.0
 40
2.25
  0
CIRCLE
  8
0
  6
CONTINUOUS
 62
     1
 10
194.5
 20
124.5
 30
0.0
 40
2.25
  0
CIRCLE
  8
0
  6
CONTINUOUS
 62
     1
 10
192.449747468
 20
129.449747468
 30
0.0
 40
2.25
  0
CIRCLE
  8
0
  6
CONTINUOUS
 62
     1
 10
187.5
 20
131.5
 30
0.0
 40
2.25
  0
LINE
  8
0
  6
LTYPE1
 62
     2
 10
187.5
 20
112.0
 30
0.0
 11
187.5
 21
137.0
 31
0.0
  0
LINE
  8
0
  6
LTYPE1
 62
     2
 10
150.0
 20
124.5
 30
0.0
 11
200.0
 21
124.5
 31
0.0
  0
LINE
  8
0
  6
LTYPE1
 62
     2
 10
162.5
 20
112.0
 30
0.0
 11
162.5
 21
137.0
 31
0.0
  0
CIRCLE
  8
0
  6
CONTINUOUS
 62
     2
 10
186.5
 20
142.5
 30
0.0
 40
3.175
  0
CIRCLE
  8
0
  6
CONTINUOUS
 62
     2
 10
186.5
 20
142.5
 30
0.0
 40
2.5
  0
LINE
  8
0
  6
CONTINUOUS
 62
     2
 10
186.85
 20
143.875
 30
0.0
 11
186.15
 21
143.875
 31
0.0
  0
LINE
  8
0
  6
CONTINUOUS
 62
     2
 10
186.15
 20
141.125
 30
0.0
 11
186.85
 21
141.125
 31
0.0
  0
LINE
  8
0
  6
CONTINUOUS
 62
     2
 10
186.15
 20
143.875
 30
0.0
 11
186.15
 21
143.6
 31
0.0
  0
LINE
  8
0
  6
CONTINUOUS
 62
     2
 10
185.4
 20
142.85
 30
0.0
 11
184.024621241
 21
142.85
 31
0.0
  0
ARC
  8
0
  6
CONTINUOUS
 62
     2
 10
185.4
 20
143.6
 30
0.0
 40
0.75
 50
270.0
 51
0.0
  0
LINE
  8
0
  6
CONTINUOUS
 62
     2
 10
186.85
 20
143.6
 30
0.0
 11
186.85
 21
143.875
 31
0.0
  0
LINE
  8
0
  6
CONTINUOUS
 62
     2
 10
188.95
 20
142.85
 30
0.0
 11
187.6
 21
142.85
 31
0.0
  0
ARC
  8
0
  6
CONTINUOUS
 62
     2
 10
187.6
 20
143.6
 30
0.0
 40
0.75
 50
180.0
 51
270.0
  0
LINE
  8
0
  6
CONTINUOUS
 62
     2
 10
186.85
 20
141.125
 30
0.0
 11
186.85
 21
141.4
 31
0.0
  0
LINE
  8
0
  6
CONTINUOUS
 62
     2
 10
187.6
 20
142.15
 30
0.0
 11
188.975378759
 21
142.15
 31
0.0
  0
ARC
  8
0
  6
CONTINUOUS
 62
     2
 10
187.6
 20
141.4
 30
0.0
 40
0.75
 50
90.0
 51
180.0
  0
LINE
  8
0
  6
CONTINUOUS
 62
     2
 10
186.15
 20
141.4
 30
0.0
 11
186.15
 21
141.125
 31
0.0
  0
LINE
  8
0
  6
CONTINUOUS
 62
     2
 10
184.024621241
 20
142.15
 30
0.0
 11
185.4
 21
142.15
 31
0.0
  0
ARC
  8
0
  6
CONTINUOUS
 62
     2
 10
185.4
 20
141.4
 30
0.0
 40
0.75
 50
0.0
 51
90.0
  0
LINE
  8
0
  6
LTYPE1
 62
     2
 10
186.5
 20
146.5
 30
0.0
 11
186.5
 21
138.5
 31
0.0
  0
LINE
  8
0
  6
LTYPE1
 62
     2
 10
182.5
 20
142.5
 30
0.0
 11
190.5
 21
142.5
 31
0.0
  0
CIRCLE
  8
0
  6
CONTINUOUS
 62
     2
 10
163.5
 20
142.5
 30
0.0
 40
3.175
  0
CIRCLE
  8
0
  6
CONTINUOUS
 62
     2
 10
163.5
 20
142.5
 30
0.0
 40
2.5
  0
LINE
  8
0
  6
CONTINUOUS
 62
     2
 10
163.15
 20
143.875
 30
0.0
 11
163.85
 21
143.875
 31
0.0
  0
LINE
  8
0
  6
CONTINUOUS
 62
     2
 10
163.85
 20
141.125
 30
0.0
 11
163.15
 21
141.125
 31
0.0
  0
LINE
  8
0
  6
CONTINUOUS
 62
     2
 10
163.85
 20
143.875
 30
0.0
 11
163.85
 21
143.6
 31
0.0
  0
LINE
  8
0
  6
CONTINUOUS
 62
     2
 10
164.6
 20
142.85
 30
0.0
 11
165.975378759
 21
142.85
 31
0.0
  0
ARC
  8
0
  6
CONTINUOUS
 62
     2
 10
164.6
 20
143.6
 30
0.0
 40
0.75
 50
180.0
 51
270.0
  0
LINE
  8
0
  6
CONTINUOUS
 62
     2
 10
163.15
 20
143.6
 30
0.0
 11
163.15
 21
143.875
 31
0.0
  0
LINE
  8
0
  6
CONTINUOUS
 62
     2
 10
161.05
 20
142.85
 30
0.0
 11
162.4
 21
142.85
 31
0.0
  0
ARC
  8
0
  6
CONTINUOUS
 62
     2
 10
162.4
 20
143.6
 30
0.0
 40
0.75
 50
270.0
 51
0.0
  0
LINE
  8
0
  6
CONTINUOUS
 62
     2
 10
163.15
 20
141.125
 30
0.0
 11
163.15
 21
141.4
 31
0.0
  0
LINE
  8
0
  6
CONTINUOUS
 62
     2
 10
162.4
 20
142.15
 30
0.0
 11
161.024621241
 21
142.15
 31
0.0
  0
ARC
  8
0
  6
CONTINUOUS
 62
     2
 10
162.4
 20
141.4
 30
0.0
 40
0.75
 50
360.0
 51
90.0
  0
LINE
  8
0
  6
CONTINUOUS
 62
     2
 10
163.85
 20
141.4
 30
0.0
 11
163.85
 21
141.125
 31
0.0
  0
LINE
  8
0
  6
CONTINUOUS
 62
     2
 10
165.975378759
 20
142.15
 30
0.0
 11
164.6
 21
142.15
 31
0.0
  0
ARC
  8
0
  6
CONTINUOUS
 62
     2
 10
164.6
 20
141.4
 30
0.0
 40
0.75
 50
90.0
 51
180.0
  0
LINE
  8
0
  6
LTYPE1
 62
     2
 10
163.5
 20
146.5
 30
0.0
 11
163.5
 21
138.5
 31
0.0
  0
LINE
  8
0
  6
LTYPE1
 62
     2
 10
167.5
 20
142.5
 30
0.0
 11
159.5
 21
142.5
 31
0.0
  0
ARC
  8
0
  6
CONTINUOUS
 62
     2
 10
94.8005
 20
155.0
 30
0.0
 40
4.165
 50
343.5
 51
16.5
  0
ARC
  8
0
  6
CONTINUOUS
 62
     2
 10
97.92425
 20
153.229875
 30
0.0
 40
1.04125
 50
325.0
 51
35.0
  0
ARC
  8
0
  6
CONTINUOUS
 62
     2
 10
97.92425
 20
156.770125
 30
0.0
 40
1.04125
 50
325.0
 51
35.0
  0
LINE
  8
0
  6
CONTINUOUS
 62
     2
 10
98.9655
 20
156.770125
 30
0.0
 11
98.9655
 21
153.229875
 31
0.0
  0
LINE
  8
0
  6
CONTINUOUS
 62
     2
 10
98.782990804
 20
152.62595
 30
0.0
 11
96.883
 21
152.62595
 31
0.0
  0
LINE
  8
0
  6
CONTINUOUS
 62
     2
 10
96.883
 20
157.37405
 30
0.0
 11
98.778075
 21
157.37405
 31
0.0
  0
LINE
  8
0
  6
CONTINUOUS
 62
     2
 10
96.883
 20
152.62595
 30
0.0
 11
96.883
 21
157.37405
 31
0.0
  0
LINE
  8
0
  6
CONTINUOUS
 62
     2
 10
101.55
 20
153.7505
 30
0.0
 11
101.55
 21
156.2495
 31
0.0
  0
LINE
  8
0
  6
CONTINUOUS
 62
     2
 10
98.9655
 20
153.7505
 30
0.0
 11
101.55
 21
153.7505
 31
0.0
  0
LINE
  8
0
  6
CONTINUOUS
 62
     2
 10
101.55
 20
153.846295
 30
0.0
 11
98.9655
 21
153.846295
 31
0.0
  0
LINE
  8
0
  6
CONTINUOUS
 62
     2
 10
98.9655
 20
156.145375
 30
0.0
 11
101.55
 21
156.145375
 31
0.0
  0
LINE
  8
0
  6
CONTINUOUS
 62
     2
 10
101.55
 20
156.2495
 30
0.0
 11
98.9655
 21
156.2495
 31
0.0
  0
LINE
  8
0
  6
CONTINUOUS
 62
     2
 10
96.883
 20
156.168976843
 30
0.0
 11
98.778885959
 21
156.168976843
 31
0.0
  0
LINE
  8
0
  6
CONTINUOUS
 62
     2
 10
98.793984196
 20
153.817076089
 30
0.0
 11
96.883
 21
153.817076089
 31
0.0
  0
LINE
  8
0
  6
CONTINUOUS
 62
     2
 10
94.05
 20
152.5
 30
0.0
 11
94.05
 21
157.5
 31
0.0
  0
LINE
  8
0
  6
CONTINUOUS
 62
     2
 10
95.175
 20
152.5
 30
0.0
 11
95.841666667
 21
152.5
 31
0.0
  0
LINE
  8
0
  6
CONTINUOUS
 62
     2
 10
94.883333333
 20
155.041666667
 30
0.0
 11
95.55
 21
155.041666667
 31
0.0
  0
LINE
  8
0
  6
CONTINUOUS
 62
     2
 10
95.55
 20
155.041666667
 30
0.0
 11
95.841666667
 21
157.5
 31
0.0
  0
LINE
  8
0
  6
CONTINUOUS
 62
     2
 10
95.841666667
 20
157.5
 30
0.0
 11
95.175
 21
157.5
 31
0.0
  0
LINE
  8
0
  6
CONTINUOUS
 62
     2
 10
95.175
 20
157.5
 30
0.0
 11
94.883333333
 21
155.041666667
 31
0.0
  0
LINE
  8
0
  6
CONTINUOUS
 62
     2
 10
96.133333333
 20
154.958333333
 30
0.0
 11
95.466666667
 21
154.958333333
 31
0.0
  0
LINE
  8
0
  6
CONTINUOUS
 62
     2
 10
95.466666667
 20
154.958333333
 30
0.0
 11
95.175
 21
152.5
 31
0.0
  0
LINE
  8
0
  6
CONTINUOUS
 62
     2
 10
95.841666667
 20
152.5
 30
0.0
 11
96.133333333
 21
154.958333333
 31
0.0
  0
LINE
  8
0
  6
CONTINUOUS
 62
     2
 10
94.216666667
 20
157.541666667
 30
0.0
 11
94.883333333
 21
157.541666667
 31
0.0
  0
LINE
  8
0
  6
CONTINUOUS
 62
     2
 10
94.883333333
 20
157.541666667
 30
0.0
 11
94.883333333
 21
152.45625
 31
0.0
  0
LINE
  8
0
  6
CONTINUOUS
 62
     2
 10
94.883333333
 20
152.45625
 30
0.0
 11
94.220833333
 21
152.45625
 31
0.0
  0
LINE
  8
0
  6
CONTINUOUS
 62
     2
 10
94.220833333
 20
152.45625
 30
0.0
 11
94.220833333
 21
157.541666667
 31
0.0
  0
LINE
  8
0
  6
CONTINUOUS
 62
     2
 10
93.8
 20
152.5
 30
0.0
 11
94.05
 21
152.5
 31
0.0
  0
LINE
  8
0
  6
CONTINUOUS
 62
     2
 10
94.05
 20
157.5
 30
0.0
 11
93.8
 21
157.5
 31
0.0
  0
LINE
  8
0
  6
CONTINUOUS
 62
     2
 10
94.05
 20
156.145375
 30
0.0
 11
94.220833333
 21
156.145375
 31
0.0
  0
LINE
  8
0
  6
CONTINUOUS
 62
     2
 10
95.680948446
 20
156.145375
 30
0.0
 11
96.883
 21
156.145375
 31
0.0
  0
LINE
  8
0
  6
CONTINUOUS
 62
     2
 10
94.883333333
 20
156.145375
 30
0.0
 11
95.01428178
 21
156.145375
 31
0.0
  0
LINE
  8
0
  6
CONTINUOUS
 62
     2
 10
96.883
 20
156.2495
 30
0.0
 11
95.69330226
 21
156.2495
 31
0.0
  0
LINE
  8
0
  6
CONTINUOUS
 62
     2
 10
94.220833333
 20
156.2495
 30
0.0
 11
94.05
 21
156.2495
 31
0.0
  0
LINE
  8
0
  6
CONTINUOUS
 62
     2
 10
95.026635593
 20
156.2495
 30
0.0
 11
94.883333333
 21
156.2495
 31
0.0
  0
LINE
  8
0
  6
CONTINUOUS
 62
     2
 10
94.05
 20
153.7505
 30
0.0
 11
94.220833333
 21
153.7505
 31
0.0
  0
LINE
  8
0
  6
CONTINUOUS
 62
     2
 10
94.220833333
 20
153.846295
 30
0.0
 11
94.05
 21
153.846295
 31
0.0
  0
LINE
  8
0
  6
CONTINUOUS
 62
     2
 10
95.334729915
 20
153.846295
 30
0.0
 11
94.883333333
 21
153.846295
 31
0.0
  0
LINE
  8
0
  6
CONTINUOUS
 62
     2
 10
96.883
 20
153.846295
 30
0.0
 11
96.001396582
 21
153.846295
 31
0.0
  0
LINE
  8
0
  6
CONTINUOUS
 62
     2
 10
95.990031073
 20
153.7505
 30
0.0
 11
96.883
 21
153.7505
 31
0.0
  0
LINE
  8
0
  6
CONTINUOUS
 62
     2
 10
94.883333333
 20
153.7505
 30
0.0
 11
95.323364407
 21
153.7505
 31
0.0
  0
LINE
  8
0
  6
LTYPE3
 62
     2
 10
92.8
 20
155.0
 30
0.0
 11
102.55
 21
155.0
 31
0.0
  0
ARC
  8
0
  6
CONTINUOUS
 62
     2
 10
94.8005
 20
105.0
 30
0.0
 40
4.165
 50
343.5
 51
16.5
  0
ARC
  8
0
  6
CONTINUOUS
 62
     2
 10
97.92425
 20
103.229875
 30
0.0
 40
1.04125
 50
325.0
 51
35.0
  0
ARC
  8
0
  6
CONTINUOUS
 62
     2
 10
97.92425
 20
106.770125
 30
0.0
 40
1.04125
 50
325.0
 51
35.0
  0
LINE
  8
0
  6
CONTINUOUS
 62
     2
 10
98.9655
 20
106.770125
 30
0.0
 11
98.9655
 21
103.229875
 31
0.0
  0
LINE
  8
0
  6
CONTINUOUS
 62
     2
 10
98.782990804
 20
102.62595
 30
0.0
 11
96.883
 21
102.62595
 31
0.0
  0
LINE
  8
0
  6
CONTINUOUS
 62
     2
 10
96.883
 20
107.37405
 30
0.0
 11
98.778075
 21
107.37405
 31
0.0
  0
LINE
  8
0
  6
CONTINUOUS
 62
     2
 10
96.883
 20
102.62595
 30
0.0
 11
96.883
 21
107.37405
 31
0.0
  0
LINE
  8
0
  6
CONTINUOUS
 62
     2
 10
101.55
 20
103.7505
 30
0.0
 11
101.55
 21
106.2495
 31
0.0
  0
LINE
  8
0
  6
CONTINUOUS
 62
     2
 10
98.9655
 20
103.7505
 30
0.0
 11
101.55
 21
103.7505
 31
0.0
  0
LINE
  8
0
  6
CONTINUOUS
 62
     2
 10
101.55
 20
103.846295
 30
0.0
 11
98.9655
 21
103.846295
 31
0.0
  0
LINE
  8
0
  6
CONTINUOUS
 62
     2
 10
98.9655
 20
106.145375
 30
0.0
 11
101.55
 21
106.145375
 31
0.0
  0
LINE
  8
0
  6
CONTINUOUS
 62
     2
 10
101.55
 20
106.2495
 30
0.0
 11
98.9655
 21
106.2495
 31
0.0
  0
LINE
  8
0
  6
CONTINUOUS
 62
     2
 10
96.883
 20
106.168976843
 30
0.0
 11
98.778885959
 21
106.168976843
 31
0.0
  0
LINE
  8
0
  6
CONTINUOUS
 62
     2
 10
98.793984196
 20
103.817076089
 30
0.0
 11
96.883
 21
103.817076089
 31
0.0
  0
LINE
  8
0
  6
CONTINUOUS
 62
     2
 10
94.05
 20
102.5
 30
0.0
 11
94.05
 21
107.5
 31
0.0
  0
LINE
  8
0
  6
CONTINUOUS
 62
     2
 10
95.175
 20
102.5
 30
0.0
 11
95.841666667
 21
102.5
 31
0.0
  0
LINE
  8
0
  6
CONTINUOUS
 62
     2
 10
94.883333333
 20
105.041666667
 30
0.0
 11
95.55
 21
105.041666667
 31
0.0
  0
LINE
  8
0
  6
CONTINUOUS
 62
     2
 10
95.55
 20
105.041666667
 30
0.0
 11
95.841666667
 21
107.5
 31
0.0
  0
LINE
  8
0
  6
CONTINUOUS
 62
     2
 10
95.841666667
 20
107.5
 30
0.0
 11
95.175
 21
107.5
 31
0.0
  0
LINE
  8
0
  6
CONTINUOUS
 62
     2
 10
95.175
 20
107.5
 30
0.0
 11
94.883333333
 21
105.041666667
 31
0.0
  0
LINE
  8
0
  6
CONTINUOUS
 62
     2
 10
96.133333333
 20
104.958333333
 30
0.0
 11
95.466666667
 21
104.958333333
 31
0.0
  0
LINE
  8
0
  6
CONTINUOUS
 62
     2
 10
95.466666667
 20
104.958333333
 30
0.0
 11
95.175
 21
102.5
 31
0.0
  0
LINE
  8
0
  6
CONTINUOUS
 62
     2
 10
95.841666667
 20
102.5
 30
0.0
 11
96.133333333
 21
104.958333333
 31
0.0
  0
LINE
  8
0
  6
CONTINUOUS
 62
     2
 10
94.216666667
 20
107.541666667
 30
0.0
 11
94.883333333
 21
107.541666667
 31
0.0
  0
LINE
  8
0
  6
CONTINUOUS
 62
     2
 10
94.883333333
 20
107.541666667
 30
0.0
 11
94.883333333
 21
102.45625
 31
0.0
  0
LINE
  8
0
  6
CONTINUOUS
 62
     2
 10
94.883333333
 20
102.45625
 30
0.0
 11
94.220833333
 21
102.45625
 31
0.0
  0
LINE
  8
0
  6
CONTINUOUS
 62
     2
 10
94.220833333
 20
102.45625
 30
0.0
 11
94.220833333
 21
107.541666667
 31
0.0
  0
LINE
  8
0
  6
CONTINUOUS
 62
     2
 10
93.8
 20
102.5
 30
0.0
 11
94.05
 21
102.5
 31
0.0
  0
LINE
  8
0
  6
CONTINUOUS
 62
     2
 10
94.05
 20
107.5
 30
0.0
 11
93.8
 21
107.5
 31
0.0
  0
LINE
  8
0
  6
CONTINUOUS
 62
     2
 10
94.05
 20
106.145375
 30
0.0
 11
94.220833333
 21
106.145375
 31
0.0
  0
LINE
  8
0
  6
CONTINUOUS
 62
     2
 10
95.680948446
 20
106.145375
 30
0.0
 11
96.883
 21
106.145375
 31
0.0
  0
LINE
  8
0
  6
CONTINUOUS
 62
     2
 10
94.883333333
 20
106.145375
 30
0.0
 11
95.01428178
 21
106.145375
 31
0.0
  0
LINE
  8
0
  6
CONTINUOUS
 62
     2
 10
96.883
 20
106.2495
 30
0.0
 11
95.69330226
 21
106.2495
 31
0.0
  0
LINE
  8
0
  6
CONTINUOUS
 62
     2
 10
94.220833333
 20
106.2495
 30
0.0
 11
94.05
 21
106.2495
 31
0.0
  0
LINE
  8
0
  6
CONTINUOUS
 62
     2
 10
95.026635593
 20
106.2495
 30
0.0
 11
94.883333333
 21
106.2495
 31
0.0
  0
LINE
  8
0
  6
CONTINUOUS
 62
     2
 10
94.05
 20
103.7505
 30
0.0
 11
94.220833333
 21
103.7505
 31
0.0
  0
LINE
  8
0
  6
CONTINUOUS
 62
     2
 10
94.220833333
 20
103.846295
 30
0.0
 11
94.05
 21
103.846295
 31
0.0
  0
LINE
  8
0
  6
CONTINUOUS
 62
     2
 10
95.334729915
 20
103.846295
 30
0.0
 11
94.883333333
 21
103.846295
 31
0.0
  0
LINE
  8
0
  6
CONTINUOUS
 62
     2
 10
96.883
 20
103.846295
 30
0.0
 11
96.001396582
 21
103.846295
 31
0.0
  0
LINE
  8
0
  6
CONTINUOUS
 62
     2
 10
95.990031073
 20
103.7505
 30
0.0
 11
96.883
 21
103.7505
 31
0.0
  0
LINE
  8
0
  6
CONTINUOUS
 62
     2
 10
94.883333333
 20
103.7505
 30
0.0
 11
95.323364407
 21
103.7505
 31
0.0
  0
LINE
  8
0
  6
LTYPE3
 62
     2
 10
92.8
 20
105.0
 30
0.0
 11
102.55
 21
105.0
 31
0.0
  0
LINE
  8
0
  6
CONTINUOUS
 62
     1
 10
94.220833333
 20
103.0
 30
0.0
 11
94.05
 21
103.0
 31
0.0
  0
LINE
  8
0
  6
CONTINUOUS
 62
     1
 10
95.234322034
 20
103.0
 30
0.0
 11
94.883333333
 21
103.0
 31
0.0
  0
LINE
  8
0
  6
CONTINUOUS
 62
     1
 10
95.900988701
 20
103.0
 30
0.0
 11
96.883
 21
103.0
 31
0.0
  0
LINE
  8
0
  6
CONTINUOUS
 62
     1
 10
114.55
 20
103.0
 30
0.0
 11
98.93980849
 21
103.0
 31
0.0
  0
LINE
  8
0
  6
CONTINUOUS
 62
     1
 10
94.220833333
 20
157.0
 30
0.0
 11
94.05
 21
157.0
 31
0.0
  0
LINE
  8
0
  6
CONTINUOUS
 62
     1
 10
95.115677966
 20
157.0
 30
0.0
 11
94.883333333
 21
157.0
 31
0.0
  0
LINE
  8
0
  6
CONTINUOUS
 62
     1
 10
96.883
 20
157.0
 30
0.0
 11
95.782344633
 21
157.0
 31
0.0
  0
LINE
  8
0
  6
CONTINUOUS
 62
     1
 10
114.55
 20
157.0
 30
0.0
 11
98.93980849
 21
157.0
 31
0.0
  0
LINE
  8
0
  6
CONTINUOUS
 62
     2
 10
152.020725942
 20
156.166666667
 30
0.0
 11
150.0
 21
157.333333333
 31
0.0
  0
LINE
  8
0
  6
CONTINUOUS
 62
     2
 10
150.0
 20
157.333333333
 30
0.0
 11
147.979274058
 21
156.166666667
 31
0.0
  0
LINE
  8
0
  6
CONTINUOUS
 62
     2
 10
147.979274058
 20
156.166666667
 30
0.0
 11
147.979274058
 21
153.833333333
 31
0.0
  0
LINE
  8
0
  6
CONTINUOUS
 62
     2
 10
147.979274058
 20
153.833333333
 30
0.0
 11
150.0
 21
152.666666667
 31
0.0
  0
LINE
  8
0
  6
CONTINUOUS
 62
     2
 10
150.0
 20
152.666666667
 30
0.0
 11
152.020725942
 21
153.833333333
 31
0.0
  0
LINE
  8
0
  6
CONTINUOUS
 62
     2
 10
152.020725942
 20
153.833333333
 30
0.0
 11
152.020725942
 21
156.166666667
 31
0.0
  0
CIRCLE
  8
0
  6
CONTINUOUS
 62
     2
 10
150.0
 20
155.0
 30
0.0
 40
1.25
  0
CIRCLE
  8
0
  6
CONTINUOUS
 62
     2
 10
150.0
 20
155.0
 30
0.0
 40
1.166666667
  0
CIRCLE
  8
0
  6
CONTINUOUS
 62
     2
 10
150.0
 20
155.0
 30
0.0
 40
2.5
  0
CIRCLE
  8
0
  6
CONTINUOUS
 62
     2
 10
150.0
 20
155.0
 30
0.0
 40
2.083333333
  0
LINE
  8
0
  6
LTYPE1
 62
     2
 10
146.5
 20
155.0
 30
0.0
 11
153.5
 21
155.0
 31
0.0
  0
LINE
  8
0
  6
LTYPE1
 62
     2
 10
150.0
 20
151.5
 30
0.0
 11
150.0
 21
158.5
 31
0.0
  0
LINE
  8
0
  6
CONTINUOUS
 62
     2
 10
202.020725942
 20
156.166666667
 30
0.0
 11
200.0
 21
157.333333333
 31
0.0
  0
LINE
  8
0
  6
CONTINUOUS
 62
     2
 10
200.0
 20
157.333333333
 30
0.0
 11
197.979274058
 21
156.166666667
 31
0.0
  0
LINE
  8
0
  6
CONTINUOUS
 62
     2
 10
197.979274058
 20
156.166666667
 30
0.0
 11
197.979274058
 21
153.833333333
 31
0.0
  0
LINE
  8
0
  6
CONTINUOUS
 62
     2
 10
197.979274058
 20
153.833333333
 30
0.0
 11
200.0
 21
152.666666667
 31
0.0
  0
LINE
  8
0
  6
CONTINUOUS
 62
     2
 10
200.0
 20
152.666666667
 30
0.0
 11
202.020725942
 21
153.833333333
 31
0.0
  0
LINE
  8
0
  6
CONTINUOUS
 62
     2
 10
202.020725942
 20
153.833333333
 30
0.0
 11
202.020725942
 21
156.166666667
 31
0.0
  0
CIRCLE
  8
0
  6
CONTINUOUS
 62
     2
 10
200.0
 20
155.0
 30
0.0
 40
1.25
  0
CIRCLE
  8
0
  6
CONTINUOUS
 62
     2
 10
200.0
 20
155.0
 30
0.0
 40
1.166666667
  0
CIRCLE
  8
0
  6
CONTINUOUS
 62
     2
 10
200.0
 20
155.0
 30
0.0
 40
2.5
  0
CIRCLE
  8
0
  6
CONTINUOUS
 62
     2
 10
200.0
 20
155.0
 30
0.0
 40
2.083333333
  0
LINE
  8
0
  6
LTYPE1
 62
     2
 10
196.5
 20
155.0
 30
0.0
 11
203.5
 21
155.0
 31
0.0
  0
LINE
  8
0
  6
LTYPE1
 62
     2
 10
200.0
 20
151.5
 30
0.0
 11
200.0
 21
158.5
 31
0.0
  0
LINE
  8
0
  6
CONTINUOUS
 62
     2
 10
202.020725942
 20
106.166666667
 30
0.0
 11
200.0
 21
107.333333333
 31
0.0
  0
LINE
  8
0
  6
CONTINUOUS
 62
     2
 10
200.0
 20
107.333333333
 30
0.0
 11
197.979274058
 21
106.166666667
 31
0.0
  0
LINE
  8
0
  6
CONTINUOUS
 62
     2
 10
197.979274058
 20
106.166666667
 30
0.0
 11
197.979274058
 21
103.833333333
 31
0.0
  0
LINE
  8
0
  6
CONTINUOUS
 62
     2
 10
197.979274058
 20
103.833333333
 30
0.0
 11
200.0
 21
102.666666667
 31
0.0
  0
LINE
  8
0
  6
CONTINUOUS
 62
     2
 10
200.0
 20
102.666666667
 30
0.0
 11
202.020725942
 21
103.833333333
 31
0.0
  0
LINE
  8
0
  6
CONTINUOUS
 62
     2
 10
202.020725942
 20
103.833333333
 30
0.0
 11
202.020725942
 21
106.166666667
 31
0.0
  0
CIRCLE
  8
0
  6
CONTINUOUS
 62
     2
 10
200.0
 20
105.0
 30
0.0
 40
1.25
  0
CIRCLE
  8
0
  6
CONTINUOUS
 62
     2
 10
200.0
 20
105.0
 30
0.0
 40
1.166666667
  0
CIRCLE
  8
0
  6
CONTINUOUS
 62
     2
 10
200.0
 20
105.0
 30
0.0
 40
2.5
  0
CIRCLE
  8
0
  6
CONTINUOUS
 62
     2
 10
200.0
 20
105.0
 30
0.0
 40
2.083333333
  0
LINE
  8
0
  6
LTYPE1
 62
     2
 10
196.5
 20
105.0
 30
0.0
 11
203.5
 21
105.0
 31
0.0
  0
LINE
  8
0
  6
LTYPE1
 62
     2
 10
200.0
 20
101.5
 30
0.0
 11
200.0
 21
108.5
 31
0.0
  0
LINE
  8
0
  6
CONTINUOUS
 62
     2
 10
152.020725942
 20
106.166666667
 30
0.0
 11
150.0
 21
107.333333333
 31
0.0
  0
LINE
  8
0
  6
CONTINUOUS
 62
     2
 10
150.0
 20
107.333333333
 30
0.0
 11
147.979274058
 21
106.166666667
 31
0.0
  0
LINE
  8
0
  6
CONTINUOUS
 62
     2
 10
147.979274058
 20
106.166666667
 30
0.0
 11
147.979274058
 21
103.833333333
 31
0.0
  0
LINE
  8
0
  6
CONTINUOUS
 62
     2
 10
147.979274058
 20
103.833333333
 30
0.0
 11
150.0
 21
102.666666667
 31
0.0
  0
LINE
  8
0
  6
CONTINUOUS
 62
     2
 10
150.0
 20
102.666666667
 30
0.0
 11
152.020725942
 21
103.833333333
 31
0.0
  0
LINE
  8
0
  6
CONTINUOUS
 62
     2
 10
152.020725942
 20
103.833333333
 30
0.0
 11
152.020725942
 21
106.166666667
 31
0.0
  0
CIRCLE
  8
0
  6
CONTINUOUS
 62
     2
 10
150.0
 20
105.0
 30
0.0
 40
1.25
  0
CIRCLE
  8
0
  6
CONTINUOUS
 62
     2
 10
150.0
 20
105.0
 30
0.0
 40
1.166666667
  0
CIRCLE
  8
0
  6
CONTINUOUS
 62
     2
 10
150.0
 20
105.0
 30
0.0
 40
2.5
  0
CIRCLE
  8
0
  6
CONTINUOUS
 62
     2
 10
150.0
 20
105.0
 30
0.0
 40
2.083333333
  0
LINE
  8
0
  6
LTYPE1
 62
     2
 10
146.5
 20
105.0
 30
0.0
 11
153.5
 21
105.0
 31
0.0
  0
LINE
  8
0
  6
LTYPE1
 62
     2
 10
150.0
 20
101.5
 30
0.0
 11
150.0
 21
108.5
 31
0.0
  0
LINE
  8
0
  6
CONTINUOUS
 62
     2
 10
201.236875278
 20
33.010216257
 30
0.0
 11
201.6470822
 21
30.544099819
 31
0.0
  0
LINE
  8
0
  6
CONTINUOUS
 62
     2
 10
201.236875278
 20
33.010216257
 30
0.0
 11
202.825183112
 21
31.079600234
 31
0.0
  0
TEXT
  8
0
  6
CONTINUOUS
 62
     2
 10
204.63846745
 20
25.681341869
 30
0.1
 40
3.0
  1
４－φ６穴
 50
0.0
 41
0.9
 51
0.0
  7
KANJI4
  0
LINE
  8
0
  6
CONTINUOUS
 62
     2
 10
201.236875278
 20
33.010216257
 30
0.0
 11
205.0
 21
24.731341869
 31
0.0
  0
LINE
  8
0
  6
CONTINUOUS
 62
     2
 10
205.0
 20
24.731341869
 30
0.0
 11
221.0
 21
24.731341869
 31
0.0
  0
LINE
  8
0
  6
CONTINUOUS
 62
     1
 10
115.05
 20
135.5
 30
0.0
 11
122.05
 21
135.5
 31
0.0
  0
ARC
  8
0
  6
CONTINUOUS
 62
     1
 10
122.05
 20
134.5
 30
0.0
 40
1.0
 50
0.0
 51
90.0
  0
LINE
  8
0
  6
CONTINUOUS
 62
     1
 10
115.05
 20
113.5
 30
0.0
 11
122.05
 21
113.5
 31
0.0
  0
LINE
  8
0
  6
CONTINUOUS
 62
     1
 10
123.05
 20
134.5
 30
0.0
 11
123.05
 21
114.5
 31
0.0
  0
ARC
  8
0
  6
CONTINUOUS
 62
     1
 10
122.05
 20
114.5
 30
0.0
 40
1.0
 50
270.0
 51
0.0
  0
TEXT
  8
0
  6
CONTINUOUS
 62
     2
 10
124.952541324
 20
132.838
 30
0.1
 40
3.0
  1
ターミナルネジ
 50
0.0
 41
0.9
 51
0.0
  7
KANJI4
  0
LINE
  8
0
  6
CONTINUOUS
 62
     2
 10
122.859541324
 20
138.958
 30
0.0
 11
122.79729704
 21
136.45877499
 31
0.0
  0
LINE
  8
0
  6
CONTINUOUS
 62
     2
 10
122.859541324
 20
138.958
 30
0.0
 11
124.055248698
 21
136.76248551
 31
0.0
  0
LINE
  8
0
  6
CONTINUOUS
 62
     2
 10
122.859541324
 20
138.958
 30
0.0
 11
124.578541324
 21
131.838
 31
0.0
  0
LINE
  8
0
  6
CONTINUOUS
 62
     2
 10
124.578541324
 20
131.838
 30
0.0
 11
144.757116736
 21
131.838
 31
0.0
  0
LINE
  8
0
  6
CONTINUOUS
 62
     2
 10
118.515
 20
112.755
 30
0.0
 11
118.916822151
 21
110.287503504
 31
0.0
  0
LINE
  8
0
  6
CONTINUOUS
 62
     2
 10
118.515
 20
112.755
 30
0.0
 11
120.096736439
 21
110.818996426
 31
0.0
  0
LINE
  8
0
  6
CONTINUOUS
 62
     2
 10
118.515
 20
112.755
 30
0.0
 11
123.515
 21
101.655
 31
0.0
  0
TEXT
  8
0
  6
CONTINUOUS
 62
     2
 10
123.515
 20
102.655
 30
0.1
 40
3.0
  1
倍率器箱
 50
0.0
 41
0.9
 51
0.0
  7
KANJI4
  0
LINE
  8
0
  6
CONTINUOUS
 62
     2
 10
123.515
 20
101.655
 30
0.0
 11
135.515
 21
101.655
 31
0.0
  0
LINE
  8
0
  6
CONTINUOUS
 62
     2
 10
77.0
 20
78.0
 30
0.0
 11
77.0
 21
58.0
 31
0.0
  0
LINE
  8
0
  6
CONTINUOUS
 62
     2
 10
77.0
 20
78.0
 30
0.0
 11
75.069
 21
77.06
 31
0.0
  0
LINE
  8
0
  6
CONTINUOUS
 62
     2
 10
75.069
 20
77.06
 30
0.0
 11
74.931
 21
76.275
 31
0.0
  0
LINE
  8
0
  6
CONTINUOUS
 62
     2
 10
74.931
 20
76.275
 30
0.0
 11
74.1
 21
75.399
 31
0.0
  0
LINE
  8
0
  6
CONTINUOUS
 62
     2
 10
74.1
 20
75.399
 30
0.0
 11
73.639
 21
74.753
 31
0.0
  0
LINE
  8
0
  6
CONTINUOUS
 62
     2
 10
73.639
 20
74.753
 30
0.0
 11
73.177
 21
74.753
 31
0.0
  0
LINE
  8
0
  6
CONTINUOUS
 62
     2
 10
73.177
 20
74.753
 30
0.0
 11
72.624
 21
73.83
 31
0.0
  0
LINE
  8
0
  6
CONTINUOUS
 62
     2
 10
72.624
 20
73.83
 30
0.0
 11
72.301
 21
72.4
 31
0.0
  0
LINE
  8
0
  6
CONTINUOUS
 62
     2
 10
72.301
 20
72.4
 30
0.0
 11
72.901
 21
71.985
 31
0.0
  0
LINE
  8
0
  6
CONTINUOUS
 62
     2
 10
72.901
 20
71.985
 30
0.0
 11
72.624
 21
71.431
 31
0.0
  0
LINE
  8
0
  6
CONTINUOUS
 62
     2
 10
72.624
 20
71.431
 30
0.0
 11
72.162
 21
70.647
 31
0.0
  0
LINE
  8
0
  6
CONTINUOUS
 62
     2
 10
72.162
 20
70.647
 30
0.0
 11
72.485
 21
69.263
 31
0.0
  0
LINE
  8
0
  6
CONTINUOUS
 62
     2
 10
72.485
 20
69.263
 30
0.0
 11
72.116
 21
68.709
 31
0.0
  0
LINE
  8
0
  6
CONTINUOUS
 62
     2
 10
72.116
 20
68.709
 30
0.0
 11
72.854
 21
67.325
 31
0.0
  0
LINE
  8
0
  6
CONTINUOUS
 62
     2
 10
72.854
 20
67.325
 30
0.0
 11
72.439
 21
66.771
 31
0.0
  0
LINE
  8
0
  6
CONTINUOUS
 62
     2
 10
72.439
 20
66.771
 30
0.0
 11
72.485
 21
64.88
 31
0.0
  0
LINE
  8
0
  6
CONTINUOUS
 62
     2
 10
72.485
 20
64.88
 30
0.0
 11
72.947
 21
64.142
 31
0.0
  0
LINE
  8
0
  6
CONTINUOUS
 62
     2
 10
72.947
 20
64.142
 30
0.0
 11
72.716
 21
63.45
 31
0.0
  0
LINE
  8
0
  6
CONTINUOUS
 62
     2
 10
72.716
 20
63.45
 30
0.0
 11
73.777
 21
62.065
 31
0.0
  0
LINE
  8
0
  6
CONTINUOUS
 62
     2
 10
73.777
 20
62.065
 30
0.0
 11
73.685
 21
61.281
 31
0.0
  0
LINE
  8
0
  6
CONTINUOUS
 62
     2
 10
73.685
 20
61.281
 30
0.0
 11
74.285
 21
60.82
 31
0.0
  0
LINE
  8
0
  6
CONTINUOUS
 62
     2
 10
74.285
 20
60.82
 30
0.0
 11
74.7
 21
59.205
 31
0.0
  0
LINE
  8
0
  6
CONTINUOUS
 62
     2
 10
74.7
 20
59.205
 30
0.0
 11
75.53
 21
59.343
 31
0.0
  0
LINE
  8
0
  6
CONTINUOUS
 62
     2
 10
75.53
 20
59.343
 30
0.0
 11
75.946
 21
58.559
 31
0.0
  0
LINE
  8
0
  6
CONTINUOUS
 62
     2
 10
75.946
 20
58.559
 30
0.0
 11
77.0
 21
58.0
 31
0.0
  0
LINE
  8
0
  6
CONTINUOUS
 62
     2
 10
77.0
 20
85.0
 30
0.0
 11
79.414814566
 21
84.352952387
 31
0.0
  0
LINE
  8
0
  6
CONTINUOUS
 62
     2
 10
77.0
 20
85.0
 30
0.0
 11
79.414814566
 21
85.647047613
 31
0.0
  0
LINE
  8
0
  6
CONTINUOUS
 62
     2
 10
77.0
 20
79.0
 30
0.0
 11
77.0
 21
87.0
 31
0.0
  0
TEXT
  8
0
  6
CONTINUOUS
 62
     2
 10
51.057
 20
49.0
 30
0.5
 40
3.0
  1
５０Ａを超え１５０Ａ以下の交流電流計のターミナル部
 50
0.0
 41
0.9
 51
0.0
  7
KANJI0
  0
LINE
  8
0
  6
CONTINUOUS
 62
     2
 10
51.057
 20
48.0
 30
0.0
 11
130.605
 21
48.0
 31
0.0
  0
LINE
  8
0
  6
CONTINUOUS
 62
     2
 10
101.235594413
 20
58.424229936
 30
0.0
 11
115.624594413
 21
58.424229936
 31
0.0
  0
LINE
  8
0
  6
CONTINUOUS
 62
     2
 10
99.5
 20
85.0
 30
0.0
 11
97.085185434
 21
85.647047613
 31
0.0
  0
LINE
  8
0
  6
CONTINUOUS
 62
     2
 10
99.5
 20
85.0
 30
0.0
 11
97.085185434
 21
84.352952387
 31
0.0
  0
LINE
  8
0
  6
CONTINUOUS
 62
     2
 10
99.5
 20
85.0
 30
0.0
 11
77.0
 21
85.0
 31
0.0
  0
TEXT
  8
0
  6
CONTINUOUS
 62
     2
 10
85.8558164
 20
86.0
 30
0.5
 40
3.0
  1
４５
 50
0.0
 41
0.666666667
 51
0.0
  7
KANJI2
  0
LINE
  8
0
  6
CONTINUOUS
 62
     2
 10
99.5
 20
70.1
 30
0.0
 11
99.41339746
 21
70.25
 31
0.0
  0
LINE
  8
0
  6
CONTINUOUS
 62
     2
 10
99.5
 20
71.45
 30
0.0
 11
99.5
 21
87.0
 31
0.0
  0
LINE
  8
0
  6
CONTINUOUS
 62
     2
 10
99.5
 20
65.9
 30
0.0
 11
99.41339746
 21
65.75
 31
0.0
  0
LINE
  8
0
  6
CONTINUOUS
 62
     2
 10
99.5
 20
70.1
 30
0.0
 11
99.5
 21
65.9
 31
0.0
  0
LINE
  8
0
  6
CONTINUOUS
 62
     2
 10
97.446
 20
64.988
 30
0.0
 11
98.093047613
 21
62.573185434
 31
0.0
  0
LINE
  8
0
  6
CONTINUOUS
 62
     2
 10
97.446
 20
64.988
 30
0.0
 11
99.213766953
 21
63.220233047
 31
0.0
  0
LINE
  8
0
  6
CONTINUOUS
 62
     2
 10
97.446
 20
64.988
 30
0.0
 11
101.235594413
 21
58.424229936
 31
0.0
  0
TEXT
  8
0
  6
CONTINUOUS
 62
     2
 10
101.235594413
 20
59.424229936
 30
0.1
 40
3.0
  1
Ｍ９ボルト
 50
0.0
 41
0.9
 51
0.0
  7
KANJI4
  0
LINE
  8
0
  6
CONTINUOUS
 62
     2
 10
78.5
 20
63.0
 30
0.0
 11
77.0
 21
62.5
 31
0.0
  0
LINE
  8
0
  6
CONTINUOUS
 62
     2
 10
78.5
 20
73.0
 30
0.0
 11
78.5
 21
63.0
 31
0.0
  0
LINE
  8
0
  6
CONTINUOUS
 62
     2
 10
78.5
 20
73.0
 30
0.0
 11
77.0
 21
73.5
 31
0.0
  0
TEXT
  8
0
  6
CONTINUOUS
 62
     2
 10
20.05
 20
31.0
 30
0.5
 40
3.0
  1
注．倍率器箱は交流電圧計のみにつくものとします。
 50
0.0
 41
0.9
 51
0.0
  7
KANJI0
  0
LINE
  8
0
  6
CONTINUOUS
 62
     2
 10
20.05
 20
30.0
 30
0.0
 11
96.008
 21
30.0
 31
0.0
  0
LINE
  8
0
  6
LTYPE1
 62
     2
 10
39.2
 20
126.0
 30
0.0
 11
22.943
 21
141.98605
 31
0.0
  0
ARC
  8
0
  6
CONTINUOUS
 62
     2
 10
47.0
 20
118.33
 30
0.0
 40
29.0
 50
44.518534194
 51
135.081077711
  0
ARC
  8
0
  6
CONTINUOUS
 62
     2
 10
47.0
 20
118.33
 30
0.0
 40
31.0
 50
44.518534194
 51
135.081077711
  0
ARC
  8
0
  6
CONTINUOUS
 62
     2
 10
47.0
 20
118.33
 30
0.0
 40
31.5
 50
44.518534194
 51
135.081077711
  0
ARC
  8
0
  6
CONTINUOUS
 62
     2
 10
47.0
 20
118.33
 30
0.0
 40
32.0
 50
44.518534194
 51
135.081077711
  0
LINE
  8
0
  6
CONTINUOUS
 62
     2
 10
54.8
 20
126.0
 30
0.0
 11
71.057
 21
141.98605
 31
0.0
  0
LINE
  8
0
  6
LTYPE1
 62
     2
 10
44.0
 20
110.0
 30
0.0
 11
50.0
 21
110.0
 31
0.0
  0
CIRCLE
  8
0
  6
CONTINUOUS
 62
     2
 10
47.0
 20
110.0
 30
0.0
 40
1.8
  0
LINE
  8
0
  6
CONTINUOUS
 62
     2
 10
45.2
 20
109.8
 30
0.0
 11
48.7
 21
109.8
 31
0.0
  0
LINE
  8
0
  6
CONTINUOUS
 62
     2
 10
48.7
 20
110.2
 30
0.0
 11
45.25
 21
110.2
 31
0.0
  0
TEXT
  8
0
  6
CONTINUOUS
 62
     2
 10
96.01
 20
179.0
 30
0.3
 40
3.0
  1
可動鉄片形５２．５
 50
0.0
 41
0.6
 51
0.0
  7
KANJI3
  0
TEXT
  8
0
  6
CONTINUOUS
 62
     2
 10
96.01
 20
182.507
 30
0.3
 40
3.0
  1
可動コイル形４２．５
 50
0.0
 41
0.6
 51
0.0
  7
KANJI3
  0
TEXT
  8
0
  6
CONTINUOUS
 62
     2
 10
85.011
 20
179.05
 30
0.3
 40
3.0
  1
２０．５
 50
0.0
 41
0.6
 51
0.0
  7
KANJI3
  0
LINE
  8
0
  6
LTYPE1
 62
     2
 10
206.998426214
 20
130.0
 30
0.0
 11
10.5
 21
130.0
 31
0.0
  0
CIRCLE
  8
0
  6
CONTINUOUS
 62
     2
 10
20.9625
 20
120.5
 30
0.0
 40
1.5
  0
LINE
  8
0
  6
CONTINUOUS
 62
     2
 10
20.0875
 20
120.7
 30
0.0
 11
20.5625
 21
120.7
 31
0.0
  0
ARC
  8
0
  6
CONTINUOUS
 62
     2
 10
20.5625
 20
120.9
 30
0.0
 40
0.2
 50
270.0
 51
0.0
  0
LINE
  8
0
  6
CONTINUOUS
 62
     2
 10
20.7625
 20
120.9
 30
0.0
 11
20.7625
 21
121.375
 31
0.0
  0
LINE
  8
0
  6
CONTINUOUS
 62
     2
 10
20.7625
 20
121.375
 30
0.0
 11
21.1625
 21
121.375
 31
0.0
  0
LINE
  8
0
  6
CONTINUOUS
 62
     2
 10
21.1625
 20
121.375
 30
0.0
 11
21.1625
 21
120.9
 31
0.0
  0
ARC
  8
0
  6
CONTINUOUS
 62
     2
 10
21.3625
 20
120.9
 30
0.0
 40
0.2
 50
180.0
 51
270.0
  0
LINE
  8
0
  6
CONTINUOUS
 62
     2
 10
21.3625
 20
120.7
 30
0.0
 11
21.8375
 21
120.7
 31
0.0
  0
LINE
  8
0
  6
CONTINUOUS
 62
     2
 10
21.8375
 20
120.7
 30
0.0
 11
21.8375
 21
120.3
 31
0.0
  0
LINE
  8
0
  6
CONTINUOUS
 62
     2
 10
21.8375
 20
120.3
 30
0.0
 11
21.3625
 21
120.3
 31
0.0
  0
ARC
  8
0
  6
CONTINUOUS
 62
     2
 10
21.3625
 20
120.1
 30
0.0
 40
0.2
 50
90.0
 51
180.0
  0
LINE
  8
0
  6
CONTINUOUS
 62
     2
 10
21.1625
 20
120.1
 30
0.0
 11
21.1625
 21
119.625
 31
0.0
  0
LINE
  8
0
  6
CONTINUOUS
 62
     2
 10
21.1625
 20
119.625
 30
0.0
 11
20.7625
 21
119.625
 31
0.0
  0
LINE
  8
0
  6
CONTINUOUS
 62
     2
 10
20.7625
 20
119.625
 30
0.0
 11
20.7625
 21
120.1
 31
0.0
  0
ARC
  8
0
  6
CONTINUOUS
 62
     2
 10
20.5625
 20
120.1
 30
0.0
 40
0.2
 50
0.0
 51
90.0
  0
LINE
  8
0
  6
CONTINUOUS
 62
     2
 10
20.5625
 20
120.3
 30
0.0
 11
20.0875
 21
120.3
 31
0.0
  0
LINE
  8
0
  6
CONTINUOUS
 62
     2
 10
20.0875
 20
120.3
 30
0.0
 11
20.0875
 21
120.7
 31
0.0
  0
LINE
  8
0
  6
LTYPE1
 62
     2
 10
18.9625
 20
120.5
 30
0.0
 11
22.9625
 21
120.5
 31
0.0
  0
LINE
  8
0
  6
LTYPE1
 62
     2
 10
20.9625
 20
122.5
 30
0.0
 11
20.9625
 21
118.5
 31
0.0
  0
CIRCLE
  8
0
  6
CONTINUOUS
 62
     2
 10
72.9625
 20
120.5
 30
0.0
 40
1.5
  0
LINE
  8
0
  6
CONTINUOUS
 62
     2
 10
72.0875
 20
120.7
 30
0.0
 11
72.5625
 21
120.7
 31
0.0
  0
ARC
  8
0
  6
CONTINUOUS
 62
     2
 10
72.5625
 20
120.9
 30
0.0
 40
0.2
 50
270.0
 51
0.0
  0
LINE
  8
0
  6
CONTINUOUS
 62
     2
 10
72.7625
 20
120.9
 30
0.0
 11
72.7625
 21
121.375
 31
0.0
  0
LINE
  8
0
  6
CONTINUOUS
 62
     2
 10
72.7625
 20
121.375
 30
0.0
 11
73.1625
 21
121.375
 31
0.0
  0
LINE
  8
0
  6
CONTINUOUS
 62
     2
 10
73.1625
 20
121.375
 30
0.0
 11
73.1625
 21
120.9
 31
0.0
  0
ARC
  8
0
  6
CONTINUOUS
 62
     2
 10
73.3625
 20
120.9
 30
0.0
 40
0.2
 50
180.0
 51
270.0
  0
LINE
  8
0
  6
CONTINUOUS
 62
     2
 10
73.3625
 20
120.7
 30
0.0
 11
73.8375
 21
120.7
 31
0.0
  0
LINE
  8
0
  6
CONTINUOUS
 62
     2
 10
73.8375
 20
120.7
 30
0.0
 11
73.8375
 21
120.3
 31
0.0
  0
LINE
  8
0
  6
CONTINUOUS
 62
     2
 10
73.8375
 20
120.3
 30
0.0
 11
73.3625
 21
120.3
 31
0.0
  0
ARC
  8
0
  6
CONTINUOUS
 62
     2
 10
73.3625
 20
120.1
 30
0.0
 40
0.2
 50
90.0
 51
180.0
  0
LINE
  8
0
  6
CONTINUOUS
 62
     2
 10
73.1625
 20
120.1
 30
0.0
 11
73.1625
 21
119.625
 31
0.0
  0
LINE
  8
0
  6
CONTINUOUS
 62
     2
 10
73.1625
 20
119.625
 30
0.0
 11
72.7625
 21
119.625
 31
0.0
  0
LINE
  8
0
  6
CONTINUOUS
 62
     2
 10
72.7625
 20
119.625
 30
0.0
 11
72.7625
 21
120.1
 31
0.0
  0
ARC
  8
0
  6
CONTINUOUS
 62
     2
 10
72.5625
 20
120.1
 30
0.0
 40
0.2
 50
0.0
 51
90.0
  0
LINE
  8
0
  6
CONTINUOUS
 62
     2
 10
72.5625
 20
120.3
 30
0.0
 11
72.0875
 21
120.3
 31
0.0
  0
LINE
  8
0
  6
CONTINUOUS
 62
     2
 10
72.0875
 20
120.3
 30
0.0
 11
72.0875
 21
120.7
 31
0.0
  0
LINE
  8
0
  6
LTYPE1
 62
     2
 10
70.9625
 20
120.5
 30
0.0
 11
74.9625
 21
120.5
 31
0.0
  0
LINE
  8
0
  6
LTYPE1
 62
     2
 10
72.9625
 20
122.5
 30
0.0
 11
72.9625
 21
118.5
 31
0.0
  0
LINE
  8
0
 62
    99
 10
162.5
 20
172.0
 30
0.0
 11
162.5
 21
172.0
 31
0.0
  0
TEXT
  8
0
  6
CONTINUOUS
 62
     2
 10
162.626
 20
173.0
 30
0.3
 40
1.8
  1
±０．５
 50
0.0
 41
0.666666667
 51
0.0
  7
KANJI1
  0
TEXT
  8
0
  6
CONTINUOUS
 62
     2
 10
158.126
 20
173.0
 30
0.5
 40
3.0
  1
５０
 50
0.0
 41
0.666666667
 51
0.0
  7
KANJI2
  0
TEXT
  8
0
  6
CONTINUOUS
 62
     2
 10
187.626
 20
173.0
 30
0.3
 40
1.8
  1
±０．５
 50
0.0
 41
0.666666667
 51
0.0
  7
KANJI1
  0
TEXT
  8
0
  6
CONTINUOUS
 62
     2
 10
183.126
 20
173.0
 30
0.5
 40
3.0
  1
５０
 50
0.0
 41
0.666666667
 51
0.0
  7
KANJI2
  0
TEXT
  8
0
  6
CONTINUOUS
 62
     2
 10
187.626
 20
93.0
 30
0.3
 40
1.8
  1
±０．５
 50
0.0
 41
0.666666667
 51
0.0
  7
KANJI1
  0
TEXT
  8
0
  6
CONTINUOUS
 62
     2
 10
183.126
 20
93.0
 30
0.5
 40
3.0
  1
５０
 50
0.0
 41
0.666666667
 51
0.0
  7
KANJI2
  0
TEXT
  8
0
  6
CONTINUOUS
 62
     2
 10
162.626
 20
93.0
 30
0.3
 40
1.8
  1
±０．５
 50
0.0
 41
0.666666667
 51
0.0
  7
KANJI1
  0
TEXT
  8
0
  6
CONTINUOUS
 62
     2
 10
158.126
 20
93.0
 30
0.5
 40
3.0
  1
５０
 50
0.0
 41
0.666666667
 51
0.0
  7
KANJI2
  0
TEXT
  8
0
  6
CONTINUOUS
 62
     2
 10
216.0
 20
141.972
 30
0.18
 40
1.8
  1
±０．５
 50
90.0
 41
0.6
 51
0.0
  7
KANJI5
  0
TEXT
  8
0
  6
CONTINUOUS
 62
     2
 10
216.0
 20
138.072
 30
0.3
 40
3.0
  1
５０
 50
90.0
 41
0.6
 51
0.0
  7
KANJI3
  0
TEXT
  8
0
  6
CONTINUOUS
 62
     2
 10
216.0
 20
116.972
 30
0.18
 40
1.8
  1
±０．５
 50
90.0
 41
0.6
 51
0.0
  7
KANJI5
  0
TEXT
  8
0
  6
CONTINUOUS
 62
     2
 10
216.0
 20
113.072
 30
0.3
 40
3.0
  1
５０
 50
90.0
 41
0.6
 51
0.0
  7
KANJI3
  0
TEXT
  8
0
  6
CONTINUOUS
 62
     2
 10
216.0
 20
70.972
 30
0.18
 40
1.8
  1
±０．５
 50
90.0
 41
0.6
 51
0.0
  7
KANJI5
  0
TEXT
  8
0
  6
CONTINUOUS
 62
     2
 10
216.0
 20
67.072
 30
0.3
 40
3.0
  1
５０
 50
90.0
 41
0.6
 51
0.0
  7
KANJI3
  0
TEXT
  8
0
  6
CONTINUOUS
 62
     2
 10
216.0
 20
45.972
 30
0.18
 40
1.8
  1
±０．５
 50
90.0
 41
0.6
 51
0.0
  7
KANJI5
  0
TEXT
  8
0
  6
CONTINUOUS
 62
     2
 10
216.0
 20
42.072
 30
0.3
 40
3.0
  1
５０
 50
90.0
 41
0.6
 51
0.0
  7
KANJI3
  0
ARC
  8
0
  6
CONTINUOUS
 62
     1
 10
22.0
 20
155.0
 30
0.0
 40
5.0
 50
90.0
 51
180.0
  0
LINE
  8
0
  6
CONTINUOUS
 62
     1
 10
72.0
 20
160.0
 30
0.0
 11
22.0
 21
160.0
 31
0.0
  0
ARC
  8
0
  6
CONTINUOUS
 62
     1
 10
72.0
 20
155.0
 30
0.0
 40
5.0
 50
0.0
 51
90.0
  0
LINE
  8
0
  6
CONTINUOUS
 62
     1
 10
77.0
 20
105.0
 30
0.0
 11
77.0
 21
155.0
 31
0.0
  0
ARC
  8
0
  6
CONTINUOUS
 62
     1
 10
72.0
 20
105.0
 30
0.0
 40
5.0
 50
270.0
 51
0.0
  0
LINE
  8
0
  6
CONTINUOUS
 62
     1
 10
17.0
 20
155.0
 30
0.0
 11
17.0
 21
105.0
 31
0.0
  0
LINE
  8
0
  6
CONTINUOUS
 62
     1
 10
22.0
 20
100.0
 30
0.0
 11
72.0
 21
100.0
 31
0.0
  0
ARC
  8
0
  6
CONTINUOUS
 62
     1
 10
22.0
 20
105.0
 30
0.0
 40
5.0
 50
180.0
 51
270.0
  0
ARC
  8
0
  6
CONTINUOUS
 62
     2
 10
22.0
 20
155.0
 30
0.0
 40
4.0
 50
90.0
 51
180.0
  0
ARC
  8
0
  6
CONTINUOUS
 62
     2
 10
72.0
 20
155.0
 30
0.0
 40
4.0
 50
0.0
 51
90.0
  0
ARC
  8
0
  6
CONTINUOUS
 62
     2
 10
72.0
 20
155.0
 30
0.0
 40
3.25
 50
0.0
 51
90.0
  0
ARC
  8
0
  6
CONTINUOUS
 62
     2
 10
22.0
 20
155.0
 30
0.0
 40
3.25
 50
90.0
 51
180.0
  0
LINE
  8
0
  6
CONTINUOUS
 62
     2
 10
18.0
 20
155.0
 30
0.0
 11
18.0
 21
127.25
 31
0.0
  0
LINE
  8
0
  6
CONTINUOUS
 62
     2
 10
18.75
 20
155.0
 30
0.0
 11
18.75
 21
127.25
 31
0.0
  0
LINE
  8
0
  6
CONTINUOUS
 62
     2
 10
76.0
 20
127.25
 30
0.0
 11
76.0
 21
155.0
 31
0.0
  0
LINE
  8
0
  6
CONTINUOUS
 62
     2
 10
75.25
 20
127.25
 30
0.0
 11
75.25
 21
155.0
 31
0.0
  0
LINE
  8
0
  6
CONTINUOUS
 62
     2
 10
72.0
 20
158.25
 30
0.0
 11
22.0
 21
158.25
 31
0.0
  0
LINE
  8
0
  6
CONTINUOUS
 62
     2
 10
72.0
 20
159.0
 30
0.0
 11
22.0
 21
159.0
 31
0.0
  0
LINE
  8
0
  6
LTYPE4
 62
     2
 10
70.64
 20
68.0
 30
0.0
 11
102.75
 21
68.0
 31
0.0
  0
ARC
  8
0
  6
CONTINUOUS
 62
     2
 10
92.8333375
 20
71.08332625
 30
0.0
 40
1.6666625
 50
325.0
 51
35.0
  0
LINE
  8
0
  6
CONTINUOUS
 62
     2
 10
99.5
 20
70.1
 30
0.0
 11
94.5
 21
70.1
 31
0.0
  0
LINE
  8
0
  6
CONTINUOUS
 62
     2
 10
94.5
 20
70.25
 30
0.0
 11
99.41339746
 21
70.25
 31
0.0
  0
ARC
  8
0
  6
CONTINUOUS
 62
     2
 10
92.1666625
 20
71.08332625
 30
0.0
 40
1.6666625
 50
145.0
 51
215.0
  0
LINE
  8
0
  6
CONTINUOUS
 62
     2
 10
94.225465585
 20
70.143430898
 30
0.0
 11
90.774534415
 21
70.143430898
 31
0.0
  0
ARC
  8
0
  6
CONTINUOUS
 62
     2
 10
92.8333375
 20
64.91667375
 30
0.0
 40
1.6666625
 50
325.0
 51
35.0
  0
LINE
  8
0
  6
CONTINUOUS
 62
     2
 10
99.5
 20
65.9
 30
0.0
 11
94.5
 21
65.9
 31
0.0
  0
LINE
  8
0
  6
CONTINUOUS
 62
     2
 10
94.5
 20
65.75
 30
0.0
 11
99.269059892
 21
65.75
 31
0.0
  0
LINE
  8
0
  6
CONTINUOUS
 62
     2
 10
99.41339746
 20
65.75
 30
0.0
 11
94.5
 21
65.75
 31
0.0
  0
ARC
  8
0
  6
CONTINUOUS
 62
     2
 10
92.1666625
 20
64.91667375
 30
0.0
 40
1.6666625
 50
145.0
 51
215.0
  0
LINE
  8
0
  6
CONTINUOUS
 62
     2
 10
90.76796405
 20
65.878893285
 30
0.0
 11
94.2012988
 21
65.878893285
 31
0.0
  0
LINE
  8
0
  6
CONTINUOUS
 62
     2
 10
90.79999925
 20
63.9500095
 30
0.0
 11
94.20000075
 21
63.9500095
 31
0.0
  0
LINE
  8
0
  6
CONTINUOUS
 62
     2
 10
94.5
 20
64.91667375
 30
0.0
 11
94.5
 21
71.08332625
 31
0.0
  0
ARC
  8
0
  6
CONTINUOUS
 62
     2
 10
98.158182131
 20
68.0
 30
0.0
 40
7.658182131
 50
163.871639144
 51
196.128360856
  0
ARC
  8
0
  6
CONTINUOUS
 62
     2
 10
86.841817869
 20
68.0
 30
0.0
 40
7.658182131
 50
343.871639144
 51
16.128360856
  0
LINE
  8
0
  6
CONTINUOUS
 62
     2
 10
94.207869165
 20
72.0499905
 30
0.0
 11
90.801412506
 21
72.0499905
 31
0.0
  0
LINE
  8
0
  6
CONTINUOUS
 62
     2
 10
90.5
 20
71.083327204
 30
0.0
 11
90.5
 21
64.91667375
 31
0.0
  0
LINE
  8
0
  6
CONTINUOUS
 62
     2
 10
88.50029518
 20
68.0666665
 30
0.0
 11
89.56695918
 21
68.0666665
 31
0.0
  0
LINE
  8
0
  6
CONTINUOUS
 62
     2
 10
90.50029018
 20
67.9333335
 30
0.0
 11
89.43362618
 21
67.9333335
 31
0.0
  0
POLYLINE
  8
0
  6
CONTINUOUS
 62
     2
 66
     1
  0
VERTEX
  8
0
  6
CONTINUOUS
 62
     2
 10
89.56695918
 20
68.0666665
 30
0.0
  0
VERTEX
  8
0
  6
CONTINUOUS
 62
     2
 10
90.03362468
 20
72.24999
 30
0.0
  0
VERTEX
  8
0
  6
CONTINUOUS
 62
     2
 10
88.96696068
 20
72.24999
 30
0.0
  0
VERTEX
  8
0
  6
CONTINUOUS
 62
     2
 10
88.50029518
 20
68.0666665
 30
0.0
  0
SEQEND
  0
LINE
  8
0
  6
CONTINUOUS
 62
     2
 10
90.5
 20
70.1
 30
0.0
 11
89.778541121
 21
70.1
 31
0.0
  0
LINE
  8
0
  6
CONTINUOUS
 62
     2
 10
89.796337731
 20
70.25
 30
0.0
 11
90.5
 21
70.25
 31
0.0
  0
LINE
  8
0
  6
CONTINUOUS
 62
     2
 10
88.50029518
 20
70.25
 30
0.0
 11
88.729673731
 21
70.25
 31
0.0
  0
LINE
  8
0
  6
CONTINUOUS
 62
     2
 10
88.711877121
 20
70.1
 30
0.0
 11
88.50029518
 21
70.1
 31
0.0
  0
LINE
  8
0
  6
CONTINUOUS
 62
     2
 10
88.96696068
 20
63.75001
 30
0.0
 11
90.03362468
 21
63.75001
 31
0.0
  0
LINE
  8
0
  6
CONTINUOUS
 62
     2
 10
89.43362618
 20
67.9333335
 30
0.0
 11
88.96696068
 21
63.75001
 31
0.0
  0
LINE
  8
0
  6
CONTINUOUS
 62
     2
 10
90.03362468
 20
63.75001
 30
0.0
 11
90.50029018
 21
67.9333335
 31
0.0
  0
LINE
  8
0
  6
CONTINUOUS
 62
     2
 10
90.5
 20
65.9
 30
0.0
 11
90.28870824
 21
65.9
 31
0.0
  0
LINE
  8
0
  6
CONTINUOUS
 62
     2
 10
89.22204424
 20
65.9
 30
0.0
 11
88.50029518
 21
65.9
 31
0.0
  0
LINE
  8
0
  6
CONTINUOUS
 62
     2
 10
89.204247629
 20
65.75
 30
0.0
 11
88.50029518
 21
65.75
 31
0.0
  0
LINE
  8
0
  6
CONTINUOUS
 62
     2
 10
90.5
 20
65.75
 30
0.0
 11
90.270911629
 21
65.75
 31
0.0
  0
LINE
  8
0
  6
CONTINUOUS
 62
     2
 10
90.270911629
 20
65.75
 30
0.0
 11
90.5
 21
65.75
 31
0.0
  0
LINE
  8
0
  6
CONTINUOUS
 62
     2
 10
88.50029518
 20
72.3166565
 30
0.0
 11
88.50029518
 21
63.680010175
 31
0.0
  0
LINE
  8
0
  6
CONTINUOUS
 62
     2
 10
87.44029783
 20
63.680010175
 30
0.0
 11
87.44029783
 21
72.3166565
 31
0.0
  0
LINE
  8
0
  6
CONTINUOUS
 62
     2
 10
88.50029518
 20
65.75
 30
0.0
 11
89.204247629
 21
65.75
 31
0.0
  0
LINE
  8
0
  6
CONTINUOUS
 62
     2
 10
86.37363383
 20
72.3166565
 30
0.0
 11
88.50029518
 21
72.3166565
 31
0.0
  0
POLYLINE
  8
0
  6
CONTINUOUS
 62
     2
 66
     1
  0
VERTEX
  8
0
  6
CONTINUOUS
 62
     2
 10
88.50029518
 20
63.680010175
 30
0.0
  0
VERTEX
  8
0
  6
CONTINUOUS
 62
     2
 10
86.37363383
 20
63.680010175
 30
0.0
  0
VERTEX
  8
0
  6
CONTINUOUS
 62
     2
 10
86.37363383
 20
72.3166565
 30
0.0
  0
SEQEND
  0
ARC
  8
0
  6
CONTINUOUS
 62
     2
 10
84.70697133
 20
71.08332625
 30
0.0
 40
1.6666625
 50
325.0
 51
35.0
  0
ARC
  8
0
  6
CONTINUOUS
 62
     2
 10
84.04029633
 20
71.08332625
 30
0.0
 40
1.6666625
 50
145.0
 51
215.0
  0
LINE
  8
0
  6
CONTINUOUS
 62
     2
 10
86.099099416
 20
70.143430898
 30
0.0
 11
82.648168245
 21
70.143430898
 31
0.0
  0
ARC
  8
0
  6
CONTINUOUS
 62
     2
 10
84.70697133
 20
64.91667375
 30
0.0
 40
1.6666625
 50
325.0
 51
35.0
  0
ARC
  8
0
  6
CONTINUOUS
 62
     2
 10
84.04029633
 20
64.91667375
 30
0.0
 40
1.6666625
 50
145.0
 51
215.0
  0
LINE
  8
0
  6
CONTINUOUS
 62
     2
 10
82.641597881
 20
65.878893285
 30
0.0
 11
86.074932631
 21
65.878893285
 31
0.0
  0
LINE
  8
0
  6
CONTINUOUS
 62
     2
 10
82.67363308
 20
63.9500095
 30
0.0
 11
86.07363458
 21
63.9500095
 31
0.0
  0
LINE
  8
0
  6
CONTINUOUS
 62
     2
 10
86.37363383
 20
64.91667375
 30
0.0
 11
86.37363383
 21
71.08332625
 31
0.0
  0
ARC
  8
0
  6
CONTINUOUS
 62
     2
 10
90.031815961
 20
68.0
 30
0.0
 40
7.658182131
 50
163.871639144
 51
196.128360856
  0
ARC
  8
0
  6
CONTINUOUS
 62
     2
 10
78.7154517
 20
68.0
 30
0.0
 40
7.658182131
 50
343.871639144
 51
16.128360856
  0
LINE
  8
0
  6
CONTINUOUS
 62
     2
 10
86.081502995
 20
72.0499905
 30
0.0
 11
82.675046336
 21
72.0499905
 31
0.0
  0
LINE
  8
0
  6
CONTINUOUS
 62
     2
 10
82.37363383
 20
71.083327204
 30
0.0
 11
82.37363383
 21
64.91667375
 31
0.0
  0
LINE
  8
0
  6
CONTINUOUS
 62
     2
 10
82.37363383
 20
70.1
 30
0.0
 11
78.5
 21
70.1
 31
0.0
  0
LINE
  8
0
  6
CONTINUOUS
 62
     2
 10
78.5
 20
70.25
 30
0.0
 11
82.37363383
 21
70.25
 31
0.0
  0
LINE
  8
0
  6
CONTINUOUS
 62
     2
 10
82.37363383
 20
65.75
 30
0.0
 11
78.5
 21
65.75
 31
0.0
  0
LINE
  8
0
  6
CONTINUOUS
 62
     2
 10
78.5
 20
65.75
 30
0.0
 11
82.37363383
 21
65.75
 31
0.0
  0
LINE
  8
0
  6
CONTINUOUS
 62
     2
 10
82.37363383
 20
65.9
 30
0.0
 11
78.5
 21
65.9
 31
0.0
  0
ARC
  8
0
  6
CONTINUOUS
 62
     2
 10
123.575
 20
141.425
 30
0.0
 40
1.475
 50
270.0
 51
0.0
  0
ARC
  8
0
  6
CONTINUOUS
 62
     2
 10
123.575
 20
143.575
 30
0.0
 40
1.475
 50
0.0
 51
90.0
  0
LINE
  8
0
  6
CONTINUOUS
 62
     2
 10
125.05
 20
143.575
 30
0.0
 11
125.05
 21
141.425
 31
0.0
  0
LINE
  8
0
  6
CONTINUOUS
 62
     2
 10
123.575
 20
139.95
 30
0.0
 11
123.075
 21
139.95
 31
0.0
  0
LINE
  8
0
  6
CONTINUOUS
 62
     2
 10
123.075
 20
139.95
 30
0.0
 11
123.075
 21
145.05
 31
0.0
  0
LINE
  8
0
  6
CONTINUOUS
 62
     2
 10
123.075
 20
145.05
 30
0.0
 11
123.575000132
 21
145.05
 31
0.0
  0
LINE
  8
0
  6
CONTINUOUS
 62
     2
 10
122.375
 20
145.25
 30
0.0
 11
123.05
 21
145.25
 31
0.0
  0
LINE
  8
0
  6
CONTINUOUS
 62
     2
 10
123.05
 20
145.25
 30
0.0
 11
123.05
 21
139.7475
 31
0.0
  0
LINE
  8
0
  6
CONTINUOUS
 62
     2
 10
123.05
 20
139.7475
 30
0.0
 11
122.375
 21
139.7475
 31
0.0
  0
LINE
  8
0
  6
CONTINUOUS
 62
     2
 10
122.375
 20
139.7475
 30
0.0
 11
122.375
 21
145.25
 31
0.0
  0
LINE
  8
0
  6
CONTINUOUS
 62
     2
 10
122.375
 20
142.56
 30
0.0
 11
123.05
 21
142.56
 31
0.0
  0
LINE
  8
0
  6
CONTINUOUS
 62
     2
 10
123.05
 20
142.46
 30
0.0
 11
122.375
 21
142.46
 31
0.0
  0
LINE
  8
0
  6
CONTINUOUS
 62
     2
 10
121.9
 20
139.325
 30
0.0
 11
122.375
 21
139.325
 31
0.0
  0
LINE
  8
0
  6
CONTINUOUS
 62
     2
 10
122.375
 20
139.325
 30
0.0
 11
122.375
 21
145.675
 31
0.0
  0
LINE
  8
0
  6
CONTINUOUS
 62
     2
 10
122.375
 20
145.675
 30
0.0
 11
121.9
 21
145.675
 31
0.0
  0
LINE
  8
0
  6
CONTINUOUS
 62
     2
 10
121.9
 20
145.675
 30
0.0
 11
121.9
 21
139.325
 31
0.0
  0
LINE
  8
0
  6
CONTINUOUS
 62
     2
 10
124.9
 20
143.25
 30
0.0
 11
124.7
 21
143.25
 31
0.0
  0
POINT
  8
0
  6
CONTINUOUS
 62
     2
 10
124.7
 20
143.25
 30
0.0
  0
LINE
  8
0
  6
CONTINUOUS
 62
     2
 10
124.7
 20
143.25
 30
0.0
 11
124.7
 21
142.05
 31
0.0
  0
POINT
  8
0
  6
CONTINUOUS
 62
     2
 10
124.7
 20
142.05
 30
0.0
  0
LINE
  8
0
  6
CONTINUOUS
 62
     2
 10
124.7
 20
142.15
 30
0.0
 11
124.7
 21
141.95
 31
0.0
  0
LINE
  8
0
  6
CONTINUOUS
 62
     2
 10
124.7
 20
141.95
 30
0.0
 11
124.8
 21
141.95
 31
0.0
  0
LINE
  8
0
  6
CONTINUOUS
 62
     2
 10
124.8
 20
141.95
 30
0.0
 11
125.0
 21
141.95
 31
0.0
  0
LINE
  8
0
  6
CONTINUOUS
 62
     2
 10
116.55
 20
144.5
 30
0.0
 11
121.9
 21
144.5
 31
0.0
  0
LINE
  8
0
  6
CONTINUOUS
 62
     2
 10
121.9
 20
140.5
 30
0.0
 11
116.55
 21
140.5
 31
0.0
  0
LINE
  8
0
  6
CONTINUOUS
 62
     2
 10
125.05
 20
145.675
 30
0.0
 11
125.05
 21
180.0
 31
0.0
  0
TEXT
  8
0
  6
CONTINUOUS
 62
     2
 10
124.952541324
 20
136.588
 30
0.1
 40
3.0
  1
２－Ｍ６
 50
0.0
 41
0.9
 51
0.0
  7
KANJI4
  0
TEXT
  8
0
  6
CONTINUOUS
 62
     2
 10
104.571
 20
92.646
 30
0.1
 40
3.0
  1
４－Ｍ５取付ボルト
 50
0.0
 41
0.9
 51
0.0
  7
KANJI4
  0
TEXT
  8
0
  6
CONTINUOUS
 62
     2
 10
177.88901527
 20
65.797575143
 30
0.3
 40
3.0
  1
φ１１１
 50
57.925999125
 41
0.6
 51
0.0
  7
KANJI3
  0
TEXT
  8
0
  6
CONTINUOUS
 62
     2
 10
109.5
 20
123.414555841
 30
0.3
 40
3.0
  1
φ１０８
 50
90.0
 41
0.666666667
 51
0.0
  7
KANJI6
  0
LINE
  8
0
  6
CONTINUOUS
 62
     2
 10
104.571
 20
91.646
 30
0.0
 11
128.97
 21
91.646
 31
0.0
  0
TEXT
  8
0
  6
CONTINUOUS
 62
     3
 10
235.581
 20
44.897
 30
0.2
 40
5.8
  1
ＭＳ－２０２０Ａ
 50
0.0
 41
0.827586207
 51
0.0
  7
KANJI7
  0
TEXT
  8
0
  6
CONTINUOUS
 62
     1
 10
235.0
 20
55.5
 30
0.4
 40
4.0
  1
角形半埋込形計器　外形図
 50
0.0
 41
0.9
 51
0.0
  7
KANJI8
  0
TEXT
  8
0
  6
CONTINUOUS
 62
     1
 10
236.0
 20
65.0
 30
0.4
 40
4.0
  1
Ｇｆ－１１０
 50
0.0
 41
0.9
 51
0.0
  7
KANJI8
  0
ENDSEC
  0
EOF
