  0
SECTION
  2
HEADER
  9
$ACADVER
  1
AC1009
  9
$DWGCODEPAGE
  3
dos932
  9
$EXTMIN
 10
0.0
 20
0.0
 30
0.0
  9
$EXTMAX
 10
297.0
 20
210.0
 30
0.0
  9
$LIMMIN
 10
0.0
 20
0.0
  9
$LIMMAX
 10
297.0
 20
210.0
  9
$LTSCALE
 40
1.0
  9
$PDMODE
 70
     0
  0
ENDSEC
  0
SECTION
  2
TABLES
  0
TABLE
  2
VPORT
 70
     1
  0
VPORT
  2
*ACTIVE
 70
     0
 10
0.0
 20
0.0
 11
1.0
 21
1.0
 12
148.5
 22
105.0
 13
0.0
 23
0.0
 14
10.0
 24
10.0
 15
10.0
 25
10.0
 16
0.0
 26
0.0
 36
1.0
 17
0.0
 27
0.0
 37
0.0
 40
297.0
 41
1.414285714
 42
50.0
 43
0.0
 44
0.0
 50
0.0
 51
0.0
 71
     0
 72
  1000
 73
     1
 74
     3
 75
     0
 76
     0
 77
     0
 78
     0
  0
ENDTAB
  0
TABLE
  2
LTYPE
 70
     4
  0
LTYPE
  2
CONTINUOUS
 70
    64
  3
Solid line
 72
    65
 73
     0
 40
0.0
  0
LTYPE
  2
LTYPE1
 70
    64
  3
CENTER
 72
    65
 73
     4
 40
5.0
 49
3.5
 49
-0.5
 49
0.5
 49
-0.5
  0
LTYPE
  2
LTYPE2
 70
    64
  3
CENTER
 72
    65
 73
     4
 40
15.0
 49
10.5
 49
-1.5
 49
1.5
 49
-1.5
  0
LTYPE
  2
LTYPE3
 70
    64
  3
CENTER
 72
    65
 73
     4
 40
8.0
 49
5.6
 49
-0.8
 49
0.8
 49
-0.8
  0
ENDTAB
  0
TABLE
  2
LAYER
 70
   128
  0
LAYER
  2
0
 70
     0
 62
     7
  6
CONTINUOUS
  0
LAYER
  2
2
 70
     0
 62
     7
  6
CONTINUOUS
  0
LAYER
  2
3
 70
     0
 62
     7
  6
CONTINUOUS
  0
LAYER
  2
4
 70
     0
 62
     7
  6
CONTINUOUS
  0
LAYER
  2
5
 70
     0
 62
     7
  6
CONTINUOUS
  0
LAYER
  2
6
 70
     0
 62
     7
  6
CONTINUOUS
  0
LAYER
  2
7
 70
     0
 62
     7
  6
CONTINUOUS
  0
LAYER
  2
8
 70
     0
 62
     7
  6
CONTINUOUS
  0
LAYER
  2
9
 70
     0
 62
     7
  6
CONTINUOUS
  0
LAYER
  2
10
 70
     0
 62
     7
  6
CONTINUOUS
  0
LAYER
  2
11
 70
     0
 62
     7
  6
CONTINUOUS
  0
LAYER
  2
12
 70
     0
 62
     7
  6
CONTINUOUS
  0
LAYER
  2
13
 70
     0
 62
     7
  6
CONTINUOUS
  0
LAYER
  2
14
 70
     0
 62
     7
  6
CONTINUOUS
  0
LAYER
  2
15
 70
     0
 62
     7
  6
CONTINUOUS
  0
LAYER
  2
16
 70
     0
 62
     7
  6
CONTINUOUS
  0
LAYER
  2
17
 70
     0
 62
     7
  6
CONTINUOUS
  0
LAYER
  2
18
 70
     0
 62
     7
  6
CONTINUOUS
  0
LAYER
  2
19
 70
     0
 62
     7
  6
CONTINUOUS
  0
LAYER
  2
20
 70
     0
 62
     7
  6
CONTINUOUS
  0
LAYER
  2
21
 70
     0
 62
     7
  6
CONTINUOUS
  0
LAYER
  2
22
 70
     0
 62
     7
  6
CONTINUOUS
  0
LAYER
  2
23
 70
     0
 62
     7
  6
CONTINUOUS
  0
LAYER
  2
24
 70
     0
 62
     7
  6
CONTINUOUS
  0
LAYER
  2
25
 70
     0
 62
     7
  6
CONTINUOUS
  0
LAYER
  2
26
 70
     0
 62
     7
  6
CONTINUOUS
  0
LAYER
  2
27
 70
     0
 62
     7
  6
CONTINUOUS
  0
LAYER
  2
28
 70
     0
 62
     7
  6
CONTINUOUS
  0
LAYER
  2
29
 70
     0
 62
     7
  6
CONTINUOUS
  0
LAYER
  2
30
 70
     0
 62
     7
  6
CONTINUOUS
  0
LAYER
  2
31
 70
     0
 62
     7
  6
CONTINUOUS
  0
LAYER
  2
32
 70
     0
 62
     7
  6
CONTINUOUS
  0
LAYER
  2
33
 70
     0
 62
     7
  6
CONTINUOUS
  0
LAYER
  2
34
 70
     0
 62
     7
  6
CONTINUOUS
  0
LAYER
  2
35
 70
     0
 62
     7
  6
CONTINUOUS
  0
LAYER
  2
36
 70
     0
 62
     7
  6
CONTINUOUS
  0
LAYER
  2
37
 70
     0
 62
     7
  6
CONTINUOUS
  0
LAYER
  2
38
 70
     0
 62
     7
  6
CONTINUOUS
  0
LAYER
  2
39
 70
     0
 62
     7
  6
CONTINUOUS
  0
LAYER
  2
40
 70
     0
 62
     7
  6
CONTINUOUS
  0
LAYER
  2
41
 70
     0
 62
     7
  6
CONTINUOUS
  0
LAYER
  2
42
 70
     0
 62
     7
  6
CONTINUOUS
  0
LAYER
  2
43
 70
     0
 62
     7
  6
CONTINUOUS
  0
LAYER
  2
44
 70
     0
 62
     7
  6
CONTINUOUS
  0
LAYER
  2
45
 70
     0
 62
     7
  6
CONTINUOUS
  0
LAYER
  2
46
 70
     0
 62
     7
  6
CONTINUOUS
  0
LAYER
  2
47
 70
     0
 62
     7
  6
CONTINUOUS
  0
LAYER
  2
48
 70
     0
 62
     7
  6
CONTINUOUS
  0
LAYER
  2
49
 70
     0
 62
     7
  6
CONTINUOUS
  0
LAYER
  2
50
 70
     0
 62
     7
  6
CONTINUOUS
  0
LAYER
  2
51
 70
     0
 62
     7
  6
CONTINUOUS
  0
LAYER
  2
52
 70
     0
 62
     7
  6
CONTINUOUS
  0
LAYER
  2
53
 70
     0
 62
     7
  6
CONTINUOUS
  0
LAYER
  2
54
 70
     0
 62
     7
  6
CONTINUOUS
  0
LAYER
  2
55
 70
     0
 62
     7
  6
CONTINUOUS
  0
LAYER
  2
56
 70
     0
 62
     7
  6
CONTINUOUS
  0
LAYER
  2
57
 70
     0
 62
     7
  6
CONTINUOUS
  0
LAYER
  2
58
 70
     0
 62
     7
  6
CONTINUOUS
  0
LAYER
  2
59
 70
     0
 62
     7
  6
CONTINUOUS
  0
LAYER
  2
60
 70
     0
 62
     7
  6
CONTINUOUS
  0
LAYER
  2
61
 70
     0
 62
     7
  6
CONTINUOUS
  0
LAYER
  2
62
 70
     0
 62
     7
  6
CONTINUOUS
  0
LAYER
  2
63
 70
     0
 62
     7
  6
CONTINUOUS
  0
LAYER
  2
64
 70
     0
 62
     7
  6
CONTINUOUS
  0
LAYER
  2
65
 70
     0
 62
     7
  6
CONTINUOUS
  0
LAYER
  2
66
 70
     0
 62
     7
  6
CONTINUOUS
  0
LAYER
  2
67
 70
     0
 62
     7
  6
CONTINUOUS
  0
LAYER
  2
68
 70
     0
 62
     7
  6
CONTINUOUS
  0
LAYER
  2
69
 70
     0
 62
     7
  6
CONTINUOUS
  0
LAYER
  2
70
 70
     0
 62
     7
  6
CONTINUOUS
  0
LAYER
  2
71
 70
     0
 62
     7
  6
CONTINUOUS
  0
LAYER
  2
72
 70
     0
 62
     7
  6
CONTINUOUS
  0
LAYER
  2
73
 70
     0
 62
     7
  6
CONTINUOUS
  0
LAYER
  2
74
 70
     0
 62
     7
  6
CONTINUOUS
  0
LAYER
  2
75
 70
     0
 62
     7
  6
CONTINUOUS
  0
LAYER
  2
76
 70
     0
 62
     7
  6
CONTINUOUS
  0
LAYER
  2
77
 70
     0
 62
     7
  6
CONTINUOUS
  0
LAYER
  2
78
 70
     0
 62
     7
  6
CONTINUOUS
  0
LAYER
  2
79
 70
     0
 62
     7
  6
CONTINUOUS
  0
LAYER
  2
80
 70
     0
 62
     7
  6
CONTINUOUS
  0
LAYER
  2
81
 70
     0
 62
     7
  6
CONTINUOUS
  0
LAYER
  2
82
 70
     0
 62
     7
  6
CONTINUOUS
  0
LAYER
  2
83
 70
     0
 62
     7
  6
CONTINUOUS
  0
LAYER
  2
84
 70
     0
 62
     7
  6
CONTINUOUS
  0
LAYER
  2
85
 70
     0
 62
     7
  6
CONTINUOUS
  0
LAYER
  2
86
 70
     0
 62
     7
  6
CONTINUOUS
  0
LAYER
  2
87
 70
     0
 62
     7
  6
CONTINUOUS
  0
LAYER
  2
88
 70
     0
 62
     7
  6
CONTINUOUS
  0
LAYER
  2
89
 70
     0
 62
     7
  6
CONTINUOUS
  0
LAYER
  2
90
 70
     0
 62
     7
  6
CONTINUOUS
  0
LAYER
  2
91
 70
     0
 62
     7
  6
CONTINUOUS
  0
LAYER
  2
92
 70
     0
 62
     7
  6
CONTINUOUS
  0
LAYER
  2
93
 70
     0
 62
     7
  6
CONTINUOUS
  0
LAYER
  2
94
 70
     0
 62
     7
  6
CONTINUOUS
  0
LAYER
  2
95
 70
     0
 62
     7
  6
CONTINUOUS
  0
LAYER
  2
96
 70
     0
 62
     7
  6
CONTINUOUS
  0
LAYER
  2
97
 70
     0
 62
     7
  6
CONTINUOUS
  0
LAYER
  2
98
 70
     0
 62
     7
  6
CONTINUOUS
  0
LAYER
  2
99
 70
     0
 62
     7
  6
CONTINUOUS
  0
LAYER
  2
100
 70
     0
 62
     7
  6
CONTINUOUS
  0
LAYER
  2
101
 70
     0
 62
     7
  6
CONTINUOUS
  0
LAYER
  2
102
 70
     0
 62
     7
  6
CONTINUOUS
  0
LAYER
  2
103
 70
     0
 62
     7
  6
CONTINUOUS
  0
LAYER
  2
104
 70
     0
 62
     7
  6
CONTINUOUS
  0
LAYER
  2
105
 70
     0
 62
     7
  6
CONTINUOUS
  0
LAYER
  2
106
 70
     0
 62
     7
  6
CONTINUOUS
  0
LAYER
  2
107
 70
     0
 62
     7
  6
CONTINUOUS
  0
LAYER
  2
108
 70
     0
 62
     7
  6
CONTINUOUS
  0
LAYER
  2
109
 70
     0
 62
     7
  6
CONTINUOUS
  0
LAYER
  2
110
 70
     0
 62
     7
  6
CONTINUOUS
  0
LAYER
  2
111
 70
     0
 62
     7
  6
CONTINUOUS
  0
LAYER
  2
112
 70
     0
 62
     7
  6
CONTINUOUS
  0
LAYER
  2
113
 70
     0
 62
     7
  6
CONTINUOUS
  0
LAYER
  2
114
 70
     0
 62
     7
  6
CONTINUOUS
  0
LAYER
  2
115
 70
     0
 62
     7
  6
CONTINUOUS
  0
LAYER
  2
116
 70
     0
 62
     7
  6
CONTINUOUS
  0
LAYER
  2
117
 70
     0
 62
     7
  6
CONTINUOUS
  0
LAYER
  2
118
 70
     0
 62
     7
  6
CONTINUOUS
  0
LAYER
  2
119
 70
     0
 62
     7
  6
CONTINUOUS
  0
LAYER
  2
120
 70
     0
 62
     7
  6
CONTINUOUS
  0
LAYER
  2
121
 70
     0
 62
     7
  6
CONTINUOUS
  0
LAYER
  2
122
 70
     0
 62
     7
  6
CONTINUOUS
  0
LAYER
  2
123
 70
     0
 62
     7
  6
CONTINUOUS
  0
LAYER
  2
124
 70
     0
 62
     7
  6
CONTINUOUS
  0
LAYER
  2
125
 70
     0
 62
     7
  6
CONTINUOUS
  0
LAYER
  2
126
 70
     0
 62
     7
  6
CONTINUOUS
  0
LAYER
  2
127
 70
     0
 62
     7
  6
CONTINUOUS
  0
LAYER
  2
128
 70
     0
 62
     7
  6
CONTINUOUS
  0
ENDTAB
  0
TABLE
  2
STYLE
 70
    10
  0
STYLE
  2
STANDARD
 70
     0
 40
0.0
 41
1.0
 50
0.0
 71
     0
 42
0.2
  3
txt.shx
  4
extfont.shx
  0
STYLE
  2
KANJI0
 70
     0
 40
1.8
 41
0.6
 50
0.0
 71
     0
 42
1.8
  3
txt.shx
  4
extfont.shx
  0
STYLE
  2
KANJI1
 70
     0
 40
3.0
 41
0.6
 50
0.0
 71
     0
 42
3.0
  3
txt.shx
  4
extfont.shx
  0
STYLE
  2
KANJI2
 70
     0
 40
3.0
 41
0.9
 50
0.0
 71
     0
 42
3.0
  3
txt.shx
  4
extfont.shx
  0
STYLE
  2
KANJI3
 70
     0
 40
3.0
 41
0.9
 50
0.0
 71
     0
 42
3.0
  3
txt.shx
  4
extfont.shx
  0
STYLE
  2
KANJI4
 70
     0
 40
1.8
 41
0.666666667
 50
0.0
 71
     0
 42
1.8
  3
txt.shx
  4
extfont.shx
  0
STYLE
  2
KANJI5
 70
     0
 40
3.0
 41
0.666666667
 50
0.0
 71
     0
 42
3.0
  3
txt.shx
  4
extfont.shx
  0
STYLE
  2
KANJI6
 70
     0
 40
3.0
 41
0.666666667
 50
0.0
 71
     0
 42
3.0
  3
txt.shx
  4
extfont.shx
  0
STYLE
  2
KANJI7
 70
     0
 40
4.0
 41
0.9
 50
0.0
 71
     0
 42
4.0
  3
txt.shx
  4
extfont.shx
  0
STYLE
  2
KANJI8
 70
     0
 40
5.8
 41
0.827586207
 50
0.0
 71
     0
 42
5.8
  3
txt.shx
  4
extfont.shx
  0
ENDTAB
  0
TABLE
  2
VIEW
 70
     0
  0
ENDTAB
  0
ENDSEC
  0
SECTION
  2
BLOCKS
  0
ENDSEC
  0
SECTION
  2
ENTITIES
  0
LINE
  8
0
  6
CONTINUOUS
 62
     2
 10
175.0
 20
94.0
 30
0.0
 11
172.585185434
 21
94.647047613
 31
0.0
  0
LINE
  8
0
  6
CONTINUOUS
 62
     2
 10
175.0
 20
94.0
 30
0.0
 11
172.585185434
 21
93.352952387
 31
0.0
  0
LINE
  8
0
  6
CONTINUOUS
 62
     2
 10
175.0
 20
94.0
 30
0.0
 11
177.414814566
 21
93.352952387
 31
0.0
  0
LINE
  8
0
  6
CONTINUOUS
 62
     2
 10
175.0
 20
94.0
 30
0.0
 11
177.414814566
 21
94.647047613
 31
0.0
  0
LINE
  8
0
  6
CONTINUOUS
 62
     2
 10
175.0
 20
91.0
 30
0.0
 11
175.0
 21
96.0
 31
0.0
  0
LINE
  8
0
  6
CONTINUOUS
 62
     2
 10
175.0
 20
94.0
 30
0.0
 11
144.0
 21
94.0
 31
0.0
  0
LINE
  8
0
  6
CONTINUOUS
 62
     2
 10
144.0
 20
94.0
 30
0.0
 11
146.414814566
 21
93.352952387
 31
0.0
  0
LINE
  8
0
  6
CONTINUOUS
 62
     2
 10
144.0
 20
94.0
 30
0.0
 11
146.414814566
 21
94.647047613
 31
0.0
  0
LINE
  8
0
  6
CONTINUOUS
 62
     2
 10
144.0
 20
91.0
 30
0.0
 11
144.0
 21
96.0
 31
0.0
  0
LINE
  8
0
  6
CONTINUOUS
 62
     2
 10
175.0
 20
94.0
 30
0.0
 11
206.0
 21
94.0
 31
0.0
  0
LINE
  8
0
  6
CONTINUOUS
 62
     2
 10
206.0
 20
94.0
 30
0.0
 11
203.585185434
 21
94.647047613
 31
0.0
  0
LINE
  8
0
  6
CONTINUOUS
 62
     2
 10
206.0
 20
94.0
 30
0.0
 11
203.585185434
 21
93.352952387
 31
0.0
  0
LINE
  8
0
  6
CONTINUOUS
 62
     2
 10
206.0
 20
91.0
 30
0.0
 11
206.0
 21
96.0
 31
0.0
  0
LINE
  8
0
  6
CONTINUOUS
 62
     2
 10
219.0
 20
56.0
 30
0.0
 11
218.352952387
 21
53.585185434
 31
0.0
  0
LINE
  8
0
  6
CONTINUOUS
 62
     2
 10
219.0
 20
56.0
 30
0.0
 11
219.647047613
 21
53.585185434
 31
0.0
  0
LINE
  8
0
  6
CONTINUOUS
 62
     2
 10
219.0
 20
56.0
 30
0.0
 11
219.647047613
 21
58.414814566
 31
0.0
  0
LINE
  8
0
  6
CONTINUOUS
 62
     2
 10
219.0
 20
56.0
 30
0.0
 11
218.352952387
 21
58.414814566
 31
0.0
  0
LINE
  8
0
  6
CONTINUOUS
 62
     2
 10
219.0
 20
56.0
 30
0.0
 11
219.0
 21
87.0
 31
0.0
  0
LINE
  8
0
  6
CONTINUOUS
 62
     2
 10
219.0
 20
87.0
 30
0.0
 11
218.352952387
 21
84.585185434
 31
0.0
  0
LINE
  8
0
  6
CONTINUOUS
 62
     2
 10
219.0
 20
87.0
 30
0.0
 11
219.647047613
 21
84.585185434
 31
0.0
  0
LINE
  8
0
  6
CONTINUOUS
 62
     2
 10
213.0
 20
87.0
 30
0.0
 11
221.0
 21
87.0
 31
0.0
  0
LINE
  8
0
  6
CONTINUOUS
 62
     2
 10
219.0
 20
25.0
 30
0.0
 11
219.647047613
 21
27.414814566
 31
0.0
  0
LINE
  8
0
  6
CONTINUOUS
 62
     2
 10
219.0
 20
25.0
 30
0.0
 11
218.352952387
 21
27.414814566
 31
0.0
  0
LINE
  8
0
  6
CONTINUOUS
 62
     2
 10
219.0
 20
25.0
 30
0.0
 11
219.0
 21
56.0
 31
0.0
  0
LINE
  8
0
  6
CONTINUOUS
 62
     2
 10
213.0
 20
25.0
 30
0.0
 11
221.0
 21
25.0
 31
0.0
  0
TEXT
  8
0
  6
CONTINUOUS
 62
     2
 10
218.0
 20
71.229
 30
0.18
 40
1.8
  1
±０．５
 50
90.0
 41
0.6
 51
0.0
  7
KANJI0
  0
TEXT
  8
0
  6
CONTINUOUS
 62
     2
 10
218.0
 20
67.329
 30
0.3
 40
3.0
  1
６２
 50
90.0
 41
0.6
 51
0.0
  7
KANJI1
  0
TEXT
  8
0
  6
CONTINUOUS
 62
     2
 10
218.0
 20
40.229
 30
0.18
 40
1.8
  1
±０．５
 50
90.0
 41
0.6
 51
0.0
  7
KANJI0
  0
TEXT
  8
0
  6
CONTINUOUS
 62
     2
 10
218.0
 20
36.329
 30
0.3
 40
3.0
  1
６２
 50
90.0
 41
0.6
 51
0.0
  7
KANJI1
  0
LINE
  8
0
  6
CONTINUOUS
 62
     2
 10
213.0
 20
56.0
 30
0.0
 11
221.0
 21
56.0
 31
0.0
  0
TEXT
  8
0
  6
CONTINUOUS
 62
     2
 10
123.81646745
 20
38.196
 30
0.1
 40
3.0
  1
４－φ７穴
 50
0.0
 41
0.9
 51
0.0
  7
KANJI2
  0
LINE
  8
0
  6
CONTINUOUS
 62
     2
 10
142.251768511
 20
28.032109276
 30
0.0
 11
141.84156159
 21
30.498225713
 31
0.0
  0
LINE
  8
0
  6
CONTINUOUS
 62
     2
 10
142.251768511
 20
28.032109276
 30
0.0
 11
140.663460678
 21
29.962725299
 31
0.0
  0
LINE
  8
0
  6
CONTINUOUS
 62
     2
 10
124.178
 20
37.246
 30
0.0
 11
138.063636364
 21
37.246
 31
0.0
  0
LINE
  8
0
  6
CONTINUOUS
 62
     2
 10
142.251768511
 20
28.032109276
 30
0.0
 11
138.063636364
 21
37.246
 31
0.0
  0
CIRCLE
  8
0
  6
CONTINUOUS
 62
     1
 10
175.0
 20
56.0
 30
0.0
 40
34.5
  0
LINE
  8
0
  6
LTYPE1
 62
     2
 10
138.5
 20
56.0
 30
0.0
 11
211.5
 21
56.0
 31
0.0
  0
LINE
  8
0
  6
LTYPE1
 62
     2
 10
175.0
 20
92.5
 30
0.0
 11
175.0
 21
20.0
 31
0.0
  0
LINE
  8
0
  6
CONTINUOUS
 62
     2
 10
193.319987348
 20
85.234022364
 30
0.0
 11
191.489402517
 21
83.531389351
 31
0.0
  0
LINE
  8
0
  6
CONTINUOUS
 62
     2
 10
156.680012652
 20
26.765977636
 30
0.0
 11
158.510597483
 21
28.468610649
 31
0.0
  0
LINE
  8
0
  6
CONTINUOUS
 62
     2
 10
156.680012652
 20
26.765977636
 30
0.0
 11
157.414029113
 21
29.155793494
 31
0.0
  0
LINE
  8
0
  6
CONTINUOUS
 62
     2
 10
193.319987348
 20
85.234022364
 30
0.0
 11
192.585970887
 21
82.844206506
 31
0.0
  0
LINE
  8
0
  6
CONTINUOUS
 62
     2
 10
193.319987348
 20
85.234022364
 30
0.0
 11
156.680012652
 21
26.765977636
 31
0.0
  0
CIRCLE
  8
0
  6
CONTINUOUS
 62
     1
 10
144.0
 20
25.0
 30
0.0
 40
1.75
  0
LINE
  8
0
  6
LTYPE1
 62
     2
 10
144.0
 20
28.0
 30
0.0
 11
144.0
 21
22.0
 31
0.0
  0
LINE
  8
0
  6
LTYPE1
 62
     2
 10
141.0
 20
25.0
 30
0.0
 11
147.0
 21
25.0
 31
0.0
  0
CIRCLE
  8
0
  6
CONTINUOUS
 62
     1
 10
144.0
 20
87.0
 30
0.0
 40
1.75
  0
LINE
  8
0
  6
LTYPE1
 62
     2
 10
144.0
 20
90.0
 30
0.0
 11
144.0
 21
84.0
 31
0.0
  0
LINE
  8
0
  6
LTYPE1
 62
     2
 10
141.0
 20
87.0
 30
0.0
 11
147.0
 21
87.0
 31
0.0
  0
CIRCLE
  8
0
  6
CONTINUOUS
 62
     1
 10
206.0
 20
87.0
 30
0.0
 40
1.75
  0
LINE
  8
0
  6
LTYPE1
 62
     2
 10
206.0
 20
90.0
 30
0.0
 11
206.0
 21
84.0
 31
0.0
  0
LINE
  8
0
  6
LTYPE1
 62
     2
 10
203.0
 20
87.0
 30
0.0
 11
209.0
 21
87.0
 31
0.0
  0
CIRCLE
  8
0
  6
CONTINUOUS
 62
     1
 10
206.0
 20
25.0
 30
0.0
 40
1.75
  0
LINE
  8
0
  6
LTYPE1
 62
     2
 10
206.0
 20
28.0
 30
0.0
 11
206.0
 21
22.0
 31
0.0
  0
LINE
  8
0
  6
LTYPE1
 62
     2
 10
203.0
 20
25.0
 30
0.0
 11
209.0
 21
25.0
 31
0.0
  0
LINE
  8
0
  6
CONTINUOUS
 62
     1
 10
115.0
 20
64.0
 30
0.0
 11
137.2
 21
64.0
 31
0.0
  0
TEXT
  8
0
  6
CONTINUOUS
 62
     1
 10
116.8
 20
64.584041975
 30
0.5
 40
3.0
  1
パネルカット
 50
0.0
 41
0.9
 51
0.0
  7
KANJI3
  0
TEXT
  8
0
  6
CONTINUOUS
 62
     2
 10
159.686
 20
94.5
 30
0.3
 40
1.8
  1
±０．５
 50
0.0
 41
0.666666667
 51
0.0
  7
KANJI4
  0
TEXT
  8
0
  6
CONTINUOUS
 62
     2
 10
155.186
 20
94.5
 30
0.5
 40
3.0
  1
６２
 50
0.0
 41
0.666666667
 51
0.0
  7
KANJI5
  0
TEXT
  8
0
  6
CONTINUOUS
 62
     2
 10
190.686
 20
94.5
 30
0.3
 40
1.8
  1
±０．５
 50
0.0
 41
0.666666667
 51
0.0
  7
KANJI4
  0
TEXT
  8
0
  6
CONTINUOUS
 62
     2
 10
186.186
 20
94.5
 30
0.5
 40
3.0
  1
６２
 50
0.0
 41
0.666666667
 51
0.0
  7
KANJI5
  0
ARC
  8
0
  6
CONTINUOUS
 62
     1
 10
207.5
 20
168.5
 30
0.0
 40
5.0
 50
0.0
 51
90.0
  0
ARC
  8
0
  6
CONTINUOUS
 62
     2
 10
207.5
 20
168.5
 30
0.0
 40
4.0
 50
0.0
 51
90.0
  0
ARC
  8
0
  6
CONTINUOUS
 62
     1
 10
142.5
 20
168.5
 30
0.0
 40
5.0
 50
90.0
 51
180.0
  0
ARC
  8
0
  6
CONTINUOUS
 62
     2
 10
142.5
 20
168.5
 30
0.0
 40
4.0
 50
90.0
 51
180.0
  0
LINE
  8
0
  6
CONTINUOUS
 62
     1
 10
142.5
 20
173.5
 30
0.0
 11
207.5
 21
173.5
 31
0.0
  0
LINE
  8
0
  6
CONTINUOUS
 62
     2
 10
207.5
 20
172.5
 30
0.0
 11
142.5
 21
172.5
 31
0.0
  0
ARC
  8
0
  6
CONTINUOUS
 62
     1
 10
207.5
 20
103.5
 30
0.0
 40
5.0
 50
270.0
 51
0.0
  0
ARC
  8
0
  6
CONTINUOUS
 62
     2
 10
207.5
 20
103.5
 30
0.0
 40
4.0
 50
270.0
 51
0.0
  0
ARC
  8
0
  6
CONTINUOUS
 62
     1
 10
142.5
 20
103.5
 30
0.0
 40
5.0
 50
180.0
 51
270.0
  0
ARC
  8
0
  6
CONTINUOUS
 62
     2
 10
142.5
 20
103.5
 30
0.0
 40
4.0
 50
180.0
 51
270.0
  0
LINE
  8
0
  6
CONTINUOUS
 62
     1
 10
207.5
 20
98.5
 30
0.0
 11
142.5
 21
98.5
 31
0.0
  0
LINE
  8
0
  6
CONTINUOUS
 62
     2
 10
142.5
 20
99.5
 30
0.0
 11
207.5
 21
99.5
 31
0.0
  0
LINE
  8
0
  6
LTYPE1
 62
     2
 10
175.0
 20
175.5
 30
0.0
 11
175.0
 21
96.75
 31
0.0
  0
LINE
  8
0
  6
CONTINUOUS
 62
     1
 10
212.5
 20
168.5
 30
0.0
 11
212.5
 21
103.5
 31
0.0
  0
LINE
  8
0
  6
CONTINUOUS
 62
     2
 10
211.5
 20
103.5
 30
0.0
 11
211.5
 21
168.5
 31
0.0
  0
LINE
  8
0
  6
CONTINUOUS
 62
     2
 10
138.5
 20
168.5
 30
0.0
 11
138.5
 21
103.5
 31
0.0
  0
CIRCLE
  8
0
  6
CONTINUOUS
 62
     1
 10
175.0
 20
136.0
 30
0.0
 40
33.75
  0
LINE
  8
0
  6
CONTINUOUS
 62
     1
 10
102.0
 20
173.5
 30
0.0
 11
102.0
 21
98.5
 31
0.0
  0
LINE
  8
0
  6
CONTINUOUS
 62
     1
 10
137.5
 20
103.5
 30
0.0
 11
137.5
 21
168.5
 31
0.0
  0
LINE
  8
0
  6
CONTINUOUS
 62
     2
 10
105.969
 20
100.841
 30
0.0
 11
106.616047613
 21
98.426185434
 31
0.0
  0
POLYLINE
  8
0
  6
CONTINUOUS
 62
     2
 66
     1
  0
VERTEX
  8
0
  6
CONTINUOUS
 62
     2
 10
102.0
 20
102.0
 30
0.0
  0
VERTEX
  8
0
  6
CONTINUOUS
 62
     2
 10
102.25
 20
102.0
 30
0.0
  0
VERTEX
  8
0
  6
CONTINUOUS
 62
     2
 10
102.25
 20
108.0
 30
0.0
  0
VERTEX
  8
0
  6
CONTINUOUS
 62
     2
 10
102.0
 20
108.0
 30
0.0
  0
SEQEND
  0
LINE
  8
0
  6
CONTINUOUS
 62
     2
 10
107.75
 20
106.5
 30
0.0
 11
109.75
 21
106.5
 31
0.0
  0
LINE
  8
0
  6
CONTINUOUS
 62
     2
 10
109.75
 20
106.5
 30
0.0
 11
109.75
 21
103.5
 31
0.0
  0
LINE
  8
0
  6
CONTINUOUS
 62
     2
 10
109.75
 20
103.5
 30
0.0
 11
107.75
 21
103.5
 31
0.0
  0
LINE
  8
0
  6
LTYPE2
 62
     2
 10
100.2
 20
105.0
 30
0.0
 11
112.05
 21
105.0
 31
0.0
  0
ARC
  8
0
  6
CONTINUOUS
 62
     2
 10
102.75
 20
105.0
 30
0.0
 40
5.0
 50
343.5
 51
16.5
  0
ARC
  8
0
  6
CONTINUOUS
 62
     2
 10
110.25
 20
105.0
 30
0.0
 40
5.0
 50
163.5
 51
196.3
  0
ARC
  8
0
  6
CONTINUOUS
 62
     2
 10
106.5
 20
107.125
 30
0.0
 40
1.25
 50
325.0
 51
35.0
  0
ARC
  8
0
  6
CONTINUOUS
 62
     2
 10
106.5
 20
107.125
 30
0.0
 40
1.25
 50
145.0
 51
215.0
  0
ARC
  8
0
  6
CONTINUOUS
 62
     2
 10
106.5
 20
102.875
 30
0.0
 40
1.25
 50
145.0
 51
215.0
  0
ARC
  8
0
  6
CONTINUOUS
 62
     2
 10
106.5
 20
102.875
 30
0.0
 40
1.25
 50
325.0
 51
35.0
  0
LINE
  8
0
  6
CONTINUOUS
 62
     2
 10
105.45097354
 20
103.596666455
 30
0.0
 11
107.52597354
 21
103.596666455
 31
0.0
  0
LINE
  8
0
  6
CONTINUOUS
 62
     2
 10
107.544098674
 20
106.420076724
 30
0.0
 11
105.455901326
 21
106.420076724
 31
0.0
  0
LINE
  8
0
  6
CONTINUOUS
 62
     2
 10
107.530901326
 20
107.85
 30
0.0
 11
105.25
 21
107.85
 31
0.0
  0
LINE
  8
0
  6
CONTINUOUS
 62
     2
 10
107.75
 20
102.875
 30
0.0
 11
107.75
 21
107.125
 31
0.0
  0
LINE
  8
0
  6
CONTINUOUS
 62
     2
 10
103.6
 20
102.0
 30
0.0
 11
104.4
 21
102.0
 31
0.0
  0
LINE
  8
0
  6
CONTINUOUS
 62
     2
 10
103.25
 20
105.05
 30
0.0
 11
104.05
 21
105.05
 31
0.0
  0
LINE
  8
0
  6
CONTINUOUS
 62
     2
 10
104.05
 20
105.05
 30
0.0
 11
104.4
 21
108.0
 31
0.0
  0
LINE
  8
0
  6
CONTINUOUS
 62
     2
 10
104.4
 20
108.0
 30
0.0
 11
103.6
 21
108.0
 31
0.0
  0
LINE
  8
0
  6
CONTINUOUS
 62
     2
 10
103.6
 20
108.0
 30
0.0
 11
103.25
 21
105.05
 31
0.0
  0
LINE
  8
0
  6
CONTINUOUS
 62
     2
 10
104.75
 20
104.95
 30
0.0
 11
103.95
 21
104.95
 31
0.0
  0
LINE
  8
0
  6
CONTINUOUS
 62
     2
 10
103.95
 20
104.95
 30
0.0
 11
103.6
 21
102.0
 31
0.0
  0
LINE
  8
0
  6
CONTINUOUS
 62
     2
 10
104.4
 20
102.0
 30
0.0
 11
104.75
 21
104.95
 31
0.0
  0
LINE
  8
0
  6
CONTINUOUS
 62
     2
 10
102.45
 20
108.05
 30
0.0
 11
103.25
 21
108.05
 31
0.0
  0
LINE
  8
0
  6
CONTINUOUS
 62
     2
 10
103.25
 20
108.05
 30
0.0
 11
103.25
 21
101.9475
 31
0.0
  0
LINE
  8
0
  6
CONTINUOUS
 62
     2
 10
103.25
 20
101.9475
 30
0.0
 11
102.455
 21
101.9475
 31
0.0
  0
LINE
  8
0
  6
CONTINUOUS
 62
     2
 10
102.455
 20
101.9475
 30
0.0
 11
102.455
 21
108.05
 31
0.0
  0
LINE
  8
0
  6
CONTINUOUS
 62
     2
 10
105.245
 20
106.5
 30
0.0
 11
104.23
 21
106.5
 31
0.0
  0
LINE
  8
0
  6
CONTINUOUS
 62
     2
 10
103.435
 20
106.5
 30
0.0
 11
103.26
 21
106.5
 31
0.0
  0
LINE
  8
0
  6
CONTINUOUS
 62
     2
 10
102.45
 20
106.5
 30
0.0
 11
102.26
 21
106.5
 31
0.0
  0
LINE
  8
0
  6
CONTINUOUS
 62
     2
 10
102.26
 20
103.505
 30
0.0
 11
102.44
 21
103.505
 31
0.0
  0
LINE
  8
0
  6
CONTINUOUS
 62
     2
 10
103.25
 20
103.505
 30
0.0
 11
103.77
 21
103.505
 31
0.0
  0
LINE
  8
0
  6
CONTINUOUS
 62
     2
 10
104.57
 20
103.505
 30
0.0
 11
105.24
 21
103.505
 31
0.0
  0
LINE
  8
0
  6
CONTINUOUS
 62
     2
 10
105.25
 20
103.625
 30
0.0
 11
104.595
 21
103.625
 31
0.0
  0
LINE
  8
0
  6
CONTINUOUS
 62
     2
 10
103.8
 20
103.625
 30
0.0
 11
103.265
 21
103.625
 31
0.0
  0
LINE
  8
0
  6
CONTINUOUS
 62
     2
 10
107.755
 20
103.625
 30
0.0
 11
109.73
 21
103.625
 31
0.0
  0
LINE
  8
0
  6
CONTINUOUS
 62
     2
 10
109.75
 20
106.385
 30
0.0
 11
107.76
 21
106.385
 31
0.0
  0
LINE
  8
0
  6
CONTINUOUS
 62
     2
 10
105.25
 20
106.385
 30
0.0
 11
104.215
 21
106.385
 31
0.0
  0
LINE
  8
0
  6
CONTINUOUS
 62
     2
 10
103.415
 20
106.385
 30
0.0
 11
103.255
 21
106.385
 31
0.0
  0
POLYLINE
  8
0
  6
CONTINUOUS
 62
     2
 66
     1
  0
VERTEX
  8
0
  6
CONTINUOUS
 62
     2
 10
102.0
 20
164.0
 30
0.0
  0
VERTEX
  8
0
  6
CONTINUOUS
 62
     2
 10
102.25
 20
164.0
 30
0.0
  0
VERTEX
  8
0
  6
CONTINUOUS
 62
     2
 10
102.25
 20
170.0
 30
0.0
  0
VERTEX
  8
0
  6
CONTINUOUS
 62
     2
 10
102.0
 20
170.0
 30
0.0
  0
SEQEND
  0
LINE
  8
0
  6
CONTINUOUS
 62
     2
 10
107.75
 20
168.5
 30
0.0
 11
109.75
 21
168.5
 31
0.0
  0
LINE
  8
0
  6
CONTINUOUS
 62
     2
 10
109.75
 20
168.5
 30
0.0
 11
109.75
 21
165.5
 31
0.0
  0
LINE
  8
0
  6
CONTINUOUS
 62
     2
 10
109.75
 20
165.5
 30
0.0
 11
107.75
 21
165.5
 31
0.0
  0
LINE
  8
0
  6
LTYPE2
 62
     2
 10
100.2
 20
167.0
 30
0.0
 11
112.05
 21
167.0
 31
0.0
  0
ARC
  8
0
  6
CONTINUOUS
 62
     2
 10
102.75
 20
167.0
 30
0.0
 40
5.0
 50
343.5
 51
16.5
  0
ARC
  8
0
  6
CONTINUOUS
 62
     2
 10
110.25
 20
167.0
 30
0.0
 40
5.0
 50
163.5
 51
196.3
  0
ARC
  8
0
  6
CONTINUOUS
 62
     2
 10
106.5
 20
169.125
 30
0.0
 40
1.25
 50
325.0
 51
35.0
  0
ARC
  8
0
  6
CONTINUOUS
 62
     2
 10
106.5
 20
169.125
 30
0.0
 40
1.25
 50
145.0
 51
215.0
  0
ARC
  8
0
  6
CONTINUOUS
 62
     2
 10
106.5
 20
164.875
 30
0.0
 40
1.25
 50
145.0
 51
215.0
  0
ARC
  8
0
  6
CONTINUOUS
 62
     2
 10
106.5
 20
164.875
 30
0.0
 40
1.25
 50
325.0
 51
35.0
  0
LINE
  8
0
  6
CONTINUOUS
 62
     2
 10
105.45097354
 20
165.596666455
 30
0.0
 11
107.52597354
 21
165.596666455
 31
0.0
  0
LINE
  8
0
  6
CONTINUOUS
 62
     2
 10
107.544098674
 20
168.420076724
 30
0.0
 11
105.455901326
 21
168.420076724
 31
0.0
  0
LINE
  8
0
  6
CONTINUOUS
 62
     2
 10
107.530901326
 20
169.85
 30
0.0
 11
105.25
 21
169.85
 31
0.0
  0
LINE
  8
0
  6
CONTINUOUS
 62
     2
 10
107.75
 20
164.875
 30
0.0
 11
107.75
 21
169.125
 31
0.0
  0
LINE
  8
0
  6
CONTINUOUS
 62
     2
 10
103.6
 20
164.0
 30
0.0
 11
104.4
 21
164.0
 31
0.0
  0
LINE
  8
0
  6
CONTINUOUS
 62
     2
 10
103.25
 20
167.05
 30
0.0
 11
104.05
 21
167.05
 31
0.0
  0
LINE
  8
0
  6
CONTINUOUS
 62
     2
 10
104.05
 20
167.05
 30
0.0
 11
104.4
 21
170.0
 31
0.0
  0
LINE
  8
0
  6
CONTINUOUS
 62
     2
 10
104.4
 20
170.0
 30
0.0
 11
103.6
 21
170.0
 31
0.0
  0
LINE
  8
0
  6
CONTINUOUS
 62
     2
 10
103.6
 20
170.0
 30
0.0
 11
103.25
 21
167.05
 31
0.0
  0
LINE
  8
0
  6
CONTINUOUS
 62
     2
 10
104.75
 20
166.95
 30
0.0
 11
103.95
 21
166.95
 31
0.0
  0
LINE
  8
0
  6
CONTINUOUS
 62
     2
 10
103.95
 20
166.95
 30
0.0
 11
103.6
 21
164.0
 31
0.0
  0
LINE
  8
0
  6
CONTINUOUS
 62
     2
 10
104.4
 20
164.0
 30
0.0
 11
104.75
 21
166.95
 31
0.0
  0
LINE
  8
0
  6
CONTINUOUS
 62
     2
 10
102.45
 20
170.05
 30
0.0
 11
103.25
 21
170.05
 31
0.0
  0
LINE
  8
0
  6
CONTINUOUS
 62
     2
 10
103.25
 20
170.05
 30
0.0
 11
103.25
 21
163.9475
 31
0.0
  0
LINE
  8
0
  6
CONTINUOUS
 62
     2
 10
103.25
 20
163.9475
 30
0.0
 11
102.455
 21
163.9475
 31
0.0
  0
LINE
  8
0
  6
CONTINUOUS
 62
     2
 10
102.455
 20
163.9475
 30
0.0
 11
102.455
 21
170.05
 31
0.0
  0
LINE
  8
0
  6
CONTINUOUS
 62
     2
 10
105.245
 20
168.5
 30
0.0
 11
104.23
 21
168.5
 31
0.0
  0
LINE
  8
0
  6
CONTINUOUS
 62
     2
 10
103.435
 20
168.5
 30
0.0
 11
103.26
 21
168.5
 31
0.0
  0
LINE
  8
0
  6
CONTINUOUS
 62
     2
 10
102.45
 20
168.5
 30
0.0
 11
102.26
 21
168.5
 31
0.0
  0
LINE
  8
0
  6
CONTINUOUS
 62
     2
 10
102.26
 20
165.505
 30
0.0
 11
102.44
 21
165.505
 31
0.0
  0
LINE
  8
0
  6
CONTINUOUS
 62
     2
 10
103.25
 20
165.505
 30
0.0
 11
103.77
 21
165.505
 31
0.0
  0
LINE
  8
0
  6
CONTINUOUS
 62
     2
 10
104.57
 20
165.505
 30
0.0
 11
105.24
 21
165.505
 31
0.0
  0
LINE
  8
0
  6
CONTINUOUS
 62
     2
 10
105.25
 20
165.625
 30
0.0
 11
104.595
 21
165.625
 31
0.0
  0
LINE
  8
0
  6
CONTINUOUS
 62
     2
 10
103.8
 20
165.625
 30
0.0
 11
103.265
 21
165.625
 31
0.0
  0
LINE
  8
0
  6
CONTINUOUS
 62
     2
 10
107.755
 20
165.625
 30
0.0
 11
109.73
 21
165.625
 31
0.0
  0
LINE
  8
0
  6
CONTINUOUS
 62
     2
 10
109.75
 20
168.385
 30
0.0
 11
107.76
 21
168.385
 31
0.0
  0
LINE
  8
0
  6
CONTINUOUS
 62
     2
 10
105.25
 20
168.385
 30
0.0
 11
104.215
 21
168.385
 31
0.0
  0
LINE
  8
0
  6
CONTINUOUS
 62
     2
 10
103.415
 20
168.385
 30
0.0
 11
103.255
 21
168.385
 31
0.0
  0
LINE
  8
0
  6
CONTINUOUS
 62
     1
 10
102.455
 20
169.75
 30
0.0
 11
102.25
 21
169.75
 31
0.0
  0
LINE
  8
0
  6
CONTINUOUS
 62
     1
 10
103.570338983
 20
169.75
 30
0.0
 11
103.25
 21
169.75
 31
0.0
  0
LINE
  8
0
  6
CONTINUOUS
 62
     1
 10
105.25
 20
169.75
 30
0.0
 11
104.370338983
 21
169.75
 31
0.0
  0
POLYLINE
  8
0
  6
CONTINUOUS
 62
     2
 66
     1
  0
VERTEX
  8
0
  6
CONTINUOUS
 62
     2
 10
105.25
 20
169.85
 30
0.0
  0
VERTEX
  8
0
  6
CONTINUOUS
 62
     2
 10
105.25
 20
164.15
 30
0.0
  0
VERTEX
  8
0
  6
CONTINUOUS
 62
     2
 10
107.525
 20
164.15
 30
0.0
  0
SEQEND
  0
LINE
  8
0
  6
CONTINUOUS
 62
     2
 10
105.25
 20
102.15
 30
0.0
 11
107.525
 21
102.15
 31
0.0
  0
LINE
  8
0
  6
CONTINUOUS
 62
     2
 10
105.25
 20
107.85
 30
0.0
 11
105.25
 21
102.15
 31
0.0
  0
LINE
  8
0
  6
CONTINUOUS
 62
     1
 10
104.429661017
 20
102.25
 30
0.0
 11
105.25
 21
102.25
 31
0.0
  0
LINE
  8
0
  6
CONTINUOUS
 62
     1
 10
103.629661017
 20
102.25
 30
0.0
 11
103.25
 21
102.25
 31
0.0
  0
LINE
  8
0
  6
CONTINUOUS
 62
     1
 10
102.455
 20
102.25
 30
0.0
 11
102.25
 21
102.25
 31
0.0
  0
LINE
  8
0
  6
CONTINUOUS
 62
     2
 10
219.0
 20
136.0
 30
0.0
 11
218.352952387
 21
133.585185434
 31
0.0
  0
LINE
  8
0
  6
CONTINUOUS
 62
     2
 10
219.0
 20
136.0
 30
0.0
 11
219.647047613
 21
133.585185434
 31
0.0
  0
LINE
  8
0
  6
CONTINUOUS
 62
     2
 10
219.0
 20
136.0
 30
0.0
 11
219.647047613
 21
138.414814566
 31
0.0
  0
LINE
  8
0
  6
CONTINUOUS
 62
     2
 10
219.0
 20
136.0
 30
0.0
 11
218.352952387
 21
138.414814566
 31
0.0
  0
LINE
  8
0
  6
CONTINUOUS
 62
     2
 10
215.022
 20
136.0
 30
0.0
 11
221.0
 21
136.0
 31
0.0
  0
LINE
  8
0
  6
CONTINUOUS
 62
     2
 10
224.0
 20
173.5
 30
0.0
 11
223.352952387
 21
171.085185434
 31
0.0
  0
LINE
  8
0
  6
CONTINUOUS
 62
     2
 10
224.0
 20
173.5
 30
0.0
 11
224.647047613
 21
171.085185434
 31
0.0
  0
LINE
  8
0
  6
CONTINUOUS
 62
     2
 10
213.5
 20
173.5
 30
0.0
 11
226.0
 21
173.5
 31
0.0
  0
LINE
  8
0
  6
CONTINUOUS
 62
     2
 10
224.0
 20
98.5
 30
0.0
 11
224.647047613
 21
100.914814566
 31
0.0
  0
LINE
  8
0
  6
CONTINUOUS
 62
     2
 10
224.0
 20
98.5
 30
0.0
 11
223.352952387
 21
100.914814566
 31
0.0
  0
LINE
  8
0
  6
CONTINUOUS
 62
     2
 10
213.5
 20
98.5
 30
0.0
 11
226.0
 21
98.5
 31
0.0
  0
LINE
  8
0
  6
CONTINUOUS
 62
     2
 10
224.0
 20
173.5
 30
0.0
 11
224.0
 21
98.5
 31
0.0
  0
LINE
  8
0
  6
LTYPE1
 62
     2
 10
215.498426214
 20
136.0
 30
0.0
 11
10.0
 21
136.0
 31
0.0
  0
LINE
  8
0
  6
CONTINUOUS
 62
     2
 10
219.0
 20
105.0
 30
0.0
 11
219.647047613
 21
107.414814566
 31
0.0
  0
LINE
  8
0
  6
CONTINUOUS
 62
     2
 10
219.0
 20
105.0
 30
0.0
 11
218.352952387
 21
107.414814566
 31
0.0
  0
LINE
  8
0
  6
CONTINUOUS
 62
     2
 10
219.0
 20
105.0
 30
0.0
 11
219.0
 21
136.0
 31
0.0
  0
LINE
  8
0
  6
CONTINUOUS
 62
     2
 10
213.5
 20
105.0
 30
0.0
 11
221.0
 21
105.0
 31
0.0
  0
LINE
  8
0
  6
CONTINUOUS
 62
     2
 10
219.0
 20
136.0
 30
0.0
 11
219.0
 21
167.0
 31
0.0
  0
LINE
  8
0
  6
CONTINUOUS
 62
     2
 10
219.0
 20
167.0
 30
0.0
 11
218.352952387
 21
164.585185434
 31
0.0
  0
LINE
  8
0
  6
CONTINUOUS
 62
     2
 10
219.0
 20
167.0
 30
0.0
 11
219.647047613
 21
164.585185434
 31
0.0
  0
LINE
  8
0
  6
CONTINUOUS
 62
     2
 10
213.5
 20
167.0
 30
0.0
 11
221.0
 21
167.0
 31
0.0
  0
TEXT
  8
0
  6
CONTINUOUS
 62
     2
 10
218.0
 20
120.229
 30
0.18
 40
1.8
  1
±０．５
 50
90.0
 41
0.6
 51
0.0
  7
KANJI0
  0
TEXT
  8
0
  6
CONTINUOUS
 62
     2
 10
218.0
 20
116.329
 30
0.3
 40
3.0
  1
６２
 50
90.0
 41
0.6
 51
0.0
  7
KANJI1
  0
TEXT
  8
0
  6
CONTINUOUS
 62
     2
 10
218.0
 20
151.229
 30
0.18
 40
1.8
  1
±０．５
 50
90.0
 41
0.6
 51
0.0
  7
KANJI0
  0
TEXT
  8
0
  6
CONTINUOUS
 62
     2
 10
218.0
 20
147.329
 30
0.3
 40
3.0
  1
６２
 50
90.0
 41
0.6
 51
0.0
  7
KANJI1
  0
TEXT
  8
0
  6
CONTINUOUS
 62
     2
 10
223.464
 20
128.989033346
 30
0.5
 40
3.0
  1
１５０
 50
90.0
 41
0.666666667
 51
0.0
  7
KANJI5
  0
TEXT
  8
0
  6
CONTINUOUS
 62
     2
 10
223.464
 20
136.519311103
 30
0.3
 40
1.8
  1
±１．５
 50
90.0
 41
0.666666667
 51
0.0
  7
KANJI4
  0
LINE
  8
0
  6
CONTINUOUS
 62
     2
 10
146.424871131
 20
168.4
 30
0.0
 11
144.0
 21
169.8
 31
0.0
  0
LINE
  8
0
  6
CONTINUOUS
 62
     2
 10
144.0
 20
169.8
 30
0.0
 11
141.575128869
 21
168.4
 31
0.0
  0
LINE
  8
0
  6
CONTINUOUS
 62
     2
 10
141.575128869
 20
168.4
 30
0.0
 11
141.575128869
 21
165.6
 31
0.0
  0
LINE
  8
0
  6
CONTINUOUS
 62
     2
 10
141.575128869
 20
165.6
 30
0.0
 11
144.0
 21
164.2
 31
0.0
  0
LINE
  8
0
  6
CONTINUOUS
 62
     2
 10
144.0
 20
164.2
 30
0.0
 11
146.424871131
 21
165.6
 31
0.0
  0
LINE
  8
0
  6
CONTINUOUS
 62
     2
 10
146.424871131
 20
165.6
 30
0.0
 11
146.424871131
 21
168.4
 31
0.0
  0
CIRCLE
  8
0
  6
CONTINUOUS
 62
     2
 10
144.0
 20
167.0
 30
0.0
 40
1.5
  0
CIRCLE
  8
0
  6
CONTINUOUS
 62
     2
 10
144.0
 20
167.0
 30
0.0
 40
1.4
  0
CIRCLE
  8
0
  6
CONTINUOUS
 62
     2
 10
144.0
 20
167.0
 30
0.0
 40
3.0
  0
CIRCLE
  8
0
  6
CONTINUOUS
 62
     2
 10
144.0
 20
167.0
 30
0.0
 40
2.5
  0
LINE
  8
0
  6
LTYPE1
 62
     2
 10
144.0
 20
171.0
 30
0.0
 11
144.0
 21
163.0
 31
0.0
  0
LINE
  8
0
  6
LTYPE1
 62
     2
 10
148.0
 20
167.0
 30
0.0
 11
140.0
 21
167.0
 31
0.0
  0
LINE
  8
0
  6
CONTINUOUS
 62
     2
 10
208.424871131
 20
168.4
 30
0.0
 11
206.0
 21
169.8
 31
0.0
  0
LINE
  8
0
  6
CONTINUOUS
 62
     2
 10
206.0
 20
169.8
 30
0.0
 11
203.575128869
 21
168.4
 31
0.0
  0
LINE
  8
0
  6
CONTINUOUS
 62
     2
 10
203.575128869
 20
168.4
 30
0.0
 11
203.575128869
 21
165.6
 31
0.0
  0
LINE
  8
0
  6
CONTINUOUS
 62
     2
 10
203.575128869
 20
165.6
 30
0.0
 11
206.0
 21
164.2
 31
0.0
  0
LINE
  8
0
  6
CONTINUOUS
 62
     2
 10
206.0
 20
164.2
 30
0.0
 11
208.424871131
 21
165.6
 31
0.0
  0
LINE
  8
0
  6
CONTINUOUS
 62
     2
 10
208.424871131
 20
165.6
 30
0.0
 11
208.424871131
 21
168.4
 31
0.0
  0
CIRCLE
  8
0
  6
CONTINUOUS
 62
     2
 10
206.0
 20
167.0
 30
0.0
 40
1.5
  0
CIRCLE
  8
0
  6
CONTINUOUS
 62
     2
 10
206.0
 20
167.0
 30
0.0
 40
1.4
  0
CIRCLE
  8
0
  6
CONTINUOUS
 62
     2
 10
206.0
 20
167.0
 30
0.0
 40
3.0
  0
CIRCLE
  8
0
  6
CONTINUOUS
 62
     2
 10
206.0
 20
167.0
 30
0.0
 40
2.5
  0
LINE
  8
0
  6
LTYPE1
 62
     2
 10
206.0
 20
171.0
 30
0.0
 11
206.0
 21
163.0
 31
0.0
  0
LINE
  8
0
  6
LTYPE1
 62
     2
 10
210.0
 20
167.0
 30
0.0
 11
202.0
 21
167.0
 31
0.0
  0
LINE
  8
0
  6
CONTINUOUS
 62
     2
 10
208.424871131
 20
106.4
 30
0.0
 11
206.0
 21
107.8
 31
0.0
  0
LINE
  8
0
  6
CONTINUOUS
 62
     2
 10
206.0
 20
107.8
 30
0.0
 11
203.575128869
 21
106.4
 31
0.0
  0
LINE
  8
0
  6
CONTINUOUS
 62
     2
 10
203.575128869
 20
106.4
 30
0.0
 11
203.575128869
 21
103.6
 31
0.0
  0
LINE
  8
0
  6
CONTINUOUS
 62
     2
 10
203.575128869
 20
103.6
 30
0.0
 11
206.0
 21
102.2
 31
0.0
  0
LINE
  8
0
  6
CONTINUOUS
 62
     2
 10
206.0
 20
102.2
 30
0.0
 11
208.424871131
 21
103.6
 31
0.0
  0
LINE
  8
0
  6
CONTINUOUS
 62
     2
 10
208.424871131
 20
103.6
 30
0.0
 11
208.424871131
 21
106.4
 31
0.0
  0
CIRCLE
  8
0
  6
CONTINUOUS
 62
     2
 10
206.0
 20
105.0
 30
0.0
 40
1.5
  0
CIRCLE
  8
0
  6
CONTINUOUS
 62
     2
 10
206.0
 20
105.0
 30
0.0
 40
1.4
  0
CIRCLE
  8
0
  6
CONTINUOUS
 62
     2
 10
206.0
 20
105.0
 30
0.0
 40
3.0
  0
CIRCLE
  8
0
  6
CONTINUOUS
 62
     2
 10
206.0
 20
105.0
 30
0.0
 40
2.5
  0
LINE
  8
0
  6
LTYPE1
 62
     2
 10
206.0
 20
109.0
 30
0.0
 11
206.0
 21
101.0
 31
0.0
  0
LINE
  8
0
  6
LTYPE1
 62
     2
 10
210.0
 20
105.0
 30
0.0
 11
202.0
 21
105.0
 31
0.0
  0
LINE
  8
0
  6
CONTINUOUS
 62
     2
 10
146.424871131
 20
106.4
 30
0.0
 11
144.0
 21
107.8
 31
0.0
  0
LINE
  8
0
  6
CONTINUOUS
 62
     2
 10
144.0
 20
107.8
 30
0.0
 11
141.575128869
 21
106.4
 31
0.0
  0
LINE
  8
0
  6
CONTINUOUS
 62
     2
 10
141.575128869
 20
106.4
 30
0.0
 11
141.575128869
 21
103.6
 31
0.0
  0
LINE
  8
0
  6
CONTINUOUS
 62
     2
 10
141.575128869
 20
103.6
 30
0.0
 11
144.0
 21
102.2
 31
0.0
  0
LINE
  8
0
  6
CONTINUOUS
 62
     2
 10
144.0
 20
102.2
 30
0.0
 11
146.424871131
 21
103.6
 31
0.0
  0
LINE
  8
0
  6
CONTINUOUS
 62
     2
 10
146.424871131
 20
103.6
 30
0.0
 11
146.424871131
 21
106.4
 31
0.0
  0
CIRCLE
  8
0
  6
CONTINUOUS
 62
     2
 10
144.0
 20
105.0
 30
0.0
 40
1.5
  0
CIRCLE
  8
0
  6
CONTINUOUS
 62
     2
 10
144.0
 20
105.0
 30
0.0
 40
1.4
  0
CIRCLE
  8
0
  6
CONTINUOUS
 62
     2
 10
144.0
 20
105.0
 30
0.0
 40
3.0
  0
CIRCLE
  8
0
  6
CONTINUOUS
 62
     2
 10
144.0
 20
105.0
 30
0.0
 40
2.5
  0
LINE
  8
0
  6
LTYPE1
 62
     2
 10
144.0
 20
109.0
 30
0.0
 11
144.0
 21
101.0
 31
0.0
  0
LINE
  8
0
  6
LTYPE1
 62
     2
 10
148.0
 20
105.0
 30
0.0
 11
140.0
 21
105.0
 31
0.0
  0
CIRCLE
  8
0
  6
CONTINUOUS
 62
     1
 10
192.5
 20
129.0
 30
0.0
 40
11.0
  0
LINE
  8
0
  6
LTYPE1
 62
     2
 10
192.5
 20
116.5
 30
0.0
 11
192.5
 21
141.5
 31
0.0
  0
CIRCLE
  8
0
  6
CONTINUOUS
 62
     1
 10
185.5
 20
129.0
 30
0.0
 40
1.753
  0
CIRCLE
  8
0
  6
CONTINUOUS
 62
     1
 10
187.550252532
 20
124.050252532
 30
0.0
 40
1.753
  0
CIRCLE
  8
0
  6
CONTINUOUS
 62
     1
 10
192.5
 20
122.0
 30
0.0
 40
1.753
  0
CIRCLE
  8
0
  6
CONTINUOUS
 62
     1
 10
199.5
 20
129.0
 30
0.0
 40
1.753
  0
CIRCLE
  8
0
  6
CONTINUOUS
 62
     1
 10
197.449747468
 20
133.949747468
 30
0.0
 40
1.753
  0
CIRCLE
  8
0
  6
CONTINUOUS
 62
     1
 10
192.5
 20
136.0
 30
0.0
 40
1.753
  0
CIRCLE
  8
0
  6
CONTINUOUS
 62
     1
 10
157.5
 20
129.0
 30
0.0
 40
11.0
  0
LINE
  8
0
  6
LTYPE1
 62
     2
 10
157.5
 20
116.5
 30
0.0
 11
157.5
 21
141.5
 31
0.0
  0
CIRCLE
  8
0
  6
CONTINUOUS
 62
     1
 10
164.5
 20
129.0
 30
0.0
 40
1.753
  0
CIRCLE
  8
0
  6
CONTINUOUS
 62
     1
 10
162.449747468
 20
124.050252532
 30
0.0
 40
1.753
  0
CIRCLE
  8
0
  6
CONTINUOUS
 62
     1
 10
157.5
 20
122.0
 30
0.0
 40
1.753
  0
CIRCLE
  8
0
  6
CONTINUOUS
 62
     1
 10
150.5
 20
129.0
 30
0.0
 40
1.753
  0
CIRCLE
  8
0
  6
CONTINUOUS
 62
     1
 10
152.550252532
 20
133.949747468
 30
0.0
 40
1.753
  0
CIRCLE
  8
0
  6
CONTINUOUS
 62
     1
 10
157.5
 20
136.0
 30
0.0
 40
1.753
  0
LINE
  8
0
  6
LTYPE1
 62
     2
 10
145.0
 20
129.0
 30
0.0
 11
205.0
 21
129.0
 31
0.0
  0
ARC
  8
0
  6
CONTINUOUS
 62
     1
 10
93.75
 20
171.5
 30
0.0
 40
2.0
 50
90.0
 51
180.0
  0
ARC
  8
0
  6
CONTINUOUS
 62
     1
 10
93.75
 20
100.5
 30
0.0
 40
2.0
 50
180.0
 51
270.0
  0
LINE
  8
0
  6
CONTINUOUS
 62
     1
 10
91.75
 20
171.5
 30
0.0
 11
91.75
 21
100.5
 31
0.0
  0
LINE
  8
0
  6
CONTINUOUS
 62
     1
 10
93.75
 20
173.5
 30
0.0
 11
102.0
 21
173.5
 31
0.0
  0
LINE
  8
0
  6
CONTINUOUS
 62
     1
 10
102.0
 20
98.5
 30
0.0
 11
93.75
 21
98.5
 31
0.0
  0
TEXT
  8
0
  6
CONTINUOUS
 62
     2
 10
117.7
 20
141.17
 30
0.3
 40
1.8
  1
±１
 50
90.0
 41
0.666666667
 51
0.0
  7
KANJI4
  0
ARC
  8
0
  6
CONTINUOUS
 62
     1
 10
122.75
 20
169.25
 30
0.0
 40
0.5
 50
360.0
 51
90.0
  0
LINE
  8
0
  6
CONTINUOUS
 62
     2
 10
118.7
 20
169.75
 30
0.0
 11
118.052952387
 21
167.335185434
 31
0.0
  0
LINE
  8
0
  6
CONTINUOUS
 62
     2
 10
118.7
 20
169.75
 30
0.0
 11
119.347047613
 21
167.335185434
 31
0.0
  0
ARC
  8
0
  6
CONTINUOUS
 62
     1
 10
122.75
 20
102.75
 30
0.0
 40
0.5
 50
270.0
 51
360.0
  0
LINE
  8
0
  6
CONTINUOUS
 62
     2
 10
118.7
 20
102.25
 30
0.0
 11
119.347047613
 21
104.664814566
 31
0.0
  0
LINE
  8
0
  6
CONTINUOUS
 62
     2
 10
118.7
 20
102.25
 30
0.0
 11
118.052952387
 21
104.664814566
 31
0.0
  0
LINE
  8
0
  6
CONTINUOUS
 62
     1
 10
123.25
 20
169.25
 30
0.0
 11
123.25
 21
102.75
 31
0.0
  0
LINE
  8
0
  6
CONTINUOUS
 62
     2
 10
118.7
 20
169.75
 30
0.0
 11
118.7
 21
102.25
 31
0.0
  0
LINE
  8
0
  6
CONTINUOUS
 62
     1
 10
122.75
 20
169.75
 30
0.0
 11
107.582531755
 21
169.75
 31
0.0
  0
LINE
  8
0
  6
CONTINUOUS
 62
     1
 10
122.75
 20
102.25
 30
0.0
 11
107.582531755
 21
102.25
 31
0.0
  0
LINE
  8
0
  6
CONTINUOUS
 62
     2
 10
175.0
 20
178.0
 30
0.0
 11
172.585185434
 21
178.647047613
 31
0.0
  0
LINE
  8
0
  6
CONTINUOUS
 62
     2
 10
175.0
 20
178.0
 30
0.0
 11
172.585185434
 21
177.352952387
 31
0.0
  0
LINE
  8
0
  6
CONTINUOUS
 62
     2
 10
175.0
 20
178.0
 30
0.0
 11
177.414814566
 21
177.352952387
 31
0.0
  0
LINE
  8
0
  6
CONTINUOUS
 62
     2
 10
175.0
 20
178.0
 30
0.0
 11
177.414814566
 21
178.647047613
 31
0.0
  0
LINE
  8
0
  6
CONTINUOUS
 62
     2
 10
175.0
 20
175.873
 30
0.0
 11
175.0
 21
180.0
 31
0.0
  0
LINE
  8
0
  6
CONTINUOUS
 62
     2
 10
212.5
 20
183.0
 30
0.0
 11
210.085185434
 21
183.647047613
 31
0.0
  0
LINE
  8
0
  6
CONTINUOUS
 62
     2
 10
212.5
 20
183.0
 30
0.0
 11
210.085185434
 21
182.352952387
 31
0.0
  0
LINE
  8
0
  6
CONTINUOUS
 62
     2
 10
137.5
 20
183.0
 30
0.0
 11
139.914814566
 21
182.352952387
 31
0.0
  0
LINE
  8
0
  6
CONTINUOUS
 62
     2
 10
137.5
 20
183.0
 30
0.0
 11
139.914814566
 21
183.647047613
 31
0.0
  0
LINE
  8
0
  6
CONTINUOUS
 62
     2
 10
137.5
 20
183.0
 30
0.0
 11
212.5
 21
183.0
 31
0.0
  0
LINE
  8
0
  6
CONTINUOUS
 62
     2
 10
212.5
 20
174.0
 30
0.0
 11
212.5
 21
185.0
 31
0.0
  0
LINE
  8
0
  6
CONTINUOUS
 62
     2
 10
137.5
 20
174.0
 30
0.0
 11
137.5
 21
185.0
 31
0.0
  0
LINE
  8
0
  6
CONTINUOUS
 62
     2
 10
102.25
 20
183.0
 30
0.0
 11
104.664814566
 21
182.352952387
 31
0.0
  0
LINE
  8
0
  6
CONTINUOUS
 62
     2
 10
102.25
 20
183.0
 30
0.0
 11
104.664814566
 21
183.647047613
 31
0.0
  0
LINE
  8
0
  6
CONTINUOUS
 62
     2
 10
102.25
 20
183.0
 30
0.0
 11
99.835185434
 21
182.352952387
 31
0.0
  0
LINE
  8
0
  6
CONTINUOUS
 62
     2
 10
102.25
 20
183.0
 30
0.0
 11
99.835185434
 21
183.647047613
 31
0.0
  0
LINE
  8
0
  6
CONTINUOUS
 62
     2
 10
102.0
 20
178.0
 30
0.0
 11
99.585185434
 21
178.647047613
 31
0.0
  0
LINE
  8
0
  6
CONTINUOUS
 62
     2
 10
102.0
 20
178.0
 30
0.0
 11
99.585185434
 21
177.352952387
 31
0.0
  0
LINE
  8
0
  6
CONTINUOUS
 62
     2
 10
102.0
 20
178.0
 30
0.0
 11
97.95
 21
178.0
 31
0.0
  0
LINE
  8
0
  6
CONTINUOUS
 62
     2
 10
102.25
 20
178.0
 30
0.0
 11
104.074524064
 21
177.51112025
 31
0.0
  0
LINE
  8
0
  6
CONTINUOUS
 62
     2
 10
102.25
 20
178.0
 30
0.0
 11
104.094524064
 21
178.494238733
 31
0.0
  0
LINE
  8
0
  6
CONTINUOUS
 62
     2
 10
109.75
 20
178.0
 30
0.0
 11
107.964524064
 21
178.478416835
 31
0.0
  0
LINE
  8
0
  6
CONTINUOUS
 62
     2
 10
109.75
 20
178.0
 30
0.0
 11
107.964524064
 21
177.521583165
 31
0.0
  0
LINE
  8
0
  6
CONTINUOUS
 62
     2
 10
109.75
 20
178.0
 30
0.0
 11
102.0
 21
178.0
 31
0.0
  0
LINE
  8
0
  6
CONTINUOUS
 62
     2
 10
102.25
 20
174.0
 30
0.0
 11
102.25
 21
180.0
 31
0.0
  0
LINE
  8
0
  6
CONTINUOUS
 62
     2
 10
102.25
 20
174.0
 30
0.0
 11
102.25
 21
185.0
 31
0.0
  0
LINE
  8
0
  6
CONTINUOUS
 62
     2
 10
102.0
 20
180.0
 30
0.0
 11
102.0
 21
174.0
 31
0.0
  0
LINE
  8
0
  6
CONTINUOUS
 62
     2
 10
109.75
 20
174.0
 30
0.0
 11
109.75
 21
180.0
 31
0.0
  0
LINE
  8
0
  6
CONTINUOUS
 62
     2
 10
175.0
 20
178.0
 30
0.0
 11
206.0
 21
178.0
 31
0.0
  0
LINE
  8
0
  6
CONTINUOUS
 62
     2
 10
206.0
 20
178.0
 30
0.0
 11
203.585185434
 21
178.647047613
 31
0.0
  0
LINE
  8
0
  6
CONTINUOUS
 62
     2
 10
206.0
 20
178.0
 30
0.0
 11
203.585185434
 21
177.352952387
 31
0.0
  0
LINE
  8
0
  6
CONTINUOUS
 62
     2
 10
206.0
 20
174.0
 30
0.0
 11
206.0
 21
180.0
 31
0.0
  0
LINE
  8
0
  6
CONTINUOUS
 62
     2
 10
175.0
 20
178.0
 30
0.0
 11
144.0
 21
178.0
 31
0.0
  0
LINE
  8
0
  6
CONTINUOUS
 62
     2
 10
144.0
 20
178.0
 30
0.0
 11
146.414814566
 21
177.352952387
 31
0.0
  0
LINE
  8
0
  6
CONTINUOUS
 62
     2
 10
144.0
 20
178.0
 30
0.0
 11
146.414814566
 21
178.647047613
 31
0.0
  0
LINE
  8
0
  6
CONTINUOUS
 62
     2
 10
144.0
 20
174.0
 30
0.0
 11
144.0
 21
180.0
 31
0.0
  0
LINE
  8
0
  6
CONTINUOUS
 62
     2
 10
91.75
 20
183.0
 30
0.0
 11
94.164814566
 21
182.352952387
 31
0.0
  0
LINE
  8
0
  6
CONTINUOUS
 62
     2
 10
91.75
 20
183.0
 30
0.0
 11
94.164814566
 21
183.647047613
 31
0.0
  0
LINE
  8
0
  6
CONTINUOUS
 62
     2
 10
91.75
 20
174.0
 30
0.0
 11
91.75
 21
185.0
 31
0.0
  0
LINE
  8
0
  6
CONTINUOUS
 62
     2
 10
123.25
 20
183.0
 30
0.0
 11
120.835185434
 21
183.647047613
 31
0.0
  0
LINE
  8
0
  6
CONTINUOUS
 62
     2
 10
123.25
 20
183.0
 30
0.0
 11
120.835185434
 21
182.352952387
 31
0.0
  0
LINE
  8
0
  6
CONTINUOUS
 62
     2
 10
123.25
 20
183.0
 30
0.0
 11
120.835185434
 21
182.352952387
 31
0.0
  0
LINE
  8
0
  6
CONTINUOUS
 62
     2
 10
123.25
 20
183.0
 30
0.0
 11
120.835185434
 21
183.647047613
 31
0.0
  0
LINE
  8
0
  6
CONTINUOUS
 62
     2
 10
123.25
 20
183.0
 30
0.0
 11
125.664814566
 21
182.352952387
 31
0.0
  0
LINE
  8
0
  6
CONTINUOUS
 62
     2
 10
123.25
 20
183.0
 30
0.0
 11
125.664814566
 21
183.647047613
 31
0.0
  0
LINE
  8
0
  6
CONTINUOUS
 62
     2
 10
123.25
 20
174.0
 30
0.0
 11
123.25
 21
185.0
 31
0.0
  0
LINE
  8
0
  6
CONTINUOUS
 62
     2
 10
91.75
 20
183.0
 30
0.0
 11
123.25
 21
183.0
 31
0.0
  0
LINE
  8
0
  6
CONTINUOUS
 62
     2
 10
133.25
 20
183.0
 30
0.0
 11
130.835185434
 21
183.647047613
 31
0.0
  0
LINE
  8
0
  6
CONTINUOUS
 62
     2
 10
133.25
 20
183.0
 30
0.0
 11
130.835185434
 21
182.352952387
 31
0.0
  0
LINE
  8
0
  6
CONTINUOUS
 62
     2
 10
123.25
 20
183.0
 30
0.0
 11
133.25
 21
183.0
 31
0.0
  0
TEXT
  8
0
  6
CONTINUOUS
 62
     2
 10
159.686
 20
178.5
 30
0.3
 40
1.8
  1
±０．５
 50
0.0
 41
0.666666667
 51
0.0
  7
KANJI4
  0
TEXT
  8
0
  6
CONTINUOUS
 62
     2
 10
155.186
 20
178.5
 30
0.5
 40
3.0
  1
６２
 50
0.0
 41
0.666666667
 51
0.0
  7
KANJI5
  0
TEXT
  8
0
  6
CONTINUOUS
 62
     2
 10
190.686
 20
178.5
 30
0.3
 40
1.8
  1
±０．５
 50
0.0
 41
0.666666667
 51
0.0
  7
KANJI4
  0
TEXT
  8
0
  6
CONTINUOUS
 62
     2
 10
186.186
 20
178.5
 30
0.5
 40
3.0
  1
６２
 50
0.0
 41
0.666666667
 51
0.0
  7
KANJI5
  0
TEXT
  8
0
  6
CONTINUOUS
 62
     2
 10
170.2
 20
183.5
 30
0.5
 40
3.0
  1
１５０
 50
0.0
 41
0.666666667
 51
0.0
  7
KANJI5
  0
TEXT
  8
0
  6
CONTINUOUS
 62
     2
 10
177.1
 20
183.5
 30
0.3
 40
1.8
  1
±１．５
 50
0.0
 41
0.666666667
 51
0.0
  7
KANJI4
  0
TEXT
  8
0
  6
CONTINUOUS
 62
     2
 10
103.465
 20
178.5
 30
0.3
 40
3.0
  1
１５
 50
0.0
 41
0.6
 51
0.0
  7
KANJI1
  0
TEXT
  8
0
  6
CONTINUOUS
 62
     2
 10
107.534
 20
179.83
 30
0.3
 40
1.8
  1
±０．８
 50
0.0
 41
0.666666667
 51
0.0
  7
KANJI4
  0
TEXT
  8
0
  6
CONTINUOUS
 62
     2
 10
96.975
 20
178.5
 30
0.3
 40
3.0
  1
０．５
 50
0.0
 41
0.6
 51
0.0
  7
KANJI1
  0
TEXT
  8
0
  6
CONTINUOUS
 62
     2
 10
126.500991557
 20
183.5
 30
0.3
 40
3.0
  1
２０
 50
0.0
 41
0.6
 51
0.0
  7
KANJI1
  0
TEXT
  8
0
  6
CONTINUOUS
 62
     2
 10
104.21
 20
183.5
 30
0.3
 40
3.0
  1
可動鉄片形５２．５
 50
0.0
 41
0.6
 51
0.0
  7
KANJI1
  0
TEXT
  8
0
  6
CONTINUOUS
 62
     2
 10
93.436008443
 20
183.55
 30
0.3
 40
3.0
  1
２０．５
 50
0.0
 41
0.6
 51
0.0
  7
KANJI1
  0
LINE
  8
0
  6
CONTINUOUS
 62
     1
 10
124.75
 20
145.5
 30
0.0
 11
123.25
 21
145.0
 31
0.0
  0
LINE
  8
0
  6
CONTINUOUS
 62
     1
 10
124.75
 20
155.5
 30
0.0
 11
124.75
 21
145.5
 31
0.0
  0
LINE
  8
0
  6
CONTINUOUS
 62
     1
 10
124.75
 20
155.5
 30
0.0
 11
123.25
 21
156.0
 31
0.0
  0
CIRCLE
  8
0
  6
CONTINUOUS
 62
     2
 10
187.5
 20
150.5
 30
0.0
 40
3.175
  0
CIRCLE
  8
0
  6
CONTINUOUS
 62
     2
 10
187.5
 20
150.5
 30
0.0
 40
2.5
  0
LINE
  8
0
  6
CONTINUOUS
 62
     2
 10
187.85
 20
151.875
 30
0.0
 11
187.15
 21
151.875
 31
0.0
  0
LINE
  8
0
  6
CONTINUOUS
 62
     2
 10
187.15
 20
149.125
 30
0.0
 11
187.85
 21
149.125
 31
0.0
  0
LINE
  8
0
  6
CONTINUOUS
 62
     2
 10
187.15
 20
151.875
 30
0.0
 11
187.15
 21
151.6
 31
0.0
  0
LINE
  8
0
  6
CONTINUOUS
 62
     2
 10
186.4
 20
150.85
 30
0.0
 11
185.024621241
 21
150.85
 31
0.0
  0
ARC
  8
0
  6
CONTINUOUS
 62
     2
 10
186.4
 20
151.6
 30
0.0
 40
0.75
 50
270.0
 51
0.0
  0
LINE
  8
0
  6
CONTINUOUS
 62
     2
 10
187.85
 20
151.6
 30
0.0
 11
187.85
 21
151.875
 31
0.0
  0
LINE
  8
0
  6
CONTINUOUS
 62
     2
 10
189.95
 20
150.85
 30
0.0
 11
188.6
 21
150.85
 31
0.0
  0
ARC
  8
0
  6
CONTINUOUS
 62
     2
 10
188.6
 20
151.6
 30
0.0
 40
0.75
 50
180.0
 51
270.0
  0
LINE
  8
0
  6
CONTINUOUS
 62
     2
 10
187.85
 20
149.125
 30
0.0
 11
187.85
 21
149.4
 31
0.0
  0
LINE
  8
0
  6
CONTINUOUS
 62
     2
 10
188.6
 20
150.15
 30
0.0
 11
189.975378759
 21
150.15
 31
0.0
  0
ARC
  8
0
  6
CONTINUOUS
 62
     2
 10
188.6
 20
149.4
 30
0.0
 40
0.75
 50
90.0
 51
180.0
  0
LINE
  8
0
  6
CONTINUOUS
 62
     2
 10
187.15
 20
149.4
 30
0.0
 11
187.15
 21
149.125
 31
0.0
  0
LINE
  8
0
  6
CONTINUOUS
 62
     2
 10
185.024621241
 20
150.15
 30
0.0
 11
186.4
 21
150.15
 31
0.0
  0
ARC
  8
0
  6
CONTINUOUS
 62
     2
 10
186.4
 20
149.4
 30
0.0
 40
0.75
 50
0.0
 51
90.0
  0
LINE
  8
0
  6
LTYPE1
 62
     2
 10
187.5
 20
154.5
 30
0.0
 11
187.5
 21
146.5
 31
0.0
  0
LINE
  8
0
  6
LTYPE1
 62
     2
 10
183.5
 20
150.5
 30
0.0
 11
191.5
 21
150.5
 31
0.0
  0
CIRCLE
  8
0
  6
CONTINUOUS
 62
     2
 10
162.5
 20
150.5
 30
0.0
 40
3.175
  0
CIRCLE
  8
0
  6
CONTINUOUS
 62
     2
 10
162.5
 20
150.5
 30
0.0
 40
2.5
  0
LINE
  8
0
  6
CONTINUOUS
 62
     2
 10
162.15
 20
151.875
 30
0.0
 11
162.85
 21
151.875
 31
0.0
  0
LINE
  8
0
  6
CONTINUOUS
 62
     2
 10
162.85
 20
149.125
 30
0.0
 11
162.15
 21
149.125
 31
0.0
  0
LINE
  8
0
  6
CONTINUOUS
 62
     2
 10
162.85
 20
151.875
 30
0.0
 11
162.85
 21
151.6
 31
0.0
  0
LINE
  8
0
  6
CONTINUOUS
 62
     2
 10
163.6
 20
150.85
 30
0.0
 11
164.975378759
 21
150.85
 31
0.0
  0
ARC
  8
0
  6
CONTINUOUS
 62
     2
 10
163.6
 20
151.6
 30
0.0
 40
0.75
 50
180.0
 51
270.0
  0
LINE
  8
0
  6
CONTINUOUS
 62
     2
 10
162.15
 20
151.6
 30
0.0
 11
162.15
 21
151.875
 31
0.0
  0
LINE
  8
0
  6
CONTINUOUS
 62
     2
 10
160.05
 20
150.85
 30
0.0
 11
161.4
 21
150.85
 31
0.0
  0
ARC
  8
0
  6
CONTINUOUS
 62
     2
 10
161.4
 20
151.6
 30
0.0
 40
0.75
 50
270.0
 51
0.0
  0
LINE
  8
0
  6
CONTINUOUS
 62
     2
 10
162.15
 20
149.125
 30
0.0
 11
162.15
 21
149.4
 31
0.0
  0
LINE
  8
0
  6
CONTINUOUS
 62
     2
 10
161.4
 20
150.15
 30
0.0
 11
160.024621241
 21
150.15
 31
0.0
  0
ARC
  8
0
  6
CONTINUOUS
 62
     2
 10
161.4
 20
149.4
 30
0.0
 40
0.75
 50
360.0
 51
90.0
  0
LINE
  8
0
  6
CONTINUOUS
 62
     2
 10
162.85
 20
149.4
 30
0.0
 11
162.85
 21
149.125
 31
0.0
  0
LINE
  8
0
  6
CONTINUOUS
 62
     2
 10
164.975378759
 20
150.15
 30
0.0
 11
163.6
 21
150.15
 31
0.0
  0
ARC
  8
0
  6
CONTINUOUS
 62
     2
 10
163.6
 20
149.4
 30
0.0
 40
0.75
 50
90.0
 51
180.0
  0
LINE
  8
0
  6
LTYPE1
 62
     2
 10
162.5
 20
154.5
 30
0.0
 11
162.5
 21
146.5
 31
0.0
  0
LINE
  8
0
  6
LTYPE1
 62
     2
 10
166.5
 20
150.5
 30
0.0
 11
158.5
 21
150.5
 31
0.0
  0
LINE
  8
0
  6
CONTINUOUS
 62
     1
 10
123.25
 20
140.0
 30
0.0
 11
130.75
 21
140.0
 31
0.0
  0
ARC
  8
0
  6
CONTINUOUS
 62
     1
 10
130.75
 20
139.0
 30
0.0
 40
1.0
 50
0.0
 51
90.0
  0
LINE
  8
0
  6
CONTINUOUS
 62
     1
 10
130.75
 20
118.0
 30
0.0
 11
123.25
 21
118.0
 31
0.0
  0
LINE
  8
0
  6
CONTINUOUS
 62
     1
 10
131.75
 20
139.0
 30
0.0
 11
131.75
 21
119.0
 31
0.0
  0
ARC
  8
0
  6
CONTINUOUS
 62
     1
 10
130.75
 20
119.0
 30
0.0
 40
1.0
 50
270.0
 51
0.0
  0
ARC
  8
0
  6
CONTINUOUS
 62
     1
 10
123.25
 20
129.0
 30
0.0
 40
1.753
 50
269.999983711
 51
90.000016289
  0
ARC
  8
0
  6
CONTINUOUS
 62
     1
 10
123.25
 20
136.0
 30
0.0
 40
1.753
 50
269.999983711
 51
90.000016289
  0
ARC
  8
0
  6
CONTINUOUS
 62
     1
 10
123.25
 20
122.0
 30
0.0
 40
1.753
 50
269.999983711
 51
90.000016289
  0
LINE
  8
0
  6
CONTINUOUS
 62
     2
 10
123.25
 20
111.0
 30
0.0
 11
125.074524064
 21
110.51112025
 31
0.0
  0
LINE
  8
0
  6
CONTINUOUS
 62
     2
 10
123.25
 20
111.0
 30
0.0
 11
125.094524064
 21
111.494238733
 31
0.0
  0
LINE
  8
0
  6
CONTINUOUS
 62
     2
 10
131.75
 20
111.0
 30
0.0
 11
129.964524064
 21
111.478416835
 31
0.0
  0
LINE
  8
0
  6
CONTINUOUS
 62
     2
 10
131.75
 20
111.0
 30
0.0
 11
129.964524064
 21
110.521583165
 31
0.0
  0
LINE
  8
0
  6
CONTINUOUS
 62
     2
 10
131.75
 20
111.0
 30
0.0
 11
123.25
 21
111.0
 31
0.0
  0
LINE
  8
0
  6
CONTINUOUS
 62
     2
 10
131.75
 20
116.0
 30
0.0
 11
131.75
 21
109.0
 31
0.0
  0
TEXT
  8
0
  6
CONTINUOUS
 62
     2
 10
125.465
 20
111.5
 30
0.3
 40
3.0
  1
１７
 50
0.0
 41
0.6
 51
0.0
  7
KANJI1
  0
LINE
  8
0
  6
CONTINUOUS
 62
     2
 10
133.056
 20
147.7
 30
0.0
 11
132.408952387
 21
145.285185434
 31
0.0
  0
LINE
  8
0
  6
CONTINUOUS
 62
     2
 10
133.056
 20
147.7
 30
0.0
 11
133.703047613
 21
145.285185434
 31
0.0
  0
TEXT
  8
0
  6
CONTINUOUS
 62
     2
 10
178.146487336
 20
111.462
 30
0.1
 40
3.0
  1
倍率器
 50
0.0
 41
0.9
 51
0.0
  7
KANJI2
  0
LINE
  8
0
  6
CONTINUOUS
 62
     2
 10
170.0
 20
111.0
 30
0.0
 11
187.038575412
 21
111.0
 31
0.0
  0
LINE
  8
0
  6
CONTINUOUS
 62
     2
 10
185.837793834
 20
120.247
 30
0.0
 11
183.426156364
 21
119.588209657
 31
0.0
  0
LINE
  8
0
  6
CONTINUOUS
 62
     2
 10
185.837793834
 20
120.247
 30
0.0
 11
184.078649692
 21
118.470652093
 31
0.0
  0
LINE
  8
0
  6
CONTINUOUS
 62
     2
 10
185.837793834
 20
120.247
 30
0.0
 11
170.0
 21
111.0
 31
0.0
  0
LINE
  8
0
  6
CONTINUOUS
 62
     2
 10
164.162206166
 20
120.247
 30
0.0
 11
164.904182584
 21
117.859643513
 31
0.0
  0
LINE
  8
0
  6
CONTINUOUS
 62
     2
 10
164.162206166
 20
120.247
 30
0.0
 11
165.998454837
 21
118.550476844
 31
0.0
  0
LINE
  8
0
  6
CONTINUOUS
 62
     2
 10
164.162206166
 20
120.247
 30
0.0
 11
170.0
 21
111.0
 31
0.0
  0
TEXT
  8
0
  6
CONTINUOUS
 62
     2
 10
80.535
 20
88.0
 30
0.1
 40
3.0
  1
４－Ｍ６取付ボルト
 50
0.0
 41
0.9
 51
0.0
  7
KANJI2
  0
LINE
  8
0
  6
CONTINUOUS
 62
     2
 10
80.225
 20
87.0
 30
0.0
 11
105.969
 21
87.0
 31
0.0
  0
TEXT
  8
0
  6
CONTINUOUS
 62
     2
 10
113.251424588
 20
88.0
 30
0.1
 40
3.0
  1
ターミナルネジ
 50
0.0
 41
0.9
 51
0.0
  7
KANJI2
  0
LINE
  8
0
  6
CONTINUOUS
 62
     2
 10
133.056
 20
147.7
 30
0.0
 11
133.056
 21
87.0
 31
0.0
  0
LINE
  8
0
  6
CONTINUOUS
 62
     2
 10
112.877424588
 20
87.0
 30
0.0
 11
133.056
 21
87.0
 31
0.0
  0
TEXT
  8
0
  6
CONTINUOUS
 62
     2
 10
20.0
 20
26.0
 30
0.5
 40
3.0
  1
注．倍率器は交流電圧計（可動鉄片形）のみに付属します。
 50
0.0
 41
0.9
 51
0.0
  7
KANJI3
  0
LINE
  8
0
  6
CONTINUOUS
 62
     2
 10
20.0
 20
25.0
 30
0.0
 11
102.389
 21
25.0
 31
0.0
  0
LINE
  8
0
  6
CONTINUOUS
 62
     2
 10
40.0
 20
75.0
 30
0.0
 11
40.0
 21
55.0
 31
0.0
  0
LINE
  8
0
  6
CONTINUOUS
 62
     2
 10
40.0
 20
75.0
 30
0.0
 11
38.069
 21
74.06
 31
0.0
  0
LINE
  8
0
  6
CONTINUOUS
 62
     2
 10
38.069
 20
74.06
 30
0.0
 11
37.931
 21
73.275
 31
0.0
  0
LINE
  8
0
  6
CONTINUOUS
 62
     2
 10
37.931
 20
73.275
 30
0.0
 11
37.1
 21
72.399
 31
0.0
  0
LINE
  8
0
  6
CONTINUOUS
 62
     2
 10
37.1
 20
72.399
 30
0.0
 11
36.639
 21
71.753
 31
0.0
  0
LINE
  8
0
  6
CONTINUOUS
 62
     2
 10
36.639
 20
71.753
 30
0.0
 11
36.177
 21
71.753
 31
0.0
  0
LINE
  8
0
  6
CONTINUOUS
 62
     2
 10
36.177
 20
71.753
 30
0.0
 11
35.624
 21
70.83
 31
0.0
  0
LINE
  8
0
  6
CONTINUOUS
 62
     2
 10
35.624
 20
70.83
 30
0.0
 11
35.301
 21
69.4
 31
0.0
  0
LINE
  8
0
  6
CONTINUOUS
 62
     2
 10
35.301
 20
69.4
 30
0.0
 11
35.901
 21
68.985
 31
0.0
  0
LINE
  8
0
  6
CONTINUOUS
 62
     2
 10
35.901
 20
68.985
 30
0.0
 11
35.624
 21
68.431
 31
0.0
  0
LINE
  8
0
  6
CONTINUOUS
 62
     2
 10
35.624
 20
68.431
 30
0.0
 11
35.162
 21
67.647
 31
0.0
  0
LINE
  8
0
  6
CONTINUOUS
 62
     2
 10
35.162
 20
67.647
 30
0.0
 11
35.485
 21
66.263
 31
0.0
  0
LINE
  8
0
  6
CONTINUOUS
 62
     2
 10
35.485
 20
66.263
 30
0.0
 11
35.116
 21
65.709
 31
0.0
  0
LINE
  8
0
  6
CONTINUOUS
 62
     2
 10
35.116
 20
65.709
 30
0.0
 11
35.854
 21
64.325
 31
0.0
  0
LINE
  8
0
  6
CONTINUOUS
 62
     2
 10
35.854
 20
64.325
 30
0.0
 11
35.439
 21
63.771
 31
0.0
  0
LINE
  8
0
  6
CONTINUOUS
 62
     2
 10
35.439
 20
63.771
 30
0.0
 11
35.485
 21
61.88
 31
0.0
  0
LINE
  8
0
  6
CONTINUOUS
 62
     2
 10
35.485
 20
61.88
 30
0.0
 11
35.947
 21
61.142
 31
0.0
  0
LINE
  8
0
  6
CONTINUOUS
 62
     2
 10
35.947
 20
61.142
 30
0.0
 11
35.716
 21
60.45
 31
0.0
  0
LINE
  8
0
  6
CONTINUOUS
 62
     2
 10
35.716
 20
60.45
 30
0.0
 11
36.777
 21
59.065
 31
0.0
  0
LINE
  8
0
  6
CONTINUOUS
 62
     2
 10
36.777
 20
59.065
 30
0.0
 11
36.685
 21
58.281
 31
0.0
  0
LINE
  8
0
  6
CONTINUOUS
 62
     2
 10
36.685
 20
58.281
 30
0.0
 11
37.285
 21
57.82
 31
0.0
  0
LINE
  8
0
  6
CONTINUOUS
 62
     2
 10
37.285
 20
57.82
 30
0.0
 11
37.7
 21
56.205
 31
0.0
  0
LINE
  8
0
  6
CONTINUOUS
 62
     2
 10
37.7
 20
56.205
 30
0.0
 11
38.53
 21
56.343
 31
0.0
  0
LINE
  8
0
  6
CONTINUOUS
 62
     2
 10
38.53
 20
56.343
 30
0.0
 11
38.946
 21
55.559
 31
0.0
  0
LINE
  8
0
  6
CONTINUOUS
 62
     2
 10
38.946
 20
55.559
 30
0.0
 11
40.0
 21
55.0
 31
0.0
  0
LINE
  8
0
  6
CONTINUOUS
 62
     2
 10
40.0
 20
82.0
 30
0.0
 11
42.414814566
 21
81.352952387
 31
0.0
  0
LINE
  8
0
  6
CONTINUOUS
 62
     2
 10
40.0
 20
82.0
 30
0.0
 11
42.414814566
 21
82.647047613
 31
0.0
  0
LINE
  8
0
  6
CONTINUOUS
 62
     2
 10
40.0
 20
76.0
 30
0.0
 11
40.0
 21
84.0
 31
0.0
  0
LINE
  8
0
  6
LTYPE3
 62
     2
 10
33.64
 20
65.0
 30
0.0
 11
65.75
 21
65.0
 31
0.0
  0
LINE
  8
0
  6
CONTINUOUS
 62
     2
 10
64.235594413
 20
55.424229936
 30
0.0
 11
78.624594413
 21
55.424229936
 31
0.0
  0
LINE
  8
0
  6
CONTINUOUS
 62
     2
 10
62.5
 20
82.0
 30
0.0
 11
60.085185434
 21
82.647047613
 31
0.0
  0
LINE
  8
0
  6
CONTINUOUS
 62
     2
 10
62.5
 20
82.0
 30
0.0
 11
60.085185434
 21
81.352952387
 31
0.0
  0
LINE
  8
0
  6
CONTINUOUS
 62
     2
 10
62.5
 20
82.0
 30
0.0
 11
40.0
 21
82.0
 31
0.0
  0
TEXT
  8
0
  6
CONTINUOUS
 62
     2
 10
48.8558164
 20
83.0
 30
0.5
 40
3.0
  1
４５
 50
0.0
 41
0.666666667
 51
0.0
  7
KANJI5
  0
LINE
  8
0
  6
CONTINUOUS
 62
     2
 10
62.5
 20
67.1
 30
0.0
 11
62.41339746
 21
67.25
 31
0.0
  0
LINE
  8
0
  6
CONTINUOUS
 62
     2
 10
62.5
 20
68.45
 30
0.0
 11
62.5
 21
84.0
 31
0.0
  0
LINE
  8
0
  6
CONTINUOUS
 62
     2
 10
62.5
 20
62.9
 30
0.0
 11
62.41339746
 21
62.75
 31
0.0
  0
LINE
  8
0
  6
CONTINUOUS
 62
     2
 10
62.5
 20
67.1
 30
0.0
 11
62.5
 21
62.9
 31
0.0
  0
ARC
  8
0
  6
CONTINUOUS
 62
     2
 10
55.8333375
 20
68.08332625
 30
0.0
 40
1.6666625
 50
325.0
 51
35.0
  0
LINE
  8
0
  6
CONTINUOUS
 62
     2
 10
62.5
 20
67.1
 30
0.0
 11
57.5
 21
67.1
 31
0.0
  0
LINE
  8
0
  6
CONTINUOUS
 62
     2
 10
57.5
 20
67.25
 30
0.0
 11
62.41339746
 21
67.25
 31
0.0
  0
ARC
  8
0
  6
CONTINUOUS
 62
     2
 10
55.1666625
 20
68.08332625
 30
0.0
 40
1.6666625
 50
145.0
 51
215.0
  0
LINE
  8
0
  6
CONTINUOUS
 62
     2
 10
57.225465585
 20
67.143430898
 30
0.0
 11
53.774534415
 21
67.143430898
 31
0.0
  0
ARC
  8
0
  6
CONTINUOUS
 62
     2
 10
55.8333375
 20
61.91667375
 30
0.0
 40
1.6666625
 50
325.0
 51
35.0
  0
LINE
  8
0
  6
CONTINUOUS
 62
     2
 10
62.5
 20
62.9
 30
0.0
 11
57.5
 21
62.9
 31
0.0
  0
LINE
  8
0
  6
CONTINUOUS
 62
     2
 10
57.5
 20
62.75
 30
0.0
 11
62.269059892
 21
62.75
 31
0.0
  0
LINE
  8
0
  6
CONTINUOUS
 62
     2
 10
62.41339746
 20
62.75
 30
0.0
 11
57.5
 21
62.75
 31
0.0
  0
ARC
  8
0
  6
CONTINUOUS
 62
     2
 10
55.1666625
 20
61.91667375
 30
0.0
 40
1.6666625
 50
145.0
 51
215.0
  0
LINE
  8
0
  6
CONTINUOUS
 62
     2
 10
53.76796405
 20
62.878893285
 30
0.0
 11
57.2012988
 21
62.878893285
 31
0.0
  0
LINE
  8
0
  6
CONTINUOUS
 62
     2
 10
53.79999925
 20
60.9500095
 30
0.0
 11
57.20000075
 21
60.9500095
 31
0.0
  0
LINE
  8
0
  6
CONTINUOUS
 62
     2
 10
57.5
 20
61.91667375
 30
0.0
 11
57.5
 21
68.08332625
 31
0.0
  0
ARC
  8
0
  6
CONTINUOUS
 62
     2
 10
61.158182131
 20
65.0
 30
0.0
 40
7.658182131
 50
163.871639144
 51
196.128360856
  0
ARC
  8
0
  6
CONTINUOUS
 62
     2
 10
49.841817869
 20
65.0
 30
0.0
 40
7.658182131
 50
343.871639144
 51
16.128360856
  0
LINE
  8
0
  6
CONTINUOUS
 62
     2
 10
60.446
 20
61.988
 30
0.0
 11
61.093047613
 21
59.573185434
 31
0.0
  0
LINE
  8
0
  6
CONTINUOUS
 62
     2
 10
60.446
 20
61.988
 30
0.0
 11
62.213766953
 21
60.220233047
 31
0.0
  0
LINE
  8
0
  6
CONTINUOUS
 62
     2
 10
60.446
 20
61.988
 30
0.0
 11
64.235594413
 21
55.424229936
 31
0.0
  0
TEXT
  8
0
  6
CONTINUOUS
 62
     2
 10
64.235594413
 20
56.424229936
 30
0.1
 40
3.0
  1
Ｍ９ボルト
 50
0.0
 41
0.9
 51
0.0
  7
KANJI2
  0
LINE
  8
0
  6
CONTINUOUS
 62
     2
 10
41.5
 20
60.0
 30
0.0
 11
40.0
 21
59.5
 31
0.0
  0
LINE
  8
0
  6
CONTINUOUS
 62
     2
 10
41.5
 20
70.0
 30
0.0
 11
41.5
 21
60.0
 31
0.0
  0
LINE
  8
0
  6
CONTINUOUS
 62
     2
 10
41.5
 20
70.0
 30
0.0
 11
40.0
 21
70.5
 31
0.0
  0
LINE
  8
0
  6
CONTINUOUS
 62
     2
 10
20.0
 20
45.0
 30
0.0
 11
99.548
 21
45.0
 31
0.0
  0
LINE
  8
0
  6
LTYPE1
 62
     2
 10
50.0
 20
176.5
 30
0.0
 11
50.0
 21
96.8
 31
0.0
  0
ARC
  8
0
  6
CONTINUOUS
 62
     1
 10
82.5
 20
103.5
 30
0.0
 40
5.0
 50
270.0
 51
0.0
  0
ARC
  8
0
  6
CONTINUOUS
 62
     1
 10
17.5
 20
103.5
 30
0.0
 40
5.0
 50
180.0
 51
270.0
  0
LINE
  8
0
  6
CONTINUOUS
 62
     1
 10
17.5
 20
98.5
 30
0.0
 11
82.5
 21
98.5
 31
0.0
  0
ARC
  8
0
  6
CONTINUOUS
 62
     1
 10
82.5
 20
168.5
 30
0.0
 40
5.0
 50
0.0
 51
90.0
  0
LINE
  8
0
  6
CONTINUOUS
 62
     1
 10
87.5
 20
103.5
 30
0.0
 11
87.5
 21
168.5
 31
0.0
  0
ARC
  8
0
  6
CONTINUOUS
 62
     1
 10
17.5
 20
168.5
 30
0.0
 40
5.0
 50
90.0
 51
180.0
  0
LINE
  8
0
  6
CONTINUOUS
 62
     1
 10
12.5
 20
168.5
 30
0.0
 11
12.5
 21
103.5
 31
0.0
  0
LINE
  8
0
  6
CONTINUOUS
 62
     1
 10
82.5
 20
173.5
 30
0.0
 11
17.5
 21
173.5
 31
0.0
  0
ARC
  8
0
  6
CONTINUOUS
 62
     2
 10
50.0
 20
124.0
 30
0.0
 40
34.5
 50
37.693530731
 51
141.925756185
  0
ARC
  8
0
  6
CONTINUOUS
 62
     2
 10
50.0
 20
124.0
 30
0.0
 40
37.5
 50
38.241822585
 51
141.805442848
  0
ARC
  8
0
  6
CONTINUOUS
 62
     2
 10
16.5
 20
169.5
 30
0.0
 40
2.0
 50
90.0
 51
180.0
  0
LINE
  8
0
  6
CONTINUOUS
 62
     2
 10
83.5
 20
171.5
 30
0.0
 11
16.5
 21
171.5
 31
0.0
  0
ARC
  8
0
  6
CONTINUOUS
 62
     2
 10
83.5
 20
169.5
 30
0.0
 40
2.0
 50
0.0
 51
90.0
  0
ARC
  8
0
  6
CONTINUOUS
 62
     2
 10
16.5
 20
169.5
 30
0.0
 40
1.25
 50
90.0
 51
180.0
  0
ARC
  8
0
  6
CONTINUOUS
 62
     2
 10
16.5
 20
169.5
 30
0.0
 40
0.5
 50
90.0
 51
180.0
  0
ARC
  8
0
  6
CONTINUOUS
 62
     2
 10
83.5
 20
169.5
 30
0.0
 40
1.25
 50
0.0
 51
90.0
  0
ARC
  8
0
  6
CONTINUOUS
 62
     2
 10
83.5
 20
169.5
 30
0.0
 40
0.5
 50
0.0
 51
90.0
  0
LINE
  8
0
  6
CONTINUOUS
 62
     2
 10
83.5
 20
170.75
 30
0.0
 11
16.5
 21
170.75
 31
0.0
  0
LINE
  8
0
  6
CONTINUOUS
 62
     2
 10
83.5
 20
170.0
 30
0.0
 11
16.5
 21
170.0
 31
0.0
  0
LINE
  8
0
  6
CONTINUOUS
 62
     2
 10
14.5
 20
169.5
 30
0.0
 11
14.5
 21
134.0
 31
0.0
  0
ARC
  8
0
  6
CONTINUOUS
 62
     2
 10
16.5
 20
134.0
 30
0.0
 40
2.0
 50
180.0
 51
270.0
  0
LINE
  8
0
  6
CONTINUOUS
 62
     2
 10
85.5
 20
134.0
 30
0.0
 11
85.5
 21
169.5
 31
0.0
  0
LINE
  8
0
  6
CONTINUOUS
 62
     2
 10
83.5
 20
132.0
 30
0.0
 11
16.5
 21
132.0
 31
0.0
  0
ARC
  8
0
  6
CONTINUOUS
 62
     2
 10
83.5
 20
134.0
 30
0.0
 40
2.0
 50
270.0
 51
0.0
  0
ARC
  8
0
  6
CONTINUOUS
 62
     2
 10
83.5
 20
134.0
 30
0.0
 40
1.25
 50
270.0
 51
0.0
  0
ARC
  8
0
  6
CONTINUOUS
 62
     2
 10
16.5
 20
134.0
 30
0.0
 40
1.25
 50
180.0
 51
270.0
  0
LINE
  8
0
  6
CONTINUOUS
 62
     2
 10
15.25
 20
169.5
 30
0.0
 11
15.25
 21
134.0
 31
0.0
  0
LINE
  8
0
  6
CONTINUOUS
 62
     2
 10
16.0
 20
169.5
 30
0.0
 11
16.0
 21
132.854356076
 31
0.0
  0
LINE
  8
0
  6
CONTINUOUS
 62
     2
 10
83.5
 20
132.75
 30
0.0
 11
16.5
 21
132.75
 31
0.0
  0
LINE
  8
0
  6
CONTINUOUS
 62
     2
 10
84.75
 20
134.0
 30
0.0
 11
84.75
 21
169.5
 31
0.0
  0
LINE
  8
0
  6
CONTINUOUS
 62
     2
 10
84.0
 20
132.854356076
 30
0.0
 11
84.0
 21
169.5
 31
0.0
  0
LINE
  8
0
  6
CONTINUOUS
 62
     2
 10
36.421043771
 20
132.75
 30
0.0
 11
20.05
 21
147.85
 31
0.0
  0
LINE
  8
0
  6
CONTINUOUS
 62
     2
 10
20.0
 20
147.75
 30
0.0
 11
34.084745763
 21
132.75
 31
0.0
  0
LINE
  8
0
  6
LTYPE1
 62
     2
 10
35.254237288
 20
132.75
 30
0.0
 11
18.743
 21
148.98605
 31
0.0
  0
LINE
  8
0
  6
CONTINUOUS
 62
     2
 10
64.745762712
 20
132.75
 30
0.0
 11
81.257
 21
148.98605
 31
0.0
  0
TEXT
  8
0
  6
CONTINUOUS
 62
     2
 10
20.0
 20
46.0
 30
0.5
 40
3.0
  1
５０Ａを超え１５０Ａまでの交流電流計のターミナル部
 50
0.0
 41
0.9
 51
0.0
  7
KANJI3
  0
LINE
  8
0
  6
CONTINUOUS
 62
     2
 10
57.207869165
 20
69.0499905
 30
0.0
 11
53.801412506
 21
69.0499905
 31
0.0
  0
LINE
  8
0
  6
CONTINUOUS
 62
     2
 10
53.5
 20
68.083327204
 30
0.0
 11
53.5
 21
61.91667375
 31
0.0
  0
LINE
  8
0
  6
CONTINUOUS
 62
     2
 10
51.50029518
 20
65.0666665
 30
0.0
 11
52.56695918
 21
65.0666665
 31
0.0
  0
LINE
  8
0
  6
CONTINUOUS
 62
     2
 10
53.50029018
 20
64.9333335
 30
0.0
 11
52.43362618
 21
64.9333335
 31
0.0
  0
POLYLINE
  8
0
  6
CONTINUOUS
 62
     2
 66
     1
  0
VERTEX
  8
0
  6
CONTINUOUS
 62
     2
 10
52.56695918
 20
65.0666665
 30
0.0
  0
VERTEX
  8
0
  6
CONTINUOUS
 62
     2
 10
53.03362468
 20
69.24999
 30
0.0
  0
VERTEX
  8
0
  6
CONTINUOUS
 62
     2
 10
51.96696068
 20
69.24999
 30
0.0
  0
VERTEX
  8
0
  6
CONTINUOUS
 62
     2
 10
51.50029518
 20
65.0666665
 30
0.0
  0
SEQEND
  0
LINE
  8
0
  6
CONTINUOUS
 62
     2
 10
53.5
 20
67.1
 30
0.0
 11
52.778541121
 21
67.1
 31
0.0
  0
LINE
  8
0
  6
CONTINUOUS
 62
     2
 10
52.796337731
 20
67.25
 30
0.0
 11
53.5
 21
67.25
 31
0.0
  0
LINE
  8
0
  6
CONTINUOUS
 62
     2
 10
51.50029518
 20
67.25
 30
0.0
 11
51.729673731
 21
67.25
 31
0.0
  0
LINE
  8
0
  6
CONTINUOUS
 62
     2
 10
51.711877121
 20
67.1
 30
0.0
 11
51.50029518
 21
67.1
 31
0.0
  0
LINE
  8
0
  6
CONTINUOUS
 62
     2
 10
51.96696068
 20
60.75001
 30
0.0
 11
53.03362468
 21
60.75001
 31
0.0
  0
LINE
  8
0
  6
CONTINUOUS
 62
     2
 10
52.43362618
 20
64.9333335
 30
0.0
 11
51.96696068
 21
60.75001
 31
0.0
  0
LINE
  8
0
  6
CONTINUOUS
 62
     2
 10
53.03362468
 20
60.75001
 30
0.0
 11
53.50029018
 21
64.9333335
 31
0.0
  0
LINE
  8
0
  6
CONTINUOUS
 62
     2
 10
53.5
 20
62.9
 30
0.0
 11
53.28870824
 21
62.9
 31
0.0
  0
LINE
  8
0
  6
CONTINUOUS
 62
     2
 10
52.22204424
 20
62.9
 30
0.0
 11
51.50029518
 21
62.9
 31
0.0
  0
LINE
  8
0
  6
CONTINUOUS
 62
     2
 10
52.204247629
 20
62.75
 30
0.0
 11
51.50029518
 21
62.75
 31
0.0
  0
LINE
  8
0
  6
CONTINUOUS
 62
     2
 10
53.5
 20
62.75
 30
0.0
 11
53.270911629
 21
62.75
 31
0.0
  0
LINE
  8
0
  6
CONTINUOUS
 62
     2
 10
53.270911629
 20
62.75
 30
0.0
 11
53.5
 21
62.75
 31
0.0
  0
LINE
  8
0
  6
CONTINUOUS
 62
     2
 10
51.50029518
 20
69.3166565
 30
0.0
 11
51.50029518
 21
60.680010175
 31
0.0
  0
LINE
  8
0
  6
CONTINUOUS
 62
     2
 10
50.44029783
 20
60.680010175
 30
0.0
 11
50.44029783
 21
69.3166565
 31
0.0
  0
LINE
  8
0
  6
CONTINUOUS
 62
     2
 10
51.50029518
 20
62.75
 30
0.0
 11
52.204247629
 21
62.75
 31
0.0
  0
LINE
  8
0
  6
CONTINUOUS
 62
     2
 10
49.37363383
 20
69.3166565
 30
0.0
 11
51.50029518
 21
69.3166565
 31
0.0
  0
POLYLINE
  8
0
  6
CONTINUOUS
 62
     2
 66
     1
  0
VERTEX
  8
0
  6
CONTINUOUS
 62
     2
 10
51.50029518
 20
60.680010175
 30
0.0
  0
VERTEX
  8
0
  6
CONTINUOUS
 62
     2
 10
49.37363383
 20
60.680010175
 30
0.0
  0
VERTEX
  8
0
  6
CONTINUOUS
 62
     2
 10
49.37363383
 20
69.3166565
 30
0.0
  0
SEQEND
  0
ARC
  8
0
  6
CONTINUOUS
 62
     2
 10
47.70697133
 20
68.08332625
 30
0.0
 40
1.6666625
 50
325.0
 51
35.0
  0
ARC
  8
0
  6
CONTINUOUS
 62
     2
 10
47.04029633
 20
68.08332625
 30
0.0
 40
1.6666625
 50
145.0
 51
215.0
  0
LINE
  8
0
  6
CONTINUOUS
 62
     2
 10
49.099099416
 20
67.143430898
 30
0.0
 11
45.648168245
 21
67.143430898
 31
0.0
  0
ARC
  8
0
  6
CONTINUOUS
 62
     2
 10
47.70697133
 20
61.91667375
 30
0.0
 40
1.6666625
 50
325.0
 51
35.0
  0
ARC
  8
0
  6
CONTINUOUS
 62
     2
 10
47.04029633
 20
61.91667375
 30
0.0
 40
1.6666625
 50
145.0
 51
215.0
  0
LINE
  8
0
  6
CONTINUOUS
 62
     2
 10
45.641597881
 20
62.878893285
 30
0.0
 11
49.074932631
 21
62.878893285
 31
0.0
  0
LINE
  8
0
  6
CONTINUOUS
 62
     2
 10
45.67363308
 20
60.9500095
 30
0.0
 11
49.07363458
 21
60.9500095
 31
0.0
  0
LINE
  8
0
  6
CONTINUOUS
 62
     2
 10
49.37363383
 20
61.91667375
 30
0.0
 11
49.37363383
 21
68.08332625
 31
0.0
  0
ARC
  8
0
  6
CONTINUOUS
 62
     2
 10
53.031815961
 20
65.0
 30
0.0
 40
7.658182131
 50
163.871639144
 51
196.128360856
  0
ARC
  8
0
  6
CONTINUOUS
 62
     2
 10
41.7154517
 20
65.0
 30
0.0
 40
7.658182131
 50
343.871639144
 51
16.128360856
  0
LINE
  8
0
  6
CONTINUOUS
 62
     2
 10
49.081502995
 20
69.0499905
 30
0.0
 11
45.675046336
 21
69.0499905
 31
0.0
  0
LINE
  8
0
  6
CONTINUOUS
 62
     2
 10
45.37363383
 20
68.083327204
 30
0.0
 11
45.37363383
 21
61.91667375
 31
0.0
  0
LINE
  8
0
  6
CONTINUOUS
 62
     2
 10
45.37363383
 20
67.1
 30
0.0
 11
41.5
 21
67.1
 31
0.0
  0
LINE
  8
0
  6
CONTINUOUS
 62
     2
 10
41.5
 20
67.25
 30
0.0
 11
45.37363383
 21
67.25
 31
0.0
  0
LINE
  8
0
  6
CONTINUOUS
 62
     2
 10
45.37363383
 20
62.75
 30
0.0
 11
41.5
 21
62.75
 31
0.0
  0
LINE
  8
0
  6
CONTINUOUS
 62
     2
 10
41.5
 20
62.75
 30
0.0
 11
45.37363383
 21
62.75
 31
0.0
  0
LINE
  8
0
  6
CONTINUOUS
 62
     2
 10
45.37363383
 20
62.9
 30
0.0
 11
41.5
 21
62.9
 31
0.0
  0
LINE
  8
0
  6
CONTINUOUS
 62
     2
 10
105.969
 20
100.841
 30
0.0
 11
105.321952387
 21
98.426185434
 31
0.0
  0
LINE
  8
0
  6
CONTINUOUS
 62
     2
 10
105.969
 20
100.841
 30
0.0
 11
105.969
 21
87.0
 31
0.0
  0
LINE
  8
0
  6
LTYPE1
 62
     2
 10
120.475
 20
150.5
 30
0.0
 11
136.25
 21
150.5
 31
0.0
  0
CIRCLE
  8
0
  6
CONTINUOUS
 62
     1
 10
157.5
 20
129.0
 30
0.0
 40
1.753
  0
CIRCLE
  8
0
  6
CONTINUOUS
 62
     1
 10
192.5
 20
129.0
 30
0.0
 40
1.753
  0
TEXT
  8
0
  6
CONTINUOUS
 62
     2
 10
113.251424588
 20
91.75
 30
0.1
 40
3.0
  1
２－Ｍ６
 50
0.0
 41
0.9
 51
0.0
  7
KANJI2
  0
TEXT
  8
0
  6
CONTINUOUS
 62
     2
 10
117.7
 20
131.815
 30
0.3
 40
3.0
  1
φ１３５
 50
90.0
 41
0.666666667
 51
0.0
  7
KANJI6
  0
ARC
  8
0
  6
CONTINUOUS
 62
     2
 10
131.775
 20
149.425
 30
0.0
 40
1.475
 50
270.0
 51
0.0
  0
ARC
  8
0
  6
CONTINUOUS
 62
     2
 10
131.775
 20
151.575
 30
0.0
 40
1.475
 50
0.0
 51
90.0
  0
LINE
  8
0
  6
CONTINUOUS
 62
     2
 10
133.25
 20
151.575
 30
0.0
 11
133.25
 21
149.425
 31
0.0
  0
LINE
  8
0
  6
CONTINUOUS
 62
     2
 10
131.775
 20
147.95
 30
0.0
 11
131.275
 21
147.95
 31
0.0
  0
LINE
  8
0
  6
CONTINUOUS
 62
     2
 10
131.275
 20
147.95
 30
0.0
 11
131.275
 21
153.05
 31
0.0
  0
LINE
  8
0
  6
CONTINUOUS
 62
     2
 10
131.275
 20
153.05
 30
0.0
 11
131.775000132
 21
153.05
 31
0.0
  0
LINE
  8
0
  6
CONTINUOUS
 62
     2
 10
130.575
 20
153.25
 30
0.0
 11
131.25
 21
153.25
 31
0.0
  0
LINE
  8
0
  6
CONTINUOUS
 62
     2
 10
131.25
 20
153.25
 30
0.0
 11
131.25
 21
147.7475
 31
0.0
  0
LINE
  8
0
  6
CONTINUOUS
 62
     2
 10
131.25
 20
147.7475
 30
0.0
 11
130.575
 21
147.7475
 31
0.0
  0
LINE
  8
0
  6
CONTINUOUS
 62
     2
 10
130.575
 20
147.7475
 30
0.0
 11
130.575
 21
153.25
 31
0.0
  0
LINE
  8
0
  6
CONTINUOUS
 62
     2
 10
130.575
 20
150.56
 30
0.0
 11
131.25
 21
150.56
 31
0.0
  0
LINE
  8
0
  6
CONTINUOUS
 62
     2
 10
131.25
 20
150.46
 30
0.0
 11
130.575
 21
150.46
 31
0.0
  0
LINE
  8
0
  6
CONTINUOUS
 62
     2
 10
130.1
 20
147.325
 30
0.0
 11
130.575
 21
147.325
 31
0.0
  0
LINE
  8
0
  6
CONTINUOUS
 62
     2
 10
130.575
 20
147.325
 30
0.0
 11
130.575
 21
153.675
 31
0.0
  0
LINE
  8
0
  6
CONTINUOUS
 62
     2
 10
130.575
 20
153.675
 30
0.0
 11
130.1
 21
153.675
 31
0.0
  0
LINE
  8
0
  6
CONTINUOUS
 62
     2
 10
130.1
 20
153.675
 30
0.0
 11
130.1
 21
147.325
 31
0.0
  0
LINE
  8
0
  6
CONTINUOUS
 62
     2
 10
133.1
 20
151.25
 30
0.0
 11
132.9
 21
151.25
 31
0.0
  0
POINT
  8
0
  6
CONTINUOUS
 62
     2
 10
132.9
 20
151.25
 30
0.0
  0
LINE
  8
0
  6
CONTINUOUS
 62
     2
 10
132.9
 20
151.25
 30
0.0
 11
132.9
 21
150.05
 31
0.0
  0
POINT
  8
0
  6
CONTINUOUS
 62
     2
 10
132.9
 20
150.05
 30
0.0
  0
LINE
  8
0
  6
CONTINUOUS
 62
     2
 10
132.9
 20
150.15
 30
0.0
 11
132.9
 21
149.95
 31
0.0
  0
LINE
  8
0
  6
CONTINUOUS
 62
     2
 10
132.9
 20
149.95
 30
0.0
 11
133.0
 21
149.95
 31
0.0
  0
LINE
  8
0
  6
CONTINUOUS
 62
     2
 10
133.0
 20
149.95
 30
0.0
 11
133.2
 21
149.95
 31
0.0
  0
LINE
  8
0
  6
CONTINUOUS
 62
     2
 10
124.75
 20
152.5
 30
0.0
 11
130.1
 21
152.5
 31
0.0
  0
LINE
  8
0
  6
CONTINUOUS
 62
     2
 10
130.1
 20
148.5
 30
0.0
 11
124.75
 21
148.5
 31
0.0
  0
TEXT
  8
0
  6
CONTINUOUS
 62
     2
 10
177.758721087
 20
62.589659155
 30
0.3
 40
3.0
  1
φ１３８
 50
57.926
 41
0.666666667
 51
0.0
  7
KANJI6
  0
LINE
  8
0
  6
CONTINUOUS
 62
     2
 10
133.25
 20
153.675
 30
0.0
 11
133.25
 21
185.0
 31
0.0
  0
TEXT
  8
0
  6
CONTINUOUS
 62
     2
 10
104.21
 20
186.83103276
 30
0.3
 40
3.0
  1
可動コイル形４２．５
 50
0.0
 41
0.6
 51
0.0
  7
KANJI1
  0
CIRCLE
  8
0
  6
CONTINUOUS
 62
     2
 10
80.0
 20
124.0
 30
0.0
 40
2.5
  0
LINE
  8
0
  6
CONTINUOUS
 62
     2
 10
78.541666667
 20
124.333333333
 30
0.0
 11
79.333333333
 21
124.333333333
 31
0.0
  0
ARC
  8
0
  6
CONTINUOUS
 62
     2
 10
79.333333333
 20
124.666666667
 30
0.0
 40
0.333333333
 50
270.0
 51
0.0
  0
LINE
  8
0
  6
CONTINUOUS
 62
     2
 10
79.666666667
 20
124.666666667
 30
0.0
 11
79.666666667
 21
125.458333333
 31
0.0
  0
LINE
  8
0
  6
CONTINUOUS
 62
     2
 10
79.666666667
 20
125.458333333
 30
0.0
 11
80.333333333
 21
125.458333333
 31
0.0
  0
LINE
  8
0
  6
CONTINUOUS
 62
     2
 10
80.333333333
 20
125.458333333
 30
0.0
 11
80.333333333
 21
124.666666667
 31
0.0
  0
ARC
  8
0
  6
CONTINUOUS
 62
     2
 10
80.666666667
 20
124.666666667
 30
0.0
 40
0.333333333
 50
180.0
 51
270.0
  0
LINE
  8
0
  6
CONTINUOUS
 62
     2
 10
80.666666667
 20
124.333333333
 30
0.0
 11
81.458333333
 21
124.333333333
 31
0.0
  0
LINE
  8
0
  6
CONTINUOUS
 62
     2
 10
81.458333333
 20
124.333333333
 30
0.0
 11
81.458333333
 21
123.666666667
 31
0.0
  0
LINE
  8
0
  6
CONTINUOUS
 62
     2
 10
81.458333333
 20
123.666666667
 30
0.0
 11
80.666666667
 21
123.666666667
 31
0.0
  0
ARC
  8
0
  6
CONTINUOUS
 62
     2
 10
80.666666667
 20
123.333333333
 30
0.0
 40
0.333333333
 50
90.0
 51
180.0
  0
LINE
  8
0
  6
CONTINUOUS
 62
     2
 10
80.333333333
 20
123.333333333
 30
0.0
 11
80.333333333
 21
122.541666667
 31
0.0
  0
LINE
  8
0
  6
CONTINUOUS
 62
     2
 10
80.333333333
 20
122.541666667
 30
0.0
 11
79.666666667
 21
122.541666667
 31
0.0
  0
LINE
  8
0
  6
CONTINUOUS
 62
     2
 10
79.666666667
 20
122.541666667
 30
0.0
 11
79.666666667
 21
123.333333333
 31
0.0
  0
ARC
  8
0
  6
CONTINUOUS
 62
     2
 10
79.333333333
 20
123.333333333
 30
0.0
 40
0.333333333
 50
0.0
 51
90.0
  0
LINE
  8
0
  6
CONTINUOUS
 62
     2
 10
79.333333333
 20
123.666666667
 30
0.0
 11
78.541666667
 21
123.666666667
 31
0.0
  0
LINE
  8
0
  6
CONTINUOUS
 62
     2
 10
78.541666667
 20
123.666666667
 30
0.0
 11
78.541666667
 21
124.333333333
 31
0.0
  0
LINE
  8
0
  6
LTYPE1
 62
     2
 10
76.666666667
 20
124.0
 30
0.0
 11
83.333333333
 21
124.0
 31
0.0
  0
LINE
  8
0
  6
LTYPE1
 62
     2
 10
80.0
 20
127.333333333
 30
0.0
 11
80.0
 21
120.666666667
 31
0.0
  0
CIRCLE
  8
0
  6
CONTINUOUS
 62
     2
 10
20.0
 20
124.0
 30
0.0
 40
2.5
  0
LINE
  8
0
  6
CONTINUOUS
 62
     2
 10
18.541666667
 20
124.333333333
 30
0.0
 11
19.333333333
 21
124.333333333
 31
0.0
  0
ARC
  8
0
  6
CONTINUOUS
 62
     2
 10
19.333333333
 20
124.666666667
 30
0.0
 40
0.333333333
 50
270.0
 51
0.0
  0
LINE
  8
0
  6
CONTINUOUS
 62
     2
 10
19.666666667
 20
124.666666667
 30
0.0
 11
19.666666667
 21
125.458333333
 31
0.0
  0
LINE
  8
0
  6
CONTINUOUS
 62
     2
 10
19.666666667
 20
125.458333333
 30
0.0
 11
20.333333333
 21
125.458333333
 31
0.0
  0
LINE
  8
0
  6
CONTINUOUS
 62
     2
 10
20.333333333
 20
125.458333333
 30
0.0
 11
20.333333333
 21
124.666666667
 31
0.0
  0
ARC
  8
0
  6
CONTINUOUS
 62
     2
 10
20.666666667
 20
124.666666667
 30
0.0
 40
0.333333333
 50
180.0
 51
270.0
  0
LINE
  8
0
  6
CONTINUOUS
 62
     2
 10
20.666666667
 20
124.333333333
 30
0.0
 11
21.458333333
 21
124.333333333
 31
0.0
  0
LINE
  8
0
  6
CONTINUOUS
 62
     2
 10
21.458333333
 20
124.333333333
 30
0.0
 11
21.458333333
 21
123.666666667
 31
0.0
  0
LINE
  8
0
  6
CONTINUOUS
 62
     2
 10
21.458333333
 20
123.666666667
 30
0.0
 11
20.666666667
 21
123.666666667
 31
0.0
  0
ARC
  8
0
  6
CONTINUOUS
 62
     2
 10
20.666666667
 20
123.333333333
 30
0.0
 40
0.333333333
 50
90.0
 51
180.0
  0
LINE
  8
0
  6
CONTINUOUS
 62
     2
 10
20.333333333
 20
123.333333333
 30
0.0
 11
20.333333333
 21
122.541666667
 31
0.0
  0
LINE
  8
0
  6
CONTINUOUS
 62
     2
 10
20.333333333
 20
122.541666667
 30
0.0
 11
19.666666667
 21
122.541666667
 31
0.0
  0
LINE
  8
0
  6
CONTINUOUS
 62
     2
 10
19.666666667
 20
122.541666667
 30
0.0
 11
19.666666667
 21
123.333333333
 31
0.0
  0
ARC
  8
0
  6
CONTINUOUS
 62
     2
 10
19.333333333
 20
123.333333333
 30
0.0
 40
0.333333333
 50
0.0
 51
90.0
  0
LINE
  8
0
  6
CONTINUOUS
 62
     2
 10
19.333333333
 20
123.666666667
 30
0.0
 11
18.541666667
 21
123.666666667
 31
0.0
  0
LINE
  8
0
  6
CONTINUOUS
 62
     2
 10
18.541666667
 20
123.666666667
 30
0.0
 11
18.541666667
 21
124.333333333
 31
0.0
  0
LINE
  8
0
  6
LTYPE1
 62
     2
 10
16.666666667
 20
124.0
 30
0.0
 11
23.333333333
 21
124.0
 31
0.0
  0
LINE
  8
0
  6
LTYPE1
 62
     2
 10
20.0
 20
127.333333333
 30
0.0
 11
20.0
 21
120.666666667
 31
0.0
  0
LINE
  8
0
  6
LTYPE1
 62
     2
 10
45.833333333
 20
112.0
 30
0.0
 11
54.166666667
 21
112.0
 31
0.0
  0
CIRCLE
  8
0
  6
CONTINUOUS
 62
     2
 10
50.0
 20
112.0
 30
0.0
 40
2.5
  0
LINE
  8
0
  6
CONTINUOUS
 62
     2
 10
47.5
 20
111.722222222
 30
0.0
 11
52.361111111
 21
111.722222222
 31
0.0
  0
LINE
  8
0
  6
CONTINUOUS
 62
     2
 10
52.361111111
 20
112.277777778
 30
0.0
 11
47.569444444
 21
112.277777778
 31
0.0
  0
TEXT
  8
0
  6
CONTINUOUS
 62
     1
 10
233.0
 20
59.5
 30
0.4
 40
4.0
  1
角形半埋込形計器　外形図
 50
0.0
 41
0.9
 51
0.0
  7
KANJI7
  0
TEXT
  8
0
  6
CONTINUOUS
 62
     1
 10
237.0
 20
71.0
 30
0.4
 40
4.0
  1
Ｇｆ－１３５
 50
0.0
 41
0.9
 51
0.0
  7
KANJI7
  0
TEXT
  8
0
  6
CONTINUOUS
 62
     3
 10
232.581
 20
47.897
 30
0.2
 40
5.8
  1
ＭＳ－２０５３Ａ
 50
0.0
 41
0.827586207
 51
0.0
  7
KANJI8
  0
ENDSEC
  0
EOF
