  0
SECTION
  2
HEADER
  9
$ACADVER
  1
AC1009
  9
$DWGCODEPAGE
  3
dos932
  9
$EXTMIN
 10
0.0
 20
0.0
 30
0.0
  9
$EXTMAX
 10
297.0
 20
210.0
 30
0.0
  9
$LIMMIN
 10
0.0
 20
0.0
  9
$LIMMAX
 10
297.0
 20
210.0
  9
$LTSCALE
 40
1.0
  9
$PDMODE
 70
     0
  0
ENDSEC
  0
SECTION
  2
TABLES
  0
TABLE
  2
VPORT
 70
     1
  0
VPORT
  2
*ACTIVE
 70
     0
 10
0.0
 20
0.0
 11
1.0
 21
1.0
 12
148.5
 22
105.0
 13
0.0
 23
0.0
 14
10.0
 24
10.0
 15
10.0
 25
10.0
 16
0.0
 26
0.0
 36
1.0
 17
0.0
 27
0.0
 37
0.0
 40
297.0
 41
1.414285714
 42
50.0
 43
0.0
 44
0.0
 50
0.0
 51
0.0
 71
     0
 72
  1000
 73
     1
 74
     3
 75
     0
 76
     0
 77
     0
 78
     0
  0
ENDTAB
  0
TABLE
  2
LTYPE
 70
     4
  0
LTYPE
  2
CONTINUOUS
 70
    64
  3
Solid line
 72
    65
 73
     0
 40
0.0
  0
LTYPE
  2
LTYPE1
 70
    64
  3
CENTER
 72
    65
 73
     4
 40
5.0
 49
3.5
 49
-0.5
 49
0.5
 49
-0.5
  0
LTYPE
  2
LTYPE2
 70
    64
  3
CENTER
 72
    65
 73
     4
 40
15.0
 49
10.5
 49
-1.5
 49
1.5
 49
-1.5
  0
LTYPE
  2
LTYPE3
 70
    64
  3
CENTER
 72
    65
 73
     4
 40
3.0
 49
2.1
 49
-0.3
 49
0.3
 49
-0.3
  0
ENDTAB
  0
TABLE
  2
LAYER
 70
   128
  0
LAYER
  2
0
 70
     0
 62
     7
  6
CONTINUOUS
  0
LAYER
  2
2
 70
     0
 62
     7
  6
CONTINUOUS
  0
LAYER
  2
3
 70
     0
 62
     7
  6
CONTINUOUS
  0
LAYER
  2
4
 70
     0
 62
     7
  6
CONTINUOUS
  0
LAYER
  2
5
 70
     0
 62
     7
  6
CONTINUOUS
  0
LAYER
  2
6
 70
     0
 62
     7
  6
CONTINUOUS
  0
LAYER
  2
7
 70
     0
 62
     7
  6
CONTINUOUS
  0
LAYER
  2
8
 70
     0
 62
     7
  6
CONTINUOUS
  0
LAYER
  2
9
 70
     0
 62
     7
  6
CONTINUOUS
  0
LAYER
  2
10
 70
     0
 62
     7
  6
CONTINUOUS
  0
LAYER
  2
11
 70
     0
 62
     7
  6
CONTINUOUS
  0
LAYER
  2
12
 70
     0
 62
     7
  6
CONTINUOUS
  0
LAYER
  2
13
 70
     0
 62
     7
  6
CONTINUOUS
  0
LAYER
  2
14
 70
     0
 62
     7
  6
CONTINUOUS
  0
LAYER
  2
15
 70
     0
 62
     7
  6
CONTINUOUS
  0
LAYER
  2
16
 70
     0
 62
     7
  6
CONTINUOUS
  0
LAYER
  2
17
 70
     0
 62
     7
  6
CONTINUOUS
  0
LAYER
  2
18
 70
     0
 62
     7
  6
CONTINUOUS
  0
LAYER
  2
19
 70
     0
 62
     7
  6
CONTINUOUS
  0
LAYER
  2
20
 70
     0
 62
     7
  6
CONTINUOUS
  0
LAYER
  2
21
 70
     0
 62
     7
  6
CONTINUOUS
  0
LAYER
  2
22
 70
     0
 62
     7
  6
CONTINUOUS
  0
LAYER
  2
23
 70
     0
 62
     7
  6
CONTINUOUS
  0
LAYER
  2
24
 70
     0
 62
     7
  6
CONTINUOUS
  0
LAYER
  2
25
 70
     0
 62
     7
  6
CONTINUOUS
  0
LAYER
  2
26
 70
     0
 62
     7
  6
CONTINUOUS
  0
LAYER
  2
27
 70
     0
 62
     7
  6
CONTINUOUS
  0
LAYER
  2
28
 70
     0
 62
     7
  6
CONTINUOUS
  0
LAYER
  2
29
 70
     0
 62
     7
  6
CONTINUOUS
  0
LAYER
  2
30
 70
     0
 62
     7
  6
CONTINUOUS
  0
LAYER
  2
31
 70
     0
 62
     7
  6
CONTINUOUS
  0
LAYER
  2
32
 70
     0
 62
     7
  6
CONTINUOUS
  0
LAYER
  2
33
 70
     0
 62
     7
  6
CONTINUOUS
  0
LAYER
  2
34
 70
     0
 62
     7
  6
CONTINUOUS
  0
LAYER
  2
35
 70
     0
 62
     7
  6
CONTINUOUS
  0
LAYER
  2
36
 70
     0
 62
     7
  6
CONTINUOUS
  0
LAYER
  2
37
 70
     0
 62
     7
  6
CONTINUOUS
  0
LAYER
  2
38
 70
     0
 62
     7
  6
CONTINUOUS
  0
LAYER
  2
39
 70
     0
 62
     7
  6
CONTINUOUS
  0
LAYER
  2
40
 70
     0
 62
     7
  6
CONTINUOUS
  0
LAYER
  2
41
 70
     0
 62
     7
  6
CONTINUOUS
  0
LAYER
  2
42
 70
     0
 62
     7
  6
CONTINUOUS
  0
LAYER
  2
43
 70
     0
 62
     7
  6
CONTINUOUS
  0
LAYER
  2
44
 70
     0
 62
     7
  6
CONTINUOUS
  0
LAYER
  2
45
 70
     0
 62
     7
  6
CONTINUOUS
  0
LAYER
  2
46
 70
     0
 62
     7
  6
CONTINUOUS
  0
LAYER
  2
47
 70
     0
 62
     7
  6
CONTINUOUS
  0
LAYER
  2
48
 70
     0
 62
     7
  6
CONTINUOUS
  0
LAYER
  2
49
 70
     0
 62
     7
  6
CONTINUOUS
  0
LAYER
  2
50
 70
     0
 62
     7
  6
CONTINUOUS
  0
LAYER
  2
51
 70
     0
 62
     7
  6
CONTINUOUS
  0
LAYER
  2
52
 70
     0
 62
     7
  6
CONTINUOUS
  0
LAYER
  2
53
 70
     0
 62
     7
  6
CONTINUOUS
  0
LAYER
  2
54
 70
     0
 62
     7
  6
CONTINUOUS
  0
LAYER
  2
55
 70
     0
 62
     7
  6
CONTINUOUS
  0
LAYER
  2
56
 70
     0
 62
     7
  6
CONTINUOUS
  0
LAYER
  2
57
 70
     0
 62
     7
  6
CONTINUOUS
  0
LAYER
  2
58
 70
     0
 62
     7
  6
CONTINUOUS
  0
LAYER
  2
59
 70
     0
 62
     7
  6
CONTINUOUS
  0
LAYER
  2
60
 70
     0
 62
     7
  6
CONTINUOUS
  0
LAYER
  2
61
 70
     0
 62
     7
  6
CONTINUOUS
  0
LAYER
  2
62
 70
     0
 62
     7
  6
CONTINUOUS
  0
LAYER
  2
63
 70
     0
 62
     7
  6
CONTINUOUS
  0
LAYER
  2
64
 70
     0
 62
     7
  6
CONTINUOUS
  0
LAYER
  2
65
 70
     0
 62
     7
  6
CONTINUOUS
  0
LAYER
  2
66
 70
     0
 62
     7
  6
CONTINUOUS
  0
LAYER
  2
67
 70
     0
 62
     7
  6
CONTINUOUS
  0
LAYER
  2
68
 70
     0
 62
     7
  6
CONTINUOUS
  0
LAYER
  2
69
 70
     0
 62
     7
  6
CONTINUOUS
  0
LAYER
  2
70
 70
     0
 62
     7
  6
CONTINUOUS
  0
LAYER
  2
71
 70
     0
 62
     7
  6
CONTINUOUS
  0
LAYER
  2
72
 70
     0
 62
     7
  6
CONTINUOUS
  0
LAYER
  2
73
 70
     0
 62
     7
  6
CONTINUOUS
  0
LAYER
  2
74
 70
     0
 62
     7
  6
CONTINUOUS
  0
LAYER
  2
75
 70
     0
 62
     7
  6
CONTINUOUS
  0
LAYER
  2
76
 70
     0
 62
     7
  6
CONTINUOUS
  0
LAYER
  2
77
 70
     0
 62
     7
  6
CONTINUOUS
  0
LAYER
  2
78
 70
     0
 62
     7
  6
CONTINUOUS
  0
LAYER
  2
79
 70
     0
 62
     7
  6
CONTINUOUS
  0
LAYER
  2
80
 70
     0
 62
     7
  6
CONTINUOUS
  0
LAYER
  2
81
 70
     0
 62
     7
  6
CONTINUOUS
  0
LAYER
  2
82
 70
     0
 62
     7
  6
CONTINUOUS
  0
LAYER
  2
83
 70
     0
 62
     7
  6
CONTINUOUS
  0
LAYER
  2
84
 70
     0
 62
     7
  6
CONTINUOUS
  0
LAYER
  2
85
 70
     0
 62
     7
  6
CONTINUOUS
  0
LAYER
  2
86
 70
     0
 62
     7
  6
CONTINUOUS
  0
LAYER
  2
87
 70
     0
 62
     7
  6
CONTINUOUS
  0
LAYER
  2
88
 70
     0
 62
     7
  6
CONTINUOUS
  0
LAYER
  2
89
 70
     0
 62
     7
  6
CONTINUOUS
  0
LAYER
  2
90
 70
     0
 62
     7
  6
CONTINUOUS
  0
LAYER
  2
91
 70
     0
 62
     7
  6
CONTINUOUS
  0
LAYER
  2
92
 70
     0
 62
     7
  6
CONTINUOUS
  0
LAYER
  2
93
 70
     0
 62
     7
  6
CONTINUOUS
  0
LAYER
  2
94
 70
     0
 62
     7
  6
CONTINUOUS
  0
LAYER
  2
95
 70
     0
 62
     7
  6
CONTINUOUS
  0
LAYER
  2
96
 70
     0
 62
     7
  6
CONTINUOUS
  0
LAYER
  2
97
 70
     0
 62
     7
  6
CONTINUOUS
  0
LAYER
  2
98
 70
     0
 62
     7
  6
CONTINUOUS
  0
LAYER
  2
99
 70
     0
 62
     7
  6
CONTINUOUS
  0
LAYER
  2
100
 70
     0
 62
     7
  6
CONTINUOUS
  0
LAYER
  2
101
 70
     0
 62
     7
  6
CONTINUOUS
  0
LAYER
  2
102
 70
     0
 62
     7
  6
CONTINUOUS
  0
LAYER
  2
103
 70
     0
 62
     7
  6
CONTINUOUS
  0
LAYER
  2
104
 70
     0
 62
     7
  6
CONTINUOUS
  0
LAYER
  2
105
 70
     0
 62
     7
  6
CONTINUOUS
  0
LAYER
  2
106
 70
     0
 62
     7
  6
CONTINUOUS
  0
LAYER
  2
107
 70
     0
 62
     7
  6
CONTINUOUS
  0
LAYER
  2
108
 70
     0
 62
     7
  6
CONTINUOUS
  0
LAYER
  2
109
 70
     0
 62
     7
  6
CONTINUOUS
  0
LAYER
  2
110
 70
     0
 62
     7
  6
CONTINUOUS
  0
LAYER
  2
111
 70
     0
 62
     7
  6
CONTINUOUS
  0
LAYER
  2
112
 70
     0
 62
     7
  6
CONTINUOUS
  0
LAYER
  2
113
 70
     0
 62
     7
  6
CONTINUOUS
  0
LAYER
  2
114
 70
     0
 62
     7
  6
CONTINUOUS
  0
LAYER
  2
115
 70
     0
 62
     7
  6
CONTINUOUS
  0
LAYER
  2
116
 70
     0
 62
     7
  6
CONTINUOUS
  0
LAYER
  2
117
 70
     0
 62
     7
  6
CONTINUOUS
  0
LAYER
  2
118
 70
     0
 62
     7
  6
CONTINUOUS
  0
LAYER
  2
119
 70
     0
 62
     7
  6
CONTINUOUS
  0
LAYER
  2
120
 70
     0
 62
     7
  6
CONTINUOUS
  0
LAYER
  2
121
 70
     0
 62
     7
  6
CONTINUOUS
  0
LAYER
  2
122
 70
     0
 62
     7
  6
CONTINUOUS
  0
LAYER
  2
123
 70
     0
 62
     7
  6
CONTINUOUS
  0
LAYER
  2
124
 70
     0
 62
     7
  6
CONTINUOUS
  0
LAYER
  2
125
 70
     0
 62
     7
  6
CONTINUOUS
  0
LAYER
  2
126
 70
     0
 62
     7
  6
CONTINUOUS
  0
LAYER
  2
127
 70
     0
 62
     7
  6
CONTINUOUS
  0
LAYER
  2
128
 70
     0
 62
     7
  6
CONTINUOUS
  0
ENDTAB
  0
TABLE
  2
STYLE
 70
    10
  0
STYLE
  2
STANDARD
 70
     0
 40
0.0
 41
1.0
 50
0.0
 71
     0
 42
0.2
  3
txt.shx
  4
extfont.shx
  0
STYLE
  2
KANJI0
 70
     0
 40
3.0
 41
0.6
 50
0.0
 71
     0
 42
3.0
  3
txt.shx
  4
extfont.shx
  0
STYLE
  2
KANJI1
 70
     0
 40
1.8
 41
0.666666667
 50
0.0
 71
     0
 42
1.8
  3
txt.shx
  4
extfont.shx
  0
STYLE
  2
KANJI2
 70
     0
 40
3.0
 41
0.666666667
 50
0.0
 71
     0
 42
3.0
  3
txt.shx
  4
extfont.shx
  0
STYLE
  2
KANJI3
 70
     0
 40
3.0
 41
0.9
 50
0.0
 71
     0
 42
3.0
  3
txt.shx
  4
extfont.shx
  0
STYLE
  2
KANJI4
 70
     0
 40
3.0
 41
0.9
 50
0.0
 71
     0
 42
3.0
  3
txt.shx
  4
extfont.shx
  0
STYLE
  2
KANJI5
 70
     0
 40
1.8
 41
0.6
 50
0.0
 71
     0
 42
1.8
  3
txt.shx
  4
extfont.shx
  0
STYLE
  2
KANJI6
 70
     0
 40
3.0
 41
0.666666667
 50
0.0
 71
     0
 42
3.0
  3
txt.shx
  4
extfont.shx
  0
STYLE
  2
KANJI7
 70
     0
 40
5.8
 41
0.827586207
 50
0.0
 71
     0
 42
5.8
  3
txt.shx
  4
extfont.shx
  0
STYLE
  2
KANJI8
 70
     0
 40
4.0
 41
0.9
 50
0.0
 71
     0
 42
4.0
  3
txt.shx
  4
extfont.shx
  0
ENDTAB
  0
TABLE
  2
VIEW
 70
     0
  0
ENDTAB
  0
ENDSEC
  0
SECTION
  2
BLOCKS
  0
ENDSEC
  0
SECTION
  2
ENTITIES
  0
ARC
  8
0
  6
CONTINUOUS
 62
     1
 10
207.5
 20
170.0
 30
0.0
 40
5.0
 50
0.0
 51
90.0
  0
ARC
  8
0
  6
CONTINUOUS
 62
     2
 10
207.5
 20
170.0
 30
0.0
 40
4.0
 50
0.0
 51
90.0
  0
ARC
  8
0
  6
CONTINUOUS
 62
     1
 10
142.5
 20
170.0
 30
0.0
 40
5.0
 50
90.0
 51
180.0
  0
ARC
  8
0
  6
CONTINUOUS
 62
     2
 10
142.5
 20
170.0
 30
0.0
 40
4.0
 50
90.0
 51
180.0
  0
LINE
  8
0
  6
CONTINUOUS
 62
     1
 10
142.5
 20
175.0
 30
0.0
 11
207.5
 21
175.0
 31
0.0
  0
LINE
  8
0
  6
CONTINUOUS
 62
     2
 10
207.5
 20
174.0
 30
0.0
 11
142.5
 21
174.0
 31
0.0
  0
ARC
  8
0
  6
CONTINUOUS
 62
     1
 10
207.5
 20
105.0
 30
0.0
 40
5.0
 50
270.0
 51
0.0
  0
ARC
  8
0
  6
CONTINUOUS
 62
     2
 10
207.5
 20
105.0
 30
0.0
 40
4.0
 50
270.0
 51
0.0
  0
ARC
  8
0
  6
CONTINUOUS
 62
     1
 10
142.5
 20
105.0
 30
0.0
 40
5.0
 50
180.0
 51
270.0
  0
ARC
  8
0
  6
CONTINUOUS
 62
     2
 10
142.5
 20
105.0
 30
0.0
 40
4.0
 50
180.0
 51
270.0
  0
LINE
  8
0
  6
CONTINUOUS
 62
     1
 10
207.5
 20
100.0
 30
0.0
 11
142.5
 21
100.0
 31
0.0
  0
LINE
  8
0
  6
CONTINUOUS
 62
     2
 10
142.5
 20
101.0
 30
0.0
 11
207.5
 21
101.0
 31
0.0
  0
LINE
  8
0
  6
LTYPE1
 62
     2
 10
175.0
 20
177.0
 30
0.0
 11
175.0
 21
98.25
 31
0.0
  0
LINE
  8
0
  6
CONTINUOUS
 62
     1
 10
212.5
 20
170.0
 30
0.0
 11
212.5
 21
105.0
 31
0.0
  0
LINE
  8
0
  6
CONTINUOUS
 62
     2
 10
211.5
 20
105.0
 30
0.0
 11
211.5
 21
170.0
 31
0.0
  0
LINE
  8
0
  6
CONTINUOUS
 62
     2
 10
138.5
 20
170.0
 30
0.0
 11
138.5
 21
105.0
 31
0.0
  0
CIRCLE
  8
0
  6
CONTINUOUS
 62
     1
 10
175.0
 20
137.5
 30
0.0
 40
33.75
  0
LINE
  8
0
  6
CONTINUOUS
 62
     2
 10
175.0
 20
180.0
 30
0.0
 11
172.585185434
 21
180.647047613
 31
0.0
  0
LINE
  8
0
  6
CONTINUOUS
 62
     2
 10
175.0
 20
180.0
 30
0.0
 11
172.585185434
 21
179.352952387
 31
0.0
  0
LINE
  8
0
  6
CONTINUOUS
 62
     2
 10
175.0
 20
180.0
 30
0.0
 11
177.414814566
 21
179.352952387
 31
0.0
  0
LINE
  8
0
  6
CONTINUOUS
 62
     2
 10
175.0
 20
180.0
 30
0.0
 11
177.414814566
 21
180.647047613
 31
0.0
  0
LINE
  8
0
  6
CONTINUOUS
 62
     2
 10
175.0
 20
177.873
 30
0.0
 11
175.0
 21
182.0
 31
0.0
  0
LINE
  8
0
  6
CONTINUOUS
 62
     2
 10
212.5
 20
185.0
 30
0.0
 11
210.085185434
 21
185.647047613
 31
0.0
  0
LINE
  8
0
  6
CONTINUOUS
 62
     2
 10
212.5
 20
185.0
 30
0.0
 11
210.085185434
 21
184.352952387
 31
0.0
  0
LINE
  8
0
  6
CONTINUOUS
 62
     2
 10
137.5
 20
185.0
 30
0.0
 11
139.914814566
 21
184.352952387
 31
0.0
  0
LINE
  8
0
  6
CONTINUOUS
 62
     2
 10
137.5
 20
185.0
 30
0.0
 11
139.914814566
 21
185.647047613
 31
0.0
  0
LINE
  8
0
  6
CONTINUOUS
 62
     2
 10
137.5
 20
185.0
 30
0.0
 11
212.5
 21
185.0
 31
0.0
  0
LINE
  8
0
  6
CONTINUOUS
 62
     2
 10
212.5
 20
176.0
 30
0.0
 11
212.5
 21
187.0
 31
0.0
  0
LINE
  8
0
  6
CONTINUOUS
 62
     2
 10
137.5
 20
176.0
 30
0.0
 11
137.5
 21
187.0
 31
0.0
  0
LINE
  8
0
  6
CONTINUOUS
 62
     2
 10
135.0
 20
185.0
 30
0.0
 11
132.585185434
 21
185.647047613
 31
0.0
  0
LINE
  8
0
  6
CONTINUOUS
 62
     2
 10
135.0
 20
185.0
 30
0.0
 11
132.585185434
 21
184.352952387
 31
0.0
  0
LINE
  8
0
  6
CONTINUOUS
 62
     2
 10
127.0
 20
185.0
 30
0.0
 11
124.585185434
 21
185.647047613
 31
0.0
  0
LINE
  8
0
  6
CONTINUOUS
 62
     2
 10
127.0
 20
185.0
 30
0.0
 11
124.585185434
 21
184.352952387
 31
0.0
  0
LINE
  8
0
  6
CONTINUOUS
 62
     2
 10
127.0
 20
185.0
 30
0.0
 11
124.585185434
 21
184.352952387
 31
0.0
  0
LINE
  8
0
  6
CONTINUOUS
 62
     2
 10
127.0
 20
185.0
 30
0.0
 11
124.585185434
 21
185.647047613
 31
0.0
  0
LINE
  8
0
  6
CONTINUOUS
 62
     2
 10
127.0
 20
185.0
 30
0.0
 11
129.414814566
 21
184.352952387
 31
0.0
  0
LINE
  8
0
  6
CONTINUOUS
 62
     2
 10
127.0
 20
185.0
 30
0.0
 11
129.414814566
 21
185.647047613
 31
0.0
  0
LINE
  8
0
  6
CONTINUOUS
 62
     2
 10
127.0
 20
185.0
 30
0.0
 11
135.0
 21
185.0
 31
0.0
  0
TEXT
  8
0
  6
CONTINUOUS
 62
     2
 10
130.205495779
 20
186.0
 30
0.3
 40
3.0
  1
Ｌ
 50
0.0
 41
0.6
 51
0.0
  7
KANJI0
  0
LINE
  8
0
  6
CONTINUOUS
 62
     2
 10
89.25
 20
185.0
 30
0.0
 11
91.664814566
 21
184.352952387
 31
0.0
  0
LINE
  8
0
  6
CONTINUOUS
 62
     2
 10
89.25
 20
185.0
 30
0.0
 11
91.664814566
 21
185.647047613
 31
0.0
  0
LINE
  8
0
  6
CONTINUOUS
 62
     2
 10
89.25
 20
185.0
 30
0.0
 11
127.0
 21
185.0
 31
0.0
  0
LINE
  8
0
  6
CONTINUOUS
 62
     2
 10
102.25
 20
185.0
 30
0.0
 11
104.664814566
 21
184.352952387
 31
0.0
  0
LINE
  8
0
  6
CONTINUOUS
 62
     2
 10
102.25
 20
185.0
 30
0.0
 11
104.664814566
 21
185.647047613
 31
0.0
  0
LINE
  8
0
  6
CONTINUOUS
 62
     2
 10
102.25
 20
185.0
 30
0.0
 11
99.835185434
 21
184.352952387
 31
0.0
  0
LINE
  8
0
  6
CONTINUOUS
 62
     2
 10
102.25
 20
185.0
 30
0.0
 11
99.835185434
 21
185.647047613
 31
0.0
  0
LINE
  8
0
  6
CONTINUOUS
 62
     2
 10
102.0
 20
180.0
 30
0.0
 11
99.585185434
 21
180.647047613
 31
0.0
  0
LINE
  8
0
  6
CONTINUOUS
 62
     2
 10
102.0
 20
180.0
 30
0.0
 11
99.585185434
 21
179.352952387
 31
0.0
  0
LINE
  8
0
  6
CONTINUOUS
 62
     2
 10
102.0
 20
180.0
 30
0.0
 11
97.95
 21
180.0
 31
0.0
  0
LINE
  8
0
  6
CONTINUOUS
 62
     2
 10
102.25
 20
180.0
 30
0.0
 11
104.074524064
 21
179.51112025
 31
0.0
  0
LINE
  8
0
  6
CONTINUOUS
 62
     2
 10
102.25
 20
180.0
 30
0.0
 11
104.094524064
 21
180.494238733
 31
0.0
  0
TEXT
  8
0
  6
CONTINUOUS
 62
     2
 10
96.975
 20
181.0
 30
0.3
 40
3.0
  1
０．５
 50
0.0
 41
0.6
 51
0.0
  7
KANJI0
  0
LINE
  8
0
  6
CONTINUOUS
 62
     2
 10
109.75
 20
180.0
 30
0.0
 11
107.964524064
 21
180.478416835
 31
0.0
  0
LINE
  8
0
  6
CONTINUOUS
 62
     2
 10
109.75
 20
180.0
 30
0.0
 11
107.964524064
 21
179.521583165
 31
0.0
  0
LINE
  8
0
  6
CONTINUOUS
 62
     2
 10
109.75
 20
180.0
 30
0.0
 11
102.0
 21
180.0
 31
0.0
  0
TEXT
  8
0
  6
CONTINUOUS
 62
     2
 10
103.465
 20
181.0
 30
0.3
 40
3.0
  1
１５
 50
0.0
 41
0.6
 51
0.0
  7
KANJI0
  0
TEXT
  8
0
  6
CONTINUOUS
 62
     2
 10
107.534
 20
182.33
 30
0.3
 40
1.8
  1
±０．８
 50
0.0
 41
0.666666667
 51
0.0
  7
KANJI1
  0
TEXT
  8
0
  6
CONTINUOUS
 62
     2
 10
111.469
 20
186.0
 30
0.3
 40
3.0
  1
５０
 50
0.0
 41
0.6
 51
0.0
  7
KANJI0
  0
TEXT
  8
0
  6
CONTINUOUS
 62
     2
 10
92.134
 20
186.05
 30
0.3
 40
3.0
  1
２５．５
 50
0.0
 41
0.6
 51
0.0
  7
KANJI0
  0
LINE
  8
0
  6
CONTINUOUS
 62
     2
 10
89.25
 20
176.0
 30
0.0
 11
89.25
 21
187.0
 31
0.0
  0
LINE
  8
0
  6
CONTINUOUS
 62
     2
 10
102.25
 20
176.0
 30
0.0
 11
102.25
 21
182.0
 31
0.0
  0
LINE
  8
0
  6
CONTINUOUS
 62
     2
 10
102.25
 20
176.0
 30
0.0
 11
102.25
 21
187.0
 31
0.0
  0
LINE
  8
0
  6
CONTINUOUS
 62
     2
 10
102.0
 20
182.0
 30
0.0
 11
102.0
 21
176.0
 31
0.0
  0
LINE
  8
0
  6
CONTINUOUS
 62
     2
 10
109.75
 20
176.0
 30
0.0
 11
109.75
 21
182.0
 31
0.0
  0
LINE
  8
0
  6
CONTINUOUS
 62
     2
 10
127.0
 20
176.0
 30
0.0
 11
127.0
 21
187.0
 31
0.0
  0
ARC
  8
0
  6
CONTINUOUS
 62
     2
 10
133.525
 20
151.425
 30
0.0
 40
1.475
 50
270.0
 51
0.0
  0
ARC
  8
0
  6
CONTINUOUS
 62
     2
 10
133.525
 20
153.575
 30
0.0
 40
1.475
 50
0.0
 51
90.0
  0
LINE
  8
0
  6
CONTINUOUS
 62
     2
 10
135.0
 20
153.575
 30
0.0
 11
135.0
 21
151.425
 31
0.0
  0
LINE
  8
0
  6
CONTINUOUS
 62
     2
 10
133.525
 20
149.95
 30
0.0
 11
133.025
 21
149.95
 31
0.0
  0
LINE
  8
0
  6
CONTINUOUS
 62
     2
 10
133.025
 20
149.95
 30
0.0
 11
133.025
 21
155.05
 31
0.0
  0
LINE
  8
0
  6
CONTINUOUS
 62
     2
 10
133.025
 20
155.05
 30
0.0
 11
133.525000132
 21
155.05
 31
0.0
  0
LINE
  8
0
  6
CONTINUOUS
 62
     2
 10
132.325
 20
155.25
 30
0.0
 11
133.0
 21
155.25
 31
0.0
  0
LINE
  8
0
  6
CONTINUOUS
 62
     2
 10
133.0
 20
155.25
 30
0.0
 11
133.0
 21
149.7475
 31
0.0
  0
LINE
  8
0
  6
CONTINUOUS
 62
     2
 10
133.0
 20
149.7475
 30
0.0
 11
132.325
 21
149.7475
 31
0.0
  0
LINE
  8
0
  6
CONTINUOUS
 62
     2
 10
132.325
 20
149.7475
 30
0.0
 11
132.325
 21
155.25
 31
0.0
  0
LINE
  8
0
  6
CONTINUOUS
 62
     2
 10
132.325
 20
152.56
 30
0.0
 11
133.0
 21
152.56
 31
0.0
  0
LINE
  8
0
  6
CONTINUOUS
 62
     2
 10
133.0
 20
152.46
 30
0.0
 11
132.325
 21
152.46
 31
0.0
  0
LINE
  8
0
  6
CONTINUOUS
 62
     2
 10
135.05
 20
153.2
 30
0.0
 11
134.75
 21
153.2
 31
0.0
  0
POINT
  8
0
  6
CONTINUOUS
 62
     2
 10
134.75
 20
153.2
 30
0.0
  0
LINE
  8
0
  6
CONTINUOUS
 62
     2
 10
134.75
 20
153.2
 30
0.0
 11
134.75
 21
151.9
 31
0.0
  0
POINT
  8
0
  6
CONTINUOUS
 62
     2
 10
134.75
 20
151.9
 30
0.0
  0
LINE
  8
0
  6
CONTINUOUS
 62
     2
 10
134.75
 20
151.9
 30
0.0
 11
134.95
 21
151.9
 31
0.0
  0
TEXT
  8
0
  6
CONTINUOUS
 62
     2
 10
121.45
 20
142.67
 30
0.3
 40
1.8
  1
±１
 50
90.0
 41
0.666666667
 51
0.0
  7
KANJI1
  0
LINE
  8
0
  6
CONTINUOUS
 62
     1
 10
128.5
 20
147.5
 30
0.0
 11
127.0
 21
147.0
 31
0.0
  0
LINE
  8
0
  6
CONTINUOUS
 62
     1
 10
128.5
 20
157.5
 30
0.0
 11
128.5
 21
147.5
 31
0.0
  0
LINE
  8
0
  6
CONTINUOUS
 62
     1
 10
128.5
 20
157.5
 30
0.0
 11
127.0
 21
158.0
 31
0.0
  0
LINE
  8
0
  6
CONTINUOUS
 62
     2
 10
128.5
 20
154.5
 30
0.0
 11
132.325
 21
154.5
 31
0.0
  0
LINE
  8
0
  6
CONTINUOUS
 62
     2
 10
132.325
 20
150.5
 30
0.0
 11
128.5
 21
150.5
 31
0.0
  0
LINE
  8
0
  6
LTYPE1
 62
     2
 10
124.225
 20
152.5
 30
0.0
 11
137.542
 21
152.5
 31
0.0
  0
ARC
  8
0
  6
CONTINUOUS
 62
     1
 10
91.25
 20
173.0
 30
0.0
 40
2.0
 50
90.0
 51
180.0
  0
ARC
  8
0
  6
CONTINUOUS
 62
     1
 10
91.25
 20
102.0
 30
0.0
 40
2.0
 50
180.0
 51
270.0
  0
LINE
  8
0
  6
CONTINUOUS
 62
     1
 10
89.25
 20
173.0
 30
0.0
 11
89.25
 21
102.0
 31
0.0
  0
LINE
  8
0
  6
CONTINUOUS
 62
     1
 10
102.0
 20
175.0
 30
0.0
 11
102.0
 21
100.0
 31
0.0
  0
LINE
  8
0
  6
CONTINUOUS
 62
     1
 10
91.25
 20
175.0
 30
0.0
 11
102.0
 21
175.0
 31
0.0
  0
LINE
  8
0
  6
CONTINUOUS
 62
     1
 10
102.0
 20
100.0
 30
0.0
 11
91.25
 21
100.0
 31
0.0
  0
LINE
  8
0
  6
CONTINUOUS
 62
     1
 10
137.5
 20
105.0
 30
0.0
 11
137.5
 21
170.0
 31
0.0
  0
ARC
  8
0
  6
CONTINUOUS
 62
     1
 10
126.5
 20
170.75
 30
0.0
 40
0.5
 50
360.0
 51
90.0
  0
LINE
  8
0
  6
CONTINUOUS
 62
     2
 10
122.45
 20
171.25
 30
0.0
 11
121.802952387
 21
168.835185434
 31
0.0
  0
LINE
  8
0
  6
CONTINUOUS
 62
     2
 10
122.45
 20
171.25
 30
0.0
 11
123.097047613
 21
168.835185434
 31
0.0
  0
ARC
  8
0
  6
CONTINUOUS
 62
     1
 10
126.5
 20
104.25
 30
0.0
 40
0.5
 50
270.0
 51
360.0
  0
LINE
  8
0
  6
CONTINUOUS
 62
     2
 10
122.45
 20
103.75
 30
0.0
 11
123.097047613
 21
106.164814566
 31
0.0
  0
LINE
  8
0
  6
CONTINUOUS
 62
     2
 10
122.45
 20
103.75
 30
0.0
 11
121.802952387
 21
106.164814566
 31
0.0
  0
LINE
  8
0
  6
CONTINUOUS
 62
     1
 10
127.0
 20
170.75
 30
0.0
 11
127.0
 21
104.25
 31
0.0
  0
LINE
  8
0
  6
CONTINUOUS
 62
     2
 10
122.45
 20
171.25
 30
0.0
 11
122.45
 21
103.75
 31
0.0
  0
LINE
  8
0
  6
LTYPE1
 62
     2
 10
49.5
 20
178.0
 30
0.0
 11
49.5
 21
98.3
 31
0.0
  0
ARC
  8
0
  6
CONTINUOUS
 62
     1
 10
82.0
 20
105.0
 30
0.0
 40
5.0
 50
270.0
 51
0.0
  0
ARC
  8
0
  6
CONTINUOUS
 62
     1
 10
17.0
 20
105.0
 30
0.0
 40
5.0
 50
180.0
 51
270.0
  0
LINE
  8
0
  6
CONTINUOUS
 62
     1
 10
17.0
 20
100.0
 30
0.0
 11
82.0
 21
100.0
 31
0.0
  0
ARC
  8
0
  6
CONTINUOUS
 62
     1
 10
82.0
 20
170.0
 30
0.0
 40
5.0
 50
0.0
 51
90.0
  0
LINE
  8
0
  6
CONTINUOUS
 62
     1
 10
87.0
 20
105.0
 30
0.0
 11
87.0
 21
170.0
 31
0.0
  0
ARC
  8
0
  6
CONTINUOUS
 62
     1
 10
17.0
 20
170.0
 30
0.0
 40
5.0
 50
90.0
 51
180.0
  0
LINE
  8
0
  6
CONTINUOUS
 62
     1
 10
12.0
 20
170.0
 30
0.0
 11
12.0
 21
105.0
 31
0.0
  0
LINE
  8
0
  6
CONTINUOUS
 62
     1
 10
82.0
 20
175.0
 30
0.0
 11
17.0
 21
175.0
 31
0.0
  0
LINE
  8
0
  6
CONTINUOUS
 62
     2
 10
175.0
 20
180.0
 30
0.0
 11
206.0
 21
180.0
 31
0.0
  0
LINE
  8
0
  6
CONTINUOUS
 62
     2
 10
206.0
 20
180.0
 30
0.0
 11
203.585185434
 21
180.647047613
 31
0.0
  0
LINE
  8
0
  6
CONTINUOUS
 62
     2
 10
206.0
 20
180.0
 30
0.0
 11
203.585185434
 21
179.352952387
 31
0.0
  0
LINE
  8
0
  6
CONTINUOUS
 62
     2
 10
206.0
 20
176.0
 30
0.0
 11
206.0
 21
182.0
 31
0.0
  0
LINE
  8
0
  6
CONTINUOUS
 62
     2
 10
175.0
 20
180.0
 30
0.0
 11
144.0
 21
180.0
 31
0.0
  0
LINE
  8
0
  6
CONTINUOUS
 62
     2
 10
144.0
 20
180.0
 30
0.0
 11
146.414814566
 21
179.352952387
 31
0.0
  0
LINE
  8
0
  6
CONTINUOUS
 62
     2
 10
144.0
 20
180.0
 30
0.0
 11
146.414814566
 21
180.647047613
 31
0.0
  0
LINE
  8
0
  6
CONTINUOUS
 62
     2
 10
144.0
 20
176.0
 30
0.0
 11
144.0
 21
182.0
 31
0.0
  0
TEXT
  8
0
  6
CONTINUOUS
 62
     2
 10
159.686
 20
181.0
 30
0.3
 40
1.8
  1
±０．５
 50
0.0
 41
0.666666667
 51
0.0
  7
KANJI1
  0
TEXT
  8
0
  6
CONTINUOUS
 62
     2
 10
155.186
 20
181.0
 30
0.5
 40
3.0
  1
６２
 50
0.0
 41
0.666666667
 51
0.0
  7
KANJI2
  0
TEXT
  8
0
  6
CONTINUOUS
 62
     2
 10
190.686
 20
181.0
 30
0.3
 40
1.8
  1
±０．５
 50
0.0
 41
0.666666667
 51
0.0
  7
KANJI1
  0
TEXT
  8
0
  6
CONTINUOUS
 62
     2
 10
186.186
 20
181.0
 30
0.5
 40
3.0
  1
６２
 50
0.0
 41
0.666666667
 51
0.0
  7
KANJI2
  0
LINE
  8
0
  6
CONTINUOUS
 62
     2
 10
20.05
 20
30.0
 30
0.0
 11
110.3
 21
30.0
 31
0.0
  0
CIRCLE
  8
0
  6
CONTINUOUS
 62
     2
 10
187.75
 20
152.5
 30
0.0
 40
3.175
  0
CIRCLE
  8
0
  6
CONTINUOUS
 62
     2
 10
187.75
 20
152.5
 30
0.0
 40
2.5
  0
LINE
  8
0
  6
CONTINUOUS
 62
     2
 10
188.1
 20
153.875
 30
0.0
 11
187.4
 21
153.875
 31
0.0
  0
LINE
  8
0
  6
CONTINUOUS
 62
     2
 10
187.4
 20
151.125
 30
0.0
 11
188.1
 21
151.125
 31
0.0
  0
LINE
  8
0
  6
CONTINUOUS
 62
     2
 10
187.4
 20
153.875
 30
0.0
 11
187.4
 21
153.6
 31
0.0
  0
LINE
  8
0
  6
CONTINUOUS
 62
     2
 10
186.65
 20
152.85
 30
0.0
 11
185.274621241
 21
152.85
 31
0.0
  0
ARC
  8
0
  6
CONTINUOUS
 62
     2
 10
186.65
 20
153.6
 30
0.0
 40
0.75
 50
270.0
 51
0.0
  0
LINE
  8
0
  6
CONTINUOUS
 62
     2
 10
188.1
 20
153.6
 30
0.0
 11
188.1
 21
153.875
 31
0.0
  0
LINE
  8
0
  6
CONTINUOUS
 62
     2
 10
190.2
 20
152.85
 30
0.0
 11
188.85
 21
152.85
 31
0.0
  0
ARC
  8
0
  6
CONTINUOUS
 62
     2
 10
188.85
 20
153.6
 30
0.0
 40
0.75
 50
180.0
 51
270.0
  0
LINE
  8
0
  6
CONTINUOUS
 62
     2
 10
188.1
 20
151.125
 30
0.0
 11
188.1
 21
151.4
 31
0.0
  0
LINE
  8
0
  6
CONTINUOUS
 62
     2
 10
188.85
 20
152.15
 30
0.0
 11
190.225378759
 21
152.15
 31
0.0
  0
ARC
  8
0
  6
CONTINUOUS
 62
     2
 10
188.85
 20
151.4
 30
0.0
 40
0.75
 50
90.0
 51
180.0
  0
LINE
  8
0
  6
CONTINUOUS
 62
     2
 10
187.4
 20
151.4
 30
0.0
 11
187.4
 21
151.125
 31
0.0
  0
LINE
  8
0
  6
CONTINUOUS
 62
     2
 10
185.274621241
 20
152.15
 30
0.0
 11
186.65
 21
152.15
 31
0.0
  0
ARC
  8
0
  6
CONTINUOUS
 62
     2
 10
186.65
 20
151.4
 30
0.0
 40
0.75
 50
0.0
 51
90.0
  0
LINE
  8
0
  6
LTYPE1
 62
     2
 10
187.75
 20
156.5
 30
0.0
 11
187.75
 21
148.5
 31
0.0
  0
LINE
  8
0
  6
LTYPE1
 62
     2
 10
183.75
 20
152.5
 30
0.0
 11
191.75
 21
152.5
 31
0.0
  0
CIRCLE
  8
0
  6
CONTINUOUS
 62
     2
 10
162.25
 20
152.5
 30
0.0
 40
3.175
  0
CIRCLE
  8
0
  6
CONTINUOUS
 62
     2
 10
162.25
 20
152.5
 30
0.0
 40
2.5
  0
LINE
  8
0
  6
CONTINUOUS
 62
     2
 10
161.9
 20
153.875
 30
0.0
 11
162.6
 21
153.875
 31
0.0
  0
LINE
  8
0
  6
CONTINUOUS
 62
     2
 10
162.6
 20
151.125
 30
0.0
 11
161.9
 21
151.125
 31
0.0
  0
LINE
  8
0
  6
CONTINUOUS
 62
     2
 10
162.6
 20
153.875
 30
0.0
 11
162.6
 21
153.6
 31
0.0
  0
LINE
  8
0
  6
CONTINUOUS
 62
     2
 10
163.35
 20
152.85
 30
0.0
 11
164.725378759
 21
152.85
 31
0.0
  0
ARC
  8
0
  6
CONTINUOUS
 62
     2
 10
163.35
 20
153.6
 30
0.0
 40
0.75
 50
180.0
 51
270.0
  0
LINE
  8
0
  6
CONTINUOUS
 62
     2
 10
161.9
 20
153.6
 30
0.0
 11
161.9
 21
153.875
 31
0.0
  0
LINE
  8
0
  6
CONTINUOUS
 62
     2
 10
159.8
 20
152.85
 30
0.0
 11
161.15
 21
152.85
 31
0.0
  0
ARC
  8
0
  6
CONTINUOUS
 62
     2
 10
161.15
 20
153.6
 30
0.0
 40
0.75
 50
270.0
 51
0.0
  0
LINE
  8
0
  6
CONTINUOUS
 62
     2
 10
161.9
 20
151.125
 30
0.0
 11
161.9
 21
151.4
 31
0.0
  0
LINE
  8
0
  6
CONTINUOUS
 62
     2
 10
161.15
 20
152.15
 30
0.0
 11
159.774621241
 21
152.15
 31
0.0
  0
ARC
  8
0
  6
CONTINUOUS
 62
     2
 10
161.15
 20
151.4
 30
0.0
 40
0.75
 50
360.0
 51
90.0
  0
LINE
  8
0
  6
CONTINUOUS
 62
     2
 10
162.6
 20
151.4
 30
0.0
 11
162.6
 21
151.125
 31
0.0
  0
LINE
  8
0
  6
CONTINUOUS
 62
     2
 10
164.725378759
 20
152.15
 30
0.0
 11
163.35
 21
152.15
 31
0.0
  0
ARC
  8
0
  6
CONTINUOUS
 62
     2
 10
163.35
 20
151.4
 30
0.0
 40
0.75
 50
90.0
 51
180.0
  0
LINE
  8
0
  6
LTYPE1
 62
     2
 10
162.25
 20
156.5
 30
0.0
 11
162.25
 21
148.5
 31
0.0
  0
LINE
  8
0
  6
LTYPE1
 62
     2
 10
166.25
 20
152.5
 30
0.0
 11
158.25
 21
152.5
 31
0.0
  0
LINE
  8
0
  6
CONTINUOUS
 62
     2
 10
130.2
 20
143.0
 30
0.0
 11
130.2
 21
140.0
 31
0.0
  0
LINE
  8
0
  6
CONTINUOUS
 62
     2
 10
130.2
 20
143.0
 30
0.0
 11
130.2
 21
143.25
 31
0.0
  0
LINE
  8
0
  6
CONTINUOUS
 62
     2
 10
130.2
 20
143.25
 30
0.0
 11
130.7
 21
143.25
 31
0.0
  0
LINE
  8
0
  6
CONTINUOUS
 62
     2
 10
130.7
 20
143.25
 30
0.0
 11
130.7
 21
139.75
 31
0.0
  0
LINE
  8
0
  6
CONTINUOUS
 62
     2
 10
130.7
 20
139.75
 30
0.0
 11
130.2
 21
139.75
 31
0.0
  0
LINE
  8
0
  6
CONTINUOUS
 62
     2
 10
130.2
 20
139.75
 30
0.0
 11
130.2
 21
140.0
 31
0.0
  0
LINE
  8
0
  6
CONTINUOUS
 62
     2
 10
130.2
 20
141.5
 30
0.0
 11
130.7
 21
141.788675135
 31
0.0
  0
LINE
  8
0
  6
CONTINUOUS
 62
     2
 10
130.2
 20
141.211324865
 30
0.0
 11
130.7
 21
141.5
 31
0.0
  0
ARC
  8
0
  6
CONTINUOUS
 62
     2
 10
131.189512163
 20
140.4
 30
0.0
 40
0.65
 50
270.0
 51
343.398450401
  0
ARC
  8
0
  6
CONTINUOUS
 62
     2
 10
131.189512163
 20
142.6
 30
0.0
 40
0.65
 50
16.601549599
 51
90.0
  0
LINE
  8
0
  6
CONTINUOUS
 62
     2
 10
130.7
 20
143.25
 30
0.0
 11
131.189512163
 21
143.25
 31
0.0
  0
LINE
  8
0
  6
CONTINUOUS
 62
     2
 10
130.7
 20
139.75
 30
0.0
 11
131.189512163
 21
139.75
 31
0.0
  0
LINE
  8
0
  6
CONTINUOUS
 62
     2
 10
132.0
 20
141.75
 30
0.0
 11
131.3
 21
141.75
 31
0.0
  0
LINE
  8
0
  6
CONTINUOUS
 62
     2
 10
131.3
 20
141.75
 30
0.0
 11
131.3
 21
141.25
 31
0.0
  0
LINE
  8
0
  6
CONTINUOUS
 62
     2
 10
131.3
 20
141.25
 30
0.0
 11
132.0
 21
141.25
 31
0.0
  0
ARC
  8
0
  6
CONTINUOUS
 62
     2
 10
127.5
 20
141.5
 30
0.0
 40
4.5
 50
3.17983012
 51
16.601549599
  0
ARC
  8
0
  6
CONTINUOUS
 62
     2
 10
127.5
 20
141.5
 30
0.0
 40
4.5
 50
343.398450401
 51
356.82016988
  0
LINE
  8
0
  6
CONTINUOUS
 62
     2
 10
127.0
 20
143.0
 30
0.0
 11
130.2
 21
143.0
 31
0.0
  0
LINE
  8
0
  6
CONTINUOUS
 62
     2
 10
130.2
 20
140.0
 30
0.0
 11
127.0
 21
140.0
 31
0.0
  0
LINE
  8
0
  6
LTYPE1
 62
     2
 10
124.225
 20
141.5
 30
0.0
 11
135.0
 21
141.5
 31
0.0
  0
TEXT
  8
0
  6
CONTINUOUS
 62
     2
 10
170.2
 20
186.0
 30
0.5
 40
3.0
  1
１５０
 50
0.0
 41
0.666666667
 51
0.0
  7
KANJI2
  0
LINE
  8
0
  6
CONTINUOUS
 62
     2
 10
130.2
 20
139.75
 30
0.0
 11
129.552952387
 21
137.335185434
 31
0.0
  0
LINE
  8
0
  6
CONTINUOUS
 62
     2
 10
130.2
 20
139.75
 30
0.0
 11
130.847047613
 21
137.335185434
 31
0.0
  0
LINE
  8
0
  6
CONTINUOUS
 62
     2
 10
130.2
 20
139.75
 30
0.0
 11
130.2
 21
92.0
 31
0.0
  0
LINE
  8
0
  6
CONTINUOUS
 62
     2
 10
105.969
 20
102.341
 30
0.0
 11
105.321952387
 21
99.926185434
 31
0.0
  0
LINE
  8
0
  6
CONTINUOUS
 62
     2
 10
105.969
 20
102.341
 30
0.0
 11
106.616047613
 21
99.926185434
 31
0.0
  0
POLYLINE
  8
0
  6
CONTINUOUS
 62
     2
 66
     1
  0
VERTEX
  8
0
  6
CONTINUOUS
 62
     2
 10
102.0
 20
103.5
 30
0.0
  0
VERTEX
  8
0
  6
CONTINUOUS
 62
     2
 10
102.25
 20
103.5
 30
0.0
  0
VERTEX
  8
0
  6
CONTINUOUS
 62
     2
 10
102.25
 20
109.5
 30
0.0
  0
VERTEX
  8
0
  6
CONTINUOUS
 62
     2
 10
102.0
 20
109.5
 30
0.0
  0
SEQEND
  0
LINE
  8
0
  6
CONTINUOUS
 62
     2
 10
107.75
 20
108.0
 30
0.0
 11
109.75
 21
108.0
 31
0.0
  0
LINE
  8
0
  6
CONTINUOUS
 62
     2
 10
109.75
 20
108.0
 30
0.0
 11
109.75
 21
105.0
 31
0.0
  0
LINE
  8
0
  6
CONTINUOUS
 62
     2
 10
109.75
 20
105.0
 30
0.0
 11
107.75
 21
105.0
 31
0.0
  0
LINE
  8
0
  6
LTYPE2
 62
     2
 10
100.2
 20
106.5
 30
0.0
 11
112.05
 21
106.5
 31
0.0
  0
ARC
  8
0
  6
CONTINUOUS
 62
     2
 10
102.75
 20
106.5
 30
0.0
 40
5.0
 50
343.5
 51
16.5
  0
ARC
  8
0
  6
CONTINUOUS
 62
     2
 10
110.25
 20
106.5
 30
0.0
 40
5.0
 50
163.5
 51
196.3
  0
ARC
  8
0
  6
CONTINUOUS
 62
     2
 10
106.5
 20
108.625
 30
0.0
 40
1.25
 50
325.0
 51
35.0
  0
ARC
  8
0
  6
CONTINUOUS
 62
     2
 10
106.5
 20
108.625
 30
0.0
 40
1.25
 50
145.0
 51
215.0
  0
ARC
  8
0
  6
CONTINUOUS
 62
     2
 10
106.5
 20
104.375
 30
0.0
 40
1.25
 50
145.0
 51
215.0
  0
ARC
  8
0
  6
CONTINUOUS
 62
     2
 10
106.5
 20
104.375
 30
0.0
 40
1.25
 50
325.0
 51
35.0
  0
LINE
  8
0
  6
CONTINUOUS
 62
     2
 10
105.45097354
 20
105.096666455
 30
0.0
 11
107.52597354
 21
105.096666455
 31
0.0
  0
LINE
  8
0
  6
CONTINUOUS
 62
     2
 10
107.544098674
 20
107.920076724
 30
0.0
 11
105.455901326
 21
107.920076724
 31
0.0
  0
LINE
  8
0
  6
CONTINUOUS
 62
     2
 10
107.530901326
 20
109.35
 30
0.0
 11
105.25
 21
109.35
 31
0.0
  0
LINE
  8
0
  6
CONTINUOUS
 62
     2
 10
107.75
 20
104.375
 30
0.0
 11
107.75
 21
108.625
 31
0.0
  0
LINE
  8
0
  6
CONTINUOUS
 62
     2
 10
103.6
 20
103.5
 30
0.0
 11
104.4
 21
103.5
 31
0.0
  0
LINE
  8
0
  6
CONTINUOUS
 62
     2
 10
103.25
 20
106.55
 30
0.0
 11
104.05
 21
106.55
 31
0.0
  0
LINE
  8
0
  6
CONTINUOUS
 62
     2
 10
104.05
 20
106.55
 30
0.0
 11
104.4
 21
109.5
 31
0.0
  0
LINE
  8
0
  6
CONTINUOUS
 62
     2
 10
104.4
 20
109.5
 30
0.0
 11
103.6
 21
109.5
 31
0.0
  0
LINE
  8
0
  6
CONTINUOUS
 62
     2
 10
103.6
 20
109.5
 30
0.0
 11
103.25
 21
106.55
 31
0.0
  0
LINE
  8
0
  6
CONTINUOUS
 62
     2
 10
104.75
 20
106.45
 30
0.0
 11
103.95
 21
106.45
 31
0.0
  0
LINE
  8
0
  6
CONTINUOUS
 62
     2
 10
103.95
 20
106.45
 30
0.0
 11
103.6
 21
103.5
 31
0.0
  0
LINE
  8
0
  6
CONTINUOUS
 62
     2
 10
104.4
 20
103.5
 30
0.0
 11
104.75
 21
106.45
 31
0.0
  0
LINE
  8
0
  6
CONTINUOUS
 62
     2
 10
102.45
 20
109.55
 30
0.0
 11
103.25
 21
109.55
 31
0.0
  0
LINE
  8
0
  6
CONTINUOUS
 62
     2
 10
103.25
 20
109.55
 30
0.0
 11
103.25
 21
103.4475
 31
0.0
  0
LINE
  8
0
  6
CONTINUOUS
 62
     2
 10
103.25
 20
103.4475
 30
0.0
 11
102.455
 21
103.4475
 31
0.0
  0
LINE
  8
0
  6
CONTINUOUS
 62
     2
 10
102.455
 20
103.4475
 30
0.0
 11
102.455
 21
109.55
 31
0.0
  0
LINE
  8
0
  6
CONTINUOUS
 62
     2
 10
105.245
 20
108.0
 30
0.0
 11
104.23
 21
108.0
 31
0.0
  0
LINE
  8
0
  6
CONTINUOUS
 62
     2
 10
103.435
 20
108.0
 30
0.0
 11
103.26
 21
108.0
 31
0.0
  0
LINE
  8
0
  6
CONTINUOUS
 62
     2
 10
102.45
 20
108.0
 30
0.0
 11
102.26
 21
108.0
 31
0.0
  0
LINE
  8
0
  6
CONTINUOUS
 62
     2
 10
102.26
 20
105.005
 30
0.0
 11
102.44
 21
105.005
 31
0.0
  0
LINE
  8
0
  6
CONTINUOUS
 62
     2
 10
103.25
 20
105.005
 30
0.0
 11
103.77
 21
105.005
 31
0.0
  0
LINE
  8
0
  6
CONTINUOUS
 62
     2
 10
104.57
 20
105.005
 30
0.0
 11
105.24
 21
105.005
 31
0.0
  0
LINE
  8
0
  6
CONTINUOUS
 62
     2
 10
105.25
 20
105.125
 30
0.0
 11
104.595
 21
105.125
 31
0.0
  0
LINE
  8
0
  6
CONTINUOUS
 62
     2
 10
103.8
 20
105.125
 30
0.0
 11
103.265
 21
105.125
 31
0.0
  0
LINE
  8
0
  6
CONTINUOUS
 62
     2
 10
107.755
 20
105.125
 30
0.0
 11
109.73
 21
105.125
 31
0.0
  0
LINE
  8
0
  6
CONTINUOUS
 62
     2
 10
109.75
 20
107.885
 30
0.0
 11
107.76
 21
107.885
 31
0.0
  0
LINE
  8
0
  6
CONTINUOUS
 62
     2
 10
105.25
 20
107.885
 30
0.0
 11
104.215
 21
107.885
 31
0.0
  0
LINE
  8
0
  6
CONTINUOUS
 62
     2
 10
103.415
 20
107.885
 30
0.0
 11
103.255
 21
107.885
 31
0.0
  0
POLYLINE
  8
0
  6
CONTINUOUS
 62
     2
 66
     1
  0
VERTEX
  8
0
  6
CONTINUOUS
 62
     2
 10
102.0
 20
165.5
 30
0.0
  0
VERTEX
  8
0
  6
CONTINUOUS
 62
     2
 10
102.25
 20
165.5
 30
0.0
  0
VERTEX
  8
0
  6
CONTINUOUS
 62
     2
 10
102.25
 20
171.5
 30
0.0
  0
VERTEX
  8
0
  6
CONTINUOUS
 62
     2
 10
102.0
 20
171.5
 30
0.0
  0
SEQEND
  0
LINE
  8
0
  6
CONTINUOUS
 62
     2
 10
107.75
 20
170.0
 30
0.0
 11
109.75
 21
170.0
 31
0.0
  0
LINE
  8
0
  6
CONTINUOUS
 62
     2
 10
109.75
 20
170.0
 30
0.0
 11
109.75
 21
167.0
 31
0.0
  0
LINE
  8
0
  6
CONTINUOUS
 62
     2
 10
109.75
 20
167.0
 30
0.0
 11
107.75
 21
167.0
 31
0.0
  0
LINE
  8
0
  6
LTYPE2
 62
     2
 10
100.2
 20
168.5
 30
0.0
 11
112.05
 21
168.5
 31
0.0
  0
ARC
  8
0
  6
CONTINUOUS
 62
     2
 10
102.75
 20
168.5
 30
0.0
 40
5.0
 50
343.5
 51
16.5
  0
ARC
  8
0
  6
CONTINUOUS
 62
     2
 10
110.25
 20
168.5
 30
0.0
 40
5.0
 50
163.5
 51
196.3
  0
ARC
  8
0
  6
CONTINUOUS
 62
     2
 10
106.5
 20
170.625
 30
0.0
 40
1.25
 50
325.0
 51
35.0
  0
ARC
  8
0
  6
CONTINUOUS
 62
     2
 10
106.5
 20
170.625
 30
0.0
 40
1.25
 50
145.0
 51
215.0
  0
ARC
  8
0
  6
CONTINUOUS
 62
     2
 10
106.5
 20
166.375
 30
0.0
 40
1.25
 50
145.0
 51
215.0
  0
ARC
  8
0
  6
CONTINUOUS
 62
     2
 10
106.5
 20
166.375
 30
0.0
 40
1.25
 50
325.0
 51
35.0
  0
LINE
  8
0
  6
CONTINUOUS
 62
     2
 10
105.45097354
 20
167.096666455
 30
0.0
 11
107.52597354
 21
167.096666455
 31
0.0
  0
LINE
  8
0
  6
CONTINUOUS
 62
     2
 10
107.544098674
 20
169.920076724
 30
0.0
 11
105.455901326
 21
169.920076724
 31
0.0
  0
LINE
  8
0
  6
CONTINUOUS
 62
     2
 10
107.530901326
 20
171.35
 30
0.0
 11
105.25
 21
171.35
 31
0.0
  0
LINE
  8
0
  6
CONTINUOUS
 62
     2
 10
107.75
 20
166.375
 30
0.0
 11
107.75
 21
170.625
 31
0.0
  0
LINE
  8
0
  6
CONTINUOUS
 62
     2
 10
103.6
 20
165.5
 30
0.0
 11
104.4
 21
165.5
 31
0.0
  0
LINE
  8
0
  6
CONTINUOUS
 62
     2
 10
103.25
 20
168.55
 30
0.0
 11
104.05
 21
168.55
 31
0.0
  0
LINE
  8
0
  6
CONTINUOUS
 62
     2
 10
104.05
 20
168.55
 30
0.0
 11
104.4
 21
171.5
 31
0.0
  0
LINE
  8
0
  6
CONTINUOUS
 62
     2
 10
104.4
 20
171.5
 30
0.0
 11
103.6
 21
171.5
 31
0.0
  0
LINE
  8
0
  6
CONTINUOUS
 62
     2
 10
103.6
 20
171.5
 30
0.0
 11
103.25
 21
168.55
 31
0.0
  0
LINE
  8
0
  6
CONTINUOUS
 62
     2
 10
104.75
 20
168.45
 30
0.0
 11
103.95
 21
168.45
 31
0.0
  0
LINE
  8
0
  6
CONTINUOUS
 62
     2
 10
103.95
 20
168.45
 30
0.0
 11
103.6
 21
165.5
 31
0.0
  0
LINE
  8
0
  6
CONTINUOUS
 62
     2
 10
104.4
 20
165.5
 30
0.0
 11
104.75
 21
168.45
 31
0.0
  0
LINE
  8
0
  6
CONTINUOUS
 62
     2
 10
102.45
 20
171.55
 30
0.0
 11
103.25
 21
171.55
 31
0.0
  0
LINE
  8
0
  6
CONTINUOUS
 62
     2
 10
103.25
 20
171.55
 30
0.0
 11
103.25
 21
165.4475
 31
0.0
  0
LINE
  8
0
  6
CONTINUOUS
 62
     2
 10
103.25
 20
165.4475
 30
0.0
 11
102.455
 21
165.4475
 31
0.0
  0
LINE
  8
0
  6
CONTINUOUS
 62
     2
 10
102.455
 20
165.4475
 30
0.0
 11
102.455
 21
171.55
 31
0.0
  0
LINE
  8
0
  6
CONTINUOUS
 62
     2
 10
105.245
 20
170.0
 30
0.0
 11
104.23
 21
170.0
 31
0.0
  0
LINE
  8
0
  6
CONTINUOUS
 62
     2
 10
103.435
 20
170.0
 30
0.0
 11
103.26
 21
170.0
 31
0.0
  0
LINE
  8
0
  6
CONTINUOUS
 62
     2
 10
102.45
 20
170.0
 30
0.0
 11
102.26
 21
170.0
 31
0.0
  0
LINE
  8
0
  6
CONTINUOUS
 62
     2
 10
102.26
 20
167.005
 30
0.0
 11
102.44
 21
167.005
 31
0.0
  0
LINE
  8
0
  6
CONTINUOUS
 62
     2
 10
103.25
 20
167.005
 30
0.0
 11
103.77
 21
167.005
 31
0.0
  0
LINE
  8
0
  6
CONTINUOUS
 62
     2
 10
104.57
 20
167.005
 30
0.0
 11
105.24
 21
167.005
 31
0.0
  0
LINE
  8
0
  6
CONTINUOUS
 62
     2
 10
105.25
 20
167.125
 30
0.0
 11
104.595
 21
167.125
 31
0.0
  0
LINE
  8
0
  6
CONTINUOUS
 62
     2
 10
103.8
 20
167.125
 30
0.0
 11
103.265
 21
167.125
 31
0.0
  0
LINE
  8
0
  6
CONTINUOUS
 62
     2
 10
107.755
 20
167.125
 30
0.0
 11
109.73
 21
167.125
 31
0.0
  0
LINE
  8
0
  6
CONTINUOUS
 62
     2
 10
109.75
 20
169.885
 30
0.0
 11
107.76
 21
169.885
 31
0.0
  0
LINE
  8
0
  6
CONTINUOUS
 62
     2
 10
105.25
 20
169.885
 30
0.0
 11
104.215
 21
169.885
 31
0.0
  0
LINE
  8
0
  6
CONTINUOUS
 62
     2
 10
103.415
 20
169.885
 30
0.0
 11
103.255
 21
169.885
 31
0.0
  0
LINE
  8
0
  6
CONTINUOUS
 62
     1
 10
102.455
 20
171.25
 30
0.0
 11
102.25
 21
171.25
 31
0.0
  0
LINE
  8
0
  6
CONTINUOUS
 62
     1
 10
103.570338983
 20
171.25
 30
0.0
 11
103.25
 21
171.25
 31
0.0
  0
LINE
  8
0
  6
CONTINUOUS
 62
     1
 10
105.25
 20
171.25
 30
0.0
 11
104.370338983
 21
171.25
 31
0.0
  0
LINE
  8
0
  6
CONTINUOUS
 62
     1
 10
126.5
 20
171.25
 30
0.0
 11
107.582531755
 21
171.25
 31
0.0
  0
LINE
  8
0
  6
CONTINUOUS
 62
     1
 10
126.5
 20
103.75
 30
0.0
 11
107.582531755
 21
103.75
 31
0.0
  0
POLYLINE
  8
0
  6
CONTINUOUS
 62
     2
 66
     1
  0
VERTEX
  8
0
  6
CONTINUOUS
 62
     2
 10
105.25
 20
171.35
 30
0.0
  0
VERTEX
  8
0
  6
CONTINUOUS
 62
     2
 10
105.25
 20
165.65
 30
0.0
  0
VERTEX
  8
0
  6
CONTINUOUS
 62
     2
 10
107.525
 20
165.65
 30
0.0
  0
SEQEND
  0
LINE
  8
0
  6
CONTINUOUS
 62
     2
 10
105.25
 20
103.65
 30
0.0
 11
107.525
 21
103.65
 31
0.0
  0
LINE
  8
0
  6
CONTINUOUS
 62
     2
 10
105.25
 20
109.35
 30
0.0
 11
105.25
 21
103.65
 31
0.0
  0
LINE
  8
0
  6
CONTINUOUS
 62
     1
 10
104.429661017
 20
103.75
 30
0.0
 11
105.25
 21
103.75
 31
0.0
  0
LINE
  8
0
  6
CONTINUOUS
 62
     1
 10
103.629661017
 20
103.75
 30
0.0
 11
103.25
 21
103.75
 31
0.0
  0
LINE
  8
0
  6
CONTINUOUS
 62
     1
 10
102.455
 20
103.75
 30
0.0
 11
102.25
 21
103.75
 31
0.0
  0
LINE
  8
0
  6
CONTINUOUS
 62
     2
 10
105.969
 20
102.341
 30
0.0
 11
105.969
 21
85.0
 31
0.0
  0
TEXT
  8
0
  6
CONTINUOUS
 62
     2
 10
110.395424588
 20
93.0
 30
0.1
 40
3.0
  1
ターミナルネジ
 50
0.0
 41
0.9
 51
0.0
  7
KANJI3
  0
LINE
  8
0
  6
CONTINUOUS
 62
     2
 10
110.021424588
 20
92.0
 30
0.0
 11
130.2
 21
92.0
 31
0.0
  0
TEXT
  8
0
  6
CONTINUOUS
 62
     2
 10
80.535
 20
86.0
 30
0.1
 40
3.0
  1
４－Ｍ６取付ボルト
 50
0.0
 41
0.9
 51
0.0
  7
KANJI3
  0
LINE
  8
0
  6
CONTINUOUS
 62
     2
 10
80.225
 20
85.0
 30
0.0
 11
105.969
 21
85.0
 31
0.0
  0
LINE
  8
0
  6
CONTINUOUS
 62
     2
 10
131.740875278
 20
155.107216257
 30
0.0
 11
131.330668357
 21
157.573332694
 31
0.0
  0
LINE
  8
0
  6
CONTINUOUS
 62
     2
 10
131.740875278
 20
155.107216257
 30
0.0
 11
130.152567445
 21
157.037832279
 31
0.0
  0
TEXT
  8
0
  6
CONTINUOUS
 62
     2
 10
129.386438882
 20
161.55143311
 30
0.1
 40
3.0
  1
ｄ
 50
0.0
 41
0.9
 51
0.0
  7
KANJI3
  0
LINE
  8
0
  6
CONTINUOUS
 62
     2
 10
129.243503981
 20
160.60143311
 30
0.0
 11
132.234503981
 21
160.60143311
 31
0.0
  0
LINE
  8
0
  6
CONTINUOUS
 62
     2
 10
131.740875278
 20
155.107216257
 30
0.0
 11
129.243503981
 21
160.60143311
 31
0.0
  0
LINE
  8
0
  6
CONTINUOUS
 62
     2
 10
20.05
 20
35.0
 30
0.0
 11
110.3
 21
35.0
 31
0.0
  0
LINE
  8
0
  6
CONTINUOUS
 62
     2
 10
20.05
 20
40.0
 30
0.0
 11
110.3
 21
40.0
 31
0.0
  0
LINE
  8
0
  6
CONTINUOUS
 62
     2
 10
20.05
 20
45.0
 30
0.0
 11
110.3
 21
45.0
 31
0.0
  0
LINE
  8
0
  6
CONTINUOUS
 62
     2
 10
73.05
 20
45.0
 30
0.0
 11
73.05
 21
30.0
 31
0.0
  0
TEXT
  8
0
  6
CONTINUOUS
 62
     2
 10
21.03253255
 20
31.0
 30
0.5
 40
3.0
  1
５０Ａを超え１５０Ａ以下の電流計
 50
0.0
 41
0.9
 51
0.0
  7
KANJI4
  0
LINE
  8
0
  6
CONTINUOUS
 62
     2
 10
83.05
 20
45.0
 30
0.0
 11
83.05
 21
30.0
 31
0.0
  0
TEXT
  8
0
  6
CONTINUOUS
 62
     2
 10
84.03253255
 20
36.0
 30
0.5
 40
3.0
  1
Ｍ６ネジ
 50
0.0
 41
0.9
 51
0.0
  7
KANJI4
  0
TEXT
  8
0
  6
CONTINUOUS
 62
     2
 10
84.03253255
 20
31.0
 30
0.5
 40
3.0
  1
Ｍ９ボルトナット
 50
0.0
 41
0.9
 51
0.0
  7
KANJI4
  0
TEXT
  8
0
  6
CONTINUOUS
 62
     2
 10
75.08753255
 20
36.0
 30
0.5
 40
3.0
  1
２１
 50
0.0
 41
0.9
 51
0.0
  7
KANJI4
  0
TEXT
  8
0
  6
CONTINUOUS
 62
     2
 10
75.08753255
 20
31.0
 30
0.5
 40
3.0
  1
４７
 50
0.0
 41
0.9
 51
0.0
  7
KANJI4
  0
TEXT
  8
0
  6
CONTINUOUS
 62
     2
 10
93.900597649
 20
41.0
 30
0.5
 40
3.0
  1
ｄ
 50
0.0
 41
0.9
 51
0.0
  7
KANJI4
  0
TEXT
  8
0
  6
CONTINUOUS
 62
     2
 10
76.704
 20
41.0
 30
0.5
 40
3.0
  1
Ｌ
 50
0.0
 41
0.9
 51
0.0
  7
KANJI4
  0
TEXT
  8
0
  6
CONTINUOUS
 62
     2
 10
41.81553255
 20
41.0
 30
0.5
 40
3.0
  1
定格値
 50
0.0
 41
0.9
 51
0.0
  7
KANJI4
  0
LINE
  8
0
  6
CONTINUOUS
 62
     2
 10
20.05
 20
54.0
 30
0.0
 11
112.433
 21
54.0
 31
0.0
  0
TEXT
  8
0
  6
CONTINUOUS
 62
     2
 10
20.05
 20
55.0
 30
0.5
 40
3.0
  1
注．ランプターミナルはランプ付計器のみに付くものとします。
 50
0.0
 41
0.9
 51
0.0
  7
KANJI4
  0
LINE
  8
0
  6
LTYPE1
 62
     2
 10
46.5
 20
113.5
 30
0.0
 11
52.5
 21
113.5
 31
0.0
  0
CIRCLE
  8
0
  6
CONTINUOUS
 62
     2
 10
49.5
 20
113.5
 30
0.0
 40
1.8
  0
LINE
  8
0
  6
CONTINUOUS
 62
     2
 10
47.7
 20
113.3
 30
0.0
 11
51.2
 21
113.3
 31
0.0
  0
LINE
  8
0
  6
CONTINUOUS
 62
     2
 10
51.2
 20
113.7
 30
0.0
 11
47.75
 21
113.7
 31
0.0
  0
TEXT
  8
0
  6
CONTINUOUS
 62
     2
 10
177.1
 20
186.0
 30
0.3
 40
1.8
  1
±１．５
 50
0.0
 41
0.666666667
 51
0.0
  7
KANJI1
  0
LINE
  8
0
  6
CONTINUOUS
 62
     2
 10
219.0
 20
137.5
 30
0.0
 11
218.352952387
 21
135.085185434
 31
0.0
  0
LINE
  8
0
  6
CONTINUOUS
 62
     2
 10
219.0
 20
137.5
 30
0.0
 11
219.647047613
 21
135.085185434
 31
0.0
  0
LINE
  8
0
  6
CONTINUOUS
 62
     2
 10
219.0
 20
137.5
 30
0.0
 11
219.647047613
 21
139.914814566
 31
0.0
  0
LINE
  8
0
  6
CONTINUOUS
 62
     2
 10
219.0
 20
137.5
 30
0.0
 11
218.352952387
 21
139.914814566
 31
0.0
  0
LINE
  8
0
  6
CONTINUOUS
 62
     2
 10
215.022
 20
137.5
 30
0.0
 11
221.0
 21
137.5
 31
0.0
  0
LINE
  8
0
  6
CONTINUOUS
 62
     2
 10
224.0
 20
175.0
 30
0.0
 11
223.352952387
 21
172.585185434
 31
0.0
  0
LINE
  8
0
  6
CONTINUOUS
 62
     2
 10
224.0
 20
175.0
 30
0.0
 11
224.647047613
 21
172.585185434
 31
0.0
  0
LINE
  8
0
  6
CONTINUOUS
 62
     2
 10
213.5
 20
175.0
 30
0.0
 11
226.0
 21
175.0
 31
0.0
  0
LINE
  8
0
  6
CONTINUOUS
 62
     2
 10
224.0
 20
100.0
 30
0.0
 11
224.647047613
 21
102.414814566
 31
0.0
  0
LINE
  8
0
  6
CONTINUOUS
 62
     2
 10
224.0
 20
100.0
 30
0.0
 11
223.352952387
 21
102.414814566
 31
0.0
  0
LINE
  8
0
  6
CONTINUOUS
 62
     2
 10
213.5
 20
100.0
 30
0.0
 11
226.0
 21
100.0
 31
0.0
  0
LINE
  8
0
  6
CONTINUOUS
 62
     2
 10
224.0
 20
175.0
 30
0.0
 11
224.0
 21
100.0
 31
0.0
  0
LINE
  8
0
  6
LTYPE1
 62
     2
 10
215.498426214
 20
137.5
 30
0.0
 11
10.0
 21
137.5
 31
0.0
  0
LINE
  8
0
  6
CONTINUOUS
 62
     2
 10
219.0
 20
106.5
 30
0.0
 11
219.647047613
 21
108.914814566
 31
0.0
  0
LINE
  8
0
  6
CONTINUOUS
 62
     2
 10
219.0
 20
106.5
 30
0.0
 11
218.352952387
 21
108.914814566
 31
0.0
  0
LINE
  8
0
  6
CONTINUOUS
 62
     2
 10
219.0
 20
106.5
 30
0.0
 11
219.0
 21
137.5
 31
0.0
  0
LINE
  8
0
  6
CONTINUOUS
 62
     2
 10
213.5
 20
106.5
 30
0.0
 11
221.0
 21
106.5
 31
0.0
  0
LINE
  8
0
  6
CONTINUOUS
 62
     2
 10
219.0
 20
137.5
 30
0.0
 11
219.0
 21
168.5
 31
0.0
  0
LINE
  8
0
  6
CONTINUOUS
 62
     2
 10
219.0
 20
168.5
 30
0.0
 11
218.352952387
 21
166.085185434
 31
0.0
  0
LINE
  8
0
  6
CONTINUOUS
 62
     2
 10
219.0
 20
168.5
 30
0.0
 11
219.647047613
 21
166.085185434
 31
0.0
  0
LINE
  8
0
  6
CONTINUOUS
 62
     2
 10
213.5
 20
168.5
 30
0.0
 11
221.0
 21
168.5
 31
0.0
  0
TEXT
  8
0
  6
CONTINUOUS
 62
     2
 10
218.0
 20
121.729
 30
0.18
 40
1.8
  1
±０．５
 50
90.0
 41
0.6
 51
0.0
  7
KANJI5
  0
TEXT
  8
0
  6
CONTINUOUS
 62
     2
 10
218.0
 20
117.829
 30
0.3
 40
3.0
  1
６２
 50
90.0
 41
0.6
 51
0.0
  7
KANJI0
  0
TEXT
  8
0
  6
CONTINUOUS
 62
     2
 10
218.0
 20
152.729
 30
0.18
 40
1.8
  1
±０．５
 50
90.0
 41
0.6
 51
0.0
  7
KANJI5
  0
TEXT
  8
0
  6
CONTINUOUS
 62
     2
 10
218.0
 20
148.829
 30
0.3
 40
3.0
  1
６２
 50
90.0
 41
0.6
 51
0.0
  7
KANJI0
  0
TEXT
  8
0
  6
CONTINUOUS
 62
     2
 10
223.464
 20
130.489033346
 30
0.5
 40
3.0
  1
１５０
 50
90.0
 41
0.666666667
 51
0.0
  7
KANJI2
  0
TEXT
  8
0
  6
CONTINUOUS
 62
     2
 10
223.464
 20
138.019311103
 30
0.3
 40
1.8
  1
±１．５
 50
90.0
 41
0.666666667
 51
0.0
  7
KANJI1
  0
LINE
  8
0
  6
CONTINUOUS
 62
     2
 10
156.75
 20
142.525
 30
0.0
 11
157.25
 21
142.525
 31
0.0
  0
LINE
  8
0
  6
CONTINUOUS
 62
     2
 10
155.267949192
 20
141.75
 30
0.0
 11
156.45
 21
141.75
 31
0.0
  0
LINE
  8
0
  6
CONTINUOUS
 62
     2
 10
156.75
 20
142.05
 30
0.0
 11
156.75
 21
142.525
 31
0.0
  0
ARC
  8
0
  6
CONTINUOUS
 62
     2
 10
156.45
 20
142.05
 30
0.0
 40
0.3
 50
270.0
 51
0.0
  0
LINE
  8
0
  6
CONTINUOUS
 62
     2
 10
157.25
 20
142.525
 30
0.0
 11
157.25
 21
142.05
 31
0.0
  0
LINE
  8
0
  6
CONTINUOUS
 62
     2
 10
157.55
 20
141.75
 30
0.0
 11
158.732050808
 21
141.75
 31
0.0
  0
ARC
  8
0
  6
CONTINUOUS
 62
     2
 10
157.55
 20
142.05
 30
0.0
 40
0.3
 50
180.0
 51
270.0
  0
LINE
  8
0
  6
CONTINUOUS
 62
     2
 10
156.75
 20
140.475
 30
0.0
 11
157.25
 21
140.475
 31
0.0
  0
LINE
  8
0
  6
CONTINUOUS
 62
     2
 10
155.267949192
 20
141.25
 30
0.0
 11
156.45
 21
141.25
 31
0.0
  0
LINE
  8
0
  6
CONTINUOUS
 62
     2
 10
156.75
 20
140.95
 30
0.0
 11
156.75
 21
140.475
 31
0.0
  0
ARC
  8
0
  6
CONTINUOUS
 62
     2
 10
156.45
 20
140.95
 30
0.0
 40
0.3
 50
0.0
 51
90.0
  0
LINE
  8
0
  6
CONTINUOUS
 62
     2
 10
157.25
 20
140.475
 30
0.0
 11
157.25
 21
140.95
 31
0.0
  0
LINE
  8
0
  6
CONTINUOUS
 62
     2
 10
157.55
 20
141.25
 30
0.0
 11
158.732050808
 21
141.25
 31
0.0
  0
ARC
  8
0
  6
CONTINUOUS
 62
     2
 10
157.55
 20
140.95
 30
0.0
 40
0.3
 50
90.0
 51
180.0
  0
LINE
  8
0
  6
LTYPE3
 62
     2
 10
154.0
 20
141.5
 30
0.0
 11
159.8
 21
141.5
 31
0.0
  0
LINE
  8
0
  6
LTYPE3
 62
     2
 10
157.0
 20
144.35
 30
0.0
 11
157.0
 21
138.75
 31
0.0
  0
CIRCLE
  8
0
  6
CONTINUOUS
 62
     2
 10
157.0
 20
141.5
 30
0.0
 40
1.75
  0
LINE
  8
0
  6
CONTINUOUS
 62
     2
 10
192.75
 20
142.525
 30
0.0
 11
193.25
 21
142.525
 31
0.0
  0
LINE
  8
0
  6
CONTINUOUS
 62
     2
 10
191.267949192
 20
141.75
 30
0.0
 11
192.45
 21
141.75
 31
0.0
  0
LINE
  8
0
  6
CONTINUOUS
 62
     2
 10
192.75
 20
142.05
 30
0.0
 11
192.75
 21
142.525
 31
0.0
  0
ARC
  8
0
  6
CONTINUOUS
 62
     2
 10
192.45
 20
142.05
 30
0.0
 40
0.3
 50
270.0
 51
0.0
  0
LINE
  8
0
  6
CONTINUOUS
 62
     2
 10
193.25
 20
142.525
 30
0.0
 11
193.25
 21
142.05
 31
0.0
  0
LINE
  8
0
  6
CONTINUOUS
 62
     2
 10
193.55
 20
141.75
 30
0.0
 11
194.732050808
 21
141.75
 31
0.0
  0
ARC
  8
0
  6
CONTINUOUS
 62
     2
 10
193.55
 20
142.05
 30
0.0
 40
0.3
 50
180.0
 51
270.0
  0
LINE
  8
0
  6
CONTINUOUS
 62
     2
 10
192.75
 20
140.475
 30
0.0
 11
193.25
 21
140.475
 31
0.0
  0
LINE
  8
0
  6
CONTINUOUS
 62
     2
 10
191.267949192
 20
141.25
 30
0.0
 11
192.45
 21
141.25
 31
0.0
  0
LINE
  8
0
  6
CONTINUOUS
 62
     2
 10
192.75
 20
140.95
 30
0.0
 11
192.75
 21
140.475
 31
0.0
  0
ARC
  8
0
  6
CONTINUOUS
 62
     2
 10
192.45
 20
140.95
 30
0.0
 40
0.3
 50
0.0
 51
90.0
  0
LINE
  8
0
  6
CONTINUOUS
 62
     2
 10
193.25
 20
140.475
 30
0.0
 11
193.25
 21
140.95
 31
0.0
  0
LINE
  8
0
  6
CONTINUOUS
 62
     2
 10
193.55
 20
141.25
 30
0.0
 11
194.732050808
 21
141.25
 31
0.0
  0
ARC
  8
0
  6
CONTINUOUS
 62
     2
 10
193.55
 20
140.95
 30
0.0
 40
0.3
 50
90.0
 51
180.0
  0
LINE
  8
0
  6
LTYPE3
 62
     2
 10
190.0
 20
141.5
 30
0.0
 11
195.8
 21
141.5
 31
0.0
  0
LINE
  8
0
  6
LTYPE3
 62
     2
 10
193.0
 20
144.35
 30
0.0
 11
193.0
 21
138.75
 31
0.0
  0
CIRCLE
  8
0
  6
CONTINUOUS
 62
     2
 10
193.0
 20
141.5
 30
0.0
 40
1.75
  0
LINE
  8
0
  6
CONTINUOUS
 62
     2
 10
51.0
 20
126.0
 30
0.0
 11
51.0
 21
118.0
 31
0.0
  0
LINE
  8
0
  6
CONTINUOUS
 62
     2
 10
51.0
 20
118.0
 30
0.0
 11
52.5
 21
118.0
 31
0.0
  0
LINE
  8
0
  6
CONTINUOUS
 62
     2
 10
52.5
 20
118.0
 30
0.0
 11
52.5
 21
126.0
 31
0.0
  0
LINE
  8
0
  6
CONTINUOUS
 62
     2
 10
52.5
 20
126.0
 30
0.0
 11
51.0
 21
126.0
 31
0.0
  0
LINE
  8
0
  6
CONTINUOUS
 62
     2
 10
51.0
 20
110.0
 30
0.0
 11
51.0
 21
105.0
 31
0.0
  0
LINE
  8
0
  6
CONTINUOUS
 62
     2
 10
51.0
 20
105.0
 30
0.0
 11
52.5
 21
105.0
 31
0.0
  0
LINE
  8
0
  6
CONTINUOUS
 62
     2
 10
52.5
 20
105.0
 30
0.0
 11
52.5
 21
110.0
 31
0.0
  0
LINE
  8
0
  6
CONTINUOUS
 62
     2
 10
52.5
 20
110.0
 30
0.0
 11
51.0
 21
110.0
 31
0.0
  0
LINE
  8
0
  6
CONTINUOUS
 62
     2
 10
54.0
 20
126.0
 30
0.0
 11
55.5
 21
126.0
 31
0.0
  0
LINE
  8
0
  6
CONTINUOUS
 62
     2
 10
55.5
 20
126.0
 30
0.0
 11
55.5
 21
105.0
 31
0.0
  0
LINE
  8
0
  6
CONTINUOUS
 62
     2
 10
55.5
 20
105.0
 30
0.0
 11
54.0
 21
105.0
 31
0.0
  0
LINE
  8
0
  6
CONTINUOUS
 62
     2
 10
54.0
 20
105.0
 30
0.0
 11
54.0
 21
126.0
 31
0.0
  0
LINE
  8
0
  6
CONTINUOUS
 62
     2
 10
82.5
 20
126.0
 30
0.0
 11
82.5
 21
105.0
 31
0.0
  0
LINE
  8
0
  6
CONTINUOUS
 62
     2
 10
82.5
 20
105.0
 30
0.0
 11
81.0
 21
105.0
 31
0.0
  0
LINE
  8
0
  6
CONTINUOUS
 62
     2
 10
81.0
 20
105.0
 30
0.0
 11
81.0
 21
126.0
 31
0.0
  0
LINE
  8
0
  6
CONTINUOUS
 62
     2
 10
81.0
 20
126.0
 30
0.0
 11
82.5
 21
126.0
 31
0.0
  0
LINE
  8
0
  6
CONTINUOUS
 62
     2
 10
79.5
 20
126.0
 30
0.0
 11
79.5
 21
105.0
 31
0.0
  0
LINE
  8
0
  6
CONTINUOUS
 62
     2
 10
79.5
 20
105.0
 30
0.0
 11
78.0
 21
105.0
 31
0.0
  0
LINE
  8
0
  6
CONTINUOUS
 62
     2
 10
78.0
 20
105.0
 30
0.0
 11
78.0
 21
126.0
 31
0.0
  0
LINE
  8
0
  6
CONTINUOUS
 62
     2
 10
78.0
 20
126.0
 30
0.0
 11
79.5
 21
126.0
 31
0.0
  0
LINE
  8
0
  6
CONTINUOUS
 62
     2
 10
48.0
 20
126.0
 30
0.0
 11
48.0
 21
118.0
 31
0.0
  0
LINE
  8
0
  6
CONTINUOUS
 62
     2
 10
48.0
 20
118.0
 30
0.0
 11
46.5
 21
118.0
 31
0.0
  0
LINE
  8
0
  6
CONTINUOUS
 62
     2
 10
46.5
 20
118.0
 30
0.0
 11
46.5
 21
126.0
 31
0.0
  0
LINE
  8
0
  6
CONTINUOUS
 62
     2
 10
46.5
 20
126.0
 30
0.0
 11
48.0
 21
126.0
 31
0.0
  0
LINE
  8
0
  6
CONTINUOUS
 62
     2
 10
48.0
 20
110.0
 30
0.0
 11
48.0
 21
105.0
 31
0.0
  0
LINE
  8
0
  6
CONTINUOUS
 62
     2
 10
48.0
 20
105.0
 30
0.0
 11
46.5
 21
105.0
 31
0.0
  0
LINE
  8
0
  6
CONTINUOUS
 62
     2
 10
46.5
 20
105.0
 30
0.0
 11
46.5
 21
110.0
 31
0.0
  0
LINE
  8
0
  6
CONTINUOUS
 62
     2
 10
46.5
 20
110.0
 30
0.0
 11
48.0
 21
110.0
 31
0.0
  0
LINE
  8
0
  6
CONTINUOUS
 62
     2
 10
45.0
 20
126.0
 30
0.0
 11
43.5
 21
126.0
 31
0.0
  0
LINE
  8
0
  6
CONTINUOUS
 62
     2
 10
43.5
 20
126.0
 30
0.0
 11
43.5
 21
105.0
 31
0.0
  0
LINE
  8
0
  6
CONTINUOUS
 62
     2
 10
43.5
 20
105.0
 30
0.0
 11
45.0
 21
105.0
 31
0.0
  0
LINE
  8
0
  6
CONTINUOUS
 62
     2
 10
45.0
 20
105.0
 30
0.0
 11
45.0
 21
126.0
 31
0.0
  0
LINE
  8
0
  6
CONTINUOUS
 62
     2
 10
16.5
 20
126.0
 30
0.0
 11
16.5
 21
105.0
 31
0.0
  0
LINE
  8
0
  6
CONTINUOUS
 62
     2
 10
16.5
 20
105.0
 30
0.0
 11
18.0
 21
105.0
 31
0.0
  0
LINE
  8
0
  6
CONTINUOUS
 62
     2
 10
18.0
 20
105.0
 30
0.0
 11
18.0
 21
126.0
 31
0.0
  0
LINE
  8
0
  6
CONTINUOUS
 62
     2
 10
18.0
 20
126.0
 30
0.0
 11
16.5
 21
126.0
 31
0.0
  0
LINE
  8
0
  6
CONTINUOUS
 62
     2
 10
19.5
 20
126.0
 30
0.0
 11
19.5
 21
105.0
 31
0.0
  0
LINE
  8
0
  6
CONTINUOUS
 62
     2
 10
19.5
 20
105.0
 30
0.0
 11
21.0
 21
105.0
 31
0.0
  0
LINE
  8
0
  6
CONTINUOUS
 62
     2
 10
21.0
 20
105.0
 30
0.0
 11
21.0
 21
126.0
 31
0.0
  0
LINE
  8
0
  6
CONTINUOUS
 62
     2
 10
21.0
 20
126.0
 30
0.0
 11
19.5
 21
126.0
 31
0.0
  0
LINE
  8
0
  6
CONTINUOUS
 62
     2
 10
175.0
 20
94.0
 30
0.0
 11
172.585185434
 21
94.647047613
 31
0.0
  0
LINE
  8
0
  6
CONTINUOUS
 62
     2
 10
175.0
 20
94.0
 30
0.0
 11
172.585185434
 21
93.352952387
 31
0.0
  0
LINE
  8
0
  6
CONTINUOUS
 62
     2
 10
175.0
 20
94.0
 30
0.0
 11
177.414814566
 21
93.352952387
 31
0.0
  0
LINE
  8
0
  6
CONTINUOUS
 62
     2
 10
175.0
 20
94.0
 30
0.0
 11
177.414814566
 21
94.647047613
 31
0.0
  0
LINE
  8
0
  6
CONTINUOUS
 62
     2
 10
175.0
 20
91.0
 30
0.0
 11
175.0
 21
96.0
 31
0.0
  0
LINE
  8
0
  6
CONTINUOUS
 62
     2
 10
175.0
 20
94.0
 30
0.0
 11
144.0
 21
94.0
 31
0.0
  0
LINE
  8
0
  6
CONTINUOUS
 62
     2
 10
144.0
 20
94.0
 30
0.0
 11
146.414814566
 21
93.352952387
 31
0.0
  0
LINE
  8
0
  6
CONTINUOUS
 62
     2
 10
144.0
 20
94.0
 30
0.0
 11
146.414814566
 21
94.647047613
 31
0.0
  0
LINE
  8
0
  6
CONTINUOUS
 62
     2
 10
144.0
 20
91.0
 30
0.0
 11
144.0
 21
96.0
 31
0.0
  0
LINE
  8
0
  6
CONTINUOUS
 62
     2
 10
175.0
 20
94.0
 30
0.0
 11
206.0
 21
94.0
 31
0.0
  0
LINE
  8
0
  6
CONTINUOUS
 62
     2
 10
206.0
 20
94.0
 30
0.0
 11
203.585185434
 21
94.647047613
 31
0.0
  0
LINE
  8
0
  6
CONTINUOUS
 62
     2
 10
206.0
 20
94.0
 30
0.0
 11
203.585185434
 21
93.352952387
 31
0.0
  0
LINE
  8
0
  6
CONTINUOUS
 62
     2
 10
206.0
 20
91.0
 30
0.0
 11
206.0
 21
96.0
 31
0.0
  0
TEXT
  8
0
  6
CONTINUOUS
 62
     2
 10
190.686
 20
95.0
 30
0.3
 40
1.8
  1
±０．５
 50
0.0
 41
0.666666667
 51
0.0
  7
KANJI1
  0
TEXT
  8
0
  6
CONTINUOUS
 62
     2
 10
186.186
 20
95.0
 30
0.5
 40
3.0
  1
６２
 50
0.0
 41
0.666666667
 51
0.0
  7
KANJI2
  0
TEXT
  8
0
  6
CONTINUOUS
 62
     2
 10
159.686
 20
95.0
 30
0.3
 40
1.8
  1
±０．５
 50
0.0
 41
0.666666667
 51
0.0
  7
KANJI1
  0
LINE
  8
0
  6
CONTINUOUS
 62
     2
 10
219.0
 20
56.0
 30
0.0
 11
218.352952387
 21
53.585185434
 31
0.0
  0
LINE
  8
0
  6
CONTINUOUS
 62
     2
 10
219.0
 20
56.0
 30
0.0
 11
219.647047613
 21
53.585185434
 31
0.0
  0
LINE
  8
0
  6
CONTINUOUS
 62
     2
 10
219.0
 20
56.0
 30
0.0
 11
219.647047613
 21
58.414814566
 31
0.0
  0
LINE
  8
0
  6
CONTINUOUS
 62
     2
 10
219.0
 20
56.0
 30
0.0
 11
218.352952387
 21
58.414814566
 31
0.0
  0
LINE
  8
0
  6
CONTINUOUS
 62
     2
 10
219.0
 20
56.0
 30
0.0
 11
219.0
 21
87.0
 31
0.0
  0
LINE
  8
0
  6
CONTINUOUS
 62
     2
 10
219.0
 20
87.0
 30
0.0
 11
218.352952387
 21
84.585185434
 31
0.0
  0
LINE
  8
0
  6
CONTINUOUS
 62
     2
 10
219.0
 20
87.0
 30
0.0
 11
219.647047613
 21
84.585185434
 31
0.0
  0
LINE
  8
0
  6
CONTINUOUS
 62
     2
 10
213.0
 20
87.0
 30
0.0
 11
221.0
 21
87.0
 31
0.0
  0
LINE
  8
0
  6
CONTINUOUS
 62
     2
 10
219.0
 20
25.0
 30
0.0
 11
219.647047613
 21
27.414814566
 31
0.0
  0
LINE
  8
0
  6
CONTINUOUS
 62
     2
 10
219.0
 20
25.0
 30
0.0
 11
218.352952387
 21
27.414814566
 31
0.0
  0
LINE
  8
0
  6
CONTINUOUS
 62
     2
 10
219.0
 20
25.0
 30
0.0
 11
219.0
 21
56.0
 31
0.0
  0
LINE
  8
0
  6
CONTINUOUS
 62
     2
 10
213.0
 20
25.0
 30
0.0
 11
221.0
 21
25.0
 31
0.0
  0
TEXT
  8
0
  6
CONTINUOUS
 62
     2
 10
218.0
 20
71.229
 30
0.18
 40
1.8
  1
±０．５
 50
90.0
 41
0.6
 51
0.0
  7
KANJI5
  0
TEXT
  8
0
  6
CONTINUOUS
 62
     2
 10
218.0
 20
67.329
 30
0.3
 40
3.0
  1
６２
 50
90.0
 41
0.6
 51
0.0
  7
KANJI0
  0
TEXT
  8
0
  6
CONTINUOUS
 62
     2
 10
218.0
 20
40.229
 30
0.18
 40
1.8
  1
±０．５
 50
90.0
 41
0.6
 51
0.0
  7
KANJI5
  0
TEXT
  8
0
  6
CONTINUOUS
 62
     2
 10
218.0
 20
36.329
 30
0.3
 40
3.0
  1
６２
 50
90.0
 41
0.6
 51
0.0
  7
KANJI0
  0
LINE
  8
0
  6
CONTINUOUS
 62
     2
 10
213.0
 20
56.0
 30
0.0
 11
221.0
 21
56.0
 31
0.0
  0
LINE
  8
0
  6
CONTINUOUS
 62
     2
 10
146.424871131
 20
169.9
 30
0.0
 11
144.0
 21
171.3
 31
0.0
  0
LINE
  8
0
  6
CONTINUOUS
 62
     2
 10
144.0
 20
171.3
 30
0.0
 11
141.575128869
 21
169.9
 31
0.0
  0
LINE
  8
0
  6
CONTINUOUS
 62
     2
 10
141.575128869
 20
169.9
 30
0.0
 11
141.575128869
 21
167.1
 31
0.0
  0
LINE
  8
0
  6
CONTINUOUS
 62
     2
 10
141.575128869
 20
167.1
 30
0.0
 11
144.0
 21
165.7
 31
0.0
  0
LINE
  8
0
  6
CONTINUOUS
 62
     2
 10
144.0
 20
165.7
 30
0.0
 11
146.424871131
 21
167.1
 31
0.0
  0
LINE
  8
0
  6
CONTINUOUS
 62
     2
 10
146.424871131
 20
167.1
 30
0.0
 11
146.424871131
 21
169.9
 31
0.0
  0
CIRCLE
  8
0
  6
CONTINUOUS
 62
     2
 10
144.0
 20
168.5
 30
0.0
 40
1.5
  0
CIRCLE
  8
0
  6
CONTINUOUS
 62
     2
 10
144.0
 20
168.5
 30
0.0
 40
1.4
  0
CIRCLE
  8
0
  6
CONTINUOUS
 62
     2
 10
144.0
 20
168.5
 30
0.0
 40
3.0
  0
CIRCLE
  8
0
  6
CONTINUOUS
 62
     2
 10
144.0
 20
168.5
 30
0.0
 40
2.5
  0
LINE
  8
0
  6
LTYPE1
 62
     2
 10
144.0
 20
172.5
 30
0.0
 11
144.0
 21
164.5
 31
0.0
  0
LINE
  8
0
  6
LTYPE1
 62
     2
 10
148.0
 20
168.5
 30
0.0
 11
140.0
 21
168.5
 31
0.0
  0
LINE
  8
0
  6
CONTINUOUS
 62
     2
 10
208.424871131
 20
169.9
 30
0.0
 11
206.0
 21
171.3
 31
0.0
  0
LINE
  8
0
  6
CONTINUOUS
 62
     2
 10
206.0
 20
171.3
 30
0.0
 11
203.575128869
 21
169.9
 31
0.0
  0
LINE
  8
0
  6
CONTINUOUS
 62
     2
 10
203.575128869
 20
169.9
 30
0.0
 11
203.575128869
 21
167.1
 31
0.0
  0
LINE
  8
0
  6
CONTINUOUS
 62
     2
 10
203.575128869
 20
167.1
 30
0.0
 11
206.0
 21
165.7
 31
0.0
  0
LINE
  8
0
  6
CONTINUOUS
 62
     2
 10
206.0
 20
165.7
 30
0.0
 11
208.424871131
 21
167.1
 31
0.0
  0
LINE
  8
0
  6
CONTINUOUS
 62
     2
 10
208.424871131
 20
167.1
 30
0.0
 11
208.424871131
 21
169.9
 31
0.0
  0
CIRCLE
  8
0
  6
CONTINUOUS
 62
     2
 10
206.0
 20
168.5
 30
0.0
 40
1.5
  0
CIRCLE
  8
0
  6
CONTINUOUS
 62
     2
 10
206.0
 20
168.5
 30
0.0
 40
1.4
  0
CIRCLE
  8
0
  6
CONTINUOUS
 62
     2
 10
206.0
 20
168.5
 30
0.0
 40
3.0
  0
CIRCLE
  8
0
  6
CONTINUOUS
 62
     2
 10
206.0
 20
168.5
 30
0.0
 40
2.5
  0
LINE
  8
0
  6
LTYPE1
 62
     2
 10
206.0
 20
172.5
 30
0.0
 11
206.0
 21
164.5
 31
0.0
  0
LINE
  8
0
  6
LTYPE1
 62
     2
 10
210.0
 20
168.5
 30
0.0
 11
202.0
 21
168.5
 31
0.0
  0
LINE
  8
0
  6
CONTINUOUS
 62
     2
 10
208.424871131
 20
107.9
 30
0.0
 11
206.0
 21
109.3
 31
0.0
  0
LINE
  8
0
  6
CONTINUOUS
 62
     2
 10
206.0
 20
109.3
 30
0.0
 11
203.575128869
 21
107.9
 31
0.0
  0
LINE
  8
0
  6
CONTINUOUS
 62
     2
 10
203.575128869
 20
107.9
 30
0.0
 11
203.575128869
 21
105.1
 31
0.0
  0
LINE
  8
0
  6
CONTINUOUS
 62
     2
 10
203.575128869
 20
105.1
 30
0.0
 11
206.0
 21
103.7
 31
0.0
  0
LINE
  8
0
  6
CONTINUOUS
 62
     2
 10
206.0
 20
103.7
 30
0.0
 11
208.424871131
 21
105.1
 31
0.0
  0
LINE
  8
0
  6
CONTINUOUS
 62
     2
 10
208.424871131
 20
105.1
 30
0.0
 11
208.424871131
 21
107.9
 31
0.0
  0
CIRCLE
  8
0
  6
CONTINUOUS
 62
     2
 10
206.0
 20
106.5
 30
0.0
 40
1.5
  0
CIRCLE
  8
0
  6
CONTINUOUS
 62
     2
 10
206.0
 20
106.5
 30
0.0
 40
1.4
  0
CIRCLE
  8
0
  6
CONTINUOUS
 62
     2
 10
206.0
 20
106.5
 30
0.0
 40
3.0
  0
CIRCLE
  8
0
  6
CONTINUOUS
 62
     2
 10
206.0
 20
106.5
 30
0.0
 40
2.5
  0
LINE
  8
0
  6
LTYPE1
 62
     2
 10
206.0
 20
110.5
 30
0.0
 11
206.0
 21
102.5
 31
0.0
  0
LINE
  8
0
  6
LTYPE1
 62
     2
 10
210.0
 20
106.5
 30
0.0
 11
202.0
 21
106.5
 31
0.0
  0
LINE
  8
0
  6
CONTINUOUS
 62
     2
 10
146.424871131
 20
107.9
 30
0.0
 11
144.0
 21
109.3
 31
0.0
  0
LINE
  8
0
  6
CONTINUOUS
 62
     2
 10
144.0
 20
109.3
 30
0.0
 11
141.575128869
 21
107.9
 31
0.0
  0
LINE
  8
0
  6
CONTINUOUS
 62
     2
 10
141.575128869
 20
107.9
 30
0.0
 11
141.575128869
 21
105.1
 31
0.0
  0
LINE
  8
0
  6
CONTINUOUS
 62
     2
 10
141.575128869
 20
105.1
 30
0.0
 11
144.0
 21
103.7
 31
0.0
  0
LINE
  8
0
  6
CONTINUOUS
 62
     2
 10
144.0
 20
103.7
 30
0.0
 11
146.424871131
 21
105.1
 31
0.0
  0
LINE
  8
0
  6
CONTINUOUS
 62
     2
 10
146.424871131
 20
105.1
 30
0.0
 11
146.424871131
 21
107.9
 31
0.0
  0
CIRCLE
  8
0
  6
CONTINUOUS
 62
     2
 10
144.0
 20
106.5
 30
0.0
 40
1.5
  0
CIRCLE
  8
0
  6
CONTINUOUS
 62
     2
 10
144.0
 20
106.5
 30
0.0
 40
1.4
  0
CIRCLE
  8
0
  6
CONTINUOUS
 62
     2
 10
144.0
 20
106.5
 30
0.0
 40
3.0
  0
CIRCLE
  8
0
  6
CONTINUOUS
 62
     2
 10
144.0
 20
106.5
 30
0.0
 40
2.5
  0
LINE
  8
0
  6
LTYPE1
 62
     2
 10
144.0
 20
110.5
 30
0.0
 11
144.0
 21
102.5
 31
0.0
  0
LINE
  8
0
  6
LTYPE1
 62
     2
 10
148.0
 20
106.5
 30
0.0
 11
140.0
 21
106.5
 31
0.0
  0
TEXT
  8
0
  6
CONTINUOUS
 62
     2
 10
21.03253255
 20
36.0
 30
0.5
 40
3.0
  1
電圧計および５０Ａ以下の電流計
 50
0.0
 41
0.9
 51
0.0
  7
KANJI4
  0
TEXT
  8
0
  6
CONTINUOUS
 62
     2
 10
123.81646745
 20
38.196
 30
0.1
 40
3.0
  1
４－φ７穴
 50
0.0
 41
0.9
 51
0.0
  7
KANJI3
  0
LINE
  8
0
  6
CONTINUOUS
 62
     2
 10
142.251768511
 20
28.032109276
 30
0.0
 11
141.84156159
 21
30.498225713
 31
0.0
  0
LINE
  8
0
  6
CONTINUOUS
 62
     2
 10
142.251768511
 20
28.032109276
 30
0.0
 11
140.663460678
 21
29.962725299
 31
0.0
  0
LINE
  8
0
  6
CONTINUOUS
 62
     2
 10
124.178
 20
37.246
 30
0.0
 11
138.063636364
 21
37.246
 31
0.0
  0
LINE
  8
0
  6
CONTINUOUS
 62
     2
 10
142.251768511
 20
28.032109276
 30
0.0
 11
138.063636364
 21
37.246
 31
0.0
  0
LINE
  8
0
  6
CONTINUOUS
 62
     2
 10
19.5
 20
149.25
 30
0.0
 11
33.35
 21
134.5
 31
0.0
  0
LINE
  8
0
  6
CONTINUOUS
 62
     2
 10
35.65
 20
134.5
 30
0.0
 11
19.55
 21
149.35
 31
0.0
  0
LINE
  8
0
  6
LTYPE1
 62
     2
 10
34.5
 20
134.5
 30
0.0
 11
18.243
 21
150.48605
 31
0.0
  0
ARC
  8
0
  6
CONTINUOUS
 62
     2
 10
49.5
 20
125.5
 30
0.0
 40
34.5
 50
37.693530731
 51
141.925756185
  0
ARC
  8
0
  6
CONTINUOUS
 62
     2
 10
49.5
 20
125.5
 30
0.0
 40
37.5
 50
38.241822585
 51
141.805442848
  0
ARC
  8
0
  6
CONTINUOUS
 62
     2
 10
22.0
 20
165.0
 30
0.0
 40
5.0
 50
90.0
 51
180.0
  0
LINE
  8
0
  6
CONTINUOUS
 62
     2
 10
17.0
 20
165.0
 30
0.0
 11
17.0
 21
139.5
 31
0.0
  0
ARC
  8
0
  6
CONTINUOUS
 62
     2
 10
22.0
 20
139.5
 30
0.0
 40
5.0
 50
180.0
 51
270.0
  0
LINE
  8
0
  6
CONTINUOUS
 62
     2
 10
77.0
 20
134.5
 30
0.0
 11
22.0
 21
134.5
 31
0.0
  0
ARC
  8
0
  6
CONTINUOUS
 62
     2
 10
77.0
 20
139.5
 30
0.0
 40
5.0
 50
270.0
 51
0.0
  0
LINE
  8
0
  6
CONTINUOUS
 62
     2
 10
77.0
 20
170.0
 30
0.0
 11
22.0
 21
170.0
 31
0.0
  0
LINE
  8
0
  6
CONTINUOUS
 62
     2
 10
82.0
 20
139.5
 30
0.0
 11
82.0
 21
165.0
 31
0.0
  0
ARC
  8
0
  6
CONTINUOUS
 62
     2
 10
77.0
 20
165.0
 30
0.0
 40
5.0
 50
0.0
 51
90.0
  0
CIRCLE
  8
0
  6
CONTINUOUS
 62
     1
 10
175.0
 20
56.0
 30
0.0
 40
34.5
  0
LINE
  8
0
  6
LTYPE1
 62
     2
 10
138.5
 20
56.0
 30
0.0
 11
211.5
 21
56.0
 31
0.0
  0
LINE
  8
0
  6
LTYPE1
 62
     2
 10
175.0
 20
92.5
 30
0.0
 11
175.0
 21
20.0
 31
0.0
  0
LINE
  8
0
  6
CONTINUOUS
 62
     2
 10
193.319987348
 20
85.234022364
 30
0.0
 11
191.489402517
 21
83.531389351
 31
0.0
  0
LINE
  8
0
  6
CONTINUOUS
 62
     2
 10
156.680012652
 20
26.765977636
 30
0.0
 11
158.510597483
 21
28.468610649
 31
0.0
  0
LINE
  8
0
  6
CONTINUOUS
 62
     2
 10
156.680012652
 20
26.765977636
 30
0.0
 11
157.414029113
 21
29.155793494
 31
0.0
  0
LINE
  8
0
  6
CONTINUOUS
 62
     2
 10
193.319987348
 20
85.234022364
 30
0.0
 11
192.585970887
 21
82.844206506
 31
0.0
  0
LINE
  8
0
  6
CONTINUOUS
 62
     2
 10
193.319987348
 20
85.234022364
 30
0.0
 11
156.680012652
 21
26.765977636
 31
0.0
  0
TEXT
  8
0
  6
CONTINUOUS
 62
     2
 10
155.186
 20
95.0
 30
0.5
 40
3.0
  1
６２
 50
0.0
 41
0.666666667
 51
0.0
  7
KANJI2
  0
CIRCLE
  8
0
  6
CONTINUOUS
 62
     1
 10
144.0
 20
25.0
 30
0.0
 40
1.75
  0
LINE
  8
0
  6
LTYPE1
 62
     2
 10
144.0
 20
28.0
 30
0.0
 11
144.0
 21
22.0
 31
0.0
  0
LINE
  8
0
  6
LTYPE1
 62
     2
 10
141.0
 20
25.0
 30
0.0
 11
147.0
 21
25.0
 31
0.0
  0
CIRCLE
  8
0
  6
CONTINUOUS
 62
     1
 10
144.0
 20
87.0
 30
0.0
 40
1.75
  0
LINE
  8
0
  6
LTYPE1
 62
     2
 10
144.0
 20
90.0
 30
0.0
 11
144.0
 21
84.0
 31
0.0
  0
LINE
  8
0
  6
LTYPE1
 62
     2
 10
141.0
 20
87.0
 30
0.0
 11
147.0
 21
87.0
 31
0.0
  0
CIRCLE
  8
0
  6
CONTINUOUS
 62
     1
 10
206.0
 20
87.0
 30
0.0
 40
1.75
  0
LINE
  8
0
  6
LTYPE1
 62
     2
 10
206.0
 20
90.0
 30
0.0
 11
206.0
 21
84.0
 31
0.0
  0
LINE
  8
0
  6
LTYPE1
 62
     2
 10
203.0
 20
87.0
 30
0.0
 11
209.0
 21
87.0
 31
0.0
  0
CIRCLE
  8
0
  6
CONTINUOUS
 62
     1
 10
206.0
 20
25.0
 30
0.0
 40
1.75
  0
LINE
  8
0
  6
LTYPE1
 62
     2
 10
206.0
 20
28.0
 30
0.0
 11
206.0
 21
22.0
 31
0.0
  0
LINE
  8
0
  6
LTYPE1
 62
     2
 10
203.0
 20
25.0
 30
0.0
 11
209.0
 21
25.0
 31
0.0
  0
LINE
  8
0
  6
CONTINUOUS
 62
     1
 10
115.0
 20
64.0
 30
0.0
 11
137.2
 21
64.0
 31
0.0
  0
TEXT
  8
0
  6
CONTINUOUS
 62
     1
 10
116.8
 20
64.584041975
 30
0.5
 40
3.0
  1
パネルカット
 50
0.0
 41
0.9
 51
0.0
  7
KANJI4
  0
TEXT
  8
0
  6
CONTINUOUS
 62
     2
 10
177.758721087
 20
62.589659155
 30
0.3
 40
3.0
  1
φ１３８
 50
57.926
 41
0.666666667
 51
0.0
  7
KANJI6
  0
TEXT
  8
0
  6
CONTINUOUS
 62
     2
 10
121.45
 20
133.315
 30
0.3
 40
3.0
  1
φ１３５
 50
90.0
 41
0.666666667
 51
0.0
  7
KANJI6
  0
TEXT
  8
0
  6
CONTINUOUS
 62
     2
 10
110.395424588
 20
96.75
 30
0.1
 40
3.0
  1
２－Ｍ４ランプ
 50
0.0
 41
0.9
 51
0.0
  7
KANJI3
  0
LINE
  8
0
  6
CONTINUOUS
 62
     2
 10
135.0
 20
155.25
 30
0.0
 11
135.0
 21
187.0
 31
0.0
  0
TEXT
  8
0
  6
CONTINUOUS
 62
     3
 10
233.581
 20
16.897
 30
0.2
 40
5.8
  1
ＭＳ－１００６Ａ
 50
0.0
 41
0.827586207
 51
0.0
  7
KANJI7
  0
TEXT
  8
0
  6
CONTINUOUS
 62
     1
 10
235.0
 20
43.0
 30
0.4
 40
4.0
  1
Ｒｆ－１３５
 50
0.0
 41
0.9
 51
0.0
  7
KANJI8
  0
TEXT
  8
0
  6
CONTINUOUS
 62
     1
 10
231.0
 20
31.5
 30
0.4
 40
4.0
  1
角形半埋込形計器　外形図
 50
0.0
 41
0.9
 51
0.0
  7
KANJI8
  0
ENDSEC
  0
EOF
