  0
SECTION
  2
HEADER
  9
$ACADVER
  1
AC1009
  9
$DWGCODEPAGE
  3
dos932
  9
$EXTMIN
 10
0.0
 20
0.0
 30
0.0
  9
$EXTMAX
 10
297.0
 20
210.0
 30
0.0
  9
$LIMMIN
 10
0.0
 20
0.0
  9
$LIMMAX
 10
297.0
 20
210.0
  9
$LTSCALE
 40
1.0
  9
$PDMODE
 70
     0
  0
ENDSEC
  0
SECTION
  2
TABLES
  0
TABLE
  2
VPORT
 70
     1
  0
VPORT
  2
*ACTIVE
 70
     0
 10
0.0
 20
0.0
 11
1.0
 21
1.0
 12
148.5
 22
105.0
 13
0.0
 23
0.0
 14
10.0
 24
10.0
 15
10.0
 25
10.0
 16
0.0
 26
0.0
 36
1.0
 17
0.0
 27
0.0
 37
0.0
 40
297.0
 41
1.414285714
 42
50.0
 43
0.0
 44
0.0
 50
0.0
 51
0.0
 71
     0
 72
  1000
 73
     1
 74
     3
 75
     0
 76
     0
 77
     0
 78
     0
  0
ENDTAB
  0
TABLE
  2
LTYPE
 70
     5
  0
LTYPE
  2
CONTINUOUS
 70
    64
  3
Solid line
 72
    65
 73
     0
 40
0.0
  0
LTYPE
  2
LTYPE1
 70
    64
  3
CENTER
 72
    65
 73
     4
 40
15.0
 49
10.5
 49
-1.5
 49
1.5
 49
-1.5
  0
LTYPE
  2
LTYPE2
 70
    64
  3
HIDDEN
 72
    65
 73
     2
 40
3.0
 49
1.8
 49
-1.2
  0
LTYPE
  2
LTYPE3
 70
    64
  3
CENTER
 72
    65
 73
     4
 40
5.0
 49
3.5
 49
-0.5
 49
0.5
 49
-0.5
  0
LTYPE
  2
LTYPE4
 70
    64
  3
CENTER
 72
    65
 73
     4
 40
10.0
 49
7.0
 49
-1.0
 49
1.0
 49
-1.0
  0
ENDTAB
  0
TABLE
  2
LAYER
 70
   128
  0
LAYER
  2
0
 70
     0
 62
     7
  6
CONTINUOUS
  0
LAYER
  2
2
 70
     0
 62
     7
  6
CONTINUOUS
  0
LAYER
  2
3
 70
     0
 62
     7
  6
CONTINUOUS
  0
LAYER
  2
4
 70
     0
 62
     7
  6
CONTINUOUS
  0
LAYER
  2
5
 70
     0
 62
     7
  6
CONTINUOUS
  0
LAYER
  2
6
 70
     0
 62
     7
  6
CONTINUOUS
  0
LAYER
  2
7
 70
     0
 62
     7
  6
CONTINUOUS
  0
LAYER
  2
8
 70
     0
 62
     7
  6
CONTINUOUS
  0
LAYER
  2
9
 70
     0
 62
     7
  6
CONTINUOUS
  0
LAYER
  2
10
 70
     0
 62
     7
  6
CONTINUOUS
  0
LAYER
  2
11
 70
     0
 62
     7
  6
CONTINUOUS
  0
LAYER
  2
12
 70
     0
 62
     7
  6
CONTINUOUS
  0
LAYER
  2
13
 70
     0
 62
     7
  6
CONTINUOUS
  0
LAYER
  2
14
 70
     0
 62
     7
  6
CONTINUOUS
  0
LAYER
  2
15
 70
     0
 62
     7
  6
CONTINUOUS
  0
LAYER
  2
16
 70
     0
 62
     7
  6
CONTINUOUS
  0
LAYER
  2
17
 70
     0
 62
     7
  6
CONTINUOUS
  0
LAYER
  2
18
 70
     0
 62
     7
  6
CONTINUOUS
  0
LAYER
  2
19
 70
     0
 62
     7
  6
CONTINUOUS
  0
LAYER
  2
20
 70
     0
 62
     7
  6
CONTINUOUS
  0
LAYER
  2
21
 70
     0
 62
     7
  6
CONTINUOUS
  0
LAYER
  2
22
 70
     0
 62
     7
  6
CONTINUOUS
  0
LAYER
  2
23
 70
     0
 62
     7
  6
CONTINUOUS
  0
LAYER
  2
24
 70
     0
 62
     7
  6
CONTINUOUS
  0
LAYER
  2
25
 70
     0
 62
     7
  6
CONTINUOUS
  0
LAYER
  2
26
 70
     0
 62
     7
  6
CONTINUOUS
  0
LAYER
  2
27
 70
     0
 62
     7
  6
CONTINUOUS
  0
LAYER
  2
28
 70
     0
 62
     7
  6
CONTINUOUS
  0
LAYER
  2
29
 70
     0
 62
     7
  6
CONTINUOUS
  0
LAYER
  2
30
 70
     0
 62
     7
  6
CONTINUOUS
  0
LAYER
  2
31
 70
     0
 62
     7
  6
CONTINUOUS
  0
LAYER
  2
32
 70
     0
 62
     7
  6
CONTINUOUS
  0
LAYER
  2
33
 70
     0
 62
     7
  6
CONTINUOUS
  0
LAYER
  2
34
 70
     0
 62
     7
  6
CONTINUOUS
  0
LAYER
  2
35
 70
     0
 62
     7
  6
CONTINUOUS
  0
LAYER
  2
36
 70
     0
 62
     7
  6
CONTINUOUS
  0
LAYER
  2
37
 70
     0
 62
     7
  6
CONTINUOUS
  0
LAYER
  2
38
 70
     0
 62
     7
  6
CONTINUOUS
  0
LAYER
  2
39
 70
     0
 62
     7
  6
CONTINUOUS
  0
LAYER
  2
40
 70
     0
 62
     7
  6
CONTINUOUS
  0
LAYER
  2
41
 70
     0
 62
     7
  6
CONTINUOUS
  0
LAYER
  2
42
 70
     0
 62
     7
  6
CONTINUOUS
  0
LAYER
  2
43
 70
     0
 62
     7
  6
CONTINUOUS
  0
LAYER
  2
44
 70
     0
 62
     7
  6
CONTINUOUS
  0
LAYER
  2
45
 70
     0
 62
     7
  6
CONTINUOUS
  0
LAYER
  2
46
 70
     0
 62
     7
  6
CONTINUOUS
  0
LAYER
  2
47
 70
     0
 62
     7
  6
CONTINUOUS
  0
LAYER
  2
48
 70
     0
 62
     7
  6
CONTINUOUS
  0
LAYER
  2
49
 70
     0
 62
     7
  6
CONTINUOUS
  0
LAYER
  2
50
 70
     0
 62
     7
  6
CONTINUOUS
  0
LAYER
  2
51
 70
     0
 62
     7
  6
CONTINUOUS
  0
LAYER
  2
52
 70
     0
 62
     7
  6
CONTINUOUS
  0
LAYER
  2
53
 70
     0
 62
     7
  6
CONTINUOUS
  0
LAYER
  2
54
 70
     0
 62
     7
  6
CONTINUOUS
  0
LAYER
  2
55
 70
     0
 62
     7
  6
CONTINUOUS
  0
LAYER
  2
56
 70
     0
 62
     7
  6
CONTINUOUS
  0
LAYER
  2
57
 70
     0
 62
     7
  6
CONTINUOUS
  0
LAYER
  2
58
 70
     0
 62
     7
  6
CONTINUOUS
  0
LAYER
  2
59
 70
     0
 62
     7
  6
CONTINUOUS
  0
LAYER
  2
60
 70
     0
 62
     7
  6
CONTINUOUS
  0
LAYER
  2
61
 70
     0
 62
     7
  6
CONTINUOUS
  0
LAYER
  2
62
 70
     0
 62
     7
  6
CONTINUOUS
  0
LAYER
  2
63
 70
     0
 62
     7
  6
CONTINUOUS
  0
LAYER
  2
64
 70
     0
 62
     7
  6
CONTINUOUS
  0
LAYER
  2
65
 70
     0
 62
     7
  6
CONTINUOUS
  0
LAYER
  2
66
 70
     0
 62
     7
  6
CONTINUOUS
  0
LAYER
  2
67
 70
     0
 62
     7
  6
CONTINUOUS
  0
LAYER
  2
68
 70
     0
 62
     7
  6
CONTINUOUS
  0
LAYER
  2
69
 70
     0
 62
     7
  6
CONTINUOUS
  0
LAYER
  2
70
 70
     0
 62
     7
  6
CONTINUOUS
  0
LAYER
  2
71
 70
     0
 62
     7
  6
CONTINUOUS
  0
LAYER
  2
72
 70
     0
 62
     7
  6
CONTINUOUS
  0
LAYER
  2
73
 70
     0
 62
     7
  6
CONTINUOUS
  0
LAYER
  2
74
 70
     0
 62
     7
  6
CONTINUOUS
  0
LAYER
  2
75
 70
     0
 62
     7
  6
CONTINUOUS
  0
LAYER
  2
76
 70
     0
 62
     7
  6
CONTINUOUS
  0
LAYER
  2
77
 70
     0
 62
     7
  6
CONTINUOUS
  0
LAYER
  2
78
 70
     0
 62
     7
  6
CONTINUOUS
  0
LAYER
  2
79
 70
     0
 62
     7
  6
CONTINUOUS
  0
LAYER
  2
80
 70
     0
 62
     7
  6
CONTINUOUS
  0
LAYER
  2
81
 70
     0
 62
     7
  6
CONTINUOUS
  0
LAYER
  2
82
 70
     0
 62
     7
  6
CONTINUOUS
  0
LAYER
  2
83
 70
     0
 62
     7
  6
CONTINUOUS
  0
LAYER
  2
84
 70
     0
 62
     7
  6
CONTINUOUS
  0
LAYER
  2
85
 70
     0
 62
     7
  6
CONTINUOUS
  0
LAYER
  2
86
 70
     0
 62
     7
  6
CONTINUOUS
  0
LAYER
  2
87
 70
     0
 62
     7
  6
CONTINUOUS
  0
LAYER
  2
88
 70
     0
 62
     7
  6
CONTINUOUS
  0
LAYER
  2
89
 70
     0
 62
     7
  6
CONTINUOUS
  0
LAYER
  2
90
 70
     0
 62
     7
  6
CONTINUOUS
  0
LAYER
  2
91
 70
     0
 62
     7
  6
CONTINUOUS
  0
LAYER
  2
92
 70
     0
 62
     7
  6
CONTINUOUS
  0
LAYER
  2
93
 70
     0
 62
     7
  6
CONTINUOUS
  0
LAYER
  2
94
 70
     0
 62
     7
  6
CONTINUOUS
  0
LAYER
  2
95
 70
     0
 62
     7
  6
CONTINUOUS
  0
LAYER
  2
96
 70
     0
 62
     7
  6
CONTINUOUS
  0
LAYER
  2
97
 70
     0
 62
     7
  6
CONTINUOUS
  0
LAYER
  2
98
 70
     0
 62
     7
  6
CONTINUOUS
  0
LAYER
  2
99
 70
     0
 62
     7
  6
CONTINUOUS
  0
LAYER
  2
100
 70
     0
 62
     7
  6
CONTINUOUS
  0
LAYER
  2
101
 70
     0
 62
     7
  6
CONTINUOUS
  0
LAYER
  2
102
 70
     0
 62
     7
  6
CONTINUOUS
  0
LAYER
  2
103
 70
     0
 62
     7
  6
CONTINUOUS
  0
LAYER
  2
104
 70
     0
 62
     7
  6
CONTINUOUS
  0
LAYER
  2
105
 70
     0
 62
     7
  6
CONTINUOUS
  0
LAYER
  2
106
 70
     0
 62
     7
  6
CONTINUOUS
  0
LAYER
  2
107
 70
     0
 62
     7
  6
CONTINUOUS
  0
LAYER
  2
108
 70
     0
 62
     7
  6
CONTINUOUS
  0
LAYER
  2
109
 70
     0
 62
     7
  6
CONTINUOUS
  0
LAYER
  2
110
 70
     0
 62
     7
  6
CONTINUOUS
  0
LAYER
  2
111
 70
     0
 62
     7
  6
CONTINUOUS
  0
LAYER
  2
112
 70
     0
 62
     7
  6
CONTINUOUS
  0
LAYER
  2
113
 70
     0
 62
     7
  6
CONTINUOUS
  0
LAYER
  2
114
 70
     0
 62
     7
  6
CONTINUOUS
  0
LAYER
  2
115
 70
     0
 62
     7
  6
CONTINUOUS
  0
LAYER
  2
116
 70
     0
 62
     7
  6
CONTINUOUS
  0
LAYER
  2
117
 70
     0
 62
     7
  6
CONTINUOUS
  0
LAYER
  2
118
 70
     0
 62
     7
  6
CONTINUOUS
  0
LAYER
  2
119
 70
     0
 62
     7
  6
CONTINUOUS
  0
LAYER
  2
120
 70
     0
 62
     7
  6
CONTINUOUS
  0
LAYER
  2
121
 70
     0
 62
     7
  6
CONTINUOUS
  0
LAYER
  2
122
 70
     0
 62
     7
  6
CONTINUOUS
  0
LAYER
  2
123
 70
     0
 62
     7
  6
CONTINUOUS
  0
LAYER
  2
124
 70
     0
 62
     7
  6
CONTINUOUS
  0
LAYER
  2
125
 70
     0
 62
     7
  6
CONTINUOUS
  0
LAYER
  2
126
 70
     0
 62
     7
  6
CONTINUOUS
  0
LAYER
  2
127
 70
     0
 62
     7
  6
CONTINUOUS
  0
LAYER
  2
128
 70
     0
 62
     7
  6
CONTINUOUS
  0
ENDTAB
  0
TABLE
  2
STYLE
 70
    17
  0
STYLE
  2
STANDARD
 70
     0
 40
0.0
 41
1.0
 50
0.0
 71
     0
 42
0.2
  3
txt.shx
  4
extfont.shx
  0
STYLE
  2
KANJI0
 70
     0
 40
1.8
 41
0.6
 50
0.0
 71
     0
 42
1.8
  3
txt.shx
  4
extfont.shx
  0
STYLE
  2
KANJI1
 70
     0
 40
3.0
 41
0.6
 50
0.0
 71
     0
 42
3.0
  3
txt.shx
  4
extfont.shx
  0
STYLE
  2
KANJI2
 70
     0
 40
3.0
 41
0.9
 50
0.0
 71
     0
 42
3.0
  3
txt.shx
  4
extfont.shx
  0
STYLE
  2
KANJI3
 70
     0
 40
1.0
 41
0.9
 50
0.0
 71
     0
 42
1.0
  3
txt.shx
  4
extfont.shx
  0
STYLE
  2
KANJI4
 70
     0
 40
2.0
 41
0.9
 50
0.0
 71
     0
 42
2.0
  3
txt.shx
  4
extfont.shx
  0
STYLE
  2
KANJI5
 70
     0
 40
1.5
 41
0.9
 50
0.0
 71
     0
 42
1.5
  3
txt.shx
  4
extfont.shx
  0
STYLE
  2
KANJI6
 70
     0
 40
1.5
 41
0.45
 50
0.0
 71
     0
 42
1.5
  3
txt.shx
  4
extfont.shx
  0
STYLE
  2
KANJI7
 70
     0
 40
2.4
 41
0.7
 50
0.0
 71
     0
 42
2.4
  3
txt.shx
  4
extfont.shx
  0
STYLE
  2
KANJI8
 70
     0
 40
2.4
 41
0.9
 50
0.0
 71
     0
 42
2.4
  3
txt.shx
  4
extfont.shx
  0
STYLE
  2
KANJI9
 70
     0
 40
2.4
 41
0.6
 50
0.0
 71
     0
 42
2.4
  3
txt.shx
  4
extfont.shx
  0
STYLE
  2
KANJI10
 70
     0
 40
3.0
 41
0.5
 50
0.0
 71
     0
 42
3.0
  3
txt.shx
  4
extfont.shx
  0
STYLE
  2
KANJI11
 70
     0
 40
6.0
 41
0.9
 50
0.0
 71
     0
 42
6.0
  3
txt.shx
  4
extfont.shx
  0
STYLE
  2
KANJI12
 70
     0
 40
3.0
 41
0.8
 50
0.0
 71
     0
 42
3.0
  3
txt.shx
  4
extfont.shx
  0
STYLE
  2
KANJI13
 70
     0
 40
2.5
 41
0.8
 50
0.0
 71
     0
 42
2.5
  3
txt.shx
  4
extfont.shx
  0
STYLE
  2
KANJI14
 70
     0
 40
2.5
 41
0.8
 50
0.0
 71
     0
 42
2.5
  3
txt.shx
  4
extfont.shx
  0
STYLE
  2
KANJI15
 70
     0
 40
4.0
 41
0.9
 50
0.0
 71
     0
 42
4.0
  3
txt.shx
  4
extfont.shx
  0
ENDTAB
  0
TABLE
  2
VIEW
 70
     0
  0
ENDTAB
  0
ENDSEC
  0
SECTION
  2
BLOCKS
  0
ENDSEC
  0
SECTION
  2
ENTITIES
  0
LINE
  8
0
  6
CONTINUOUS
 62
     1
 10
19.0
 20
19.2
 30
0.0
 11
62.0
 21
19.2
 31
0.0
  0
LINE
  8
0
  6
CONTINUOUS
 62
     1
 10
78.0
 20
19.2
 30
0.0
 11
117.0
 21
19.2
 31
0.0
  0
LINE
  8
0
  6
CONTINUOUS
 62
     1
 10
126.0
 20
19.2
 30
0.0
 11
165.0
 21
19.2
 31
0.0
  0
LINE
  8
0
  6
CONTINUOUS
 62
     1
 10
176.4
 20
51.5
 30
0.0
 11
194.4
 21
51.5
 31
0.0
  0
CIRCLE
  8
0
  6
CONTINUOUS
 62
     2
 10
40.0
 20
126.75
 30
0.0
 40
1.8
  0
LINE
  8
0
  6
CONTINUOUS
 62
     2
 10
28.5
 20
136.25
 30
0.0
 11
51.5
 21
136.25
 31
0.0
  0
LINE
  8
0
  6
CONTINUOUS
 62
     2
 10
39.75
 20
128.532554347
 30
0.0
 11
39.75
 21
124.967445653
 31
0.0
  0
LINE
  8
0
  6
CONTINUOUS
 62
     2
 10
40.25
 20
124.967445653
 30
0.0
 11
40.25
 21
128.532554347
 31
0.0
  0
CIRCLE
  8
0
  6
CONTINUOUS
 62
     2
 10
36.25
 20
131.0
 30
0.0
 40
1.75
  0
CIRCLE
  8
0
  6
CONTINUOUS
 62
     2
 10
36.25
 20
131.0
 30
0.0
 40
0.75
  0
LINE
  8
0
  6
CONTINUOUS
 62
     2
 10
35.430143345
 20
128.904687358
 30
0.0
 11
35.365008209
 21
128.661883337
 31
0.0
  0
LINE
  8
0
  6
CONTINUOUS
 62
     2
 10
35.912360369
 20
128.775477696
 30
0.0
 11
35.847367041
 21
128.532635677
 31
0.0
  0
ARC
  8
0
  6
CONTINUOUS
 62
     2
 10
35.667657149
 20
128.826666891
 30
0.0
 40
0.25
 50
348.184738537
 51
161.815261463
  0
ARC
  8
0
  6
CONTINUOUS
 62
     2
 10
35.602952387
 20
128.585185434
 30
0.0
 40
0.25
 50
347.865983983
 51
162.134016018
  0
LINE
  8
0
  6
CONTINUOUS
 62
     2
 10
34.492326989
 20
129.595334351
 30
0.0
 11
34.314516296
 21
129.417627468
 31
0.0
  0
LINE
  8
0
  6
CONTINUOUS
 62
     2
 10
34.845334351
 20
129.242326989
 30
0.0
 11
34.667627468
 21
129.064516296
 31
0.0
  0
ARC
  8
0
  6
CONTINUOUS
 62
     2
 10
34.659009742
 20
129.409009742
 30
0.0
 40
0.25
 50
318.184738537
 51
131.815261463
  0
ARC
  8
0
  6
CONTINUOUS
 62
     2
 10
34.482233047
 20
129.232233047
 30
0.0
 40
0.25
 50
317.865983983
 51
132.134016018
  0
LINE
  8
0
  6
CONTINUOUS
 62
     2
 10
34.025477696
 20
130.662360369
 30
0.0
 11
33.782635677
 21
130.597367041
 31
0.0
  0
LINE
  8
0
  6
CONTINUOUS
 62
     2
 10
34.154687358
 20
130.180143345
 30
0.0
 11
33.911883337
 21
130.115008209
 31
0.0
  0
ARC
  8
0
  6
CONTINUOUS
 62
     2
 10
34.076666891
 20
130.417657149
 30
0.0
 40
0.25
 50
288.184738537
 51
101.815261463
  0
ARC
  8
0
  6
CONTINUOUS
 62
     2
 10
33.835185434
 20
130.352952387
 30
0.0
 40
0.25
 50
287.865983983
 51
102.134016018
  0
ARC
  8
0
  6
CONTINUOUS
 62
     2
 10
36.25
 20
131.0
 30
0.0
 40
2.5
 50
230.731967965
 51
249.268032035
  0
ARC
  8
0
  6
CONTINUOUS
 62
     2
 10
36.25
 20
131.0
 30
0.0
 40
2.25
 50
231.369477073
 51
248.630522927
  0
ARC
  8
0
  6
CONTINUOUS
 62
     2
 10
36.25
 20
131.0
 30
0.0
 40
2.5
 50
200.731967965
 51
219.268032035
  0
ARC
  8
0
  6
CONTINUOUS
 62
     2
 10
36.25
 20
131.0
 30
0.0
 40
2.25
 50
201.369477073
 51
218.630522927
  0
LINE
  8
0
  6
CONTINUOUS
 62
     2
 10
37.069856655
 20
128.904687358
 30
0.0
 11
37.134991791
 21
128.661883337
 31
0.0
  0
LINE
  8
0
  6
CONTINUOUS
 62
     2
 10
36.587639631
 20
128.775477696
 30
0.0
 11
36.652632959
 21
128.532635677
 31
0.0
  0
ARC
  8
0
  6
CONTINUOUS
 62
     2
 10
36.832342851
 20
128.826666891
 30
0.0
 40
0.25
 50
18.184738537
 51
191.815261463
  0
ARC
  8
0
  6
CONTINUOUS
 62
     2
 10
36.897047613
 20
128.585185434
 30
0.0
 40
0.25
 50
17.865983982
 51
192.134016017
  0
LINE
  8
0
  6
CONTINUOUS
 62
     2
 10
38.007673011
 20
129.595334351
 30
0.0
 11
38.185483704
 21
129.417627468
 31
0.0
  0
LINE
  8
0
  6
CONTINUOUS
 62
     2
 10
37.654665649
 20
129.242326989
 30
0.0
 11
37.832372532
 21
129.064516296
 31
0.0
  0
ARC
  8
0
  6
CONTINUOUS
 62
     2
 10
37.840990258
 20
129.409009742
 30
0.0
 40
0.25
 50
48.184738537
 51
221.815261463
  0
ARC
  8
0
  6
CONTINUOUS
 62
     2
 10
38.017766953
 20
129.232233047
 30
0.0
 40
0.25
 50
47.865983982
 51
222.134016017
  0
LINE
  8
0
  6
CONTINUOUS
 62
     2
 10
38.474522304
 20
130.662360369
 30
0.0
 11
38.717364323
 21
130.597367041
 31
0.0
  0
LINE
  8
0
  6
CONTINUOUS
 62
     2
 10
38.345312642
 20
130.180143345
 30
0.0
 11
38.588116663
 21
130.115008209
 31
0.0
  0
ARC
  8
0
  6
CONTINUOUS
 62
     2
 10
38.423333109
 20
130.417657149
 30
0.0
 40
0.25
 50
78.184738537
 51
251.815261463
  0
ARC
  8
0
  6
CONTINUOUS
 62
     2
 10
38.664814566
 20
130.352952387
 30
0.0
 40
0.25
 50
77.865983982
 51
252.134016017
  0
ARC
  8
0
  6
CONTINUOUS
 62
     2
 10
36.25
 20
131.0
 30
0.0
 40
2.5
 50
290.731967965
 51
309.268032035
  0
ARC
  8
0
  6
CONTINUOUS
 62
     2
 10
36.25
 20
131.0
 30
0.0
 40
2.25
 50
291.369477073
 51
308.630522927
  0
ARC
  8
0
  6
CONTINUOUS
 62
     2
 10
36.25
 20
131.0
 30
0.0
 40
2.5
 50
320.731967965
 51
339.268032035
  0
ARC
  8
0
  6
CONTINUOUS
 62
     2
 10
36.25
 20
131.0
 30
0.0
 40
2.25
 50
321.369477073
 51
338.630522927
  0
ARC
  8
0
  6
CONTINUOUS
 62
     2
 10
36.25
 20
131.0
 30
0.0
 40
2.25
 50
261.369477073
 51
278.630522927
  0
ARC
  8
0
  6
CONTINUOUS
 62
     2
 10
36.25
 20
131.0
 30
0.0
 40
2.5
 50
260.731967965
 51
279.268032035
  0
LINE
  8
0
  6
CONTINUOUS
 62
     2
 10
35.430143345
 20
133.095312642
 30
0.0
 11
35.365008209
 21
133.338116663
 31
0.0
  0
LINE
  8
0
  6
CONTINUOUS
 62
     2
 10
35.912360369
 20
133.224522304
 30
0.0
 11
35.847367041
 21
133.467364323
 31
0.0
  0
ARC
  8
0
  6
CONTINUOUS
 62
     2
 10
35.667657149
 20
133.173333109
 30
0.0
 40
0.25
 50
198.184738537
 51
11.815261463
  0
ARC
  8
0
  6
CONTINUOUS
 62
     2
 10
35.602952387
 20
133.414814566
 30
0.0
 40
0.25
 50
197.865983982
 51
12.134016017
  0
LINE
  8
0
  6
CONTINUOUS
 62
     2
 10
34.492326989
 20
132.404665649
 30
0.0
 11
34.314516296
 21
132.582372532
 31
0.0
  0
LINE
  8
0
  6
CONTINUOUS
 62
     2
 10
34.845334351
 20
132.757673011
 30
0.0
 11
34.667627468
 21
132.935483704
 31
0.0
  0
ARC
  8
0
  6
CONTINUOUS
 62
     2
 10
34.659009742
 20
132.590990258
 30
0.0
 40
0.25
 50
228.184738537
 51
41.815261463
  0
ARC
  8
0
  6
CONTINUOUS
 62
     2
 10
34.482233047
 20
132.767766953
 30
0.0
 40
0.25
 50
227.865983982
 51
42.134016017
  0
LINE
  8
0
  6
CONTINUOUS
 62
     2
 10
34.025477696
 20
131.337639631
 30
0.0
 11
33.782635677
 21
131.402632959
 31
0.0
  0
LINE
  8
0
  6
CONTINUOUS
 62
     2
 10
34.154687358
 20
131.819856655
 30
0.0
 11
33.911883337
 21
131.884991791
 31
0.0
  0
ARC
  8
0
  6
CONTINUOUS
 62
     2
 10
34.076666891
 20
131.582342851
 30
0.0
 40
0.25
 50
258.184738537
 51
71.815261463
  0
ARC
  8
0
  6
CONTINUOUS
 62
     2
 10
33.835185434
 20
131.647047613
 30
0.0
 40
0.25
 50
257.865983982
 51
72.134016017
  0
ARC
  8
0
  6
CONTINUOUS
 62
     2
 10
36.25
 20
131.0
 30
0.0
 40
2.5
 50
110.731967965
 51
129.268032035
  0
ARC
  8
0
  6
CONTINUOUS
 62
     2
 10
36.25
 20
131.0
 30
0.0
 40
2.25
 50
111.369477073
 51
128.630522927
  0
ARC
  8
0
  6
CONTINUOUS
 62
     2
 10
36.25
 20
131.0
 30
0.0
 40
2.5
 50
140.731967965
 51
159.268032035
  0
ARC
  8
0
  6
CONTINUOUS
 62
     2
 10
36.25
 20
131.0
 30
0.0
 40
2.25
 50
141.369477073
 51
158.630522927
  0
LINE
  8
0
  6
CONTINUOUS
 62
     2
 10
37.069856655
 20
133.095312642
 30
0.0
 11
37.134991791
 21
133.338116663
 31
0.0
  0
LINE
  8
0
  6
CONTINUOUS
 62
     2
 10
36.587639631
 20
133.224522304
 30
0.0
 11
36.652632959
 21
133.467364323
 31
0.0
  0
ARC
  8
0
  6
CONTINUOUS
 62
     2
 10
36.832342851
 20
133.173333109
 30
0.0
 40
0.25
 50
168.184738537
 51
341.815261463
  0
ARC
  8
0
  6
CONTINUOUS
 62
     2
 10
36.897047613
 20
133.414814566
 30
0.0
 40
0.25
 50
167.865983983
 51
342.134016018
  0
LINE
  8
0
  6
CONTINUOUS
 62
     2
 10
38.007673011
 20
132.404665649
 30
0.0
 11
38.185483704
 21
132.582372532
 31
0.0
  0
LINE
  8
0
  6
CONTINUOUS
 62
     2
 10
37.654665649
 20
132.757673011
 30
0.0
 11
37.832372532
 21
132.935483704
 31
0.0
  0
ARC
  8
0
  6
CONTINUOUS
 62
     2
 10
37.840990258
 20
132.590990258
 30
0.0
 40
0.25
 50
138.184738537
 51
311.815261463
  0
ARC
  8
0
  6
CONTINUOUS
 62
     2
 10
38.017766953
 20
132.767766953
 30
0.0
 40
0.25
 50
137.865983983
 51
312.134016018
  0
LINE
  8
0
  6
CONTINUOUS
 62
     2
 10
38.474522304
 20
131.337639631
 30
0.0
 11
38.717364323
 21
131.402632959
 31
0.0
  0
LINE
  8
0
  6
CONTINUOUS
 62
     2
 10
38.345312642
 20
131.819856655
 30
0.0
 11
38.588116663
 21
131.884991791
 31
0.0
  0
ARC
  8
0
  6
CONTINUOUS
 62
     2
 10
38.423333109
 20
131.582342851
 30
0.0
 40
0.25
 50
108.184738537
 51
281.815261463
  0
ARC
  8
0
  6
CONTINUOUS
 62
     2
 10
38.664814566
 20
131.647047613
 30
0.0
 40
0.25
 50
107.865983983
 51
282.134016018
  0
ARC
  8
0
  6
CONTINUOUS
 62
     2
 10
36.25
 20
131.0
 30
0.0
 40
2.5
 50
50.731967965
 51
69.268032035
  0
ARC
  8
0
  6
CONTINUOUS
 62
     2
 10
36.25
 20
131.0
 30
0.0
 40
2.25
 50
51.369477073
 51
68.630522927
  0
ARC
  8
0
  6
CONTINUOUS
 62
     2
 10
36.25
 20
131.0
 30
0.0
 40
2.5
 50
20.731967965
 51
39.268032035
  0
ARC
  8
0
  6
CONTINUOUS
 62
     2
 10
36.25
 20
131.0
 30
0.0
 40
2.25
 50
21.369477073
 51
38.630522927
  0
ARC
  8
0
  6
CONTINUOUS
 62
     2
 10
36.25
 20
131.0
 30
0.0
 40
2.25
 50
81.369477073
 51
98.630522927
  0
ARC
  8
0
  6
CONTINUOUS
 62
     2
 10
36.25
 20
131.0
 30
0.0
 40
2.5
 50
80.731967965
 51
99.268032035
  0
ARC
  8
0
  6
CONTINUOUS
 62
     2
 10
36.25
 20
131.0
 30
0.0
 40
2.5
 50
170.731967965
 51
189.268032035
  0
ARC
  8
0
  6
CONTINUOUS
 62
     2
 10
36.25
 20
131.0
 30
0.0
 40
2.5
 50
350.731967965
 51
9.268032035
  0
ARC
  8
0
  6
CONTINUOUS
 62
     2
 10
36.25
 20
131.0
 30
0.0
 40
2.25
 50
171.369477073
 51
188.630522927
  0
ARC
  8
0
  6
CONTINUOUS
 62
     2
 10
36.25
 20
131.0
 30
0.0
 40
2.25
 50
351.369477073
 51
8.630522927
  0
LINE
  8
0
  6
LTYPE1
 62
     2
 10
33.25
 20
131.0
 30
0.0
 11
39.25
 21
131.0
 31
0.0
  0
LINE
  8
0
  6
LTYPE1
 62
     2
 10
36.25
 20
134.0
 30
0.0
 11
36.25
 21
128.0
 31
0.0
  0
LINE
  8
0
  6
LTYPE1
 62
     2
 10
37.0
 20
126.75
 30
0.0
 11
43.0
 21
126.75
 31
0.0
  0
CIRCLE
  8
0
  6
CONTINUOUS
 62
     2
 10
43.75
 20
131.0
 30
0.0
 40
1.75
  0
CIRCLE
  8
0
  6
CONTINUOUS
 62
     2
 10
43.75
 20
131.0
 30
0.0
 40
0.75
  0
LINE
  8
0
  6
CONTINUOUS
 62
     2
 10
42.930143345
 20
128.904687358
 30
0.0
 11
42.865008209
 21
128.661883337
 31
0.0
  0
LINE
  8
0
  6
CONTINUOUS
 62
     2
 10
43.412360369
 20
128.775477696
 30
0.0
 11
43.347367041
 21
128.532635677
 31
0.0
  0
ARC
  8
0
  6
CONTINUOUS
 62
     2
 10
43.167657149
 20
128.826666891
 30
0.0
 40
0.25
 50
348.184738537
 51
161.815261463
  0
ARC
  8
0
  6
CONTINUOUS
 62
     2
 10
43.102952387
 20
128.585185434
 30
0.0
 40
0.25
 50
347.865983983
 51
162.134016018
  0
LINE
  8
0
  6
CONTINUOUS
 62
     2
 10
41.992326989
 20
129.595334351
 30
0.0
 11
41.814516296
 21
129.417627468
 31
0.0
  0
LINE
  8
0
  6
CONTINUOUS
 62
     2
 10
42.345334351
 20
129.242326989
 30
0.0
 11
42.167627468
 21
129.064516296
 31
0.0
  0
ARC
  8
0
  6
CONTINUOUS
 62
     2
 10
42.159009742
 20
129.409009742
 30
0.0
 40
0.25
 50
318.184738537
 51
131.815261463
  0
ARC
  8
0
  6
CONTINUOUS
 62
     2
 10
41.982233047
 20
129.232233047
 30
0.0
 40
0.25
 50
317.865983983
 51
132.134016018
  0
LINE
  8
0
  6
CONTINUOUS
 62
     2
 10
41.525477696
 20
130.662360369
 30
0.0
 11
41.282635677
 21
130.597367041
 31
0.0
  0
LINE
  8
0
  6
CONTINUOUS
 62
     2
 10
41.654687358
 20
130.180143345
 30
0.0
 11
41.411883337
 21
130.115008209
 31
0.0
  0
ARC
  8
0
  6
CONTINUOUS
 62
     2
 10
41.576666891
 20
130.417657149
 30
0.0
 40
0.25
 50
288.184738537
 51
101.815261463
  0
ARC
  8
0
  6
CONTINUOUS
 62
     2
 10
41.335185434
 20
130.352952387
 30
0.0
 40
0.25
 50
287.865983983
 51
102.134016018
  0
ARC
  8
0
  6
CONTINUOUS
 62
     2
 10
43.75
 20
131.0
 30
0.0
 40
2.5
 50
230.731967965
 51
249.268032035
  0
ARC
  8
0
  6
CONTINUOUS
 62
     2
 10
43.75
 20
131.0
 30
0.0
 40
2.25
 50
231.369477073
 51
248.630522927
  0
ARC
  8
0
  6
CONTINUOUS
 62
     2
 10
43.75
 20
131.0
 30
0.0
 40
2.5
 50
200.731967965
 51
219.268032035
  0
ARC
  8
0
  6
CONTINUOUS
 62
     2
 10
43.75
 20
131.0
 30
0.0
 40
2.25
 50
201.369477073
 51
218.630522927
  0
LINE
  8
0
  6
CONTINUOUS
 62
     2
 10
44.569856655
 20
128.904687358
 30
0.0
 11
44.634991791
 21
128.661883337
 31
0.0
  0
LINE
  8
0
  6
CONTINUOUS
 62
     2
 10
44.087639631
 20
128.775477696
 30
0.0
 11
44.152632959
 21
128.532635677
 31
0.0
  0
ARC
  8
0
  6
CONTINUOUS
 62
     2
 10
44.332342851
 20
128.826666891
 30
0.0
 40
0.25
 50
18.184738537
 51
191.815261463
  0
ARC
  8
0
  6
CONTINUOUS
 62
     2
 10
44.397047613
 20
128.585185434
 30
0.0
 40
0.25
 50
17.865983982
 51
192.134016017
  0
LINE
  8
0
  6
CONTINUOUS
 62
     2
 10
45.507673011
 20
129.595334351
 30
0.0
 11
45.685483704
 21
129.417627468
 31
0.0
  0
LINE
  8
0
  6
CONTINUOUS
 62
     2
 10
45.154665649
 20
129.242326989
 30
0.0
 11
45.332372532
 21
129.064516296
 31
0.0
  0
ARC
  8
0
  6
CONTINUOUS
 62
     2
 10
45.340990258
 20
129.409009742
 30
0.0
 40
0.25
 50
48.184738537
 51
221.815261463
  0
ARC
  8
0
  6
CONTINUOUS
 62
     2
 10
45.517766953
 20
129.232233047
 30
0.0
 40
0.25
 50
47.865983982
 51
222.134016017
  0
LINE
  8
0
  6
CONTINUOUS
 62
     2
 10
45.974522304
 20
130.662360369
 30
0.0
 11
46.217364323
 21
130.597367041
 31
0.0
  0
LINE
  8
0
  6
CONTINUOUS
 62
     2
 10
45.845312642
 20
130.180143345
 30
0.0
 11
46.088116663
 21
130.115008209
 31
0.0
  0
ARC
  8
0
  6
CONTINUOUS
 62
     2
 10
45.923333109
 20
130.417657149
 30
0.0
 40
0.25
 50
78.184738537
 51
251.815261463
  0
ARC
  8
0
  6
CONTINUOUS
 62
     2
 10
46.164814566
 20
130.352952387
 30
0.0
 40
0.25
 50
77.865983982
 51
252.134016017
  0
ARC
  8
0
  6
CONTINUOUS
 62
     2
 10
43.75
 20
131.0
 30
0.0
 40
2.5
 50
290.731967965
 51
309.268032035
  0
ARC
  8
0
  6
CONTINUOUS
 62
     2
 10
43.75
 20
131.0
 30
0.0
 40
2.25
 50
291.369477073
 51
308.630522927
  0
ARC
  8
0
  6
CONTINUOUS
 62
     2
 10
43.75
 20
131.0
 30
0.0
 40
2.5
 50
320.731967965
 51
339.268032035
  0
ARC
  8
0
  6
CONTINUOUS
 62
     2
 10
43.75
 20
131.0
 30
0.0
 40
2.25
 50
321.369477073
 51
338.630522927
  0
ARC
  8
0
  6
CONTINUOUS
 62
     2
 10
43.75
 20
131.0
 30
0.0
 40
2.25
 50
261.369477073
 51
278.630522927
  0
ARC
  8
0
  6
CONTINUOUS
 62
     2
 10
43.75
 20
131.0
 30
0.0
 40
2.5
 50
260.731967965
 51
279.268032035
  0
LINE
  8
0
  6
CONTINUOUS
 62
     2
 10
42.930143345
 20
133.095312642
 30
0.0
 11
42.865008209
 21
133.338116663
 31
0.0
  0
LINE
  8
0
  6
CONTINUOUS
 62
     2
 10
43.412360369
 20
133.224522304
 30
0.0
 11
43.347367041
 21
133.467364323
 31
0.0
  0
ARC
  8
0
  6
CONTINUOUS
 62
     2
 10
43.167657149
 20
133.173333109
 30
0.0
 40
0.25
 50
198.184738537
 51
11.815261463
  0
ARC
  8
0
  6
CONTINUOUS
 62
     2
 10
43.102952387
 20
133.414814566
 30
0.0
 40
0.25
 50
197.865983982
 51
12.134016017
  0
LINE
  8
0
  6
CONTINUOUS
 62
     2
 10
41.992326989
 20
132.404665649
 30
0.0
 11
41.814516296
 21
132.582372532
 31
0.0
  0
LINE
  8
0
  6
CONTINUOUS
 62
     2
 10
42.345334351
 20
132.757673011
 30
0.0
 11
42.167627468
 21
132.935483704
 31
0.0
  0
ARC
  8
0
  6
CONTINUOUS
 62
     2
 10
42.159009742
 20
132.590990258
 30
0.0
 40
0.25
 50
228.184738537
 51
41.815261463
  0
ARC
  8
0
  6
CONTINUOUS
 62
     2
 10
41.982233047
 20
132.767766953
 30
0.0
 40
0.25
 50
227.865983982
 51
42.134016017
  0
LINE
  8
0
  6
CONTINUOUS
 62
     2
 10
41.525477696
 20
131.337639631
 30
0.0
 11
41.282635677
 21
131.402632959
 31
0.0
  0
LINE
  8
0
  6
CONTINUOUS
 62
     2
 10
41.654687358
 20
131.819856655
 30
0.0
 11
41.411883337
 21
131.884991791
 31
0.0
  0
ARC
  8
0
  6
CONTINUOUS
 62
     2
 10
41.576666891
 20
131.582342851
 30
0.0
 40
0.25
 50
258.184738537
 51
71.815261463
  0
ARC
  8
0
  6
CONTINUOUS
 62
     2
 10
41.335185434
 20
131.647047613
 30
0.0
 40
0.25
 50
257.865983982
 51
72.134016017
  0
ARC
  8
0
  6
CONTINUOUS
 62
     2
 10
43.75
 20
131.0
 30
0.0
 40
2.5
 50
110.731967965
 51
129.268032035
  0
ARC
  8
0
  6
CONTINUOUS
 62
     2
 10
43.75
 20
131.0
 30
0.0
 40
2.25
 50
111.369477073
 51
128.630522927
  0
ARC
  8
0
  6
CONTINUOUS
 62
     2
 10
43.75
 20
131.0
 30
0.0
 40
2.5
 50
140.731967965
 51
159.268032035
  0
ARC
  8
0
  6
CONTINUOUS
 62
     2
 10
43.75
 20
131.0
 30
0.0
 40
2.25
 50
141.369477073
 51
158.630522927
  0
LINE
  8
0
  6
CONTINUOUS
 62
     2
 10
44.569856655
 20
133.095312642
 30
0.0
 11
44.634991791
 21
133.338116663
 31
0.0
  0
LINE
  8
0
  6
CONTINUOUS
 62
     2
 10
44.087639631
 20
133.224522304
 30
0.0
 11
44.152632959
 21
133.467364323
 31
0.0
  0
ARC
  8
0
  6
CONTINUOUS
 62
     2
 10
44.332342851
 20
133.173333109
 30
0.0
 40
0.25
 50
168.184738537
 51
341.815261463
  0
ARC
  8
0
  6
CONTINUOUS
 62
     2
 10
44.397047613
 20
133.414814566
 30
0.0
 40
0.25
 50
167.865983983
 51
342.134016018
  0
LINE
  8
0
  6
CONTINUOUS
 62
     2
 10
45.507673011
 20
132.404665649
 30
0.0
 11
45.685483704
 21
132.582372532
 31
0.0
  0
LINE
  8
0
  6
CONTINUOUS
 62
     2
 10
45.154665649
 20
132.757673011
 30
0.0
 11
45.332372532
 21
132.935483704
 31
0.0
  0
ARC
  8
0
  6
CONTINUOUS
 62
     2
 10
45.340990258
 20
132.590990258
 30
0.0
 40
0.25
 50
138.184738537
 51
311.815261463
  0
ARC
  8
0
  6
CONTINUOUS
 62
     2
 10
45.517766953
 20
132.767766953
 30
0.0
 40
0.25
 50
137.865983983
 51
312.134016018
  0
LINE
  8
0
  6
CONTINUOUS
 62
     2
 10
45.974522304
 20
131.337639631
 30
0.0
 11
46.217364323
 21
131.402632959
 31
0.0
  0
LINE
  8
0
  6
CONTINUOUS
 62
     2
 10
45.845312642
 20
131.819856655
 30
0.0
 11
46.088116663
 21
131.884991791
 31
0.0
  0
ARC
  8
0
  6
CONTINUOUS
 62
     2
 10
45.923333109
 20
131.582342851
 30
0.0
 40
0.25
 50
108.184738537
 51
281.815261463
  0
ARC
  8
0
  6
CONTINUOUS
 62
     2
 10
46.164814566
 20
131.647047613
 30
0.0
 40
0.25
 50
107.865983983
 51
282.134016018
  0
ARC
  8
0
  6
CONTINUOUS
 62
     2
 10
43.75
 20
131.0
 30
0.0
 40
2.5
 50
50.731967965
 51
69.268032035
  0
ARC
  8
0
  6
CONTINUOUS
 62
     2
 10
43.75
 20
131.0
 30
0.0
 40
2.25
 50
51.369477073
 51
68.630522927
  0
ARC
  8
0
  6
CONTINUOUS
 62
     2
 10
43.75
 20
131.0
 30
0.0
 40
2.5
 50
20.731967965
 51
39.268032035
  0
ARC
  8
0
  6
CONTINUOUS
 62
     2
 10
43.75
 20
131.0
 30
0.0
 40
2.25
 50
21.369477073
 51
38.630522927
  0
ARC
  8
0
  6
CONTINUOUS
 62
     2
 10
43.75
 20
131.0
 30
0.0
 40
2.25
 50
81.369477073
 51
98.630522927
  0
ARC
  8
0
  6
CONTINUOUS
 62
     2
 10
43.75
 20
131.0
 30
0.0
 40
2.5
 50
80.731967965
 51
99.268032035
  0
ARC
  8
0
  6
CONTINUOUS
 62
     2
 10
43.75
 20
131.0
 30
0.0
 40
2.5
 50
170.731967965
 51
189.268032035
  0
ARC
  8
0
  6
CONTINUOUS
 62
     2
 10
43.75
 20
131.0
 30
0.0
 40
2.5
 50
350.731967965
 51
9.268032035
  0
ARC
  8
0
  6
CONTINUOUS
 62
     2
 10
43.75
 20
131.0
 30
0.0
 40
2.25
 50
171.369477073
 51
188.630522927
  0
ARC
  8
0
  6
CONTINUOUS
 62
     2
 10
43.75
 20
131.0
 30
0.0
 40
2.25
 50
351.369477073
 51
8.630522927
  0
LINE
  8
0
  6
LTYPE1
 62
     2
 10
40.75
 20
131.0
 30
0.0
 11
46.75
 21
131.0
 31
0.0
  0
LINE
  8
0
  6
LTYPE1
 62
     2
 10
43.75
 20
134.0
 30
0.0
 11
43.75
 21
128.0
 31
0.0
  0
CIRCLE
  8
0
  6
CONTINUOUS
 62
     2
 10
43.75
 20
131.0
 30
0.0
 40
2.5
  0
CIRCLE
  8
0
  6
CONTINUOUS
 62
     2
 10
36.25
 20
131.0
 30
0.0
 40
2.5
  0
CIRCLE
  8
0
  6
CONTINUOUS
 62
     2
 10
185.0
 20
82.0
 30
0.0
 40
16.75
  0
CIRCLE
  8
0
  6
CONTINUOUS
 62
     2
 10
169.0
 20
66.0
 30
0.0
 40
1.0
  0
CIRCLE
  8
0
  6
CONTINUOUS
 62
     2
 10
169.0
 20
98.0
 30
0.0
 40
1.0
  0
CIRCLE
  8
0
  6
CONTINUOUS
 62
     2
 10
201.0
 20
98.0
 30
0.0
 40
1.0
  0
CIRCLE
  8
0
  6
CONTINUOUS
 62
     2
 10
201.0
 20
66.0
 30
0.0
 40
1.0
  0
LINE
  8
0
  6
LTYPE1
 62
     2
 10
167.0
 20
98.0
 30
0.0
 11
171.0
 21
98.0
 31
0.0
  0
LINE
  8
0
  6
LTYPE1
 62
     2
 10
169.0
 20
100.0
 30
0.0
 11
169.0
 21
96.0
 31
0.0
  0
LINE
  8
0
  6
LTYPE1
 62
     2
 10
167.0
 20
66.0
 30
0.0
 11
171.0
 21
66.0
 31
0.0
  0
LINE
  8
0
  6
LTYPE1
 62
     2
 10
169.0
 20
68.0
 30
0.0
 11
169.0
 21
64.0
 31
0.0
  0
LINE
  8
0
  6
LTYPE1
 62
     2
 10
199.0
 20
66.0
 30
0.0
 11
203.0
 21
66.0
 31
0.0
  0
LINE
  8
0
  6
LTYPE1
 62
     2
 10
201.0
 20
68.0
 30
0.0
 11
201.0
 21
64.0
 31
0.0
  0
LINE
  8
0
  6
LTYPE1
 62
     2
 10
199.0
 20
98.0
 30
0.0
 11
203.0
 21
98.0
 31
0.0
  0
LINE
  8
0
  6
LTYPE1
 62
     2
 10
201.0
 20
100.0
 30
0.0
 11
201.0
 21
96.0
 31
0.0
  0
LINE
  8
0
  6
CONTINUOUS
 62
     2
 10
210.0
 20
82.0
 30
0.0
 11
213.0
 21
82.0
 31
0.0
  0
TEXT
  8
0
  6
CONTINUOUS
 62
     2
 10
210.0
 20
73.52
 30
0.18
 40
1.8
  1
±０．５
 50
90.0
 41
0.6
 51
0.0
  7
KANJI0
  0
TEXT
  8
0
  6
CONTINUOUS
 62
     2
 10
210.0
 20
69.62
 30
0.3
 40
3.0
  1
３２
 50
90.0
 41
0.6
 51
0.0
  7
KANJI1
  0
TEXT
  8
0
  6
CONTINUOUS
 62
     2
 10
210.0
 20
89.52
 30
0.18
 40
1.8
  1
±０．５
 50
90.0
 41
0.6
 51
0.0
  7
KANJI0
  0
TEXT
  8
0
  6
CONTINUOUS
 62
     2
 10
210.0
 20
85.62
 30
0.3
 40
3.0
  1
３２
 50
90.0
 41
0.6
 51
0.0
  7
KANJI1
  0
TEXT
  8
0
  6
CONTINUOUS
 62
     2
 10
176.52
 20
109.0
 30
0.18
 40
1.8
  1
±０．５
 50
0.0
 41
0.6
 51
0.0
  7
KANJI0
  0
TEXT
  8
0
  6
CONTINUOUS
 62
     2
 10
192.52
 20
109.0
 30
0.18
 40
1.8
  1
±０．５
 50
0.0
 41
0.6
 51
0.0
  7
KANJI0
  0
TEXT
  8
0
  6
CONTINUOUS
 62
     2
 10
172.62
 20
109.0
 30
0.3
 40
3.0
  1
３２
 50
0.0
 41
0.6
 51
0.0
  7
KANJI1
  0
TEXT
  8
0
  6
CONTINUOUS
 62
     2
 10
188.62
 20
109.0
 30
0.3
 40
3.0
  1
３２
 50
0.0
 41
0.6
 51
0.0
  7
KANJI1
  0
LINE
  8
0
  6
CONTINUOUS
 62
     2
 10
169.448015428
 20
75.779206171
 30
0.0
 11
171.930421915
 21
76.07527716
 31
0.0
  0
LINE
  8
0
  6
CONTINUOUS
 62
     2
 10
169.448015428
 20
75.779206171
 30
0.0
 11
171.449807014
 21
77.276814412
 31
0.0
  0
LINE
  8
0
  6
CONTINUOUS
 62
     2
 10
169.448015428
 20
75.779206171
 30
0.0
 11
200.551984572
 21
88.220793829
 31
0.0
  0
LINE
  8
0
  6
CONTINUOUS
 62
     2
 10
200.551984572
 20
88.220793829
 30
0.0
 11
198.069578085
 21
87.92472284
 31
0.0
  0
LINE
  8
0
  6
CONTINUOUS
 62
     2
 10
200.551984572
 20
88.220793829
 30
0.0
 11
198.550192986
 21
86.723185588
 31
0.0
  0
TEXT
  8
0
  6
CONTINUOUS
 62
     2
 10
186.599071571
 20
83.71666159
 30
0.18
 40
1.8
  1
±１
 50
21.801409486
 41
0.6
 51
0.0
  7
KANJI0
  0
TEXT
  8
0
  6
CONTINUOUS
 62
     2
 10
180.878609324
 20
81.428476691
 30
0.3
 40
3.0
  1
φ６７
 50
21.801409486
 41
0.6
 51
0.0
  7
KANJI1
  0
TEXT
  8
0
  6
CONTINUOUS
 62
     2
 10
206.0
 20
62.0
 30
0.3
 40
3.0
  1
４－φ４穴
 50
0.0
 41
0.6
 51
0.0
  7
KANJI1
  0
TEXT
  8
0
  6
CONTINUOUS
 62
     2
 10
216.97
 20
61.5
 30
0.18
 40
1.8
  1
－０
 50
0.0
 41
0.6
 51
0.0
  7
KANJI0
  0
TEXT
  8
0
  6
CONTINUOUS
 62
     2
 10
216.97
 20
63.3
 30
0.18
 40
1.8
  1
＋０．５
 50
0.0
 41
0.6
 51
0.0
  7
KANJI0
  0
LINE
  8
0
  6
CONTINUOUS
 62
     2
 10
206.0
 20
61.0
 30
0.0
 11
222.2
 21
61.0
 31
0.0
  0
LINE
  8
0
  6
CONTINUOUS
 62
     2
 10
201.707106781
 20
65.292893219
 30
0.0
 11
202.957106781
 21
63.127829709
 31
0.0
  0
LINE
  8
0
  6
CONTINUOUS
 62
     2
 10
201.707106781
 20
65.292893219
 30
0.0
 11
203.872170291
 21
64.042893219
 31
0.0
  0
LINE
  8
0
  6
CONTINUOUS
 62
     2
 10
201.707106781
 20
65.292893219
 30
0.0
 11
206.0
 21
61.0
 31
0.0
  0
CIRCLE
  8
0
  6
CONTINUOUS
 62
     2
 10
58.0
 20
133.5
 30
0.0
 40
1.6
  0
LINE
  8
0
  6
LTYPE1
 62
     2
 10
55.5
 20
133.5
 30
0.0
 11
60.5
 21
133.5
 31
0.0
  0
LINE
  8
0
  6
LTYPE1
 62
     2
 10
58.0
 20
136.0
 30
0.0
 11
58.0
 21
131.0
 31
0.0
  0
LINE
  8
0
  6
CONTINUOUS
 62
     2
 10
57.2
 20
132.7
 30
0.0
 11
58.8
 21
134.3
 31
0.0
  0
LINE
  8
0
  6
CONTINUOUS
 62
     2
 10
57.2
 20
134.3
 30
0.0
 11
58.8
 21
132.7
 31
0.0
  0
CIRCLE
  8
0
  6
CONTINUOUS
 62
     2
 10
22.0
 20
133.5
 30
0.0
 40
1.6
  0
LINE
  8
0
  6
LTYPE1
 62
     2
 10
19.5
 20
133.5
 30
0.0
 11
24.5
 21
133.5
 31
0.0
  0
LINE
  8
0
  6
LTYPE1
 62
     2
 10
22.0
 20
136.0
 30
0.0
 11
22.0
 21
131.0
 31
0.0
  0
LINE
  8
0
  6
CONTINUOUS
 62
     2
 10
21.2
 20
132.7
 30
0.0
 11
22.8
 21
134.3
 31
0.0
  0
LINE
  8
0
  6
CONTINUOUS
 62
     2
 10
21.2
 20
134.3
 30
0.0
 11
22.8
 21
132.7
 31
0.0
  0
LINE
  8
0
  6
CONTINUOUS
 62
     2
 10
21.5
 20
136.25
 30
0.0
 11
58.5
 21
136.25
 31
0.0
  0
LINE
  8
0
  6
CONTINUOUS
 62
     2
 10
20.0
 20
136.25
 30
0.0
 11
21.5
 21
136.25
 31
0.0
  0
TEXT
  8
0
  6
CONTINUOUS
 62
     2
 10
65.75
 20
142.88
 30
0.18
 40
1.8
  1
±１
 50
90.0
 41
0.6
 51
0.0
  7
KANJI0
  0
LINE
  8
0
  6
CONTINUOUS
 62
     2
 10
58.5
 20
136.25
 30
0.0
 11
60.0
 21
136.25
 31
0.0
  0
CIRCLE
  8
0
  6
CONTINUOUS
 62
     2
 10
185.0
 20
141.0
 30
0.0
 40
16.0
  0
ARC
  8
0
  6
CONTINUOUS
 62
     2
 10
169.928275646
 20
143.325
 30
0.0
 40
0.75
 50
171.230542851
 51
270.0
  0
ARC
  8
0
  6
CONTINUOUS
 62
     2
 10
170.18128295
 20
143.325
 30
0.0
 40
0.75
 50
171.083203747
 51
270.0
  0
LINE
  8
0
  6
CONTINUOUS
 62
     2
 10
171.0
 20
142.575
 30
0.0
 11
169.928275646
 21
142.575
 31
0.0
  0
ARC
  8
0
  6
CONTINUOUS
 62
     2
 10
171.0
 20
141.0
 30
0.0
 40
1.575
 50
270.0
 51
90.0
  0
ARC
  8
0
  6
CONTINUOUS
 62
     2
 10
169.928275646
 20
138.675
 30
0.0
 40
0.75
 50
90.0
 51
188.769457149
  0
ARC
  8
0
  6
CONTINUOUS
 62
     2
 10
170.18128295
 20
138.675
 30
0.0
 40
0.75
 50
90.0
 51
188.916796253
  0
LINE
  8
0
  6
CONTINUOUS
 62
     2
 10
171.0
 20
139.425
 30
0.0
 11
169.928275646
 21
139.425
 31
0.0
  0
ARC
  8
0
  6
CONTINUOUS
 62
     2
 10
185.0
 20
141.0
 30
0.0
 40
15.75
 50
188.916789398
 51
171.083194053
  0
ARC
  8
0
  6
CONTINUOUS
 62
     2
 10
185.0
 20
141.0
 30
0.0
 40
15.75
 50
173.297331124
 51
186.702668876
  0
CIRCLE
  8
0
  6
CONTINUOUS
 62
     2
 10
171.0
 20
141.0
 30
0.0
 40
1.375
  0
LINE
  8
0
  6
CONTINUOUS
 62
     2
 10
170.2
 20
140.2
 30
0.0
 11
171.8
 21
141.8
 31
0.0
  0
LINE
  8
0
  6
CONTINUOUS
 62
     2
 10
171.8
 20
140.2
 30
0.0
 11
170.2
 21
141.8
 31
0.0
  0
ARC
  8
0
  6
CONTINUOUS
 62
     2
 10
200.071724354
 20
143.325
 30
0.0
 40
0.75
 50
270.0
 51
8.769457149
  0
ARC
  8
0
  6
CONTINUOUS
 62
     2
 10
199.81871705
 20
143.325
 30
0.0
 40
0.75
 50
270.0
 51
8.916796253
  0
LINE
  8
0
  6
CONTINUOUS
 62
     2
 10
199.0
 20
142.575
 30
0.0
 11
200.071724354
 21
142.575
 31
0.0
  0
ARC
  8
0
  6
CONTINUOUS
 62
     2
 10
199.0
 20
141.0
 30
0.0
 40
1.575
 50
90.0
 51
270.0
  0
ARC
  8
0
  6
CONTINUOUS
 62
     2
 10
200.071724354
 20
138.675
 30
0.0
 40
0.75
 50
351.230542851
 51
90.0
  0
ARC
  8
0
  6
CONTINUOUS
 62
     2
 10
199.81871705
 20
138.675
 30
0.0
 40
0.75
 50
351.083203747
 51
90.0
  0
LINE
  8
0
  6
CONTINUOUS
 62
     2
 10
199.0
 20
139.425
 30
0.0
 11
200.071724354
 21
139.425
 31
0.0
  0
ARC
  8
0
  6
CONTINUOUS
 62
     2
 10
185.0
 20
141.0
 30
0.0
 40
15.75
 50
353.297331124
 51
6.702668876
  0
CIRCLE
  8
0
  6
CONTINUOUS
 62
     2
 10
199.0
 20
141.0
 30
0.0
 40
1.375
  0
LINE
  8
0
  6
CONTINUOUS
 62
     2
 10
199.8
 20
140.2
 30
0.0
 11
198.2
 21
141.8
 31
0.0
  0
LINE
  8
0
  6
CONTINUOUS
 62
     2
 10
198.2
 20
140.2
 30
0.0
 11
199.8
 21
141.8
 31
0.0
  0
CIRCLE
  8
0
  6
LTYPE2
 62
     2
 10
185.0
 20
138.75
 30
0.0
 40
1.0
  0
TEXT
  8
0
  6
CONTINUOUS
 62
     2
 10
176.52
 20
168.0
 30
0.18
 40
1.8
  1
±０．５
 50
0.0
 41
0.6
 51
0.0
  7
KANJI0
  0
TEXT
  8
0
  6
CONTINUOUS
 62
     2
 10
192.52
 20
168.0
 30
0.18
 40
1.8
  1
±０．５
 50
0.0
 41
0.6
 51
0.0
  7
KANJI0
  0
TEXT
  8
0
  6
CONTINUOUS
 62
     2
 10
172.62
 20
168.0
 30
0.3
 40
3.0
  1
３２
 50
0.0
 41
0.6
 51
0.0
  7
KANJI1
  0
TEXT
  8
0
  6
CONTINUOUS
 62
     2
 10
188.62
 20
168.0
 30
0.3
 40
3.0
  1
３２
 50
0.0
 41
0.6
 51
0.0
  7
KANJI1
  0
LINE
  8
0
  6
CONTINUOUS
 62
     2
 10
203.5
 20
161.25
 30
0.0
 11
166.5
 21
161.25
 31
0.0
  0
LINE
  8
0
  6
CONTINUOUS
 62
     2
 10
203.5
 20
162.0
 30
0.0
 11
166.5
 21
162.0
 31
0.0
  0
ARC
  8
0
  6
CONTINUOUS
 62
     2
 10
164.875
 20
160.375
 30
0.0
 40
1.625
 50
90.0
 51
180.0
  0
ARC
  8
0
  6
CONTINUOUS
 62
     2
 10
164.5
 20
160.75
 30
0.0
 40
0.5
 50
90.0
 51
180.0
  0
LINE
  8
0
  6
CONTINUOUS
 62
     2
 10
166.5
 20
161.25
 30
0.0
 11
164.5
 21
161.25
 31
0.0
  0
LINE
  8
0
  6
CONTINUOUS
 62
     2
 10
166.5
 20
162.0
 30
0.0
 11
164.875
 21
162.0
 31
0.0
  0
ARC
  8
0
  6
CONTINUOUS
 62
     2
 10
205.125
 20
160.375
 30
0.0
 40
1.625
 50
0.0
 51
90.0
  0
ARC
  8
0
  6
CONTINUOUS
 62
     2
 10
205.5
 20
160.75
 30
0.0
 40
0.5
 50
0.0
 51
90.0
  0
LINE
  8
0
  6
CONTINUOUS
 62
     2
 10
205.5
 20
161.25
 30
0.0
 11
203.5
 21
161.25
 31
0.0
  0
LINE
  8
0
  6
CONTINUOUS
 62
     2
 10
205.125
 20
162.0
 30
0.0
 11
203.5
 21
162.0
 31
0.0
  0
LINE
  8
0
  6
CONTINUOUS
 62
     2
 10
206.0
 20
159.75
 30
0.0
 11
206.0
 21
160.75
 31
0.0
  0
LINE
  8
0
  6
CONTINUOUS
 62
     2
 10
206.75
 20
159.75
 30
0.0
 11
206.75
 21
160.375
 31
0.0
  0
LINE
  8
0
  6
CONTINUOUS
 62
     2
 10
164.0
 20
160.75
 30
0.0
 11
164.0
 21
159.75
 31
0.0
  0
LINE
  8
0
  6
CONTINUOUS
 62
     2
 10
163.25
 20
160.375
 30
0.0
 11
163.25
 21
159.75
 31
0.0
  0
LINE
  8
0
  6
CONTINUOUS
 62
     2
 10
164.0
 20
159.75
 30
0.0
 11
164.0
 21
124.15
 31
0.0
  0
LINE
  8
0
  6
CONTINUOUS
 62
     2
 10
163.25
 20
159.75
 30
0.0
 11
163.25
 21
124.15
 31
0.0
  0
LINE
  8
0
  6
CONTINUOUS
 62
     2
 10
206.0
 20
124.15
 30
0.0
 11
206.0
 21
159.75
 31
0.0
  0
LINE
  8
0
  6
CONTINUOUS
 62
     2
 10
206.75
 20
124.15
 30
0.0
 11
206.75
 21
159.75
 31
0.0
  0
LINE
  8
0
  6
CONTINUOUS
 62
     2
 10
166.5
 20
122.75
 30
0.0
 11
203.5
 21
122.75
 31
0.0
  0
LINE
  8
0
  6
CONTINUOUS
 62
     2
 10
166.5
 20
122.0
 30
0.0
 11
203.5
 21
122.0
 31
0.0
  0
ARC
  8
0
  6
CONTINUOUS
 62
     2
 10
164.875
 20
123.625
 30
0.0
 40
1.625
 50
180.0
 51
270.0
  0
ARC
  8
0
  6
CONTINUOUS
 62
     2
 10
164.5
 20
123.25
 30
0.0
 40
0.5
 50
180.0
 51
270.0
  0
LINE
  8
0
  6
CONTINUOUS
 62
     2
 10
164.5
 20
122.75
 30
0.0
 11
166.5
 21
122.75
 31
0.0
  0
LINE
  8
0
  6
CONTINUOUS
 62
     2
 10
164.875
 20
122.0
 30
0.0
 11
166.5
 21
122.0
 31
0.0
  0
ARC
  8
0
  6
CONTINUOUS
 62
     2
 10
205.125
 20
123.625
 30
0.0
 40
1.625
 50
270.0
 51
0.0
  0
ARC
  8
0
  6
CONTINUOUS
 62
     2
 10
205.5
 20
123.25
 30
0.0
 40
0.5
 50
270.0
 51
0.0
  0
LINE
  8
0
  6
CONTINUOUS
 62
     2
 10
203.5
 20
122.0
 30
0.0
 11
205.125
 21
122.0
 31
0.0
  0
LINE
  8
0
  6
CONTINUOUS
 62
     2
 10
203.5
 20
122.75
 30
0.0
 11
205.5
 21
122.75
 31
0.0
  0
LINE
  8
0
  6
CONTINUOUS
 62
     2
 10
164.0
 20
124.15
 30
0.0
 11
164.0
 21
123.25
 31
0.0
  0
LINE
  8
0
  6
CONTINUOUS
 62
     2
 10
163.25
 20
124.15
 30
0.0
 11
163.25
 21
123.625
 31
0.0
  0
LINE
  8
0
  6
CONTINUOUS
 62
     2
 10
206.0
 20
123.25
 30
0.0
 11
206.0
 21
124.15
 31
0.0
  0
LINE
  8
0
  6
CONTINUOUS
 62
     2
 10
206.75
 20
123.625
 30
0.0
 11
206.75
 21
124.15
 31
0.0
  0
LINE
  8
0
  6
LTYPE1
 62
     2
 10
153.0
 20
141.0
 30
0.0
 11
209.0
 21
141.0
 31
0.0
  0
TEXT
  8
0
  6
CONTINUOUS
 62
     2
 10
214.0
 20
132.52
 30
0.18
 40
1.8
  1
±０．５
 50
90.0
 41
0.6
 51
0.0
  7
KANJI0
  0
TEXT
  8
0
  6
CONTINUOUS
 62
     2
 10
214.0
 20
148.52
 30
0.18
 40
1.8
  1
±０．５
 50
90.0
 41
0.6
 51
0.0
  7
KANJI0
  0
TEXT
  8
0
  6
CONTINUOUS
 62
     2
 10
214.0
 20
128.62
 30
0.3
 40
3.0
  1
３２
 50
90.0
 41
0.6
 51
0.0
  7
KANJI1
  0
TEXT
  8
0
  6
CONTINUOUS
 62
     2
 10
214.0
 20
144.62
 30
0.3
 40
3.0
  1
３２
 50
90.0
 41
0.6
 51
0.0
  7
KANJI1
  0
CIRCLE
  8
0
  6
CONTINUOUS
 62
     2
 10
169.0
 20
125.0
 30
0.0
 40
2.0
  0
CIRCLE
  8
0
  6
CONTINUOUS
 62
     2
 10
169.0
 20
125.0
 30
0.0
 40
0.75
  0
LINE
  8
0
  6
CONTINUOUS
 62
     2
 10
169.0
 20
126.6
 30
0.0
 11
167.614359354
 21
125.8
 31
0.0
  0
LINE
  8
0
  6
CONTINUOUS
 62
     2
 10
167.614359354
 20
125.8
 30
0.0
 11
167.614359354
 21
124.2
 31
0.0
  0
LINE
  8
0
  6
CONTINUOUS
 62
     2
 10
167.614359354
 20
124.2
 30
0.0
 11
169.0
 21
123.4
 31
0.0
  0
LINE
  8
0
  6
CONTINUOUS
 62
     2
 10
169.0
 20
123.4
 30
0.0
 11
170.385640646
 21
124.2
 31
0.0
  0
LINE
  8
0
  6
CONTINUOUS
 62
     2
 10
170.385640646
 20
124.2
 30
0.0
 11
170.385640646
 21
125.8
 31
0.0
  0
LINE
  8
0
  6
CONTINUOUS
 62
     2
 10
170.385640646
 20
125.8
 30
0.0
 11
169.0
 21
126.6
 31
0.0
  0
LINE
  8
0
  6
LTYPE1
 62
     2
 10
166.0
 20
125.0
 30
0.0
 11
172.0
 21
125.0
 31
0.0
  0
LINE
  8
0
  6
LTYPE1
 62
     2
 10
169.0
 20
128.0
 30
0.0
 11
169.0
 21
122.0
 31
0.0
  0
CIRCLE
  8
0
  6
CONTINUOUS
 62
     2
 10
169.0
 20
157.0
 30
0.0
 40
2.0
  0
CIRCLE
  8
0
  6
CONTINUOUS
 62
     2
 10
169.0
 20
157.0
 30
0.0
 40
0.75
  0
LINE
  8
0
  6
CONTINUOUS
 62
     2
 10
169.0
 20
158.6
 30
0.0
 11
167.614359354
 21
157.8
 31
0.0
  0
LINE
  8
0
  6
CONTINUOUS
 62
     2
 10
167.614359354
 20
157.8
 30
0.0
 11
167.614359354
 21
156.2
 31
0.0
  0
LINE
  8
0
  6
CONTINUOUS
 62
     2
 10
167.614359354
 20
156.2
 30
0.0
 11
169.0
 21
155.4
 31
0.0
  0
LINE
  8
0
  6
CONTINUOUS
 62
     2
 10
169.0
 20
155.4
 30
0.0
 11
170.385640646
 21
156.2
 31
0.0
  0
LINE
  8
0
  6
CONTINUOUS
 62
     2
 10
170.385640646
 20
156.2
 30
0.0
 11
170.385640646
 21
157.8
 31
0.0
  0
LINE
  8
0
  6
CONTINUOUS
 62
     2
 10
170.385640646
 20
157.8
 30
0.0
 11
169.0
 21
158.6
 31
0.0
  0
LINE
  8
0
  6
LTYPE1
 62
     2
 10
166.0
 20
157.0
 30
0.0
 11
172.0
 21
157.0
 31
0.0
  0
LINE
  8
0
  6
LTYPE1
 62
     2
 10
169.0
 20
160.0
 30
0.0
 11
169.0
 21
154.0
 31
0.0
  0
CIRCLE
  8
0
  6
CONTINUOUS
 62
     2
 10
201.0
 20
157.0
 30
0.0
 40
2.0
  0
CIRCLE
  8
0
  6
CONTINUOUS
 62
     2
 10
201.0
 20
157.0
 30
0.0
 40
0.75
  0
LINE
  8
0
  6
CONTINUOUS
 62
     2
 10
201.0
 20
158.6
 30
0.0
 11
199.614359354
 21
157.8
 31
0.0
  0
LINE
  8
0
  6
CONTINUOUS
 62
     2
 10
199.614359354
 20
157.8
 30
0.0
 11
199.614359354
 21
156.2
 31
0.0
  0
LINE
  8
0
  6
CONTINUOUS
 62
     2
 10
199.614359354
 20
156.2
 30
0.0
 11
201.0
 21
155.4
 31
0.0
  0
LINE
  8
0
  6
CONTINUOUS
 62
     2
 10
201.0
 20
155.4
 30
0.0
 11
202.385640646
 21
156.2
 31
0.0
  0
LINE
  8
0
  6
CONTINUOUS
 62
     2
 10
202.385640646
 20
156.2
 30
0.0
 11
202.385640646
 21
157.8
 31
0.0
  0
LINE
  8
0
  6
CONTINUOUS
 62
     2
 10
202.385640646
 20
157.8
 30
0.0
 11
201.0
 21
158.6
 31
0.0
  0
LINE
  8
0
  6
LTYPE1
 62
     2
 10
198.0
 20
157.0
 30
0.0
 11
204.0
 21
157.0
 31
0.0
  0
LINE
  8
0
  6
LTYPE1
 62
     2
 10
201.0
 20
160.0
 30
0.0
 11
201.0
 21
154.0
 31
0.0
  0
CIRCLE
  8
0
  6
CONTINUOUS
 62
     2
 10
201.0
 20
125.0
 30
0.0
 40
2.0
  0
CIRCLE
  8
0
  6
CONTINUOUS
 62
     2
 10
201.0
 20
125.0
 30
0.0
 40
0.75
  0
LINE
  8
0
  6
CONTINUOUS
 62
     2
 10
201.0
 20
126.6
 30
0.0
 11
199.614359354
 21
125.8
 31
0.0
  0
LINE
  8
0
  6
CONTINUOUS
 62
     2
 10
199.614359354
 20
125.8
 30
0.0
 11
199.614359354
 21
124.2
 31
0.0
  0
LINE
  8
0
  6
CONTINUOUS
 62
     2
 10
199.614359354
 20
124.2
 30
0.0
 11
201.0
 21
123.4
 31
0.0
  0
LINE
  8
0
  6
CONTINUOUS
 62
     2
 10
201.0
 20
123.4
 30
0.0
 11
202.385640646
 21
124.2
 31
0.0
  0
LINE
  8
0
  6
CONTINUOUS
 62
     2
 10
202.385640646
 20
124.2
 30
0.0
 11
202.385640646
 21
125.8
 31
0.0
  0
LINE
  8
0
  6
CONTINUOUS
 62
     2
 10
202.385640646
 20
125.8
 30
0.0
 11
201.0
 21
126.6
 31
0.0
  0
LINE
  8
0
  6
LTYPE1
 62
     2
 10
198.0
 20
125.0
 30
0.0
 11
204.0
 21
125.0
 31
0.0
  0
LINE
  8
0
  6
LTYPE1
 62
     2
 10
201.0
 20
128.0
 30
0.0
 11
201.0
 21
122.0
 31
0.0
  0
LINE
  8
0
  6
LTYPE1
 62
     2
 10
152.95
 20
142.0
 30
0.0
 11
204.6
 21
142.0
 31
0.0
  0
LINE
  8
0
  6
CONTINUOUS
 62
     2
 10
79.0
 20
137.25
 30
0.0
 11
79.15
 21
137.25
 31
0.0
  0
LINE
  8
0
  6
CONTINUOUS
 62
     2
 10
79.15
 20
137.25
 30
0.0
 11
79.15
 21
123.25
 31
0.0
  0
LINE
  8
0
  6
CONTINUOUS
 62
     2
 10
79.15
 20
123.25
 30
0.0
 11
85.0
 21
122.25
 31
0.0
  0
ARC
  8
0
  6
CONTINUOUS
 62
     2
 10
85.9
 20
127.75
 30
0.0
 40
7.0
 50
165.068582822
 51
194.931417178
  0
LINE
  8
0
  6
CONTINUOUS
 62
     2
 10
133.0
 20
157.0
 30
0.0
 11
133.0
 21
125.0
 31
0.0
  0
LINE
  8
0
  6
CONTINUOUS
 62
     2
 10
134.781008684
 20
125.222626085
 30
0.0
 11
133.0
 21
125.0
 31
0.0
  0
ARC
  8
0
  6
CONTINUOUS
 62
     2
 10
134.75
 20
125.470695555
 30
0.0
 40
0.25
 50
277.125016349
 51
0.0
  0
LINE
  8
0
  6
CONTINUOUS
 62
     2
 10
133.0
 20
157.0
 30
0.0
 11
134.781008684
 21
156.777373915
 31
0.0
  0
ARC
  8
0
  6
CONTINUOUS
 62
     2
 10
134.75
 20
156.529304445
 30
0.0
 40
0.25
 50
0.0
 51
82.874983651
  0
LINE
  8
0
  6
CONTINUOUS
 62
     2
 10
134.0
 20
142.575
 30
0.0
 11
134.0
 21
139.425
 31
0.0
  0
LINE
  8
0
  6
CONTINUOUS
 62
     2
 10
134.75
 20
142.575
 30
0.0
 11
134.0
 21
142.575
 31
0.0
  0
LINE
  8
0
  6
CONTINUOUS
 62
     2
 10
135.0
 20
156.529304445
 30
0.0
 11
135.0
 21
142.825
 31
0.0
  0
ARC
  8
0
  6
CONTINUOUS
 62
     2
 10
134.75
 20
142.825
 30
0.0
 40
0.25
 50
270.0
 51
360.0
  0
LINE
  8
0
  6
CONTINUOUS
 62
     2
 10
134.0
 20
139.425
 30
0.0
 11
134.75
 21
139.425
 31
0.0
  0
LINE
  8
0
  6
CONTINUOUS
 62
     2
 10
135.0
 20
139.175
 30
0.0
 11
135.0
 21
125.470695555
 31
0.0
  0
ARC
  8
0
  6
CONTINUOUS
 62
     2
 10
134.75
 20
139.175
 30
0.0
 40
0.25
 50
0.0
 51
90.0
  0
LINE
  8
0
  6
CONTINUOUS
 62
     2
 10
135.0
 20
142.825
 30
0.0
 11
135.0
 21
139.175
 31
0.0
  0
LINE
  8
0
  6
LTYPE1
 62
     2
 10
77.15
 20
134.5
 30
0.0
 11
81.15
 21
134.5
 31
0.0
  0
LINE
  8
0
  6
LTYPE1
 62
     2
 10
77.15
 20
127.75
 30
0.0
 11
81.15
 21
127.75
 31
0.0
  0
LINE
  8
0
  6
CONTINUOUS
 62
     2
 10
134.0
 20
142.25
 30
0.0
 11
134.0
 21
139.75
 31
0.0
  0
LINE
  8
0
  6
CONTINUOUS
 62
     2
 10
134.0
 20
142.25
 30
0.0
 11
134.0
 21
142.375
 31
0.0
  0
LINE
  8
0
  6
CONTINUOUS
 62
     2
 10
134.0
 20
142.375
 30
0.0
 11
134.544766293
 21
142.375
 31
0.0
  0
ARC
  8
0
  6
CONTINUOUS
 62
     2
 10
134.381682295
 20
141.902344089
 30
0.0
 40
0.5
 50
34.773912785
 51
70.963647363
  0
LINE
  8
0
  6
CONTINUOUS
 62
     2
 10
134.0
 20
139.75
 30
0.0
 11
134.0
 21
139.625
 31
0.0
  0
LINE
  8
0
  6
CONTINUOUS
 62
     2
 10
134.0
 20
139.625
 30
0.0
 11
134.544766293
 21
139.625
 31
0.0
  0
ARC
  8
0
  6
CONTINUOUS
 62
     2
 10
134.381682295
 20
140.097655911
 30
0.0
 40
0.5
 50
289.036352637
 51
325.226087215
  0
LINE
  8
0
  6
CONTINUOUS
 62
     2
 10
135.0
 20
141.2
 30
0.0
 11
134.45
 21
141.2
 31
0.0
  0
LINE
  8
0
  6
CONTINUOUS
 62
     2
 10
134.45
 20
141.2
 30
0.0
 11
134.45
 21
140.8
 31
0.0
  0
LINE
  8
0
  6
CONTINUOUS
 62
     2
 10
134.45
 20
140.8
 30
0.0
 11
135.0
 21
140.8
 31
0.0
  0
ARC
  8
0
  6
CONTINUOUS
 62
     2
 10
131.5
 20
141.0
 30
0.0
 40
3.5
 50
3.270487923
 51
19.833603907
  0
ARC
  8
0
  6
CONTINUOUS
 62
     2
 10
131.5
 20
141.0
 30
0.0
 40
3.5
 50
340.166396093
 51
356.729512077
  0
LINE
  8
0
  6
LTYPE1
 62
     2
 10
138.75
 20
141.0
 30
0.0
 11
135.25
 21
141.0
 31
0.0
  0
LINE
  8
0
  6
LTYPE1
 62
     2
 10
84.2
 20
157.0
 30
0.0
 11
91.6
 21
157.0
 31
0.0
  0
LINE
  8
0
  6
CONTINUOUS
 62
     2
 10
85.0
 20
158.95
 30
0.0
 11
85.25
 21
158.95
 31
0.0
  0
LINE
  8
0
  6
CONTINUOUS
 62
     2
 10
85.25
 20
154.95
 30
0.0
 11
85.0
 21
154.95
 31
0.0
  0
LINE
  8
0
  6
CONTINUOUS
 62
     2
 10
85.25
 20
158.95
 30
0.0
 11
85.25
 21
154.95
 31
0.0
  0
LINE
  8
0
  6
CONTINUOUS
 62
     2
 10
87.6
 20
158.525
 30
0.0
 11
87.8
 21
158.325
 31
0.0
  0
LINE
  8
0
  6
CONTINUOUS
 62
     2
 10
87.575
 20
157.7
 30
0.0
 11
87.775
 21
157.9
 31
0.0
  0
LINE
  8
0
  6
CONTINUOUS
 62
     2
 10
87.775
 20
157.5
 30
0.0
 11
87.575
 21
157.7
 31
0.0
  0
LINE
  8
0
  6
CONTINUOUS
 62
     2
 10
86.6
 20
158.525
 30
0.0
 11
87.6
 21
158.525
 31
0.0
  0
LINE
  8
0
  6
CONTINUOUS
 62
     2
 10
86.6
 20
157.7
 30
0.0
 11
87.575
 21
157.7
 31
0.0
  0
LINE
  8
0
  6
CONTINUOUS
 62
     2
 10
87.6
 20
155.425
 30
0.0
 11
87.8
 21
155.625
 31
0.0
  0
LINE
  8
0
  6
CONTINUOUS
 62
     2
 10
87.6
 20
155.425
 30
0.0
 11
86.6
 21
155.425
 31
0.0
  0
LINE
  8
0
  6
CONTINUOUS
 62
     2
 10
86.6
 20
155.425
 30
0.0
 11
86.6
 21
158.525
 31
0.0
  0
LINE
  8
0
  6
CONTINUOUS
 62
     2
 10
87.8
 20
158.325
 30
0.0
 11
87.8
 21
155.625
 31
0.0
  0
LINE
  8
0
  6
CONTINUOUS
 62
     2
 10
87.8
 20
157.725
 30
0.0
 11
90.25
 21
157.725
 31
0.0
  0
LINE
  8
0
  6
CONTINUOUS
 62
     2
 10
90.23
 20
157.55
 30
0.0
 11
87.8
 21
157.55
 31
0.0
  0
LINE
  8
0
  6
CONTINUOUS
 62
     2
 10
86.6
 20
158.525
 30
0.0
 11
86.3
 21
158.825
 31
0.0
  0
LINE
  8
0
  6
CONTINUOUS
 62
     2
 10
86.3
 20
158.825
 30
0.0
 11
86.3
 21
155.125
 31
0.0
  0
LINE
  8
0
  6
CONTINUOUS
 62
     2
 10
86.6
 20
155.425
 30
0.0
 11
86.3
 21
155.125
 31
0.0
  0
LINE
  8
0
  6
CONTINUOUS
 62
     2
 10
86.3
 20
156.45
 30
0.0
 11
85.25
 21
156.45
 31
0.0
  0
LINE
  8
0
  6
CONTINUOUS
 62
     2
 10
85.25
 20
157.7
 30
0.0
 11
86.3
 21
157.7
 31
0.0
  0
LINE
  8
0
  6
CONTINUOUS
 62
     2
 10
86.3
 20
157.55
 30
0.0
 11
85.25
 21
157.55
 31
0.0
  0
LINE
  8
0
  6
CONTINUOUS
 62
     2
 10
90.25
 20
157.725
 30
0.0
 11
90.25
 21
156.275
 31
0.0
  0
LINE
  8
0
  6
CONTINUOUS
 62
     2
 10
90.25
 20
156.275
 30
0.0
 11
87.8
 21
156.275
 31
0.0
  0
LINE
  8
0
  6
CONTINUOUS
 62
     2
 10
87.8
 20
156.45
 30
0.0
 11
90.25
 21
156.45
 31
0.0
  0
LINE
  8
0
  6
CONTINUOUS
 62
     2
 10
87.585
 20
156.275
 30
0.0
 11
86.6
 21
156.275
 31
0.0
  0
LINE
  8
0
  6
CONTINUOUS
 62
     2
 10
85.25
 20
156.275
 30
0.0
 11
86.3
 21
156.275
 31
0.0
  0
LINE
  8
0
  6
CONTINUOUS
 62
     2
 10
87.585
 20
156.275
 30
0.0
 11
87.785
 21
156.475
 31
0.0
  0
LINE
  8
0
  6
CONTINUOUS
 62
     2
 10
87.785
 20
156.075
 30
0.0
 11
87.585
 21
156.275
 31
0.0
  0
LINE
  8
0
  6
CONTINUOUS
 62
     2
 10
90.25
 20
157.22265625
 30
0.0
 11
133.0
 21
157.0
 31
0.0
  0
LINE
  8
0
  6
LTYPE1
 62
     2
 10
84.2
 20
125.0
 30
0.0
 11
91.6
 21
125.0
 31
0.0
  0
LINE
  8
0
  6
CONTINUOUS
 62
     2
 10
85.0
 20
126.95
 30
0.0
 11
85.25
 21
126.95
 31
0.0
  0
LINE
  8
0
  6
CONTINUOUS
 62
     2
 10
85.25
 20
122.95
 30
0.0
 11
85.0
 21
122.95
 31
0.0
  0
LINE
  8
0
  6
CONTINUOUS
 62
     2
 10
85.25
 20
126.95
 30
0.0
 11
85.25
 21
122.95
 31
0.0
  0
LINE
  8
0
  6
CONTINUOUS
 62
     2
 10
87.6
 20
126.525
 30
0.0
 11
87.8
 21
126.325
 31
0.0
  0
LINE
  8
0
  6
CONTINUOUS
 62
     2
 10
87.575
 20
125.7
 30
0.0
 11
87.775
 21
125.9
 31
0.0
  0
LINE
  8
0
  6
CONTINUOUS
 62
     2
 10
87.775
 20
125.5
 30
0.0
 11
87.575
 21
125.7
 31
0.0
  0
LINE
  8
0
  6
CONTINUOUS
 62
     2
 10
86.6
 20
126.525
 30
0.0
 11
87.6
 21
126.525
 31
0.0
  0
LINE
  8
0
  6
CONTINUOUS
 62
     2
 10
86.6
 20
125.7
 30
0.0
 11
87.575
 21
125.7
 31
0.0
  0
LINE
  8
0
  6
CONTINUOUS
 62
     2
 10
87.6
 20
123.425
 30
0.0
 11
87.8
 21
123.625
 31
0.0
  0
LINE
  8
0
  6
CONTINUOUS
 62
     2
 10
87.6
 20
123.425
 30
0.0
 11
86.6
 21
123.425
 31
0.0
  0
LINE
  8
0
  6
CONTINUOUS
 62
     2
 10
86.6
 20
123.425
 30
0.0
 11
86.6
 21
126.525
 31
0.0
  0
LINE
  8
0
  6
CONTINUOUS
 62
     2
 10
87.8
 20
126.325
 30
0.0
 11
87.8
 21
123.625
 31
0.0
  0
LINE
  8
0
  6
CONTINUOUS
 62
     2
 10
87.8
 20
125.725
 30
0.0
 11
90.25
 21
125.725
 31
0.0
  0
LINE
  8
0
  6
CONTINUOUS
 62
     2
 10
90.23
 20
125.55
 30
0.0
 11
87.8
 21
125.55
 31
0.0
  0
LINE
  8
0
  6
CONTINUOUS
 62
     2
 10
86.6
 20
126.525
 30
0.0
 11
86.3
 21
126.825
 31
0.0
  0
LINE
  8
0
  6
CONTINUOUS
 62
     2
 10
86.3
 20
126.825
 30
0.0
 11
86.3
 21
123.125
 31
0.0
  0
LINE
  8
0
  6
CONTINUOUS
 62
     2
 10
86.6
 20
123.425
 30
0.0
 11
86.3
 21
123.125
 31
0.0
  0
LINE
  8
0
  6
CONTINUOUS
 62
     2
 10
86.3
 20
124.45
 30
0.0
 11
85.25
 21
124.45
 31
0.0
  0
LINE
  8
0
  6
CONTINUOUS
 62
     2
 10
85.25
 20
125.7
 30
0.0
 11
86.3
 21
125.7
 31
0.0
  0
LINE
  8
0
  6
CONTINUOUS
 62
     2
 10
86.3
 20
125.55
 30
0.0
 11
85.25
 21
125.55
 31
0.0
  0
LINE
  8
0
  6
CONTINUOUS
 62
     2
 10
90.25
 20
125.725
 30
0.0
 11
90.25
 21
124.275
 31
0.0
  0
LINE
  8
0
  6
CONTINUOUS
 62
     2
 10
90.25
 20
124.275
 30
0.0
 11
87.8
 21
124.275
 31
0.0
  0
LINE
  8
0
  6
CONTINUOUS
 62
     2
 10
87.8
 20
124.45
 30
0.0
 11
90.25
 21
124.45
 31
0.0
  0
LINE
  8
0
  6
CONTINUOUS
 62
     2
 10
87.585
 20
124.275
 30
0.0
 11
86.6
 21
124.275
 31
0.0
  0
LINE
  8
0
  6
CONTINUOUS
 62
     2
 10
85.25
 20
124.275
 30
0.0
 11
86.3
 21
124.275
 31
0.0
  0
LINE
  8
0
  6
CONTINUOUS
 62
     2
 10
87.585
 20
124.275
 30
0.0
 11
87.785
 21
124.475
 31
0.0
  0
LINE
  8
0
  6
CONTINUOUS
 62
     2
 10
87.785
 20
124.075
 30
0.0
 11
87.585
 21
124.275
 31
0.0
  0
LINE
  8
0
  6
CONTINUOUS
 62
     2
 10
133.0
 20
125.0
 30
0.0
 11
90.25
 21
124.77734375
 31
0.0
  0
TEXT
  8
0
  6
CONTINUOUS
 62
     2
 10
85.8
 20
169.75
 30
0.3
 40
3.0
  1
１０
 50
0.0
 41
0.6
 51
0.0
  7
KANJI1
  0
TEXT
  8
0
  6
CONTINUOUS
 62
     2
 10
80.05
 20
174.75
 30
0.3
 40
3.0
  1
１２
 50
0.0
 41
0.6
 51
0.0
  7
KANJI1
  0
TEXT
  8
0
  6
CONTINUOUS
 62
     2
 10
107.0
 20
174.75
 30
0.3
 40
3.0
  1
１００
 50
0.0
 41
0.6
 51
0.0
  7
KANJI1
  0
LINE
  8
0
  6
CONTINUOUS
 62
     2
 10
75.0
 20
134.25
 30
0.0
 11
75.0
 21
129.75
 31
0.0
  0
LINE
  8
0
  6
CONTINUOUS
 62
     2
 10
78.25
 20
134.5
 30
0.0
 11
78.25
 21
129.5
 31
0.0
  0
LINE
  8
0
  6
CONTINUOUS
 62
     2
 10
78.25
 20
129.5
 30
0.0
 11
75.0
 21
129.75
 31
0.0
  0
LINE
  8
0
  6
CONTINUOUS
 62
     2
 10
75.0
 20
134.25
 30
0.0
 11
78.25
 21
134.5
 31
0.0
  0
LINE
  8
0
  6
CONTINUOUS
 62
     2
 10
78.25
 20
134.5
 30
0.0
 11
78.5
 21
134.25
 31
0.0
  0
LINE
  8
0
  6
CONTINUOUS
 62
     2
 10
78.5
 20
134.25
 30
0.0
 11
78.5
 21
129.75
 31
0.0
  0
LINE
  8
0
  6
CONTINUOUS
 62
     2
 10
78.5
 20
129.75
 30
0.0
 11
78.25
 21
129.5
 31
0.0
  0
LINE
  8
0
  6
CONTINUOUS
 62
     2
 10
77.5
 20
131.597367041
 30
0.0
 11
75.0
 21
131.662360369
 31
0.0
  0
LINE
  8
0
  6
CONTINUOUS
 62
     2
 10
77.5
 20
131.115008209
 30
0.0
 11
75.0
 21
131.180143345
 31
0.0
  0
LINE
  8
0
  6
CONTINUOUS
 62
     2
 10
77.5
 20
130.417627468
 30
0.0
 11
75.0
 21
130.595334351
 31
0.0
  0
LINE
  8
0
  6
CONTINUOUS
 62
     2
 10
77.5
 20
130.064516296
 30
0.0
 11
75.0
 21
130.242326989
 31
0.0
  0
LINE
  8
0
  6
CONTINUOUS
 62
     2
 10
77.5
 20
129.661883337
 30
0.0
 11
75.0
 21
129.904687358
 31
0.0
  0
POLYLINE
  8
0
  6
CONTINUOUS
 62
     2
 66
     1
  0
VERTEX
  8
0
  6
CONTINUOUS
 62
     2
 10
77.5
 20
131.115008209
 30
0.0
 42
0.02103597
  0
VERTEX
  8
0
  6
CONTINUOUS
 62
     2
 10
77.521788936
 20
131.115925287
 30
0.0
 42
0.021055715
  0
VERTEX
  8
0
  6
CONTINUOUS
 62
     2
 10
77.543412044
 20
131.118669541
 30
0.0
 42
0.021097556
  0
VERTEX
  8
0
  6
CONTINUOUS
 62
     2
 10
77.564704761
 20
131.123220085
 30
0.0
 42
0.021160478
  0
VERTEX
  8
0
  6
CONTINUOUS
 62
     2
 10
77.585505036
 20
131.129542288
 30
0.0
 42
0.021242925
  0
VERTEX
  8
0
  6
CONTINUOUS
 62
     2
 10
77.605654565
 20
131.137588033
 30
0.0
 42
0.02134281
  0
VERTEX
  8
0
  6
CONTINUOUS
 62
     2
 10
77.625
 20
131.147296087
 30
0.0
 42
0.021457536
  0
VERTEX
  8
0
  6
CONTINUOUS
 62
     2
 10
77.643394109
 20
131.158592567
 30
0.0
 42
0.021584022
  0
VERTEX
  8
0
  6
CONTINUOUS
 62
     2
 10
77.660696902
 20
131.171391499
 30
0.0
 42
0.021718748
  0
VERTEX
  8
0
  6
CONTINUOUS
 62
     2
 10
77.676776695
 20
131.185595475
 30
0.0
 42
0.021857823
  0
VERTEX
  8
0
  6
CONTINUOUS
 62
     2
 10
77.691511111
 20
131.201096396
 30
0.0
 42
0.021997074
  0
VERTEX
  8
0
  6
CONTINUOUS
 62
     2
 10
77.704788011
 20
131.217776288
 30
0.0
 42
0.022132162
  0
VERTEX
  8
0
  6
CONTINUOUS
 62
     2
 10
77.716506351
 20
131.235508209
 30
0.0
 42
0.022258722
  0
VERTEX
  8
0
  6
CONTINUOUS
 62
     2
 10
77.726576947
 20
131.254157208
 30
0.0
 42
0.022372526
  0
VERTEX
  8
0
  6
CONTINUOUS
 62
     2
 10
77.734923155
 20
131.273581355
 30
0.0
 42
0.022469651
  0
VERTEX
  8
0
  6
CONTINUOUS
 62
     2
 10
77.741481457
 20
131.29363282
 30
0.0
 42
0.022546665
  0
VERTEX
  8
0
  6
CONTINUOUS
 62
     2
 10
77.746201938
 20
131.314158999
 30
0.0
 42
0.022600784
  0
VERTEX
  8
0
  6
CONTINUOUS
 62
     2
 10
77.749048675
 20
131.335003675
 30
0.0
 42
0.022630022
  0
VERTEX
  8
0
  6
CONTINUOUS
 62
     2
 10
77.75
 20
131.356008209
 30
0.0
 42
0.022633296
  0
VERTEX
  8
0
  6
CONTINUOUS
 62
     2
 10
77.749048675
 20
131.377012743
 30
0.0
 42
0.022610484
  0
VERTEX
  8
0
  6
CONTINUOUS
 62
     2
 10
77.746201938
 20
131.39785742
 30
0.0
 42
0.022562433
  0
VERTEX
  8
0
  6
CONTINUOUS
 62
     2
 10
77.741481457
 20
131.418383599
 30
0.0
 42
0.022490911
  0
VERTEX
  8
0
  6
CONTINUOUS
 62
     2
 10
77.734923155
 20
131.438435064
 30
0.0
 42
0.022398514
  0
VERTEX
  8
0
  6
CONTINUOUS
 62
     2
 10
77.726576947
 20
131.457859211
 30
0.0
 42
0.022288529
  0
VERTEX
  8
0
  6
CONTINUOUS
 62
     2
 10
77.716506351
 20
131.476508209
 30
0.0
 42
0.02216477
  0
VERTEX
  8
0
  6
CONTINUOUS
 62
     2
 10
77.704788011
 20
131.494240131
 30
0.0
 42
0.022031407
  0
VERTEX
  8
0
  6
CONTINUOUS
 62
     2
 10
77.691511111
 20
131.510920023
 30
0.0
 42
0.021892787
  0
VERTEX
  8
0
  6
CONTINUOUS
 62
     2
 10
77.676776695
 20
131.526420944
 30
0.0
 42
0.021753268
  0
VERTEX
  8
0
  6
CONTINUOUS
 62
     2
 10
77.660696902
 20
131.54062492
 30
0.0
 42
0.021617077
  0
VERTEX
  8
0
  6
CONTINUOUS
 62
     2
 10
77.643394109
 20
131.553423852
 30
0.0
 42
0.021488186
  0
VERTEX
  8
0
  6
CONTINUOUS
 62
     2
 10
77.625
 20
131.564720332
 30
0.0
 42
0.021370213
  0
VERTEX
  8
0
  6
CONTINUOUS
 62
     2
 10
77.605654565
 20
131.574428386
 30
0.0
 42
0.021266354
  0
VERTEX
  8
0
  6
CONTINUOUS
 62
     2
 10
77.585505036
 20
131.582474131
 30
0.0
 42
0.021179332
  0
VERTEX
  8
0
  6
CONTINUOUS
 62
     2
 10
77.564704761
 20
131.588796334
 30
0.0
 42
0.021111362
  0
VERTEX
  8
0
  6
CONTINUOUS
 62
     2
 10
77.543412044
 20
131.593346878
 30
0.0
 42
0.021064134
  0
VERTEX
  8
0
  6
CONTINUOUS
 62
     2
 10
77.521788936
 20
131.596091132
 30
0.0
 42
0.0210388
  0
VERTEX
  8
0
  6
CONTINUOUS
 62
     2
 10
77.5
 20
131.597008209
 30
0.0
  0
SEQEND
  8
0
  6
CONTINUOUS
 62
     2
  0
POLYLINE
  8
0
  6
CONTINUOUS
 62
     2
 66
     1
  0
VERTEX
  8
0
  6
CONTINUOUS
 62
     2
 10
77.5
 20
130.064516296
 30
0.0
 42
0.015412332
  0
VERTEX
  8
0
  6
CONTINUOUS
 62
     2
 10
77.521788936
 20
130.065187931
 30
0.0
 42
0.015515584
  0
VERTEX
  8
0
  6
CONTINUOUS
 62
     2
 10
77.543412044
 20
130.067197727
 30
0.0
 42
0.015738372
  0
VERTEX
  8
0
  6
CONTINUOUS
 62
     2
 10
77.564704761
 20
130.070530387
 30
0.0
 42
0.016083955
  0
VERTEX
  8
0
  6
CONTINUOUS
 62
     2
 10
77.585505036
 20
130.075160548
 30
0.0
 42
0.016557065
  0
VERTEX
  8
0
  6
CONTINUOUS
 62
     2
 10
77.605654565
 20
130.081052971
 30
0.0
 42
0.017163493
  0
VERTEX
  8
0
  6
CONTINUOUS
 62
     2
 10
77.625
 20
130.088162812
 30
0.0
 42
0.017909379
  0
VERTEX
  8
0
  6
CONTINUOUS
 62
     2
 10
77.643394109
 20
130.09643596
 30
0.0
 42
0.018800064
  0
VERTEX
  8
0
  6
CONTINUOUS
 62
     2
 10
77.660696902
 20
130.105809451
 30
0.0
 42
0.019838316
  0
VERTEX
  8
0
  6
CONTINUOUS
 62
     2
 10
77.676776695
 20
130.116211949
 30
0.0
 42
0.021021724
  0
VERTEX
  8
0
  6
CONTINUOUS
 62
     2
 10
77.691511111
 20
130.127564283
 30
0.0
 42
0.022339115
  0
VERTEX
  8
0
  6
CONTINUOUS
 62
     2
 10
77.704788011
 20
130.139780055
 30
0.0
 42
0.023766055
  0
VERTEX
  8
0
  6
CONTINUOUS
 62
     2
 10
77.716506351
 20
130.152766296
 30
0.0
 42
0.025259945
  0
VERTEX
  8
0
  6
CONTINUOUS
 62
     2
 10
77.726576947
 20
130.166424172
 30
0.0
 42
0.026756003
  0
VERTEX
  8
0
  6
CONTINUOUS
 62
     2
 10
77.734923155
 20
130.18064974
 30
0.0
 42
0.028166363
  0
VERTEX
  8
0
  6
CONTINUOUS
 62
     2
 10
77.741481457
 20
130.195334734
 30
0.0
 42
0.029385072
  0
VERTEX
  8
0
  6
CONTINUOUS
 62
     2
 10
77.746201938
 20
130.210367392
 30
0.0
 42
0.030301045
  0
VERTEX
  8
0
  6
CONTINUOUS
 62
     2
 10
77.749048675
 20
130.225633307
 30
0.0
 42
0.030818133
  0
VERTEX
  8
0
  6
CONTINUOUS
 62
     2
 10
77.75
 20
130.241016296
 30
0.0
 42
0.030877053
  0
VERTEX
  8
0
  6
CONTINUOUS
 62
     2
 10
77.749048675
 20
130.256399284
 30
0.0
 42
0.030470815
  0
VERTEX
  8
0
  6
CONTINUOUS
 62
     2
 10
77.746201938
 20
130.271665199
 30
0.0
 42
0.029646632
  0
VERTEX
  8
0
  6
CONTINUOUS
 62
     2
 10
77.741481457
 20
130.286697857
 30
0.0
 42
0.028493394
  0
VERTEX
  8
0
  6
CONTINUOUS
 62
     2
 10
77.734923155
 20
130.301382851
 30
0.0
 42
0.027120527
  0
VERTEX
  8
0
  6
CONTINUOUS
 62
     2
 10
77.726576947
 20
130.315608419
 30
0.0
 42
0.025636807
  0
VERTEX
  8
0
  6
CONTINUOUS
 62
     2
 10
77.716506351
 20
130.329266296
 30
0.0
 42
0.02413538
  0
VERTEX
  8
0
  6
CONTINUOUS
 62
     2
 10
77.704788011
 20
130.342252537
 30
0.0
 42
0.022686896
  0
VERTEX
  8
0
  6
CONTINUOUS
 62
     2
 10
77.691511111
 20
130.354468309
 30
0.0
 42
0.021339201
  0
VERTEX
  8
0
  6
CONTINUOUS
 62
     2
 10
77.676776695
 20
130.365820643
 30
0.0
 42
0.020120814
  0
VERTEX
  8
0
  6
CONTINUOUS
 62
     2
 10
77.660696902
 20
130.37622314
 30
0.0
 42
0.019045774
  0
VERTEX
  8
0
  6
CONTINUOUS
 62
     2
 10
77.643394109
 20
130.385596631
 30
0.0
 42
0.018118306
  0
VERTEX
  8
0
  6
CONTINUOUS
 62
     2
 10
77.625
 20
130.393869779
 30
0.0
 42
0.017336657
  0
VERTEX
  8
0
  6
CONTINUOUS
 62
     2
 10
77.605654565
 20
130.40097962
 30
0.0
 42
0.016695933
  0
VERTEX
  8
0
  6
CONTINUOUS
 62
     2
 10
77.585505036
 20
130.406872043
 30
0.0
 42
0.016190065
  0
VERTEX
  8
0
  6
CONTINUOUS
 62
     2
 10
77.564704761
 20
130.411502204
 30
0.0
 42
0.015813094
  0
VERTEX
  8
0
  6
CONTINUOUS
 62
     2
 10
77.543412044
 20
130.414834864
 30
0.0
 42
0.015559975
  0
VERTEX
  8
0
  6
CONTINUOUS
 62
     2
 10
77.521788936
 20
130.41684466
 30
0.0
 42
0.015427054
  0
VERTEX
  8
0
  6
CONTINUOUS
 62
     2
 10
77.5
 20
130.417516296
 30
0.0
  0
SEQEND
  8
0
  6
CONTINUOUS
 62
     2
  0
POLYLINE
  8
0
  6
CONTINUOUS
 62
     2
 66
     1
  0
VERTEX
  8
0
  6
CONTINUOUS
 62
     2
 10
77.74583255
 20
129.538782112
 30
0.0
 42
0.047646099
  0
VERTEX
  8
0
  6
CONTINUOUS
 62
     2
 10
77.748868835
 20
129.547810201
 30
0.0
 42
0.05177306
  0
VERTEX
  8
0
  6
CONTINUOUS
 62
     2
 10
77.749993003
 20
129.556914216
 30
0.0
 42
0.052570142
  0
VERTEX
  8
0
  6
CONTINUOUS
 62
     2
 10
77.749196418
 20
129.56602421
 30
0.0
 42
0.049705543
  0
VERTEX
  8
0
  6
CONTINUOUS
 62
     2
 10
77.7464852
 20
129.575070188
 30
0.0
 42
0.044306081
  0
VERTEX
  8
0
  6
CONTINUOUS
 62
     2
 10
77.741880179
 20
129.583982648
 30
0.0
 42
0.038019413
  0
VERTEX
  8
0
  6
CONTINUOUS
 62
     2
 10
77.735416738
 20
129.592693113
 30
0.0
 42
0.032051009
  0
VERTEX
  8
0
  6
CONTINUOUS
 62
     2
 10
77.727144537
 20
129.601134659
 30
0.0
 42
0.02694418
  0
VERTEX
  8
0
  6
CONTINUOUS
 62
     2
 10
77.717127132
 20
129.609242427
 30
0.0
 42
0.022799057
  0
VERTEX
  8
0
  6
CONTINUOUS
 62
     2
 10
77.705441489
 20
129.616954124
 30
0.0
 42
0.019517382
  0
VERTEX
  8
0
  6
CONTINUOUS
 62
     2
 10
77.692177393
 20
129.624210499
 30
0.0
 42
0.01694562
  0
VERTEX
  8
0
  6
CONTINUOUS
 62
     2
 10
77.677436753
 20
129.6309558
 30
0.0
 42
0.014936363
  0
VERTEX
  8
0
  6
CONTINUOUS
 62
     2
 10
77.661332827
 20
129.6371382
 30
0.0
 42
0.013367538
  0
VERTEX
  8
0
  6
CONTINUOUS
 62
     2
 10
77.643989344
 20
129.642710199
 30
0.0
 42
0.012144258
  0
VERTEX
  8
0
  6
CONTINUOUS
 62
     2
 10
77.625539557
 20
129.647628987
 30
0.0
 42
0.011194996
  0
VERTEX
  8
0
  6
CONTINUOUS
 62
     2
 10
77.606125222
 20
129.65185677
 30
0.0
 42
0.01046677
  0
VERTEX
  8
0
  6
CONTINUOUS
 62
     2
 10
77.585895502
 20
129.655361066
 30
0.0
 42
0.009920899
  0
VERTEX
  8
0
  6
CONTINUOUS
 62
     2
 10
77.565005827
 20
129.658114951
 30
0.0
 42
0.009529713
  0
VERTEX
  8
0
  6
CONTINUOUS
 62
     2
 10
77.543616698
 20
129.660097266
 30
0.0
 42
0.009274162
  0
VERTEX
  8
0
  6
CONTINUOUS
 62
     2
 10
77.521892451
 20
129.66129278
 30
0.0
 42
0.009142179
  0
VERTEX
  8
0
  6
CONTINUOUS
 62
     2
 10
77.5
 20
129.661692308
 30
0.0
  0
SEQEND
  8
0
  6
CONTINUOUS
 62
     2
  0
LINE
  8
0
  6
CONTINUOUS
 62
     2
 10
77.5
 20
132.402632959
 30
0.0
 11
75.0
 21
132.337639631
 31
0.0
  0
LINE
  8
0
  6
CONTINUOUS
 62
     2
 10
77.5
 20
132.884991791
 30
0.0
 11
75.0
 21
132.819856655
 31
0.0
  0
LINE
  8
0
  6
CONTINUOUS
 62
     2
 10
77.5
 20
133.582372532
 30
0.0
 11
75.0
 21
133.404665649
 31
0.0
  0
LINE
  8
0
  6
CONTINUOUS
 62
     2
 10
77.5
 20
133.935483704
 30
0.0
 11
75.0
 21
133.757673011
 31
0.0
  0
LINE
  8
0
  6
CONTINUOUS
 62
     2
 10
77.5
 20
134.338116663
 30
0.0
 11
75.0
 21
134.095312642
 31
0.0
  0
POLYLINE
  8
0
  6
CONTINUOUS
 62
     2
 66
     1
  0
VERTEX
  8
0
  6
CONTINUOUS
 62
     2
 10
77.5
 20
132.884991791
 30
0.0
 42
-0.02103597
  0
VERTEX
  8
0
  6
CONTINUOUS
 62
     2
 10
77.521788936
 20
132.884074713
 30
0.0
 42
-0.021055715
  0
VERTEX
  8
0
  6
CONTINUOUS
 62
     2
 10
77.543412044
 20
132.881330459
 30
0.0
 42
-0.021097556
  0
VERTEX
  8
0
  6
CONTINUOUS
 62
     2
 10
77.564704761
 20
132.876779915
 30
0.0
 42
-0.021160478
  0
VERTEX
  8
0
  6
CONTINUOUS
 62
     2
 10
77.585505036
 20
132.870457712
 30
0.0
 42
-0.021242925
  0
VERTEX
  8
0
  6
CONTINUOUS
 62
     2
 10
77.605654565
 20
132.862411967
 30
0.0
 42
-0.02134281
  0
VERTEX
  8
0
  6
CONTINUOUS
 62
     2
 10
77.625
 20
132.852703913
 30
0.0
 42
-0.021457536
  0
VERTEX
  8
0
  6
CONTINUOUS
 62
     2
 10
77.643394109
 20
132.841407433
 30
0.0
 42
-0.021584022
  0
VERTEX
  8
0
  6
CONTINUOUS
 62
     2
 10
77.660696902
 20
132.828608501
 30
0.0
 42
-0.021718748
  0
VERTEX
  8
0
  6
CONTINUOUS
 62
     2
 10
77.676776695
 20
132.814404525
 30
0.0
 42
-0.021857823
  0
VERTEX
  8
0
  6
CONTINUOUS
 62
     2
 10
77.691511111
 20
132.798903604
 30
0.0
 42
-0.021997074
  0
VERTEX
  8
0
  6
CONTINUOUS
 62
     2
 10
77.704788011
 20
132.782223712
 30
0.0
 42
-0.022132162
  0
VERTEX
  8
0
  6
CONTINUOUS
 62
     2
 10
77.716506351
 20
132.764491791
 30
0.0
 42
-0.022258722
  0
VERTEX
  8
0
  6
CONTINUOUS
 62
     2
 10
77.726576947
 20
132.745842792
 30
0.0
 42
-0.022372526
  0
VERTEX
  8
0
  6
CONTINUOUS
 62
     2
 10
77.734923155
 20
132.726418645
 30
0.0
 42
-0.022469651
  0
VERTEX
  8
0
  6
CONTINUOUS
 62
     2
 10
77.741481457
 20
132.70636718
 30
0.0
 42
-0.022546665
  0
VERTEX
  8
0
  6
CONTINUOUS
 62
     2
 10
77.746201938
 20
132.685841001
 30
0.0
 42
-0.022600784
  0
VERTEX
  8
0
  6
CONTINUOUS
 62
     2
 10
77.749048675
 20
132.664996325
 30
0.0
 42
-0.022630022
  0
VERTEX
  8
0
  6
CONTINUOUS
 62
     2
 10
77.75
 20
132.643991791
 30
0.0
 42
-0.022633296
  0
VERTEX
  8
0
  6
CONTINUOUS
 62
     2
 10
77.749048675
 20
132.622987257
 30
0.0
 42
-0.022610484
  0
VERTEX
  8
0
  6
CONTINUOUS
 62
     2
 10
77.746201938
 20
132.60214258
 30
0.0
 42
-0.022562433
  0
VERTEX
  8
0
  6
CONTINUOUS
 62
     2
 10
77.741481457
 20
132.581616401
 30
0.0
 42
-0.022490911
  0
VERTEX
  8
0
  6
CONTINUOUS
 62
     2
 10
77.734923155
 20
132.561564936
 30
0.0
 42
-0.022398514
  0
VERTEX
  8
0
  6
CONTINUOUS
 62
     2
 10
77.726576947
 20
132.542140789
 30
0.0
 42
-0.022288529
  0
VERTEX
  8
0
  6
CONTINUOUS
 62
     2
 10
77.716506351
 20
132.523491791
 30
0.0
 42
-0.02216477
  0
VERTEX
  8
0
  6
CONTINUOUS
 62
     2
 10
77.704788011
 20
132.505759869
 30
0.0
 42
-0.022031407
  0
VERTEX
  8
0
  6
CONTINUOUS
 62
     2
 10
77.691511111
 20
132.489079977
 30
0.0
 42
-0.021892787
  0
VERTEX
  8
0
  6
CONTINUOUS
 62
     2
 10
77.676776695
 20
132.473579056
 30
0.0
 42
-0.021753268
  0
VERTEX
  8
0
  6
CONTINUOUS
 62
     2
 10
77.660696902
 20
132.45937508
 30
0.0
 42
-0.021617077
  0
VERTEX
  8
0
  6
CONTINUOUS
 62
     2
 10
77.643394109
 20
132.446576148
 30
0.0
 42
-0.021488186
  0
VERTEX
  8
0
  6
CONTINUOUS
 62
     2
 10
77.625
 20
132.435279668
 30
0.0
 42
-0.021370213
  0
VERTEX
  8
0
  6
CONTINUOUS
 62
     2
 10
77.605654565
 20
132.425571614
 30
0.0
 42
-0.021266354
  0
VERTEX
  8
0
  6
CONTINUOUS
 62
     2
 10
77.585505036
 20
132.417525869
 30
0.0
 42
-0.021179332
  0
VERTEX
  8
0
  6
CONTINUOUS
 62
     2
 10
77.564704761
 20
132.411203666
 30
0.0
 42
-0.021111362
  0
VERTEX
  8
0
  6
CONTINUOUS
 62
     2
 10
77.543412044
 20
132.406653122
 30
0.0
 42
-0.021064134
  0
VERTEX
  8
0
  6
CONTINUOUS
 62
     2
 10
77.521788936
 20
132.403908868
 30
0.0
 42
-0.0210388
  0
VERTEX
  8
0
  6
CONTINUOUS
 62
     2
 10
77.5
 20
132.402991791
 30
0.0
  0
SEQEND
  8
0
  6
CONTINUOUS
 62
     2
  0
POLYLINE
  8
0
  6
CONTINUOUS
 62
     2
 66
     1
  0
VERTEX
  8
0
  6
CONTINUOUS
 62
     2
 10
77.5
 20
133.935483704
 30
0.0
 42
-0.015412332
  0
VERTEX
  8
0
  6
CONTINUOUS
 62
     2
 10
77.521788936
 20
133.934812069
 30
0.0
 42
-0.015515584
  0
VERTEX
  8
0
  6
CONTINUOUS
 62
     2
 10
77.543412044
 20
133.932802273
 30
0.0
 42
-0.015738372
  0
VERTEX
  8
0
  6
CONTINUOUS
 62
     2
 10
77.564704761
 20
133.929469613
 30
0.0
 42
-0.016083955
  0
VERTEX
  8
0
  6
CONTINUOUS
 62
     2
 10
77.585505036
 20
133.924839452
 30
0.0
 42
-0.016557065
  0
VERTEX
  8
0
  6
CONTINUOUS
 62
     2
 10
77.605654565
 20
133.918947029
 30
0.0
 42
-0.017163493
  0
VERTEX
  8
0
  6
CONTINUOUS
 62
     2
 10
77.625
 20
133.911837188
 30
0.0
 42
-0.017909379
  0
VERTEX
  8
0
  6
CONTINUOUS
 62
     2
 10
77.643394109
 20
133.90356404
 30
0.0
 42
-0.018800064
  0
VERTEX
  8
0
  6
CONTINUOUS
 62
     2
 10
77.660696902
 20
133.894190549
 30
0.0
 42
-0.019838316
  0
VERTEX
  8
0
  6
CONTINUOUS
 62
     2
 10
77.676776695
 20
133.883788051
 30
0.0
 42
-0.021021724
  0
VERTEX
  8
0
  6
CONTINUOUS
 62
     2
 10
77.691511111
 20
133.872435717
 30
0.0
 42
-0.022339115
  0
VERTEX
  8
0
  6
CONTINUOUS
 62
     2
 10
77.704788011
 20
133.860219945
 30
0.0
 42
-0.023766055
  0
VERTEX
  8
0
  6
CONTINUOUS
 62
     2
 10
77.716506351
 20
133.847233704
 30
0.0
 42
-0.025259945
  0
VERTEX
  8
0
  6
CONTINUOUS
 62
     2
 10
77.726576947
 20
133.833575828
 30
0.0
 42
-0.026756003
  0
VERTEX
  8
0
  6
CONTINUOUS
 62
     2
 10
77.734923155
 20
133.81935026
 30
0.0
 42
-0.028166363
  0
VERTEX
  8
0
  6
CONTINUOUS
 62
     2
 10
77.741481457
 20
133.804665266
 30
0.0
 42
-0.029385072
  0
VERTEX
  8
0
  6
CONTINUOUS
 62
     2
 10
77.746201938
 20
133.789632608
 30
0.0
 42
-0.030301045
  0
VERTEX
  8
0
  6
CONTINUOUS
 62
     2
 10
77.749048675
 20
133.774366693
 30
0.0
 42
-0.030818133
  0
VERTEX
  8
0
  6
CONTINUOUS
 62
     2
 10
77.75
 20
133.758983704
 30
0.0
 42
-0.030877053
  0
VERTEX
  8
0
  6
CONTINUOUS
 62
     2
 10
77.749048675
 20
133.743600716
 30
0.0
 42
-0.030470815
  0
VERTEX
  8
0
  6
CONTINUOUS
 62
     2
 10
77.746201938
 20
133.728334801
 30
0.0
 42
-0.029646632
  0
VERTEX
  8
0
  6
CONTINUOUS
 62
     2
 10
77.741481457
 20
133.713302143
 30
0.0
 42
-0.028493394
  0
VERTEX
  8
0
  6
CONTINUOUS
 62
     2
 10
77.734923155
 20
133.698617149
 30
0.0
 42
-0.027120527
  0
VERTEX
  8
0
  6
CONTINUOUS
 62
     2
 10
77.726576947
 20
133.684391581
 30
0.0
 42
-0.025636807
  0
VERTEX
  8
0
  6
CONTINUOUS
 62
     2
 10
77.716506351
 20
133.670733704
 30
0.0
 42
-0.02413538
  0
VERTEX
  8
0
  6
CONTINUOUS
 62
     2
 10
77.704788011
 20
133.657747463
 30
0.0
 42
-0.022686896
  0
VERTEX
  8
0
  6
CONTINUOUS
 62
     2
 10
77.691511111
 20
133.645531691
 30
0.0
 42
-0.021339201
  0
VERTEX
  8
0
  6
CONTINUOUS
 62
     2
 10
77.676776695
 20
133.634179357
 30
0.0
 42
-0.020120814
  0
VERTEX
  8
0
  6
CONTINUOUS
 62
     2
 10
77.660696902
 20
133.62377686
 30
0.0
 42
-0.019045774
  0
VERTEX
  8
0
  6
CONTINUOUS
 62
     2
 10
77.643394109
 20
133.614403369
 30
0.0
 42
-0.018118306
  0
VERTEX
  8
0
  6
CONTINUOUS
 62
     2
 10
77.625
 20
133.606130221
 30
0.0
 42
-0.017336657
  0
VERTEX
  8
0
  6
CONTINUOUS
 62
     2
 10
77.605654565
 20
133.59902038
 30
0.0
 42
-0.016695933
  0
VERTEX
  8
0
  6
CONTINUOUS
 62
     2
 10
77.585505036
 20
133.593127957
 30
0.0
 42
-0.016190065
  0
VERTEX
  8
0
  6
CONTINUOUS
 62
     2
 10
77.564704761
 20
133.588497796
 30
0.0
 42
-0.015813094
  0
VERTEX
  8
0
  6
CONTINUOUS
 62
     2
 10
77.543412044
 20
133.585165136
 30
0.0
 42
-0.015559975
  0
VERTEX
  8
0
  6
CONTINUOUS
 62
     2
 10
77.521788936
 20
133.58315534
 30
0.0
 42
-0.015427054
  0
VERTEX
  8
0
  6
CONTINUOUS
 62
     2
 10
77.5
 20
133.582483704
 30
0.0
  0
SEQEND
  8
0
  6
CONTINUOUS
 62
     2
  0
POLYLINE
  8
0
  6
CONTINUOUS
 62
     2
 66
     1
  0
VERTEX
  8
0
  6
CONTINUOUS
 62
     2
 10
77.74583255
 20
134.461217888
 30
0.0
 42
-0.047646099
  0
VERTEX
  8
0
  6
CONTINUOUS
 62
     2
 10
77.748868835
 20
134.452189799
 30
0.0
 42
-0.05177306
  0
VERTEX
  8
0
  6
CONTINUOUS
 62
     2
 10
77.749993003
 20
134.443085784
 30
0.0
 42
-0.052570142
  0
VERTEX
  8
0
  6
CONTINUOUS
 62
     2
 10
77.749196418
 20
134.43397579
 30
0.0
 42
-0.049705543
  0
VERTEX
  8
0
  6
CONTINUOUS
 62
     2
 10
77.7464852
 20
134.424929812
 30
0.0
 42
-0.044306081
  0
VERTEX
  8
0
  6
CONTINUOUS
 62
     2
 10
77.741880179
 20
134.416017352
 30
0.0
 42
-0.038019413
  0
VERTEX
  8
0
  6
CONTINUOUS
 62
     2
 10
77.735416738
 20
134.407306887
 30
0.0
 42
-0.032051009
  0
VERTEX
  8
0
  6
CONTINUOUS
 62
     2
 10
77.727144537
 20
134.398865341
 30
0.0
 42
-0.02694418
  0
VERTEX
  8
0
  6
CONTINUOUS
 62
     2
 10
77.717127132
 20
134.390757573
 30
0.0
 42
-0.022799057
  0
VERTEX
  8
0
  6
CONTINUOUS
 62
     2
 10
77.705441489
 20
134.383045876
 30
0.0
 42
-0.019517382
  0
VERTEX
  8
0
  6
CONTINUOUS
 62
     2
 10
77.692177393
 20
134.375789501
 30
0.0
 42
-0.01694562
  0
VERTEX
  8
0
  6
CONTINUOUS
 62
     2
 10
77.677436753
 20
134.3690442
 30
0.0
 42
-0.014936363
  0
VERTEX
  8
0
  6
CONTINUOUS
 62
     2
 10
77.661332827
 20
134.3628618
 30
0.0
 42
-0.013367538
  0
VERTEX
  8
0
  6
CONTINUOUS
 62
     2
 10
77.643989344
 20
134.357289801
 30
0.0
 42
-0.012144258
  0
VERTEX
  8
0
  6
CONTINUOUS
 62
     2
 10
77.625539557
 20
134.352371013
 30
0.0
 42
-0.011194996
  0
VERTEX
  8
0
  6
CONTINUOUS
 62
     2
 10
77.606125222
 20
134.34814323
 30
0.0
 42
-0.01046677
  0
VERTEX
  8
0
  6
CONTINUOUS
 62
     2
 10
77.585895502
 20
134.344638934
 30
0.0
 42
-0.009920899
  0
VERTEX
  8
0
  6
CONTINUOUS
 62
     2
 10
77.565005827
 20
134.341885049
 30
0.0
 42
-0.009529713
  0
VERTEX
  8
0
  6
CONTINUOUS
 62
     2
 10
77.543616698
 20
134.339902734
 30
0.0
 42
-0.009274162
  0
VERTEX
  8
0
  6
CONTINUOUS
 62
     2
 10
77.521892451
 20
134.33870722
 30
0.0
 42
-0.009142179
  0
VERTEX
  8
0
  6
CONTINUOUS
 62
     2
 10
77.5
 20
134.338307692
 30
0.0
  0
SEQEND
  8
0
  6
CONTINUOUS
 62
     2
  0
LINE
  8
0
  6
CONTINUOUS
 62
     2
 10
78.5
 20
132.6
 30
0.0
 11
79.15
 21
132.6
 31
0.0
  0
LINE
  8
0
  6
CONTINUOUS
 62
     2
 10
78.5
 20
131.4
 30
0.0
 11
79.15
 21
131.4
 31
0.0
  0
LINE
  8
0
  6
LTYPE1
 62
     2
 10
73.0
 20
132.0
 30
0.0
 11
81.0
 21
132.0
 31
0.0
  0
TEXT
  8
0
  6
CONTINUOUS
 62
     2
 10
78.05
 20
118.25
 30
0.3
 40
3.0
  1
２０
 50
0.0
 41
0.6
 51
0.0
  7
KANJI1
  0
TEXT
  8
0
  6
CONTINUOUS
 62
     2
 10
79.0
 20
169.75
 30
0.3
 40
3.0
  1
０．５
 50
0.0
 41
0.6
 51
0.0
  7
KANJI1
  0
CIRCLE
  8
0
  6
CONTINUOUS
 62
     2
 10
85.25
 20
168.75
 30
0.0
 40
0.1
  0
TEXT
  8
0
  6
CONTINUOUS
 62
     2
 10
94.724464586
 20
118.25
 30
0.3
 40
3.0
  1
４－Ｍ３取付ボルト
 50
0.0
 41
0.6
 51
0.0
  7
KANJI1
  0
LINE
  8
0
  6
LTYPE1
 62
     2
 10
75.0
 20
142.0
 30
0.0
 11
145.0
 21
142.0
 31
0.0
  0
LINE
  8
0
  6
CONTINUOUS
 62
     2
 10
21.5
 20
123.0
 30
0.0
 11
58.5
 21
123.0
 31
0.0
  0
LINE
  8
0
  6
CONTINUOUS
 62
     2
 10
21.5
 20
122.0
 30
0.0
 11
58.5
 21
122.0
 31
0.0
  0
ARC
  8
0
  6
CONTINUOUS
 62
     2
 10
19.875
 20
123.625
 30
0.0
 40
0.625
 50
180.0
 51
270.0
  0
ARC
  8
0
  6
CONTINUOUS
 62
     2
 10
19.875
 20
123.625
 30
0.0
 40
1.625
 50
180.0
 51
270.0
  0
LINE
  8
0
  6
CONTINUOUS
 62
     2
 10
19.875
 20
123.0
 30
0.0
 11
21.5
 21
123.0
 31
0.0
  0
LINE
  8
0
  6
CONTINUOUS
 62
     2
 10
19.875
 20
122.0
 30
0.0
 11
21.5
 21
122.0
 31
0.0
  0
ARC
  8
0
  6
CONTINUOUS
 62
     2
 10
60.125
 20
123.625
 30
0.0
 40
0.625
 50
270.0
 51
0.0
  0
ARC
  8
0
  6
CONTINUOUS
 62
     2
 10
60.125
 20
123.625
 30
0.0
 40
1.625
 50
270.0
 51
0.0
  0
LINE
  8
0
  6
CONTINUOUS
 62
     2
 10
58.5
 20
123.0
 30
0.0
 11
60.125
 21
123.0
 31
0.0
  0
LINE
  8
0
  6
CONTINUOUS
 62
     2
 10
58.5
 20
122.0
 30
0.0
 11
60.125
 21
122.0
 31
0.0
  0
LINE
  8
0
  6
CONTINUOUS
 62
     2
 10
18.25
 20
126.1
 30
0.0
 11
18.25
 21
123.625
 31
0.0
  0
LINE
  8
0
  6
CONTINUOUS
 62
     2
 10
19.25
 20
126.1
 30
0.0
 11
19.25
 21
123.625
 31
0.0
  0
LINE
  8
0
  6
CONTINUOUS
 62
     2
 10
60.75
 20
123.625
 30
0.0
 11
60.75
 21
126.1
 31
0.0
  0
LINE
  8
0
  6
CONTINUOUS
 62
     2
 10
61.75
 20
123.625
 30
0.0
 11
61.75
 21
126.1
 31
0.0
  0
LINE
  8
0
  6
CONTINUOUS
 62
     2
 10
85.0
 20
122.25
 30
0.0
 11
85.0
 21
160.25
 31
0.0
  0
LINE
  8
0
  6
CONTINUOUS
 62
     2
 10
79.0
 20
160.25
 30
0.0
 11
79.0
 21
137.25
 31
0.0
  0
LINE
  8
0
  6
CONTINUOUS
 62
     2
 10
85.0
 20
162.0
 30
0.0
 11
79.15
 21
161.0
 31
0.0
  0
LINE
  8
0
  6
CONTINUOUS
 62
     2
 10
79.15
 20
161.0
 30
0.0
 11
79.15
 21
160.25
 31
0.0
  0
LINE
  8
0
  6
CONTINUOUS
 62
     2
 10
79.15
 20
160.25
 30
0.0
 11
79.0
 21
160.25
 31
0.0
  0
LINE
  8
0
  6
CONTINUOUS
 62
     2
 10
85.0
 20
160.25
 30
0.0
 11
85.0
 21
162.0
 31
0.0
  0
LINE
  8
0
  6
CONTINUOUS
 62
     2
 10
60.0
 20
136.25
 30
0.0
 11
60.0
 21
156.25
 31
0.0
  0
LINE
  8
0
  6
CONTINUOUS
 62
     2
 10
60.75
 20
126.1
 30
0.0
 11
60.75
 21
156.25
 31
0.0
  0
LINE
  8
0
  6
CONTINUOUS
 62
     2
 10
61.75
 20
126.1
 30
0.0
 11
61.75
 21
156.25
 31
0.0
  0
LINE
  8
0
  6
CONTINUOUS
 62
     2
 10
18.25
 20
156.25
 30
0.0
 11
18.25
 21
126.1
 31
0.0
  0
LINE
  8
0
  6
CONTINUOUS
 62
     2
 10
19.25
 20
156.25
 30
0.0
 11
19.25
 21
126.1
 31
0.0
  0
LINE
  8
0
  6
CONTINUOUS
 62
     2
 10
20.0
 20
156.25
 30
0.0
 11
20.0
 21
136.25
 31
0.0
  0
TEXT
  8
0
  6
CONTINUOUS
 62
     2
 10
41.78
 20
173.0
 30
0.18
 40
1.8
  1
±１
 50
0.0
 41
0.6
 51
0.0
  7
KANJI0
  0
LINE
  8
0
  6
CONTINUOUS
 62
     2
 10
58.5
 20
160.25
 30
0.0
 11
21.5
 21
160.25
 31
0.0
  0
LINE
  8
0
  6
CONTINUOUS
 62
     2
 10
58.5
 20
161.0
 30
0.0
 11
21.5
 21
161.0
 31
0.0
  0
LINE
  8
0
  6
CONTINUOUS
 62
     2
 10
58.5
 20
162.0
 30
0.0
 11
21.5
 21
162.0
 31
0.0
  0
ARC
  8
0
  6
CONTINUOUS
 62
     2
 10
19.875
 20
160.375
 30
0.0
 40
0.625
 50
90.0
 51
180.0
  0
ARC
  8
0
  6
CONTINUOUS
 62
     2
 10
19.875
 20
160.375
 30
0.0
 40
1.625
 50
90.0
 51
180.0
  0
ARC
  8
0
  6
CONTINUOUS
 62
     2
 10
20.5
 20
159.75
 30
0.0
 40
0.5
 50
90.0
 51
180.0
  0
LINE
  8
0
  6
CONTINUOUS
 62
     2
 10
21.5
 20
160.25
 30
0.0
 11
20.5
 21
160.25
 31
0.0
  0
LINE
  8
0
  6
CONTINUOUS
 62
     2
 10
21.5
 20
161.0
 30
0.0
 11
19.875
 21
161.0
 31
0.0
  0
LINE
  8
0
  6
CONTINUOUS
 62
     2
 10
21.5
 20
162.0
 30
0.0
 11
19.875
 21
162.0
 31
0.0
  0
ARC
  8
0
  6
CONTINUOUS
 62
     2
 10
60.125
 20
160.375
 30
0.0
 40
0.625
 50
0.0
 51
90.0
  0
ARC
  8
0
  6
CONTINUOUS
 62
     2
 10
60.125
 20
160.375
 30
0.0
 40
1.625
 50
0.0
 51
90.0
  0
ARC
  8
0
  6
CONTINUOUS
 62
     2
 10
59.5
 20
159.75
 30
0.0
 40
0.5
 50
0.0
 51
90.0
  0
LINE
  8
0
  6
CONTINUOUS
 62
     2
 10
59.5
 20
160.25
 30
0.0
 11
58.5
 21
160.25
 31
0.0
  0
LINE
  8
0
  6
CONTINUOUS
 62
     2
 10
60.125
 20
161.0
 30
0.0
 11
58.5
 21
161.0
 31
0.0
  0
LINE
  8
0
  6
CONTINUOUS
 62
     2
 10
60.125
 20
162.0
 30
0.0
 11
58.5
 21
162.0
 31
0.0
  0
TEXT
  8
0
  6
CONTINUOUS
 62
     2
 10
37.58
 20
173.0
 30
0.3
 40
3.0
  1
８７
 50
0.0
 41
0.6
 51
0.0
  7
KANJI1
  0
LINE
  8
0
  6
CONTINUOUS
 62
     2
 10
60.0
 20
156.25
 30
0.0
 11
60.0
 21
159.75
 31
0.0
  0
LINE
  8
0
  6
CONTINUOUS
 62
     2
 10
60.75
 20
156.25
 30
0.0
 11
60.75
 21
160.375
 31
0.0
  0
LINE
  8
0
  6
CONTINUOUS
 62
     2
 10
61.75
 20
156.25
 30
0.0
 11
61.75
 21
160.375
 31
0.0
  0
LINE
  8
0
  6
CONTINUOUS
 62
     2
 10
18.25
 20
160.375
 30
0.0
 11
18.25
 21
156.25
 31
0.0
  0
LINE
  8
0
  6
CONTINUOUS
 62
     2
 10
19.25
 20
160.375
 30
0.0
 11
19.25
 21
156.25
 31
0.0
  0
LINE
  8
0
  6
CONTINUOUS
 62
     2
 10
20.0
 20
159.75
 30
0.0
 11
20.0
 21
156.25
 31
0.0
  0
LINE
  8
0
  6
CONTINUOUS
 62
     2
 10
43.5
 20
140.75
 30
0.0
 11
36.5
 21
140.75
 31
0.0
  0
LINE
  8
0
  6
CONTINUOUS
 62
     2
 10
47.049420471
 20
140.305215763
 30
0.0
 11
47.5
 21
136.25
 31
0.0
  0
ARC
  8
0
  6
CONTINUOUS
 62
     2
 10
46.552478603
 20
140.25
 30
0.0
 40
0.5
 50
6.340191746
 51
90.0
  0
LINE
  8
0
  6
CONTINUOUS
 62
     2
 10
46.552478603
 20
140.75
 30
0.0
 11
43.5
 21
140.75
 31
0.0
  0
LINE
  8
0
  6
CONTINUOUS
 62
     2
 10
32.950579529
 20
140.305215763
 30
0.0
 11
32.5
 21
136.25
 31
0.0
  0
ARC
  8
0
  6
CONTINUOUS
 62
     2
 10
33.447521397
 20
140.25
 30
0.0
 40
0.5
 50
90.0
 51
173.659808254
  0
LINE
  8
0
  6
CONTINUOUS
 62
     2
 10
36.5
 20
140.75
 30
0.0
 11
33.447521397
 21
140.75
 31
0.0
  0
LINE
  8
0
  6
CONTINUOUS
 62
     2
 10
25.093144861
 20
149.515298166
 30
0.0
 11
24.993144861
 21
148.815298166
 31
0.0
  0
LINE
  8
0
  6
CONTINUOUS
 62
     2
 10
54.906855139
 20
149.515298166
 30
0.0
 11
55.006855139
 21
148.815298166
 31
0.0
  0
LINE
  8
0
  6
CONTINUOUS
 62
     2
 10
23.987886865
 20
148.510973107
 30
0.0
 11
23.809363249
 21
148.335950588
 31
0.0
  0
LINE
  8
0
  6
CONTINUOUS
 62
     2
 10
23.987886865
 20
148.510973107
 30
0.0
 11
31.482571476
 21
140.75
 31
0.0
  0
LINE
  8
0
  6
CONTINUOUS
 62
     2
 10
47.132346865
 20
140.25
 30
0.0
 11
54.906855139
 21
149.515298166
 31
0.0
  0
LINE
  8
0
  6
CONTINUOUS
 62
     2
 10
55.021086335
 20
148.815298166
 30
0.0
 11
47.294283214
 21
139.35
 31
0.0
  0
LINE
  8
0
  6
CONTINUOUS
 62
     2
 10
32.867653135
 20
140.25
 30
0.0
 11
25.093144861
 21
149.515298166
 31
0.0
  0
LINE
  8
0
  6
CONTINUOUS
 62
     2
 10
24.978913665
 20
148.815298166
 30
0.0
 11
32.705716786
 21
139.35
 31
0.0
  0
LINE
  8
0
  6
CONTINUOUS
 62
     2
 10
32.776701495
 20
139.05
 30
0.0
 11
23.809363249
 21
148.335950588
 31
0.0
  0
TEXT
  8
0
  6
CONTINUOUS
 62
     2
 10
65.75
 20
138.78
 30
0.3
 40
3.0
  1
８０
 50
90.0
 41
0.6
 51
0.0
  7
KANJI1
  0
TEXT
  8
0
  6
CONTINUOUS
 62
     2
 10
152.55
 20
140.6
 30
0.3
 40
3.0
  1
２
 50
90.0
 41
0.6
 51
0.0
  7
KANJI1
  0
TEXT
  8
0
  6
CONTINUOUS
 62
     2
 10
194.513030788
 20
117.15
 30
0.3
 40
3.0
  1
感度調整用可変抵抗器
 50
0.0
 41
0.6
 51
0.0
  7
KANJI1
  0
TEXT
  8
0
  6
CONTINUOUS
 62
     2
 10
193.813030788
 20
112.85
 30
0.3
 40
3.0
  1
（ＭＰＣ－８Ｖ形のみ）
 50
0.0
 41
0.6
 51
0.0
  7
KANJI1
  0
TEXT
  8
0
  6
CONTINUOUS
 62
     2
 10
147.684083529
 20
116.85
 30
0.3
 40
3.0
  1
１０－Ｍ３タ－ミナルネジ
 50
0.0
 41
0.6
 51
0.0
  7
KANJI1
  0
TEXT
  8
0
  6
CONTINUOUS
 62
     2
 10
23.7
 20
12.0
 30
0.3
 40
3.0
  1
注）
 50
0.0
 41
0.9
 51
0.0
  7
KANJI2
  0
LINE
  8
0
  6
CONTINUOUS
 62
     2
 10
23.525
 20
11.0
 30
0.0
 11
111.0
 21
11.0
 31
0.0
  0
TEXT
  8
0
  6
CONTINUOUS
 62
     2
 10
176.6
 20
52.5
 30
0.3
 40
3.0
  1
パネルカット
 50
0.0
 41
0.9
 51
0.0
  7
KANJI2
  0
TEXT
  8
0
  6
CONTINUOUS
 62
     2
 10
23.0
 20
12.1
 30
0.3
 40
3.0
  1
　　計器入力，電源端子の（＋）記号は，交流の場合　関係ありません。
 50
0.0
 41
0.9
 51
0.0
  7
KANJI2
  0
CIRCLE
  8
0
  6
CONTINUOUS
 62
     2
 10
145.0
 20
63.75
 30
0.0
 40
1.8
  0
LINE
  8
0
  6
CONTINUOUS
 62
     2
 10
133.5
 20
73.25
 30
0.0
 11
156.5
 21
73.25
 31
0.0
  0
LINE
  8
0
  6
CONTINUOUS
 62
     2
 10
144.75
 20
65.532554347
 30
0.0
 11
144.75
 21
61.967445653
 31
0.0
  0
LINE
  8
0
  6
CONTINUOUS
 62
     2
 10
145.25
 20
61.967445653
 30
0.0
 11
145.25
 21
65.532554347
 31
0.0
  0
CIRCLE
  8
0
  6
CONTINUOUS
 62
     2
 10
141.25
 20
68.0
 30
0.0
 40
1.75
  0
CIRCLE
  8
0
  6
CONTINUOUS
 62
     2
 10
141.25
 20
68.0
 30
0.0
 40
0.75
  0
LINE
  8
0
  6
CONTINUOUS
 62
     2
 10
140.430143345
 20
65.904687358
 30
0.0
 11
140.365008209
 21
65.661883337
 31
0.0
  0
LINE
  8
0
  6
CONTINUOUS
 62
     2
 10
140.912360369
 20
65.775477696
 30
0.0
 11
140.847367041
 21
65.532635677
 31
0.0
  0
ARC
  8
0
  6
CONTINUOUS
 62
     2
 10
140.667657149
 20
65.826666891
 30
0.0
 40
0.25
 50
348.184738537
 51
161.815261463
  0
ARC
  8
0
  6
CONTINUOUS
 62
     2
 10
140.602952387
 20
65.585185434
 30
0.0
 40
0.25
 50
347.865983983
 51
162.134016018
  0
LINE
  8
0
  6
CONTINUOUS
 62
     2
 10
139.492326989
 20
66.595334351
 30
0.0
 11
139.314516296
 21
66.417627468
 31
0.0
  0
LINE
  8
0
  6
CONTINUOUS
 62
     2
 10
139.845334351
 20
66.242326989
 30
0.0
 11
139.667627468
 21
66.064516296
 31
0.0
  0
ARC
  8
0
  6
CONTINUOUS
 62
     2
 10
139.659009742
 20
66.409009742
 30
0.0
 40
0.25
 50
318.184738537
 51
131.815261463
  0
ARC
  8
0
  6
CONTINUOUS
 62
     2
 10
139.482233047
 20
66.232233047
 30
0.0
 40
0.25
 50
317.865983983
 51
132.134016018
  0
LINE
  8
0
  6
CONTINUOUS
 62
     2
 10
139.025477696
 20
67.662360369
 30
0.0
 11
138.782635677
 21
67.597367041
 31
0.0
  0
LINE
  8
0
  6
CONTINUOUS
 62
     2
 10
139.154687358
 20
67.180143345
 30
0.0
 11
138.911883337
 21
67.115008209
 31
0.0
  0
ARC
  8
0
  6
CONTINUOUS
 62
     2
 10
139.076666891
 20
67.417657149
 30
0.0
 40
0.25
 50
288.184738537
 51
101.815261463
  0
ARC
  8
0
  6
CONTINUOUS
 62
     2
 10
138.835185434
 20
67.352952387
 30
0.0
 40
0.25
 50
287.865983983
 51
102.134016018
  0
ARC
  8
0
  6
CONTINUOUS
 62
     2
 10
141.25
 20
68.0
 30
0.0
 40
2.5
 50
230.731967965
 51
249.268032035
  0
ARC
  8
0
  6
CONTINUOUS
 62
     2
 10
141.25
 20
68.0
 30
0.0
 40
2.25
 50
231.369477073
 51
248.630522927
  0
ARC
  8
0
  6
CONTINUOUS
 62
     2
 10
141.25
 20
68.0
 30
0.0
 40
2.5
 50
200.731967965
 51
219.268032035
  0
ARC
  8
0
  6
CONTINUOUS
 62
     2
 10
141.25
 20
68.0
 30
0.0
 40
2.25
 50
201.369477073
 51
218.630522927
  0
LINE
  8
0
  6
CONTINUOUS
 62
     2
 10
142.069856655
 20
65.904687358
 30
0.0
 11
142.134991791
 21
65.661883337
 31
0.0
  0
LINE
  8
0
  6
CONTINUOUS
 62
     2
 10
141.587639631
 20
65.775477696
 30
0.0
 11
141.652632959
 21
65.532635677
 31
0.0
  0
ARC
  8
0
  6
CONTINUOUS
 62
     2
 10
141.832342851
 20
65.826666891
 30
0.0
 40
0.25
 50
18.184738537
 51
191.815261463
  0
ARC
  8
0
  6
CONTINUOUS
 62
     2
 10
141.897047613
 20
65.585185434
 30
0.0
 40
0.25
 50
17.865983982
 51
192.134016017
  0
LINE
  8
0
  6
CONTINUOUS
 62
     2
 10
143.007673011
 20
66.595334351
 30
0.0
 11
143.185483704
 21
66.417627468
 31
0.0
  0
LINE
  8
0
  6
CONTINUOUS
 62
     2
 10
142.654665649
 20
66.242326989
 30
0.0
 11
142.832372532
 21
66.064516296
 31
0.0
  0
ARC
  8
0
  6
CONTINUOUS
 62
     2
 10
142.840990258
 20
66.409009742
 30
0.0
 40
0.25
 50
48.184738537
 51
221.815261463
  0
ARC
  8
0
  6
CONTINUOUS
 62
     2
 10
143.017766953
 20
66.232233047
 30
0.0
 40
0.25
 50
47.865983982
 51
222.134016017
  0
LINE
  8
0
  6
CONTINUOUS
 62
     2
 10
143.474522304
 20
67.662360369
 30
0.0
 11
143.717364323
 21
67.597367041
 31
0.0
  0
LINE
  8
0
  6
CONTINUOUS
 62
     2
 10
143.345312642
 20
67.180143345
 30
0.0
 11
143.588116663
 21
67.115008209
 31
0.0
  0
ARC
  8
0
  6
CONTINUOUS
 62
     2
 10
143.423333109
 20
67.417657149
 30
0.0
 40
0.25
 50
78.184738537
 51
251.815261463
  0
ARC
  8
0
  6
CONTINUOUS
 62
     2
 10
143.664814566
 20
67.352952387
 30
0.0
 40
0.25
 50
77.865983982
 51
252.134016017
  0
ARC
  8
0
  6
CONTINUOUS
 62
     2
 10
141.25
 20
68.0
 30
0.0
 40
2.5
 50
290.731967965
 51
309.268032035
  0
ARC
  8
0
  6
CONTINUOUS
 62
     2
 10
141.25
 20
68.0
 30
0.0
 40
2.25
 50
291.369477073
 51
308.630522927
  0
ARC
  8
0
  6
CONTINUOUS
 62
     2
 10
141.25
 20
68.0
 30
0.0
 40
2.5
 50
320.731967965
 51
339.268032035
  0
ARC
  8
0
  6
CONTINUOUS
 62
     2
 10
141.25
 20
68.0
 30
0.0
 40
2.25
 50
321.369477073
 51
338.630522927
  0
ARC
  8
0
  6
CONTINUOUS
 62
     2
 10
141.25
 20
68.0
 30
0.0
 40
2.25
 50
261.369477073
 51
278.630522927
  0
ARC
  8
0
  6
CONTINUOUS
 62
     2
 10
141.25
 20
68.0
 30
0.0
 40
2.5
 50
260.731967965
 51
279.268032035
  0
LINE
  8
0
  6
CONTINUOUS
 62
     2
 10
140.430143345
 20
70.095312642
 30
0.0
 11
140.365008209
 21
70.338116663
 31
0.0
  0
LINE
  8
0
  6
CONTINUOUS
 62
     2
 10
140.912360369
 20
70.224522304
 30
0.0
 11
140.847367041
 21
70.467364323
 31
0.0
  0
ARC
  8
0
  6
CONTINUOUS
 62
     2
 10
140.667657149
 20
70.173333109
 30
0.0
 40
0.25
 50
198.184738537
 51
11.815261463
  0
ARC
  8
0
  6
CONTINUOUS
 62
     2
 10
140.602952387
 20
70.414814566
 30
0.0
 40
0.25
 50
197.865983982
 51
12.134016017
  0
LINE
  8
0
  6
CONTINUOUS
 62
     2
 10
139.492326989
 20
69.404665649
 30
0.0
 11
139.314516296
 21
69.582372532
 31
0.0
  0
LINE
  8
0
  6
CONTINUOUS
 62
     2
 10
139.845334351
 20
69.757673011
 30
0.0
 11
139.667627468
 21
69.935483704
 31
0.0
  0
ARC
  8
0
  6
CONTINUOUS
 62
     2
 10
139.659009742
 20
69.590990258
 30
0.0
 40
0.25
 50
228.184738537
 51
41.815261463
  0
ARC
  8
0
  6
CONTINUOUS
 62
     2
 10
139.482233047
 20
69.767766953
 30
0.0
 40
0.25
 50
227.865983982
 51
42.134016017
  0
LINE
  8
0
  6
CONTINUOUS
 62
     2
 10
139.025477696
 20
68.337639631
 30
0.0
 11
138.782635677
 21
68.402632959
 31
0.0
  0
LINE
  8
0
  6
CONTINUOUS
 62
     2
 10
139.154687358
 20
68.819856655
 30
0.0
 11
138.911883337
 21
68.884991791
 31
0.0
  0
ARC
  8
0
  6
CONTINUOUS
 62
     2
 10
139.076666891
 20
68.582342851
 30
0.0
 40
0.25
 50
258.184738537
 51
71.815261463
  0
ARC
  8
0
  6
CONTINUOUS
 62
     2
 10
138.835185434
 20
68.647047613
 30
0.0
 40
0.25
 50
257.865983982
 51
72.134016017
  0
ARC
  8
0
  6
CONTINUOUS
 62
     2
 10
141.25
 20
68.0
 30
0.0
 40
2.5
 50
110.731967965
 51
129.268032035
  0
ARC
  8
0
  6
CONTINUOUS
 62
     2
 10
141.25
 20
68.0
 30
0.0
 40
2.25
 50
111.369477073
 51
128.630522927
  0
ARC
  8
0
  6
CONTINUOUS
 62
     2
 10
141.25
 20
68.0
 30
0.0
 40
2.5
 50
140.731967965
 51
159.268032035
  0
ARC
  8
0
  6
CONTINUOUS
 62
     2
 10
141.25
 20
68.0
 30
0.0
 40
2.25
 50
141.369477073
 51
158.630522927
  0
LINE
  8
0
  6
CONTINUOUS
 62
     2
 10
142.069856655
 20
70.095312642
 30
0.0
 11
142.134991791
 21
70.338116663
 31
0.0
  0
LINE
  8
0
  6
CONTINUOUS
 62
     2
 10
141.587639631
 20
70.224522304
 30
0.0
 11
141.652632959
 21
70.467364323
 31
0.0
  0
ARC
  8
0
  6
CONTINUOUS
 62
     2
 10
141.832342851
 20
70.173333109
 30
0.0
 40
0.25
 50
168.184738537
 51
341.815261463
  0
ARC
  8
0
  6
CONTINUOUS
 62
     2
 10
141.897047613
 20
70.414814566
 30
0.0
 40
0.25
 50
167.865983983
 51
342.134016018
  0
LINE
  8
0
  6
CONTINUOUS
 62
     2
 10
143.007673011
 20
69.404665649
 30
0.0
 11
143.185483704
 21
69.582372532
 31
0.0
  0
LINE
  8
0
  6
CONTINUOUS
 62
     2
 10
142.654665649
 20
69.757673011
 30
0.0
 11
142.832372532
 21
69.935483704
 31
0.0
  0
ARC
  8
0
  6
CONTINUOUS
 62
     2
 10
142.840990258
 20
69.590990258
 30
0.0
 40
0.25
 50
138.184738537
 51
311.815261463
  0
ARC
  8
0
  6
CONTINUOUS
 62
     2
 10
143.017766953
 20
69.767766953
 30
0.0
 40
0.25
 50
137.865983983
 51
312.134016018
  0
LINE
  8
0
  6
CONTINUOUS
 62
     2
 10
143.474522304
 20
68.337639631
 30
0.0
 11
143.717364323
 21
68.402632959
 31
0.0
  0
LINE
  8
0
  6
CONTINUOUS
 62
     2
 10
143.345312642
 20
68.819856655
 30
0.0
 11
143.588116663
 21
68.884991791
 31
0.0
  0
ARC
  8
0
  6
CONTINUOUS
 62
     2
 10
143.423333109
 20
68.582342851
 30
0.0
 40
0.25
 50
108.184738537
 51
281.815261463
  0
ARC
  8
0
  6
CONTINUOUS
 62
     2
 10
143.664814566
 20
68.647047613
 30
0.0
 40
0.25
 50
107.865983983
 51
282.134016018
  0
ARC
  8
0
  6
CONTINUOUS
 62
     2
 10
141.25
 20
68.0
 30
0.0
 40
2.5
 50
50.731967965
 51
69.268032035
  0
ARC
  8
0
  6
CONTINUOUS
 62
     2
 10
141.25
 20
68.0
 30
0.0
 40
2.25
 50
51.369477073
 51
68.630522927
  0
ARC
  8
0
  6
CONTINUOUS
 62
     2
 10
141.25
 20
68.0
 30
0.0
 40
2.5
 50
20.731967965
 51
39.268032035
  0
ARC
  8
0
  6
CONTINUOUS
 62
     2
 10
141.25
 20
68.0
 30
0.0
 40
2.25
 50
21.369477073
 51
38.630522927
  0
ARC
  8
0
  6
CONTINUOUS
 62
     2
 10
141.25
 20
68.0
 30
0.0
 40
2.25
 50
81.369477073
 51
98.630522927
  0
ARC
  8
0
  6
CONTINUOUS
 62
     2
 10
141.25
 20
68.0
 30
0.0
 40
2.5
 50
80.731967965
 51
99.268032035
  0
ARC
  8
0
  6
CONTINUOUS
 62
     2
 10
141.25
 20
68.0
 30
0.0
 40
2.5
 50
170.731967965
 51
189.268032035
  0
ARC
  8
0
  6
CONTINUOUS
 62
     2
 10
141.25
 20
68.0
 30
0.0
 40
2.5
 50
350.731967965
 51
9.268032035
  0
ARC
  8
0
  6
CONTINUOUS
 62
     2
 10
141.25
 20
68.0
 30
0.0
 40
2.25
 50
171.369477073
 51
188.630522927
  0
ARC
  8
0
  6
CONTINUOUS
 62
     2
 10
141.25
 20
68.0
 30
0.0
 40
2.25
 50
351.369477073
 51
8.630522927
  0
LINE
  8
0
  6
LTYPE1
 62
     2
 10
138.25
 20
68.0
 30
0.0
 11
144.25
 21
68.0
 31
0.0
  0
LINE
  8
0
  6
LTYPE1
 62
     2
 10
141.25
 20
71.0
 30
0.0
 11
141.25
 21
65.0
 31
0.0
  0
LINE
  8
0
  6
LTYPE1
 62
     2
 10
142.0
 20
63.75
 30
0.0
 11
148.0
 21
63.75
 31
0.0
  0
CIRCLE
  8
0
  6
CONTINUOUS
 62
     2
 10
141.25
 20
68.0
 30
0.0
 40
2.5
  0
CIRCLE
  8
0
  6
CONTINUOUS
 62
     2
 10
141.0
 20
37.0
 30
0.0
 40
1.375
  0
CIRCLE
  8
0
  6
CONTINUOUS
 62
     2
 10
141.0
 20
41.5
 30
0.0
 40
1.375
  0
CIRCLE
  8
0
  6
CONTINUOUS
 62
     2
 10
141.0
 20
46.0
 30
0.0
 40
1.375
  0
CIRCLE
  8
0
  6
CONTINUOUS
 62
     2
 10
141.0
 20
32.5
 30
0.0
 40
1.375
  0
CIRCLE
  8
0
  6
CONTINUOUS
 62
     2
 10
141.0
 20
28.0
 30
0.0
 40
1.375
  0
CIRCLE
  8
0
  6
CONTINUOUS
 62
     2
 10
149.0
 20
37.0
 30
0.0
 40
1.375
  0
CIRCLE
  8
0
  6
CONTINUOUS
 62
     2
 10
149.0
 20
41.5
 30
0.0
 40
1.375
  0
CIRCLE
  8
0
  6
CONTINUOUS
 62
     2
 10
149.0
 20
46.0
 30
0.0
 40
1.375
  0
CIRCLE
  8
0
  6
CONTINUOUS
 62
     2
 10
149.0
 20
32.5
 30
0.0
 40
1.375
  0
CIRCLE
  8
0
  6
CONTINUOUS
 62
     2
 10
149.0
 20
28.0
 30
0.0
 40
1.375
  0
LINE
  8
0
  6
CONTINUOUS
 62
     2
 10
133.0
 20
46.0
 30
0.0
 11
135.414814566
 21
45.352952387
 31
0.0
  0
LINE
  8
0
  6
CONTINUOUS
 62
     2
 10
133.0
 20
46.0
 30
0.0
 11
135.414814566
 21
46.647047613
 31
0.0
  0
LINE
  8
0
  6
CONTINUOUS
 62
     2
 10
133.0
 20
41.5
 30
0.0
 11
135.414814566
 21
40.852952387
 31
0.0
  0
LINE
  8
0
  6
CONTINUOUS
 62
     2
 10
133.0
 20
41.5
 30
0.0
 11
135.414814566
 21
42.147047613
 31
0.0
  0
LINE
  8
0
  6
CONTINUOUS
 62
     2
 10
139.625
 20
41.5
 30
0.0
 11
133.0
 21
41.5
 31
0.0
  0
LINE
  8
0
  6
CONTINUOUS
 62
     2
 10
137.5
 20
46.0
 30
0.0
 11
133.0
 21
46.0
 31
0.0
  0
TEXT
  8
0
  6
CONTINUOUS
 62
     2
 10
137.0
 20
45.5
 30
0.1
 40
1.0
  1
（＋）
 50
0.0
 41
0.9
 51
0.0
  7
KANJI3
  0
LINE
  8
0
  6
CONTINUOUS
 62
     2
 10
150.375
 20
41.5
 30
0.0
 11
157.0
 21
41.5
 31
0.0
  0
LINE
  8
0
  6
CONTINUOUS
 62
     2
 10
152.5
 20
46.0
 30
0.0
 11
157.0
 21
46.0
 31
0.0
  0
TEXT
  8
0
  6
CONTINUOUS
 62
     2
 10
150.1
 20
45.5
 30
0.1
 40
1.0
  1
（＋）
 50
0.0
 41
0.9
 51
0.0
  7
KANJI3
  0
TEXT
  8
0
  6
CONTINUOUS
 62
     2
 10
153.9
 20
42.3
 30
0.3
 40
3.0
  1
制御電源
 50
0.0
 41
0.9
 51
0.0
  7
KANJI2
  0
TEXT
  8
0
  6
CONTINUOUS
 62
     2
 10
120.9
 20
42.3
 30
0.3
 40
3.0
  1
計器入力
 50
0.0
 41
0.9
 51
0.0
  7
KANJI2
  0
CIRCLE
  8
0
  6
CONTINUOUS
 62
     2
 10
153.0
 20
37.0
 30
0.0
 40
1.0
  0
LINE
  8
0
  6
CONTINUOUS
 62
     2
 10
160.352952387
 20
34.585185434
 30
0.0
 11
159.705904774
 21
37.0
 31
0.0
  0
LINE
  8
0
  6
CONTINUOUS
 62
     2
 10
160.352952387
 20
34.585185434
 30
0.0
 11
161.0
 21
37.0
 31
0.0
  0
LINE
  8
0
  6
CONTINUOUS
 62
     2
 10
160.352952387
 20
30.414814566
 30
0.0
 11
159.705904774
 21
28.0
 31
0.0
  0
LINE
  8
0
  6
CONTINUOUS
 62
     2
 10
160.352952387
 20
30.414814566
 30
0.0
 11
161.0
 21
28.0
 31
0.0
  0
LINE
  8
0
  6
CONTINUOUS
 62
     2
 10
160.352952387
 20
29.642073905
 30
0.0
 11
160.739354925
 21
28.2
 31
0.0
  0
LINE
  8
0
  6
CONTINUOUS
 62
     2
 10
160.352952387
 20
28.869333244
 30
0.0
 11
160.478709851
 21
28.4
 31
0.0
  0
LINE
  8
0
  6
CONTINUOUS
 62
     2
 10
160.352952387
 20
28.869333244
 30
0.0
 11
160.227194924
 21
28.4
 31
0.0
  0
LINE
  8
0
  6
CONTINUOUS
 62
     2
 10
160.227194924
 20
28.4
 30
0.0
 11
160.478709851
 21
28.4
 31
0.0
  0
LINE
  8
0
  6
CONTINUOUS
 62
     2
 10
160.352952387
 20
29.642073905
 30
0.0
 11
159.966549849
 21
28.2
 31
0.0
  0
LINE
  8
0
  6
CONTINUOUS
 62
     2
 10
160.739354925
 20
28.2
 30
0.0
 11
159.966549849
 21
28.2
 31
0.0
  0
CIRCLE
  8
0
  6
CONTINUOUS
 62
     2
 10
153.0
 20
32.5
 30
0.0
 40
1.0
  0
CIRCLE
  8
0
  6
CONTINUOUS
 62
     2
 10
153.0
 20
28.0
 30
0.0
 40
1.0
  0
LINE
  8
0
  6
CONTINUOUS
 62
     2
 10
154.0
 20
37.0
 30
0.0
 11
161.0
 21
37.0
 31
0.0
  0
LINE
  8
0
  6
CONTINUOUS
 62
     2
 10
153.962063251
 20
32.227173498
 30
0.0
 11
161.352952387
 21
30.131229779
 31
0.0
  0
LINE
  8
0
  6
CONTINUOUS
 62
     2
 10
154.0
 20
28.0
 30
0.0
 11
161.0
 21
28.0
 31
0.0
  0
TEXT
  8
0
  6
CONTINUOUS
 62
     2
 10
150.275
 20
36.4
 30
0.2
 40
2.0
  1
ａ
 50
0.0
 41
0.9
 51
0.0
  7
KANJI4
  0
TEXT
  8
0
  6
CONTINUOUS
 62
     2
 10
150.275
 20
31.9
 30
0.2
 40
2.0
  1
ｃ
 50
0.0
 41
0.9
 51
0.0
  7
KANJI4
  0
TEXT
  8
0
  6
CONTINUOUS
 62
     2
 10
150.275
 20
27.4
 30
0.2
 40
2.0
  1
ｂ
 50
0.0
 41
0.9
 51
0.0
  7
KANJI4
  0
CIRCLE
  8
0
  6
CONTINUOUS
 62
     2
 10
97.0
 20
63.75
 30
0.0
 40
1.8
  0
LINE
  8
0
  6
CONTINUOUS
 62
     2
 10
96.75
 20
65.532554347
 30
0.0
 11
96.75
 21
61.967445653
 31
0.0
  0
LINE
  8
0
  6
CONTINUOUS
 62
     2
 10
97.25
 20
61.967445653
 30
0.0
 11
97.25
 21
65.532554347
 31
0.0
  0
LINE
  8
0
  6
LTYPE1
 62
     2
 10
94.0
 20
63.75
 30
0.0
 11
100.0
 21
63.75
 31
0.0
  0
CIRCLE
  8
0
  6
CONTINUOUS
 62
     2
 10
100.75
 20
68.0
 30
0.0
 40
1.75
  0
CIRCLE
  8
0
  6
CONTINUOUS
 62
     2
 10
100.75
 20
68.0
 30
0.0
 40
0.75
  0
LINE
  8
0
  6
CONTINUOUS
 62
     2
 10
99.930143345
 20
65.904687358
 30
0.0
 11
99.865008209
 21
65.661883337
 31
0.0
  0
LINE
  8
0
  6
CONTINUOUS
 62
     2
 10
100.412360369
 20
65.775477696
 30
0.0
 11
100.347367041
 21
65.532635677
 31
0.0
  0
ARC
  8
0
  6
CONTINUOUS
 62
     2
 10
100.167657149
 20
65.826666891
 30
0.0
 40
0.25
 50
348.184738537
 51
161.815261463
  0
ARC
  8
0
  6
CONTINUOUS
 62
     2
 10
100.102952387
 20
65.585185434
 30
0.0
 40
0.25
 50
347.865983983
 51
162.134016018
  0
LINE
  8
0
  6
CONTINUOUS
 62
     2
 10
98.992326989
 20
66.595334351
 30
0.0
 11
98.814516296
 21
66.417627468
 31
0.0
  0
LINE
  8
0
  6
CONTINUOUS
 62
     2
 10
99.345334351
 20
66.242326989
 30
0.0
 11
99.167627468
 21
66.064516296
 31
0.0
  0
ARC
  8
0
  6
CONTINUOUS
 62
     2
 10
99.159009742
 20
66.409009742
 30
0.0
 40
0.25
 50
318.184738537
 51
131.815261463
  0
ARC
  8
0
  6
CONTINUOUS
 62
     2
 10
98.982233047
 20
66.232233047
 30
0.0
 40
0.25
 50
317.865983983
 51
132.134016018
  0
LINE
  8
0
  6
CONTINUOUS
 62
     2
 10
98.525477696
 20
67.662360369
 30
0.0
 11
98.282635677
 21
67.597367041
 31
0.0
  0
LINE
  8
0
  6
CONTINUOUS
 62
     2
 10
98.654687358
 20
67.180143345
 30
0.0
 11
98.411883337
 21
67.115008209
 31
0.0
  0
ARC
  8
0
  6
CONTINUOUS
 62
     2
 10
98.576666891
 20
67.417657149
 30
0.0
 40
0.25
 50
288.184738537
 51
101.815261463
  0
ARC
  8
0
  6
CONTINUOUS
 62
     2
 10
98.335185434
 20
67.352952387
 30
0.0
 40
0.25
 50
287.865983983
 51
102.134016018
  0
ARC
  8
0
  6
CONTINUOUS
 62
     2
 10
100.75
 20
68.0
 30
0.0
 40
2.5
 50
230.731967965
 51
249.268032035
  0
ARC
  8
0
  6
CONTINUOUS
 62
     2
 10
100.75
 20
68.0
 30
0.0
 40
2.25
 50
231.369477073
 51
248.630522927
  0
ARC
  8
0
  6
CONTINUOUS
 62
     2
 10
100.75
 20
68.0
 30
0.0
 40
2.5
 50
200.731967965
 51
219.268032035
  0
ARC
  8
0
  6
CONTINUOUS
 62
     2
 10
100.75
 20
68.0
 30
0.0
 40
2.25
 50
201.369477073
 51
218.630522927
  0
LINE
  8
0
  6
CONTINUOUS
 62
     2
 10
101.569856655
 20
65.904687358
 30
0.0
 11
101.634991791
 21
65.661883337
 31
0.0
  0
LINE
  8
0
  6
CONTINUOUS
 62
     2
 10
101.087639631
 20
65.775477696
 30
0.0
 11
101.152632959
 21
65.532635677
 31
0.0
  0
ARC
  8
0
  6
CONTINUOUS
 62
     2
 10
101.332342851
 20
65.826666891
 30
0.0
 40
0.25
 50
18.184738537
 51
191.815261463
  0
ARC
  8
0
  6
CONTINUOUS
 62
     2
 10
101.397047613
 20
65.585185434
 30
0.0
 40
0.25
 50
17.865983982
 51
192.134016017
  0
LINE
  8
0
  6
CONTINUOUS
 62
     2
 10
102.507673011
 20
66.595334351
 30
0.0
 11
102.685483704
 21
66.417627468
 31
0.0
  0
LINE
  8
0
  6
CONTINUOUS
 62
     2
 10
102.154665649
 20
66.242326989
 30
0.0
 11
102.332372532
 21
66.064516296
 31
0.0
  0
ARC
  8
0
  6
CONTINUOUS
 62
     2
 10
102.340990258
 20
66.409009742
 30
0.0
 40
0.25
 50
48.184738537
 51
221.815261463
  0
ARC
  8
0
  6
CONTINUOUS
 62
     2
 10
102.517766953
 20
66.232233047
 30
0.0
 40
0.25
 50
47.865983982
 51
222.134016017
  0
LINE
  8
0
  6
CONTINUOUS
 62
     2
 10
102.974522304
 20
67.662360369
 30
0.0
 11
103.217364323
 21
67.597367041
 31
0.0
  0
LINE
  8
0
  6
CONTINUOUS
 62
     2
 10
102.845312642
 20
67.180143345
 30
0.0
 11
103.088116663
 21
67.115008209
 31
0.0
  0
ARC
  8
0
  6
CONTINUOUS
 62
     2
 10
102.923333109
 20
67.417657149
 30
0.0
 40
0.25
 50
78.184738537
 51
251.815261463
  0
ARC
  8
0
  6
CONTINUOUS
 62
     2
 10
103.164814566
 20
67.352952387
 30
0.0
 40
0.25
 50
77.865983982
 51
252.134016017
  0
ARC
  8
0
  6
CONTINUOUS
 62
     2
 10
100.75
 20
68.0
 30
0.0
 40
2.5
 50
290.731967965
 51
309.268032035
  0
ARC
  8
0
  6
CONTINUOUS
 62
     2
 10
100.75
 20
68.0
 30
0.0
 40
2.25
 50
291.369477073
 51
308.630522927
  0
ARC
  8
0
  6
CONTINUOUS
 62
     2
 10
100.75
 20
68.0
 30
0.0
 40
2.5
 50
320.731967965
 51
339.268032035
  0
ARC
  8
0
  6
CONTINUOUS
 62
     2
 10
100.75
 20
68.0
 30
0.0
 40
2.25
 50
321.369477073
 51
338.630522927
  0
ARC
  8
0
  6
CONTINUOUS
 62
     2
 10
100.75
 20
68.0
 30
0.0
 40
2.25
 50
261.369477073
 51
278.630522927
  0
ARC
  8
0
  6
CONTINUOUS
 62
     2
 10
100.75
 20
68.0
 30
0.0
 40
2.5
 50
260.731967965
 51
279.268032035
  0
LINE
  8
0
  6
CONTINUOUS
 62
     2
 10
99.930143345
 20
70.095312642
 30
0.0
 11
99.865008209
 21
70.338116663
 31
0.0
  0
LINE
  8
0
  6
CONTINUOUS
 62
     2
 10
100.412360369
 20
70.224522304
 30
0.0
 11
100.347367041
 21
70.467364323
 31
0.0
  0
ARC
  8
0
  6
CONTINUOUS
 62
     2
 10
100.167657149
 20
70.173333109
 30
0.0
 40
0.25
 50
198.184738537
 51
11.815261463
  0
ARC
  8
0
  6
CONTINUOUS
 62
     2
 10
100.102952387
 20
70.414814566
 30
0.0
 40
0.25
 50
197.865983982
 51
12.134016017
  0
LINE
  8
0
  6
CONTINUOUS
 62
     2
 10
98.992326989
 20
69.404665649
 30
0.0
 11
98.814516296
 21
69.582372532
 31
0.0
  0
LINE
  8
0
  6
CONTINUOUS
 62
     2
 10
99.345334351
 20
69.757673011
 30
0.0
 11
99.167627468
 21
69.935483704
 31
0.0
  0
ARC
  8
0
  6
CONTINUOUS
 62
     2
 10
99.159009742
 20
69.590990258
 30
0.0
 40
0.25
 50
228.184738537
 51
41.815261463
  0
ARC
  8
0
  6
CONTINUOUS
 62
     2
 10
98.982233047
 20
69.767766953
 30
0.0
 40
0.25
 50
227.865983982
 51
42.134016017
  0
LINE
  8
0
  6
CONTINUOUS
 62
     2
 10
98.525477696
 20
68.337639631
 30
0.0
 11
98.282635677
 21
68.402632959
 31
0.0
  0
LINE
  8
0
  6
CONTINUOUS
 62
     2
 10
98.654687358
 20
68.819856655
 30
0.0
 11
98.411883337
 21
68.884991791
 31
0.0
  0
ARC
  8
0
  6
CONTINUOUS
 62
     2
 10
98.576666891
 20
68.582342851
 30
0.0
 40
0.25
 50
258.184738537
 51
71.815261463
  0
ARC
  8
0
  6
CONTINUOUS
 62
     2
 10
98.335185434
 20
68.647047613
 30
0.0
 40
0.25
 50
257.865983982
 51
72.134016017
  0
ARC
  8
0
  6
CONTINUOUS
 62
     2
 10
100.75
 20
68.0
 30
0.0
 40
2.5
 50
110.731967965
 51
129.268032035
  0
ARC
  8
0
  6
CONTINUOUS
 62
     2
 10
100.75
 20
68.0
 30
0.0
 40
2.25
 50
111.369477073
 51
128.630522927
  0
ARC
  8
0
  6
CONTINUOUS
 62
     2
 10
100.75
 20
68.0
 30
0.0
 40
2.5
 50
140.731967965
 51
159.268032035
  0
ARC
  8
0
  6
CONTINUOUS
 62
     2
 10
100.75
 20
68.0
 30
0.0
 40
2.25
 50
141.369477073
 51
158.630522927
  0
LINE
  8
0
  6
CONTINUOUS
 62
     2
 10
101.569856655
 20
70.095312642
 30
0.0
 11
101.634991791
 21
70.338116663
 31
0.0
  0
LINE
  8
0
  6
CONTINUOUS
 62
     2
 10
101.087639631
 20
70.224522304
 30
0.0
 11
101.152632959
 21
70.467364323
 31
0.0
  0
ARC
  8
0
  6
CONTINUOUS
 62
     2
 10
101.332342851
 20
70.173333109
 30
0.0
 40
0.25
 50
168.184738537
 51
341.815261463
  0
ARC
  8
0
  6
CONTINUOUS
 62
     2
 10
101.397047613
 20
70.414814566
 30
0.0
 40
0.25
 50
167.865983983
 51
342.134016018
  0
LINE
  8
0
  6
CONTINUOUS
 62
     2
 10
102.507673011
 20
69.404665649
 30
0.0
 11
102.685483704
 21
69.582372532
 31
0.0
  0
LINE
  8
0
  6
CONTINUOUS
 62
     2
 10
102.154665649
 20
69.757673011
 30
0.0
 11
102.332372532
 21
69.935483704
 31
0.0
  0
ARC
  8
0
  6
CONTINUOUS
 62
     2
 10
102.340990258
 20
69.590990258
 30
0.0
 40
0.25
 50
138.184738537
 51
311.815261463
  0
ARC
  8
0
  6
CONTINUOUS
 62
     2
 10
102.517766953
 20
69.767766953
 30
0.0
 40
0.25
 50
137.865983983
 51
312.134016018
  0
LINE
  8
0
  6
CONTINUOUS
 62
     2
 10
102.974522304
 20
68.337639631
 30
0.0
 11
103.217364323
 21
68.402632959
 31
0.0
  0
LINE
  8
0
  6
CONTINUOUS
 62
     2
 10
102.845312642
 20
68.819856655
 30
0.0
 11
103.088116663
 21
68.884991791
 31
0.0
  0
ARC
  8
0
  6
CONTINUOUS
 62
     2
 10
102.923333109
 20
68.582342851
 30
0.0
 40
0.25
 50
108.184738537
 51
281.815261463
  0
ARC
  8
0
  6
CONTINUOUS
 62
     2
 10
103.164814566
 20
68.647047613
 30
0.0
 40
0.25
 50
107.865983983
 51
282.134016018
  0
ARC
  8
0
  6
CONTINUOUS
 62
     2
 10
100.75
 20
68.0
 30
0.0
 40
2.5
 50
50.731967965
 51
69.268032035
  0
ARC
  8
0
  6
CONTINUOUS
 62
     2
 10
100.75
 20
68.0
 30
0.0
 40
2.25
 50
51.369477073
 51
68.630522927
  0
ARC
  8
0
  6
CONTINUOUS
 62
     2
 10
100.75
 20
68.0
 30
0.0
 40
2.5
 50
20.731967965
 51
39.268032035
  0
ARC
  8
0
  6
CONTINUOUS
 62
     2
 10
100.75
 20
68.0
 30
0.0
 40
2.25
 50
21.369477073
 51
38.630522927
  0
ARC
  8
0
  6
CONTINUOUS
 62
     2
 10
100.75
 20
68.0
 30
0.0
 40
2.25
 50
81.369477073
 51
98.630522927
  0
ARC
  8
0
  6
CONTINUOUS
 62
     2
 10
100.75
 20
68.0
 30
0.0
 40
2.5
 50
80.731967965
 51
99.268032035
  0
ARC
  8
0
  6
CONTINUOUS
 62
     2
 10
100.75
 20
68.0
 30
0.0
 40
2.5
 50
170.731967965
 51
189.268032035
  0
ARC
  8
0
  6
CONTINUOUS
 62
     2
 10
100.75
 20
68.0
 30
0.0
 40
2.5
 50
350.731967965
 51
9.268032035
  0
ARC
  8
0
  6
CONTINUOUS
 62
     2
 10
100.75
 20
68.0
 30
0.0
 40
2.25
 50
171.369477073
 51
188.630522927
  0
ARC
  8
0
  6
CONTINUOUS
 62
     2
 10
100.75
 20
68.0
 30
0.0
 40
2.25
 50
351.369477073
 51
8.630522927
  0
LINE
  8
0
  6
LTYPE1
 62
     2
 10
97.75
 20
68.0
 30
0.0
 11
103.75
 21
68.0
 31
0.0
  0
LINE
  8
0
  6
LTYPE1
 62
     2
 10
100.75
 20
71.0
 30
0.0
 11
100.75
 21
65.0
 31
0.0
  0
CIRCLE
  8
0
  6
CONTINUOUS
 62
     2
 10
100.75
 20
68.0
 30
0.0
 40
2.5
  0
CIRCLE
  8
0
  6
CONTINUOUS
 62
     2
 10
93.0
 20
37.0
 30
0.0
 40
1.375
  0
CIRCLE
  8
0
  6
CONTINUOUS
 62
     2
 10
93.0
 20
41.5
 30
0.0
 40
1.375
  0
CIRCLE
  8
0
  6
CONTINUOUS
 62
     2
 10
93.0
 20
46.0
 30
0.0
 40
1.375
  0
CIRCLE
  8
0
  6
CONTINUOUS
 62
     2
 10
93.0
 20
32.5
 30
0.0
 40
1.375
  0
CIRCLE
  8
0
  6
CONTINUOUS
 62
     2
 10
93.0
 20
28.0
 30
0.0
 40
1.375
  0
CIRCLE
  8
0
  6
CONTINUOUS
 62
     2
 10
101.0
 20
37.0
 30
0.0
 40
1.375
  0
CIRCLE
  8
0
  6
CONTINUOUS
 62
     2
 10
101.0
 20
41.5
 30
0.0
 40
1.375
  0
CIRCLE
  8
0
  6
CONTINUOUS
 62
     2
 10
101.0
 20
46.0
 30
0.0
 40
1.375
  0
CIRCLE
  8
0
  6
CONTINUOUS
 62
     2
 10
101.0
 20
32.5
 30
0.0
 40
1.375
  0
CIRCLE
  8
0
  6
CONTINUOUS
 62
     2
 10
101.0
 20
28.0
 30
0.0
 40
1.375
  0
LINE
  8
0
  6
CONTINUOUS
 62
     2
 10
85.0
 20
46.0
 30
0.0
 11
87.414814566
 21
45.352952387
 31
0.0
  0
LINE
  8
0
  6
CONTINUOUS
 62
     2
 10
85.0
 20
46.0
 30
0.0
 11
87.414814566
 21
46.647047613
 31
0.0
  0
LINE
  8
0
  6
CONTINUOUS
 62
     2
 10
85.0
 20
41.5
 30
0.0
 11
87.414814566
 21
40.852952387
 31
0.0
  0
LINE
  8
0
  6
CONTINUOUS
 62
     2
 10
85.0
 20
41.5
 30
0.0
 11
87.414814566
 21
42.147047613
 31
0.0
  0
LINE
  8
0
  6
CONTINUOUS
 62
     2
 10
91.625
 20
41.5
 30
0.0
 11
85.0
 21
41.5
 31
0.0
  0
LINE
  8
0
  6
CONTINUOUS
 62
     2
 10
89.5
 20
46.0
 30
0.0
 11
85.0
 21
46.0
 31
0.0
  0
TEXT
  8
0
  6
CONTINUOUS
 62
     2
 10
89.0
 20
45.5
 30
0.1
 40
1.0
  1
（＋）
 50
0.0
 41
0.9
 51
0.0
  7
KANJI3
  0
LINE
  8
0
  6
CONTINUOUS
 62
     2
 10
102.375
 20
41.5
 30
0.0
 11
109.0
 21
41.5
 31
0.0
  0
LINE
  8
0
  6
CONTINUOUS
 62
     2
 10
104.5
 20
46.0
 30
0.0
 11
109.0
 21
46.0
 31
0.0
  0
TEXT
  8
0
  6
CONTINUOUS
 62
     2
 10
102.1
 20
45.5
 30
0.1
 40
1.0
  1
（＋）
 50
0.0
 41
0.9
 51
0.0
  7
KANJI3
  0
TEXT
  8
0
  6
CONTINUOUS
 62
     2
 10
105.9
 20
42.3
 30
0.3
 40
3.0
  1
制御電源
 50
0.0
 41
0.9
 51
0.0
  7
KANJI2
  0
TEXT
  8
0
  6
CONTINUOUS
 62
     2
 10
72.9
 20
42.3
 30
0.3
 40
3.0
  1
計器入力
 50
0.0
 41
0.9
 51
0.0
  7
KANJI2
  0
CIRCLE
  8
0
  6
CONTINUOUS
 62
     2
 10
89.0
 20
37.0
 30
0.0
 40
1.0
  0
LINE
  8
0
  6
CONTINUOUS
 62
     2
 10
81.647047613
 20
34.585185434
 30
0.0
 11
82.294095226
 21
37.0
 31
0.0
  0
LINE
  8
0
  6
CONTINUOUS
 62
     2
 10
81.647047613
 20
34.585185434
 30
0.0
 11
81.0
 21
37.0
 31
0.0
  0
LINE
  8
0
  6
CONTINUOUS
 62
     2
 10
81.647047613
 20
30.414814566
 30
0.0
 11
82.294095226
 21
28.0
 31
0.0
  0
LINE
  8
0
  6
CONTINUOUS
 62
     2
 10
81.647047613
 20
30.414814566
 30
0.0
 11
81.0
 21
28.0
 31
0.0
  0
LINE
  8
0
  6
CONTINUOUS
 62
     2
 10
81.647047613
 20
29.642073905
 30
0.0
 11
81.260645075
 21
28.2
 31
0.0
  0
LINE
  8
0
  6
CONTINUOUS
 62
     2
 10
81.647047613
 20
28.869333244
 30
0.0
 11
81.521290149
 21
28.4
 31
0.0
  0
LINE
  8
0
  6
CONTINUOUS
 62
     2
 10
81.647047613
 20
28.869333244
 30
0.0
 11
81.772805076
 21
28.4
 31
0.0
  0
LINE
  8
0
  6
CONTINUOUS
 62
     2
 10
81.772805076
 20
28.4
 30
0.0
 11
81.521290149
 21
28.4
 31
0.0
  0
LINE
  8
0
  6
CONTINUOUS
 62
     2
 10
81.647047613
 20
29.642073905
 30
0.0
 11
82.033450151
 21
28.2
 31
0.0
  0
LINE
  8
0
  6
CONTINUOUS
 62
     2
 10
81.260645075
 20
28.2
 30
0.0
 11
82.033450151
 21
28.2
 31
0.0
  0
CIRCLE
  8
0
  6
CONTINUOUS
 62
     2
 10
89.0
 20
32.5
 30
0.0
 40
1.0
  0
CIRCLE
  8
0
  6
CONTINUOUS
 62
     2
 10
89.0
 20
28.0
 30
0.0
 40
1.0
  0
LINE
  8
0
  6
CONTINUOUS
 62
     2
 10
88.0
 20
37.0
 30
0.0
 11
81.0
 21
37.0
 31
0.0
  0
LINE
  8
0
  6
CONTINUOUS
 62
     2
 10
88.037936749
 20
32.227173498
 30
0.0
 11
80.647047613
 21
30.131229779
 31
0.0
  0
LINE
  8
0
  6
CONTINUOUS
 62
     2
 10
88.0
 20
28.0
 30
0.0
 11
81.0
 21
28.0
 31
0.0
  0
TEXT
  8
0
  6
CONTINUOUS
 62
     2
 10
89.9
 20
36.4
 30
0.2
 40
2.0
  1
ａ
 50
0.0
 41
0.9
 51
0.0
  7
KANJI4
  0
TEXT
  8
0
  6
CONTINUOUS
 62
     2
 10
89.9
 20
31.9
 30
0.2
 40
2.0
  1
ｃ
 50
0.0
 41
0.9
 51
0.0
  7
KANJI4
  0
TEXT
  8
0
  6
CONTINUOUS
 62
     2
 10
89.9
 20
27.4
 30
0.2
 40
2.0
  1
ｂ
 50
0.0
 41
0.9
 51
0.0
  7
KANJI4
  0
CIRCLE
  8
0
  6
CONTINUOUS
 62
     2
 10
40.0
 20
63.75
 30
0.0
 40
1.8
  0
LINE
  8
0
  6
CONTINUOUS
 62
     2
 10
39.75
 20
65.532554347
 30
0.0
 11
39.75
 21
61.967445653
 31
0.0
  0
LINE
  8
0
  6
CONTINUOUS
 62
     2
 10
40.25
 20
61.967445653
 30
0.0
 11
40.25
 21
65.532554347
 31
0.0
  0
CIRCLE
  8
0
  6
CONTINUOUS
 62
     2
 10
36.25
 20
68.0
 30
0.0
 40
1.75
  0
CIRCLE
  8
0
  6
CONTINUOUS
 62
     2
 10
36.25
 20
68.0
 30
0.0
 40
0.75
  0
LINE
  8
0
  6
CONTINUOUS
 62
     2
 10
35.430143345
 20
65.904687358
 30
0.0
 11
35.365008209
 21
65.661883337
 31
0.0
  0
LINE
  8
0
  6
CONTINUOUS
 62
     2
 10
35.912360369
 20
65.775477696
 30
0.0
 11
35.847367041
 21
65.532635677
 31
0.0
  0
ARC
  8
0
  6
CONTINUOUS
 62
     2
 10
35.667657149
 20
65.826666891
 30
0.0
 40
0.25
 50
348.184738537
 51
161.815261463
  0
ARC
  8
0
  6
CONTINUOUS
 62
     2
 10
35.602952387
 20
65.585185434
 30
0.0
 40
0.25
 50
347.865983983
 51
162.134016018
  0
LINE
  8
0
  6
CONTINUOUS
 62
     2
 10
34.492326989
 20
66.595334351
 30
0.0
 11
34.314516296
 21
66.417627468
 31
0.0
  0
LINE
  8
0
  6
CONTINUOUS
 62
     2
 10
34.845334351
 20
66.242326989
 30
0.0
 11
34.667627468
 21
66.064516296
 31
0.0
  0
ARC
  8
0
  6
CONTINUOUS
 62
     2
 10
34.659009742
 20
66.409009742
 30
0.0
 40
0.25
 50
318.184738537
 51
131.815261463
  0
ARC
  8
0
  6
CONTINUOUS
 62
     2
 10
34.482233047
 20
66.232233047
 30
0.0
 40
0.25
 50
317.865983983
 51
132.134016018
  0
LINE
  8
0
  6
CONTINUOUS
 62
     2
 10
34.025477696
 20
67.662360369
 30
0.0
 11
33.782635677
 21
67.597367041
 31
0.0
  0
LINE
  8
0
  6
CONTINUOUS
 62
     2
 10
34.154687358
 20
67.180143345
 30
0.0
 11
33.911883337
 21
67.115008209
 31
0.0
  0
ARC
  8
0
  6
CONTINUOUS
 62
     2
 10
34.076666891
 20
67.417657149
 30
0.0
 40
0.25
 50
288.184738537
 51
101.815261463
  0
ARC
  8
0
  6
CONTINUOUS
 62
     2
 10
33.835185434
 20
67.352952387
 30
0.0
 40
0.25
 50
287.865983983
 51
102.134016018
  0
ARC
  8
0
  6
CONTINUOUS
 62
     2
 10
36.25
 20
68.0
 30
0.0
 40
2.5
 50
230.731967965
 51
249.268032035
  0
ARC
  8
0
  6
CONTINUOUS
 62
     2
 10
36.25
 20
68.0
 30
0.0
 40
2.25
 50
231.369477073
 51
248.630522927
  0
ARC
  8
0
  6
CONTINUOUS
 62
     2
 10
36.25
 20
68.0
 30
0.0
 40
2.5
 50
200.731967965
 51
219.268032035
  0
ARC
  8
0
  6
CONTINUOUS
 62
     2
 10
36.25
 20
68.0
 30
0.0
 40
2.25
 50
201.369477073
 51
218.630522927
  0
LINE
  8
0
  6
CONTINUOUS
 62
     2
 10
37.069856655
 20
65.904687358
 30
0.0
 11
37.134991791
 21
65.661883337
 31
0.0
  0
LINE
  8
0
  6
CONTINUOUS
 62
     2
 10
36.587639631
 20
65.775477696
 30
0.0
 11
36.652632959
 21
65.532635677
 31
0.0
  0
ARC
  8
0
  6
CONTINUOUS
 62
     2
 10
36.832342851
 20
65.826666891
 30
0.0
 40
0.25
 50
18.184738537
 51
191.815261463
  0
ARC
  8
0
  6
CONTINUOUS
 62
     2
 10
36.897047613
 20
65.585185434
 30
0.0
 40
0.25
 50
17.865983982
 51
192.134016017
  0
LINE
  8
0
  6
CONTINUOUS
 62
     2
 10
38.007673011
 20
66.595334351
 30
0.0
 11
38.185483704
 21
66.417627468
 31
0.0
  0
LINE
  8
0
  6
CONTINUOUS
 62
     2
 10
37.654665649
 20
66.242326989
 30
0.0
 11
37.832372532
 21
66.064516296
 31
0.0
  0
ARC
  8
0
  6
CONTINUOUS
 62
     2
 10
37.840990258
 20
66.409009742
 30
0.0
 40
0.25
 50
48.184738537
 51
221.815261463
  0
ARC
  8
0
  6
CONTINUOUS
 62
     2
 10
38.017766953
 20
66.232233047
 30
0.0
 40
0.25
 50
47.865983982
 51
222.134016017
  0
LINE
  8
0
  6
CONTINUOUS
 62
     2
 10
38.474522304
 20
67.662360369
 30
0.0
 11
38.717364323
 21
67.597367041
 31
0.0
  0
LINE
  8
0
  6
CONTINUOUS
 62
     2
 10
38.345312642
 20
67.180143345
 30
0.0
 11
38.588116663
 21
67.115008209
 31
0.0
  0
ARC
  8
0
  6
CONTINUOUS
 62
     2
 10
38.423333109
 20
67.417657149
 30
0.0
 40
0.25
 50
78.184738537
 51
251.815261463
  0
ARC
  8
0
  6
CONTINUOUS
 62
     2
 10
38.664814566
 20
67.352952387
 30
0.0
 40
0.25
 50
77.865983982
 51
252.134016017
  0
ARC
  8
0
  6
CONTINUOUS
 62
     2
 10
36.25
 20
68.0
 30
0.0
 40
2.5
 50
290.731967965
 51
309.268032035
  0
ARC
  8
0
  6
CONTINUOUS
 62
     2
 10
36.25
 20
68.0
 30
0.0
 40
2.25
 50
291.369477073
 51
308.630522927
  0
ARC
  8
0
  6
CONTINUOUS
 62
     2
 10
36.25
 20
68.0
 30
0.0
 40
2.5
 50
320.731967965
 51
339.268032035
  0
ARC
  8
0
  6
CONTINUOUS
 62
     2
 10
36.25
 20
68.0
 30
0.0
 40
2.25
 50
321.369477073
 51
338.630522927
  0
ARC
  8
0
  6
CONTINUOUS
 62
     2
 10
36.25
 20
68.0
 30
0.0
 40
2.25
 50
261.369477073
 51
278.630522927
  0
ARC
  8
0
  6
CONTINUOUS
 62
     2
 10
36.25
 20
68.0
 30
0.0
 40
2.5
 50
260.731967965
 51
279.268032035
  0
LINE
  8
0
  6
CONTINUOUS
 62
     2
 10
35.430143345
 20
70.095312642
 30
0.0
 11
35.365008209
 21
70.338116663
 31
0.0
  0
LINE
  8
0
  6
CONTINUOUS
 62
     2
 10
35.912360369
 20
70.224522304
 30
0.0
 11
35.847367041
 21
70.467364323
 31
0.0
  0
ARC
  8
0
  6
CONTINUOUS
 62
     2
 10
35.667657149
 20
70.173333109
 30
0.0
 40
0.25
 50
198.184738537
 51
11.815261463
  0
ARC
  8
0
  6
CONTINUOUS
 62
     2
 10
35.602952387
 20
70.414814566
 30
0.0
 40
0.25
 50
197.865983982
 51
12.134016017
  0
LINE
  8
0
  6
CONTINUOUS
 62
     2
 10
34.492326989
 20
69.404665649
 30
0.0
 11
34.314516296
 21
69.582372532
 31
0.0
  0
LINE
  8
0
  6
CONTINUOUS
 62
     2
 10
34.845334351
 20
69.757673011
 30
0.0
 11
34.667627468
 21
69.935483704
 31
0.0
  0
ARC
  8
0
  6
CONTINUOUS
 62
     2
 10
34.659009742
 20
69.590990258
 30
0.0
 40
0.25
 50
228.184738537
 51
41.815261463
  0
ARC
  8
0
  6
CONTINUOUS
 62
     2
 10
34.482233047
 20
69.767766953
 30
0.0
 40
0.25
 50
227.865983982
 51
42.134016017
  0
LINE
  8
0
  6
CONTINUOUS
 62
     2
 10
34.025477696
 20
68.337639631
 30
0.0
 11
33.782635677
 21
68.402632959
 31
0.0
  0
LINE
  8
0
  6
CONTINUOUS
 62
     2
 10
34.154687358
 20
68.819856655
 30
0.0
 11
33.911883337
 21
68.884991791
 31
0.0
  0
ARC
  8
0
  6
CONTINUOUS
 62
     2
 10
34.076666891
 20
68.582342851
 30
0.0
 40
0.25
 50
258.184738537
 51
71.815261463
  0
ARC
  8
0
  6
CONTINUOUS
 62
     2
 10
33.835185434
 20
68.647047613
 30
0.0
 40
0.25
 50
257.865983982
 51
72.134016017
  0
ARC
  8
0
  6
CONTINUOUS
 62
     2
 10
36.25
 20
68.0
 30
0.0
 40
2.5
 50
110.731967965
 51
129.268032035
  0
ARC
  8
0
  6
CONTINUOUS
 62
     2
 10
36.25
 20
68.0
 30
0.0
 40
2.25
 50
111.369477073
 51
128.630522927
  0
ARC
  8
0
  6
CONTINUOUS
 62
     2
 10
36.25
 20
68.0
 30
0.0
 40
2.5
 50
140.731967965
 51
159.268032035
  0
ARC
  8
0
  6
CONTINUOUS
 62
     2
 10
36.25
 20
68.0
 30
0.0
 40
2.25
 50
141.369477073
 51
158.630522927
  0
LINE
  8
0
  6
CONTINUOUS
 62
     2
 10
37.069856655
 20
70.095312642
 30
0.0
 11
37.134991791
 21
70.338116663
 31
0.0
  0
LINE
  8
0
  6
CONTINUOUS
 62
     2
 10
36.587639631
 20
70.224522304
 30
0.0
 11
36.652632959
 21
70.467364323
 31
0.0
  0
ARC
  8
0
  6
CONTINUOUS
 62
     2
 10
36.832342851
 20
70.173333109
 30
0.0
 40
0.25
 50
168.184738537
 51
341.815261463
  0
ARC
  8
0
  6
CONTINUOUS
 62
     2
 10
36.897047613
 20
70.414814566
 30
0.0
 40
0.25
 50
167.865983983
 51
342.134016018
  0
LINE
  8
0
  6
CONTINUOUS
 62
     2
 10
38.007673011
 20
69.404665649
 30
0.0
 11
38.185483704
 21
69.582372532
 31
0.0
  0
LINE
  8
0
  6
CONTINUOUS
 62
     2
 10
37.654665649
 20
69.757673011
 30
0.0
 11
37.832372532
 21
69.935483704
 31
0.0
  0
ARC
  8
0
  6
CONTINUOUS
 62
     2
 10
37.840990258
 20
69.590990258
 30
0.0
 40
0.25
 50
138.184738537
 51
311.815261463
  0
ARC
  8
0
  6
CONTINUOUS
 62
     2
 10
38.017766953
 20
69.767766953
 30
0.0
 40
0.25
 50
137.865983983
 51
312.134016018
  0
LINE
  8
0
  6
CONTINUOUS
 62
     2
 10
38.474522304
 20
68.337639631
 30
0.0
 11
38.717364323
 21
68.402632959
 31
0.0
  0
LINE
  8
0
  6
CONTINUOUS
 62
     2
 10
38.345312642
 20
68.819856655
 30
0.0
 11
38.588116663
 21
68.884991791
 31
0.0
  0
ARC
  8
0
  6
CONTINUOUS
 62
     2
 10
38.423333109
 20
68.582342851
 30
0.0
 40
0.25
 50
108.184738537
 51
281.815261463
  0
ARC
  8
0
  6
CONTINUOUS
 62
     2
 10
38.664814566
 20
68.647047613
 30
0.0
 40
0.25
 50
107.865983983
 51
282.134016018
  0
ARC
  8
0
  6
CONTINUOUS
 62
     2
 10
36.25
 20
68.0
 30
0.0
 40
2.5
 50
50.731967965
 51
69.268032035
  0
ARC
  8
0
  6
CONTINUOUS
 62
     2
 10
36.25
 20
68.0
 30
0.0
 40
2.25
 50
51.369477073
 51
68.630522927
  0
ARC
  8
0
  6
CONTINUOUS
 62
     2
 10
36.25
 20
68.0
 30
0.0
 40
2.5
 50
20.731967965
 51
39.268032035
  0
ARC
  8
0
  6
CONTINUOUS
 62
     2
 10
36.25
 20
68.0
 30
0.0
 40
2.25
 50
21.369477073
 51
38.630522927
  0
ARC
  8
0
  6
CONTINUOUS
 62
     2
 10
36.25
 20
68.0
 30
0.0
 40
2.25
 50
81.369477073
 51
98.630522927
  0
ARC
  8
0
  6
CONTINUOUS
 62
     2
 10
36.25
 20
68.0
 30
0.0
 40
2.5
 50
80.731967965
 51
99.268032035
  0
ARC
  8
0
  6
CONTINUOUS
 62
     2
 10
36.25
 20
68.0
 30
0.0
 40
2.5
 50
170.731967965
 51
189.268032035
  0
ARC
  8
0
  6
CONTINUOUS
 62
     2
 10
36.25
 20
68.0
 30
0.0
 40
2.5
 50
350.731967965
 51
9.268032035
  0
ARC
  8
0
  6
CONTINUOUS
 62
     2
 10
36.25
 20
68.0
 30
0.0
 40
2.25
 50
171.369477073
 51
188.630522927
  0
ARC
  8
0
  6
CONTINUOUS
 62
     2
 10
36.25
 20
68.0
 30
0.0
 40
2.25
 50
351.369477073
 51
8.630522927
  0
LINE
  8
0
  6
LTYPE1
 62
     2
 10
33.25
 20
68.0
 30
0.0
 11
39.25
 21
68.0
 31
0.0
  0
LINE
  8
0
  6
LTYPE1
 62
     2
 10
36.25
 20
71.0
 30
0.0
 11
36.25
 21
65.0
 31
0.0
  0
LINE
  8
0
  6
LTYPE1
 62
     2
 10
37.0
 20
63.75
 30
0.0
 11
43.0
 21
63.75
 31
0.0
  0
CIRCLE
  8
0
  6
CONTINUOUS
 62
     2
 10
43.75
 20
68.0
 30
0.0
 40
1.75
  0
CIRCLE
  8
0
  6
CONTINUOUS
 62
     2
 10
43.75
 20
68.0
 30
0.0
 40
0.75
  0
LINE
  8
0
  6
CONTINUOUS
 62
     2
 10
42.930143345
 20
65.904687358
 30
0.0
 11
42.865008209
 21
65.661883337
 31
0.0
  0
LINE
  8
0
  6
CONTINUOUS
 62
     2
 10
43.412360369
 20
65.775477696
 30
0.0
 11
43.347367041
 21
65.532635677
 31
0.0
  0
ARC
  8
0
  6
CONTINUOUS
 62
     2
 10
43.167657149
 20
65.826666891
 30
0.0
 40
0.25
 50
348.184738537
 51
161.815261463
  0
ARC
  8
0
  6
CONTINUOUS
 62
     2
 10
43.102952387
 20
65.585185434
 30
0.0
 40
0.25
 50
347.865983983
 51
162.134016018
  0
LINE
  8
0
  6
CONTINUOUS
 62
     2
 10
41.992326989
 20
66.595334351
 30
0.0
 11
41.814516296
 21
66.417627468
 31
0.0
  0
LINE
  8
0
  6
CONTINUOUS
 62
     2
 10
42.345334351
 20
66.242326989
 30
0.0
 11
42.167627468
 21
66.064516296
 31
0.0
  0
ARC
  8
0
  6
CONTINUOUS
 62
     2
 10
42.159009742
 20
66.409009742
 30
0.0
 40
0.25
 50
318.184738537
 51
131.815261463
  0
ARC
  8
0
  6
CONTINUOUS
 62
     2
 10
41.982233047
 20
66.232233047
 30
0.0
 40
0.25
 50
317.865983983
 51
132.134016018
  0
LINE
  8
0
  6
CONTINUOUS
 62
     2
 10
41.525477696
 20
67.662360369
 30
0.0
 11
41.282635677
 21
67.597367041
 31
0.0
  0
LINE
  8
0
  6
CONTINUOUS
 62
     2
 10
41.654687358
 20
67.180143345
 30
0.0
 11
41.411883337
 21
67.115008209
 31
0.0
  0
ARC
  8
0
  6
CONTINUOUS
 62
     2
 10
41.576666891
 20
67.417657149
 30
0.0
 40
0.25
 50
288.184738537
 51
101.815261463
  0
ARC
  8
0
  6
CONTINUOUS
 62
     2
 10
41.335185434
 20
67.352952387
 30
0.0
 40
0.25
 50
287.865983983
 51
102.134016018
  0
ARC
  8
0
  6
CONTINUOUS
 62
     2
 10
43.75
 20
68.0
 30
0.0
 40
2.5
 50
230.731967965
 51
249.268032035
  0
ARC
  8
0
  6
CONTINUOUS
 62
     2
 10
43.75
 20
68.0
 30
0.0
 40
2.25
 50
231.369477073
 51
248.630522927
  0
ARC
  8
0
  6
CONTINUOUS
 62
     2
 10
43.75
 20
68.0
 30
0.0
 40
2.5
 50
200.731967965
 51
219.268032035
  0
ARC
  8
0
  6
CONTINUOUS
 62
     2
 10
43.75
 20
68.0
 30
0.0
 40
2.25
 50
201.369477073
 51
218.630522927
  0
LINE
  8
0
  6
CONTINUOUS
 62
     2
 10
44.569856655
 20
65.904687358
 30
0.0
 11
44.634991791
 21
65.661883337
 31
0.0
  0
LINE
  8
0
  6
CONTINUOUS
 62
     2
 10
44.087639631
 20
65.775477696
 30
0.0
 11
44.152632959
 21
65.532635677
 31
0.0
  0
ARC
  8
0
  6
CONTINUOUS
 62
     2
 10
44.332342851
 20
65.826666891
 30
0.0
 40
0.25
 50
18.184738537
 51
191.815261463
  0
ARC
  8
0
  6
CONTINUOUS
 62
     2
 10
44.397047613
 20
65.585185434
 30
0.0
 40
0.25
 50
17.865983982
 51
192.134016017
  0
LINE
  8
0
  6
CONTINUOUS
 62
     2
 10
45.507673011
 20
66.595334351
 30
0.0
 11
45.685483704
 21
66.417627468
 31
0.0
  0
LINE
  8
0
  6
CONTINUOUS
 62
     2
 10
45.154665649
 20
66.242326989
 30
0.0
 11
45.332372532
 21
66.064516296
 31
0.0
  0
ARC
  8
0
  6
CONTINUOUS
 62
     2
 10
45.340990258
 20
66.409009742
 30
0.0
 40
0.25
 50
48.184738537
 51
221.815261463
  0
ARC
  8
0
  6
CONTINUOUS
 62
     2
 10
45.517766953
 20
66.232233047
 30
0.0
 40
0.25
 50
47.865983982
 51
222.134016017
  0
LINE
  8
0
  6
CONTINUOUS
 62
     2
 10
45.974522304
 20
67.662360369
 30
0.0
 11
46.217364323
 21
67.597367041
 31
0.0
  0
LINE
  8
0
  6
CONTINUOUS
 62
     2
 10
45.845312642
 20
67.180143345
 30
0.0
 11
46.088116663
 21
67.115008209
 31
0.0
  0
ARC
  8
0
  6
CONTINUOUS
 62
     2
 10
45.923333109
 20
67.417657149
 30
0.0
 40
0.25
 50
78.184738537
 51
251.815261463
  0
ARC
  8
0
  6
CONTINUOUS
 62
     2
 10
46.164814566
 20
67.352952387
 30
0.0
 40
0.25
 50
77.865983982
 51
252.134016017
  0
ARC
  8
0
  6
CONTINUOUS
 62
     2
 10
43.75
 20
68.0
 30
0.0
 40
2.5
 50
290.731967965
 51
309.268032035
  0
ARC
  8
0
  6
CONTINUOUS
 62
     2
 10
43.75
 20
68.0
 30
0.0
 40
2.25
 50
291.369477073
 51
308.630522927
  0
ARC
  8
0
  6
CONTINUOUS
 62
     2
 10
43.75
 20
68.0
 30
0.0
 40
2.5
 50
320.731967965
 51
339.268032035
  0
ARC
  8
0
  6
CONTINUOUS
 62
     2
 10
43.75
 20
68.0
 30
0.0
 40
2.25
 50
321.369477073
 51
338.630522927
  0
ARC
  8
0
  6
CONTINUOUS
 62
     2
 10
43.75
 20
68.0
 30
0.0
 40
2.25
 50
261.369477073
 51
278.630522927
  0
ARC
  8
0
  6
CONTINUOUS
 62
     2
 10
43.75
 20
68.0
 30
0.0
 40
2.5
 50
260.731967965
 51
279.268032035
  0
LINE
  8
0
  6
CONTINUOUS
 62
     2
 10
42.930143345
 20
70.095312642
 30
0.0
 11
42.865008209
 21
70.338116663
 31
0.0
  0
LINE
  8
0
  6
CONTINUOUS
 62
     2
 10
43.412360369
 20
70.224522304
 30
0.0
 11
43.347367041
 21
70.467364323
 31
0.0
  0
ARC
  8
0
  6
CONTINUOUS
 62
     2
 10
43.167657149
 20
70.173333109
 30
0.0
 40
0.25
 50
198.184738537
 51
11.815261463
  0
ARC
  8
0
  6
CONTINUOUS
 62
     2
 10
43.102952387
 20
70.414814566
 30
0.0
 40
0.25
 50
197.865983982
 51
12.134016017
  0
LINE
  8
0
  6
CONTINUOUS
 62
     2
 10
41.992326989
 20
69.404665649
 30
0.0
 11
41.814516296
 21
69.582372532
 31
0.0
  0
LINE
  8
0
  6
CONTINUOUS
 62
     2
 10
42.345334351
 20
69.757673011
 30
0.0
 11
42.167627468
 21
69.935483704
 31
0.0
  0
ARC
  8
0
  6
CONTINUOUS
 62
     2
 10
42.159009742
 20
69.590990258
 30
0.0
 40
0.25
 50
228.184738537
 51
41.815261463
  0
ARC
  8
0
  6
CONTINUOUS
 62
     2
 10
41.982233047
 20
69.767766953
 30
0.0
 40
0.25
 50
227.865983982
 51
42.134016017
  0
LINE
  8
0
  6
CONTINUOUS
 62
     2
 10
41.525477696
 20
68.337639631
 30
0.0
 11
41.282635677
 21
68.402632959
 31
0.0
  0
LINE
  8
0
  6
CONTINUOUS
 62
     2
 10
41.654687358
 20
68.819856655
 30
0.0
 11
41.411883337
 21
68.884991791
 31
0.0
  0
ARC
  8
0
  6
CONTINUOUS
 62
     2
 10
41.576666891
 20
68.582342851
 30
0.0
 40
0.25
 50
258.184738537
 51
71.815261463
  0
ARC
  8
0
  6
CONTINUOUS
 62
     2
 10
41.335185434
 20
68.647047613
 30
0.0
 40
0.25
 50
257.865983982
 51
72.134016017
  0
ARC
  8
0
  6
CONTINUOUS
 62
     2
 10
43.75
 20
68.0
 30
0.0
 40
2.5
 50
110.731967965
 51
129.268032035
  0
ARC
  8
0
  6
CONTINUOUS
 62
     2
 10
43.75
 20
68.0
 30
0.0
 40
2.25
 50
111.369477073
 51
128.630522927
  0
ARC
  8
0
  6
CONTINUOUS
 62
     2
 10
43.75
 20
68.0
 30
0.0
 40
2.5
 50
140.731967965
 51
159.268032035
  0
ARC
  8
0
  6
CONTINUOUS
 62
     2
 10
43.75
 20
68.0
 30
0.0
 40
2.25
 50
141.369477073
 51
158.630522927
  0
LINE
  8
0
  6
CONTINUOUS
 62
     2
 10
44.569856655
 20
70.095312642
 30
0.0
 11
44.634991791
 21
70.338116663
 31
0.0
  0
LINE
  8
0
  6
CONTINUOUS
 62
     2
 10
44.087639631
 20
70.224522304
 30
0.0
 11
44.152632959
 21
70.467364323
 31
0.0
  0
ARC
  8
0
  6
CONTINUOUS
 62
     2
 10
44.332342851
 20
70.173333109
 30
0.0
 40
0.25
 50
168.184738537
 51
341.815261463
  0
ARC
  8
0
  6
CONTINUOUS
 62
     2
 10
44.397047613
 20
70.414814566
 30
0.0
 40
0.25
 50
167.865983983
 51
342.134016018
  0
LINE
  8
0
  6
CONTINUOUS
 62
     2
 10
45.507673011
 20
69.404665649
 30
0.0
 11
45.685483704
 21
69.582372532
 31
0.0
  0
LINE
  8
0
  6
CONTINUOUS
 62
     2
 10
45.154665649
 20
69.757673011
 30
0.0
 11
45.332372532
 21
69.935483704
 31
0.0
  0
ARC
  8
0
  6
CONTINUOUS
 62
     2
 10
45.340990258
 20
69.590990258
 30
0.0
 40
0.25
 50
138.184738537
 51
311.815261463
  0
ARC
  8
0
  6
CONTINUOUS
 62
     2
 10
45.517766953
 20
69.767766953
 30
0.0
 40
0.25
 50
137.865983983
 51
312.134016018
  0
LINE
  8
0
  6
CONTINUOUS
 62
     2
 10
45.974522304
 20
68.337639631
 30
0.0
 11
46.217364323
 21
68.402632959
 31
0.0
  0
LINE
  8
0
  6
CONTINUOUS
 62
     2
 10
45.845312642
 20
68.819856655
 30
0.0
 11
46.088116663
 21
68.884991791
 31
0.0
  0
ARC
  8
0
  6
CONTINUOUS
 62
     2
 10
45.923333109
 20
68.582342851
 30
0.0
 40
0.25
 50
108.184738537
 51
281.815261463
  0
ARC
  8
0
  6
CONTINUOUS
 62
     2
 10
46.164814566
 20
68.647047613
 30
0.0
 40
0.25
 50
107.865983983
 51
282.134016018
  0
ARC
  8
0
  6
CONTINUOUS
 62
     2
 10
43.75
 20
68.0
 30
0.0
 40
2.5
 50
50.731967965
 51
69.268032035
  0
ARC
  8
0
  6
CONTINUOUS
 62
     2
 10
43.75
 20
68.0
 30
0.0
 40
2.25
 50
51.369477073
 51
68.630522927
  0
ARC
  8
0
  6
CONTINUOUS
 62
     2
 10
43.75
 20
68.0
 30
0.0
 40
2.5
 50
20.731967965
 51
39.268032035
  0
ARC
  8
0
  6
CONTINUOUS
 62
     2
 10
43.75
 20
68.0
 30
0.0
 40
2.25
 50
21.369477073
 51
38.630522927
  0
ARC
  8
0
  6
CONTINUOUS
 62
     2
 10
43.75
 20
68.0
 30
0.0
 40
2.25
 50
81.369477073
 51
98.630522927
  0
ARC
  8
0
  6
CONTINUOUS
 62
     2
 10
43.75
 20
68.0
 30
0.0
 40
2.5
 50
80.731967965
 51
99.268032035
  0
ARC
  8
0
  6
CONTINUOUS
 62
     2
 10
43.75
 20
68.0
 30
0.0
 40
2.5
 50
170.731967965
 51
189.268032035
  0
ARC
  8
0
  6
CONTINUOUS
 62
     2
 10
43.75
 20
68.0
 30
0.0
 40
2.5
 50
350.731967965
 51
9.268032035
  0
ARC
  8
0
  6
CONTINUOUS
 62
     2
 10
43.75
 20
68.0
 30
0.0
 40
2.25
 50
171.369477073
 51
188.630522927
  0
ARC
  8
0
  6
CONTINUOUS
 62
     2
 10
43.75
 20
68.0
 30
0.0
 40
2.25
 50
351.369477073
 51
8.630522927
  0
LINE
  8
0
  6
LTYPE1
 62
     2
 10
40.75
 20
68.0
 30
0.0
 11
46.75
 21
68.0
 31
0.0
  0
LINE
  8
0
  6
LTYPE1
 62
     2
 10
43.75
 20
71.0
 30
0.0
 11
43.75
 21
65.0
 31
0.0
  0
CIRCLE
  8
0
  6
CONTINUOUS
 62
     2
 10
43.75
 20
68.0
 30
0.0
 40
2.5
  0
CIRCLE
  8
0
  6
CONTINUOUS
 62
     2
 10
36.25
 20
68.0
 30
0.0
 40
2.5
  0
CIRCLE
  8
0
  6
CONTINUOUS
 62
     2
 10
36.0
 20
37.0
 30
0.0
 40
1.375
  0
CIRCLE
  8
0
  6
CONTINUOUS
 62
     2
 10
36.0
 20
41.5
 30
0.0
 40
1.375
  0
CIRCLE
  8
0
  6
CONTINUOUS
 62
     2
 10
36.0
 20
46.0
 30
0.0
 40
1.375
  0
CIRCLE
  8
0
  6
CONTINUOUS
 62
     2
 10
36.0
 20
32.5
 30
0.0
 40
1.375
  0
CIRCLE
  8
0
  6
CONTINUOUS
 62
     2
 10
36.0
 20
28.0
 30
0.0
 40
1.375
  0
CIRCLE
  8
0
  6
CONTINUOUS
 62
     2
 10
44.0
 20
37.0
 30
0.0
 40
1.375
  0
CIRCLE
  8
0
  6
CONTINUOUS
 62
     2
 10
44.0
 20
41.5
 30
0.0
 40
1.375
  0
CIRCLE
  8
0
  6
CONTINUOUS
 62
     2
 10
44.0
 20
46.0
 30
0.0
 40
1.375
  0
CIRCLE
  8
0
  6
CONTINUOUS
 62
     2
 10
44.0
 20
32.5
 30
0.0
 40
1.375
  0
CIRCLE
  8
0
  6
CONTINUOUS
 62
     2
 10
44.0
 20
28.0
 30
0.0
 40
1.375
  0
LINE
  8
0
  6
CONTINUOUS
 62
     2
 10
28.0
 20
46.0
 30
0.0
 11
30.414814566
 21
45.352952387
 31
0.0
  0
LINE
  8
0
  6
CONTINUOUS
 62
     2
 10
28.0
 20
46.0
 30
0.0
 11
30.414814566
 21
46.647047613
 31
0.0
  0
LINE
  8
0
  6
CONTINUOUS
 62
     2
 10
28.0
 20
41.5
 30
0.0
 11
30.414814566
 21
40.852952387
 31
0.0
  0
LINE
  8
0
  6
CONTINUOUS
 62
     2
 10
28.0
 20
41.5
 30
0.0
 11
30.414814566
 21
42.147047613
 31
0.0
  0
LINE
  8
0
  6
CONTINUOUS
 62
     2
 10
34.625
 20
41.5
 30
0.0
 11
28.0
 21
41.5
 31
0.0
  0
TEXT
  8
0
  6
CONTINUOUS
 62
     2
 10
32.0
 20
45.5
 30
0.1
 40
1.0
  1
（＋）
 50
0.0
 41
0.9
 51
0.0
  7
KANJI3
  0
LINE
  8
0
  6
CONTINUOUS
 62
     2
 10
45.375
 20
41.5
 30
0.0
 11
52.0
 21
41.5
 31
0.0
  0
TEXT
  8
0
  6
CONTINUOUS
 62
     2
 10
45.1
 20
45.5
 30
0.1
 40
1.0
  1
（＋）
 50
0.0
 41
0.9
 51
0.0
  7
KANJI3
  0
TEXT
  8
0
  6
CONTINUOUS
 62
     2
 10
48.9
 20
42.3
 30
0.3
 40
3.0
  1
制御電源
 50
0.0
 41
0.9
 51
0.0
  7
KANJI2
  0
TEXT
  8
0
  6
CONTINUOUS
 62
     2
 10
15.9
 20
42.3
 30
0.3
 40
3.0
  1
計器入力
 50
0.0
 41
0.9
 51
0.0
  7
KANJI2
  0
CIRCLE
  8
0
  6
CONTINUOUS
 62
     2
 10
32.0
 20
37.0
 30
0.0
 40
1.0
  0
LINE
  8
0
  6
CONTINUOUS
 62
     2
 10
24.647047613
 20
34.585185434
 30
0.0
 11
25.294095226
 21
37.0
 31
0.0
  0
LINE
  8
0
  6
CONTINUOUS
 62
     2
 10
24.647047613
 20
34.585185434
 30
0.0
 11
24.0
 21
37.0
 31
0.0
  0
LINE
  8
0
  6
CONTINUOUS
 62
     2
 10
24.647047613
 20
30.414814566
 30
0.0
 11
25.294095226
 21
28.0
 31
0.0
  0
LINE
  8
0
  6
CONTINUOUS
 62
     2
 10
24.647047613
 20
30.414814566
 30
0.0
 11
24.0
 21
28.0
 31
0.0
  0
LINE
  8
0
  6
CONTINUOUS
 62
     2
 10
24.647047613
 20
29.642073905
 30
0.0
 11
24.260645075
 21
28.2
 31
0.0
  0
LINE
  8
0
  6
CONTINUOUS
 62
     2
 10
24.647047613
 20
28.869333244
 30
0.0
 11
24.521290149
 21
28.4
 31
0.0
  0
LINE
  8
0
  6
CONTINUOUS
 62
     2
 10
24.647047613
 20
28.869333244
 30
0.0
 11
24.772805076
 21
28.4
 31
0.0
  0
LINE
  8
0
  6
CONTINUOUS
 62
     2
 10
24.772805076
 20
28.4
 30
0.0
 11
24.521290149
 21
28.4
 31
0.0
  0
LINE
  8
0
  6
CONTINUOUS
 62
     2
 10
24.647047613
 20
29.642073905
 30
0.0
 11
25.033450151
 21
28.2
 31
0.0
  0
LINE
  8
0
  6
CONTINUOUS
 62
     2
 10
24.260645075
 20
28.2
 30
0.0
 11
25.033450151
 21
28.2
 31
0.0
  0
CIRCLE
  8
0
  6
CONTINUOUS
 62
     2
 10
32.0
 20
32.5
 30
0.0
 40
1.0
  0
CIRCLE
  8
0
  6
CONTINUOUS
 62
     2
 10
32.0
 20
28.0
 30
0.0
 40
1.0
  0
LINE
  8
0
  6
CONTINUOUS
 62
     2
 10
31.0
 20
37.0
 30
0.0
 11
24.0
 21
37.0
 31
0.0
  0
LINE
  8
0
  6
CONTINUOUS
 62
     2
 10
31.037936749
 20
32.227173498
 30
0.0
 11
23.647047613
 21
30.131229779
 31
0.0
  0
LINE
  8
0
  6
CONTINUOUS
 62
     2
 10
31.0
 20
28.0
 30
0.0
 11
24.0
 21
28.0
 31
0.0
  0
TEXT
  8
0
  6
CONTINUOUS
 62
     2
 10
32.9
 20
36.4
 30
0.2
 40
2.0
  1
ａ
 50
0.0
 41
0.9
 51
0.0
  7
KANJI4
  0
TEXT
  8
0
  6
CONTINUOUS
 62
     2
 10
32.9
 20
31.9
 30
0.2
 40
2.0
  1
ｃ
 50
0.0
 41
0.9
 51
0.0
  7
KANJI4
  0
TEXT
  8
0
  6
CONTINUOUS
 62
     2
 10
32.9
 20
27.4
 30
0.2
 40
2.0
  1
ｂ
 50
0.0
 41
0.9
 51
0.0
  7
KANJI4
  0
CIRCLE
  8
0
  6
CONTINUOUS
 62
     2
 10
48.0
 20
37.0
 30
0.0
 40
1.0
  0
LINE
  8
0
  6
CONTINUOUS
 62
     2
 10
55.352952387
 20
34.585185434
 30
0.0
 11
54.705904774
 21
37.0
 31
0.0
  0
LINE
  8
0
  6
CONTINUOUS
 62
     2
 10
55.352952387
 20
34.585185434
 30
0.0
 11
56.0
 21
37.0
 31
0.0
  0
LINE
  8
0
  6
CONTINUOUS
 62
     2
 10
55.352952387
 20
30.414814566
 30
0.0
 11
54.705904774
 21
28.0
 31
0.0
  0
LINE
  8
0
  6
CONTINUOUS
 62
     2
 10
55.352952387
 20
30.414814566
 30
0.0
 11
56.0
 21
28.0
 31
0.0
  0
LINE
  8
0
  6
CONTINUOUS
 62
     2
 10
55.352952387
 20
29.642073905
 30
0.0
 11
55.739354925
 21
28.2
 31
0.0
  0
LINE
  8
0
  6
CONTINUOUS
 62
     2
 10
55.352952387
 20
28.869333244
 30
0.0
 11
55.478709851
 21
28.4
 31
0.0
  0
LINE
  8
0
  6
CONTINUOUS
 62
     2
 10
55.352952387
 20
28.869333244
 30
0.0
 11
55.227194924
 21
28.4
 31
0.0
  0
LINE
  8
0
  6
CONTINUOUS
 62
     2
 10
55.227194924
 20
28.4
 30
0.0
 11
55.478709851
 21
28.4
 31
0.0
  0
LINE
  8
0
  6
CONTINUOUS
 62
     2
 10
55.352952387
 20
29.642073905
 30
0.0
 11
54.966549849
 21
28.2
 31
0.0
  0
LINE
  8
0
  6
CONTINUOUS
 62
     2
 10
55.739354925
 20
28.2
 30
0.0
 11
54.966549849
 21
28.2
 31
0.0
  0
CIRCLE
  8
0
  6
CONTINUOUS
 62
     2
 10
48.0
 20
32.5
 30
0.0
 40
1.0
  0
CIRCLE
  8
0
  6
CONTINUOUS
 62
     2
 10
48.0
 20
28.0
 30
0.0
 40
1.0
  0
LINE
  8
0
  6
CONTINUOUS
 62
     2
 10
49.0
 20
37.0
 30
0.0
 11
56.0
 21
37.0
 31
0.0
  0
LINE
  8
0
  6
CONTINUOUS
 62
     2
 10
48.962063251
 20
32.227173498
 30
0.0
 11
56.352952387
 21
30.131229779
 31
0.0
  0
LINE
  8
0
  6
CONTINUOUS
 62
     2
 10
49.0
 20
28.0
 30
0.0
 11
56.0
 21
28.0
 31
0.0
  0
TEXT
  8
0
  6
CONTINUOUS
 62
     2
 10
45.275
 20
36.4
 30
0.2
 40
2.0
  1
ａ
 50
0.0
 41
0.9
 51
0.0
  7
KANJI4
  0
TEXT
  8
0
  6
CONTINUOUS
 62
     2
 10
45.275
 20
31.9
 30
0.2
 40
2.0
  1
ｃ
 50
0.0
 41
0.9
 51
0.0
  7
KANJI4
  0
TEXT
  8
0
  6
CONTINUOUS
 62
     2
 10
45.275
 20
27.4
 30
0.2
 40
2.0
  1
ｂ
 50
0.0
 41
0.9
 51
0.0
  7
KANJI4
  0
TEXT
  8
0
  6
CONTINUOUS
 62
     2
 10
37.9
 20
45.25
 30
0.15
 40
1.5
  1
１
 50
0.0
 41
0.9
 51
0.0
  7
KANJI5
  0
TEXT
  8
0
  6
CONTINUOUS
 62
     2
 10
37.9
 20
40.75
 30
0.15
 40
1.5
  1
２
 50
0.0
 41
0.9
 51
0.0
  7
KANJI5
  0
TEXT
  8
0
  6
CONTINUOUS
 62
     2
 10
37.9
 20
36.25
 30
0.15
 40
1.5
  1
３
 50
0.0
 41
0.9
 51
0.0
  7
KANJI5
  0
TEXT
  8
0
  6
CONTINUOUS
 62
     2
 10
37.9
 20
31.75
 30
0.15
 40
1.5
  1
４
 50
0.0
 41
0.9
 51
0.0
  7
KANJI5
  0
TEXT
  8
0
  6
CONTINUOUS
 62
     2
 10
37.9
 20
27.25
 30
0.15
 40
1.5
  1
５
 50
0.0
 41
0.9
 51
0.0
  7
KANJI5
  0
TEXT
  8
0
  6
CONTINUOUS
 62
     2
 10
40.9
 20
45.25
 30
0.15
 40
1.5
  1
９
 50
0.0
 41
0.9
 51
0.0
  7
KANJI5
  0
TEXT
  8
0
  6
CONTINUOUS
 62
     2
 10
40.9
 20
40.75
 30
0.15
 40
1.5
  1
１０
 50
0.0
 41
0.45
 51
0.0
  7
KANJI6
  0
TEXT
  8
0
  6
CONTINUOUS
 62
     2
 10
40.9
 20
36.25
 30
0.15
 40
1.5
  1
６
 50
0.0
 41
0.9
 51
0.0
  7
KANJI5
  0
TEXT
  8
0
  6
CONTINUOUS
 62
     2
 10
40.9
 20
31.75
 30
0.15
 40
1.5
  1
７
 50
0.0
 41
0.9
 51
0.0
  7
KANJI5
  0
TEXT
  8
0
  6
CONTINUOUS
 62
     2
 10
40.9
 20
27.25
 30
0.15
 40
1.5
  1
８
 50
0.0
 41
0.9
 51
0.0
  7
KANJI5
  0
TEXT
  8
0
  6
CONTINUOUS
 62
     2
 10
94.9
 20
45.25
 30
0.15
 40
1.5
  1
１
 50
0.0
 41
0.9
 51
0.0
  7
KANJI5
  0
TEXT
  8
0
  6
CONTINUOUS
 62
     2
 10
94.9
 20
40.75
 30
0.15
 40
1.5
  1
２
 50
0.0
 41
0.9
 51
0.0
  7
KANJI5
  0
TEXT
  8
0
  6
CONTINUOUS
 62
     2
 10
94.9
 20
36.25
 30
0.15
 40
1.5
  1
３
 50
0.0
 41
0.9
 51
0.0
  7
KANJI5
  0
TEXT
  8
0
  6
CONTINUOUS
 62
     2
 10
94.9
 20
31.75
 30
0.15
 40
1.5
  1
４
 50
0.0
 41
0.9
 51
0.0
  7
KANJI5
  0
TEXT
  8
0
  6
CONTINUOUS
 62
     2
 10
94.9
 20
27.25
 30
0.15
 40
1.5
  1
５
 50
0.0
 41
0.9
 51
0.0
  7
KANJI5
  0
TEXT
  8
0
  6
CONTINUOUS
 62
     2
 10
97.9
 20
45.25
 30
0.15
 40
1.5
  1
９
 50
0.0
 41
0.9
 51
0.0
  7
KANJI5
  0
TEXT
  8
0
  6
CONTINUOUS
 62
     2
 10
97.9
 20
40.75
 30
0.15
 40
1.5
  1
１０
 50
0.0
 41
0.45
 51
0.0
  7
KANJI6
  0
TEXT
  8
0
  6
CONTINUOUS
 62
     2
 10
97.9
 20
36.25
 30
0.15
 40
1.5
  1
６
 50
0.0
 41
0.9
 51
0.0
  7
KANJI5
  0
TEXT
  8
0
  6
CONTINUOUS
 62
     2
 10
97.9
 20
31.75
 30
0.15
 40
1.5
  1
７
 50
0.0
 41
0.9
 51
0.0
  7
KANJI5
  0
TEXT
  8
0
  6
CONTINUOUS
 62
     2
 10
97.9
 20
27.25
 30
0.15
 40
1.5
  1
８
 50
0.0
 41
0.9
 51
0.0
  7
KANJI5
  0
TEXT
  8
0
  6
CONTINUOUS
 62
     2
 10
142.9
 20
45.25
 30
0.15
 40
1.5
  1
１
 50
0.0
 41
0.9
 51
0.0
  7
KANJI5
  0
TEXT
  8
0
  6
CONTINUOUS
 62
     2
 10
142.9
 20
40.75
 30
0.15
 40
1.5
  1
２
 50
0.0
 41
0.9
 51
0.0
  7
KANJI5
  0
TEXT
  8
0
  6
CONTINUOUS
 62
     2
 10
142.9
 20
36.25
 30
0.15
 40
1.5
  1
３
 50
0.0
 41
0.9
 51
0.0
  7
KANJI5
  0
TEXT
  8
0
  6
CONTINUOUS
 62
     2
 10
142.9
 20
31.75
 30
0.15
 40
1.5
  1
４
 50
0.0
 41
0.9
 51
0.0
  7
KANJI5
  0
TEXT
  8
0
  6
CONTINUOUS
 62
     2
 10
142.9
 20
27.25
 30
0.15
 40
1.5
  1
５
 50
0.0
 41
0.9
 51
0.0
  7
KANJI5
  0
TEXT
  8
0
  6
CONTINUOUS
 62
     2
 10
145.9
 20
45.25
 30
0.15
 40
1.5
  1
９
 50
0.0
 41
0.9
 51
0.0
  7
KANJI5
  0
TEXT
  8
0
  6
CONTINUOUS
 62
     2
 10
145.9
 20
40.75
 30
0.15
 40
1.5
  1
１０
 50
0.0
 41
0.45
 51
0.0
  7
KANJI6
  0
TEXT
  8
0
  6
CONTINUOUS
 62
     2
 10
145.9
 20
36.25
 30
0.15
 40
1.5
  1
６
 50
0.0
 41
0.9
 51
0.0
  7
KANJI5
  0
TEXT
  8
0
  6
CONTINUOUS
 62
     2
 10
145.9
 20
31.75
 30
0.15
 40
1.5
  1
７
 50
0.0
 41
0.9
 51
0.0
  7
KANJI5
  0
TEXT
  8
0
  6
CONTINUOUS
 62
     2
 10
145.9
 20
27.25
 30
0.15
 40
1.5
  1
８
 50
0.0
 41
0.9
 51
0.0
  7
KANJI5
  0
TEXT
  8
0
  6
CONTINUOUS
 62
     2
 10
71.64
 20
30.28
 30
0.16
 40
2.4
  1
負荷リレ－
 50
0.0
 41
0.7
 51
0.0
  7
KANJI7
  0
TEXT
  8
0
  6
CONTINUOUS
 62
     2
 10
56.92
 20
34.28
 30
0.24
 40
2.4
  1
Ｌ側
 50
0.0
 41
0.9
 51
0.0
  7
KANJI8
  0
TEXT
  8
0
  6
CONTINUOUS
 62
     2
 10
56.92
 20
30.28
 30
0.16
 40
2.4
  1
負荷リレ－
 50
0.0
 41
0.7
 51
0.0
  7
KANJI7
  0
TEXT
  8
0
  6
CONTINUOUS
 62
     2
 10
12.6
 20
30.36
 30
0.24
 40
2.4
  1
負荷リレ－
 50
0.0
 41
0.9
 51
0.0
  7
KANJI8
  0
TEXT
  8
0
  6
CONTINUOUS
 62
     2
 10
12.6
 20
34.36
 30
0.24
 40
2.4
  1
Ｈ側
 50
0.0
 41
0.9
 51
0.0
  7
KANJI8
  0
TEXT
  8
0
  6
CONTINUOUS
 62
     2
 10
71.54
 20
34.38
 30
0.24
 40
2.4
  1
Ｈ側
 50
0.0
 41
0.9
 51
0.0
  7
KANJI8
  0
TEXT
  8
0
  6
CONTINUOUS
 62
     2
 10
45.4
 20
47.52
 30
0.24
 40
2.4
  1
注
 50
0.0
 41
0.6
 51
0.0
  7
KANJI9
  0
TEXT
  8
0
  6
CONTINUOUS
 62
     2
 10
32.22
 20
47.52
 30
0.24
 40
2.4
  1
注
 50
0.0
 41
0.6
 51
0.0
  7
KANJI9
  0
LINE
  8
0
  6
CONTINUOUS
 62
     2
 10
48.0
 20
46.0
 30
0.0
 11
52.0
 21
46.0
 31
0.0
  0
LINE
  8
0
  6
CONTINUOUS
 62
     2
 10
31.9
 20
46.0
 30
0.0
 11
28.0
 21
46.0
 31
0.0
  0
LINE
  8
0
  6
CONTINUOUS
 62
     2
 10
28.5
 20
73.25
 30
0.0
 11
51.5
 21
73.25
 31
0.0
  0
LINE
  8
0
  6
CONTINUOUS
 62
     2
 10
43.5
 20
77.75
 30
0.0
 11
36.5
 21
77.75
 31
0.0
  0
LINE
  8
0
  6
CONTINUOUS
 62
     2
 10
47.049420471
 20
77.305215763
 30
0.0
 11
47.5
 21
73.25
 31
0.0
  0
ARC
  8
0
  6
CONTINUOUS
 62
     2
 10
46.552478603
 20
77.25
 30
0.0
 40
0.5
 50
6.340191746
 51
90.0
  0
LINE
  8
0
  6
CONTINUOUS
 62
     2
 10
46.552478603
 20
77.75
 30
0.0
 11
43.5
 21
77.75
 31
0.0
  0
LINE
  8
0
  6
CONTINUOUS
 62
     2
 10
32.950579529
 20
77.305215763
 30
0.0
 11
32.5
 21
73.25
 31
0.0
  0
ARC
  8
0
  6
CONTINUOUS
 62
     2
 10
33.447521397
 20
77.25
 30
0.0
 40
0.5
 50
90.0
 51
173.659808254
  0
LINE
  8
0
  6
CONTINUOUS
 62
     2
 10
36.5
 20
77.75
 30
0.0
 11
33.447521397
 21
77.75
 31
0.0
  0
LINE
  8
0
  6
CONTINUOUS
 62
     2
 10
25.093144861
 20
86.515298166
 30
0.0
 11
24.993144861
 21
85.815298166
 31
0.0
  0
LINE
  8
0
  6
CONTINUOUS
 62
     2
 10
54.906855139
 20
86.515298166
 30
0.0
 11
55.006855139
 21
85.815298166
 31
0.0
  0
LINE
  8
0
  6
CONTINUOUS
 62
     2
 10
23.987886865
 20
85.510973107
 30
0.0
 11
23.809363249
 21
85.335950588
 31
0.0
  0
LINE
  8
0
  6
CONTINUOUS
 62
     2
 10
23.987886865
 20
85.510973107
 30
0.0
 11
31.482571476
 21
77.75
 31
0.0
  0
LINE
  8
0
  6
CONTINUOUS
 62
     2
 10
47.132346865
 20
77.25
 30
0.0
 11
54.906855139
 21
86.515298166
 31
0.0
  0
LINE
  8
0
  6
CONTINUOUS
 62
     2
 10
55.021086335
 20
85.815298166
 30
0.0
 11
47.294283214
 21
76.35
 31
0.0
  0
LINE
  8
0
  6
CONTINUOUS
 62
     2
 10
32.867653135
 20
77.25
 30
0.0
 11
25.093144861
 21
86.515298166
 31
0.0
  0
LINE
  8
0
  6
CONTINUOUS
 62
     2
 10
24.978913665
 20
85.815298166
 30
0.0
 11
32.705716786
 21
76.35
 31
0.0
  0
LINE
  8
0
  6
CONTINUOUS
 62
     2
 10
32.776701495
 20
76.05
 30
0.0
 11
23.809363249
 21
85.335950588
 31
0.0
  0
LINE
  8
0
  6
CONTINUOUS
 62
     2
 10
85.5
 20
73.25
 30
0.0
 11
108.5
 21
73.25
 31
0.0
  0
LINE
  8
0
  6
CONTINUOUS
 62
     2
 10
100.5
 20
77.75
 30
0.0
 11
93.5
 21
77.75
 31
0.0
  0
LINE
  8
0
  6
CONTINUOUS
 62
     2
 10
104.049420471
 20
77.305215763
 30
0.0
 11
104.5
 21
73.25
 31
0.0
  0
ARC
  8
0
  6
CONTINUOUS
 62
     2
 10
103.552478603
 20
77.25
 30
0.0
 40
0.5
 50
6.340191746
 51
90.0
  0
LINE
  8
0
  6
CONTINUOUS
 62
     2
 10
103.552478603
 20
77.75
 30
0.0
 11
100.5
 21
77.75
 31
0.0
  0
LINE
  8
0
  6
CONTINUOUS
 62
     2
 10
89.950579529
 20
77.305215763
 30
0.0
 11
89.5
 21
73.25
 31
0.0
  0
ARC
  8
0
  6
CONTINUOUS
 62
     2
 10
90.447521397
 20
77.25
 30
0.0
 40
0.5
 50
90.0
 51
173.659808254
  0
LINE
  8
0
  6
CONTINUOUS
 62
     2
 10
93.5
 20
77.75
 30
0.0
 11
90.447521397
 21
77.75
 31
0.0
  0
LINE
  8
0
  6
CONTINUOUS
 62
     2
 10
111.906855139
 20
86.515298166
 30
0.0
 11
112.006855139
 21
85.815298166
 31
0.0
  0
LINE
  8
0
  6
CONTINUOUS
 62
     2
 10
80.987886865
 20
85.510973107
 30
0.0
 11
80.809363249
 21
85.335950588
 31
0.0
  0
LINE
  8
0
  6
CONTINUOUS
 62
     2
 10
104.132346865
 20
77.25
 30
0.0
 11
111.906855139
 21
86.515298166
 31
0.0
  0
LINE
  8
0
  6
CONTINUOUS
 62
     2
 10
112.021086335
 20
85.815298166
 30
0.0
 11
104.294283214
 21
76.35
 31
0.0
  0
LINE
  8
0
  6
CONTINUOUS
 62
     2
 10
89.776701495
 20
76.05
 30
0.0
 11
80.809363249
 21
85.335950588
 31
0.0
  0
LINE
  8
0
  6
CONTINUOUS
 62
     2
 10
148.5
 20
77.75
 30
0.0
 11
141.5
 21
77.75
 31
0.0
  0
LINE
  8
0
  6
CONTINUOUS
 62
     2
 10
152.049420471
 20
77.305215763
 30
0.0
 11
152.5
 21
73.25
 31
0.0
  0
ARC
  8
0
  6
CONTINUOUS
 62
     2
 10
151.552478603
 20
77.25
 30
0.0
 40
0.5
 50
6.340191746
 51
90.0
  0
LINE
  8
0
  6
CONTINUOUS
 62
     2
 10
151.552478603
 20
77.75
 30
0.0
 11
148.5
 21
77.75
 31
0.0
  0
LINE
  8
0
  6
CONTINUOUS
 62
     2
 10
137.950579529
 20
77.305215763
 30
0.0
 11
137.5
 21
73.25
 31
0.0
  0
ARC
  8
0
  6
CONTINUOUS
 62
     2
 10
138.447521397
 20
77.25
 30
0.0
 40
0.5
 50
90.0
 51
173.659808254
  0
LINE
  8
0
  6
CONTINUOUS
 62
     2
 10
141.5
 20
77.75
 30
0.0
 11
138.447521397
 21
77.75
 31
0.0
  0
LINE
  8
0
  6
CONTINUOUS
 62
     2
 10
130.093144861
 20
86.515298166
 30
0.0
 11
129.993144861
 21
85.815298166
 31
0.0
  0
LINE
  8
0
  6
CONTINUOUS
 62
     2
 10
128.987886865
 20
85.510973107
 30
0.0
 11
128.809363249
 21
85.335950588
 31
0.0
  0
LINE
  8
0
  6
CONTINUOUS
 62
     2
 10
128.987886865
 20
85.510973107
 30
0.0
 11
136.482571476
 21
77.75
 31
0.0
  0
LINE
  8
0
  6
CONTINUOUS
 62
     2
 10
137.867653135
 20
77.25
 30
0.0
 11
130.093144861
 21
86.515298166
 31
0.0
  0
LINE
  8
0
  6
CONTINUOUS
 62
     2
 10
129.978913665
 20
85.815298166
 30
0.0
 11
137.705716786
 21
76.35
 31
0.0
  0
LINE
  8
0
  6
CONTINUOUS
 62
     2
 10
137.776701495
 20
76.05
 30
0.0
 11
128.809363249
 21
85.335950588
 31
0.0
  0
LINE
  8
0
  6
CONTINUOUS
 62
     2
 10
80.987886865
 20
85.510973107
 30
0.0
 11
89.83453576
 21
76.35
 31
0.0
  0
TEXT
  8
0
  6
CONTINUOUS
 62
     2
 10
162.7
 20
30.2
 30
0.3
 40
3.0
  1
負荷リレ－
 50
0.0
 41
0.9
 51
0.0
  7
KANJI2
  0
TEXT
  8
0
  6
CONTINUOUS
 62
     2
 10
162.9
 20
34.0
 30
0.3
 40
3.0
  1
Ｌ側
 50
0.0
 41
0.9
 51
0.0
  7
KANJI2
  0
TEXT
  8
0
  6
CONTINUOUS
 62
     2
 10
19.0
 20
20.2
 30
0.3
 40
3.0
  1
Ｈ，Ｌ設定用端子構成及び設定部
 50
0.0
 41
0.9
 51
0.0
  7
KANJI2
  0
TEXT
  8
0
  6
CONTINUOUS
 62
     2
 10
78.5
 20
20.2
 30
0.3
 40
3.0
  1
Ｈ設定用端子構成及び設定部
 50
0.0
 41
0.9
 51
0.0
  7
KANJI2
  0
TEXT
  8
0
  6
CONTINUOUS
 62
     2
 10
126.5
 20
20.2
 30
0.3
 40
3.0
  1
Ｌ設定用端子構成及び設定部
 50
0.0
 41
0.9
 51
0.0
  7
KANJI2
  0
LINE
  8
0
  6
LTYPE1
 62
     2
 10
40.0
 20
87.3
 30
0.0
 11
40.0
 21
54.0
 31
0.0
  0
LINE
  8
0
  6
LTYPE1
 62
     2
 10
164.9
 20
82.0
 30
0.0
 11
210.0
 21
82.0
 31
0.0
  0
TEXT
  8
0
  6
CONTINUOUS
 62
     2
 10
137.22
 20
47.4
 30
0.24
 40
2.4
  1
注
 50
0.0
 41
0.6
 51
0.0
  7
KANJI9
  0
TEXT
  8
0
  6
CONTINUOUS
 62
     2
 10
89.46
 20
47.4
 30
0.24
 40
2.4
  1
注
 50
0.0
 41
0.6
 51
0.0
  7
KANJI9
  0
TEXT
  8
0
  6
CONTINUOUS
 62
     2
 10
102.78
 20
47.3
 30
0.24
 40
2.4
  1
注
 50
0.0
 41
0.6
 51
0.0
  7
KANJI9
  0
TEXT
  8
0
  6
CONTINUOUS
 62
     2
 10
151.1
 20
47.42
 30
0.24
 40
2.4
  1
注
 50
0.0
 41
0.6
 51
0.0
  7
KANJI9
  0
LINE
  8
0
  6
LTYPE3
 62
     2
 10
138.75
 20
141.0
 30
0.0
 11
135.25
 21
141.0
 31
0.0
  0
ARC
  8
0
  6
CONTINUOUS
 62
     2
 10
136.0
 20
142.55
 30
0.0
 40
0.25
 50
90.0
 51
180.0
  0
LINE
  8
0
  6
CONTINUOUS
 62
     2
 10
135.75
 20
142.55
 30
0.0
 11
135.75
 21
139.45
 31
0.0
  0
ARC
  8
0
  6
CONTINUOUS
 62
     2
 10
136.0
 20
139.45
 30
0.0
 40
0.25
 50
180.0
 51
270.0
  0
ARC
  8
0
  6
CONTINUOUS
 62
     2
 10
138.75
 20
143.05
 30
0.0
 40
0.25
 50
270.0
 51
0.0
  0
ARC
  8
0
  6
CONTINUOUS
 62
     2
 10
138.75
 20
138.95
 30
0.0
 40
0.25
 50
0.0
 51
90.0
  0
LINE
  8
0
  6
CONTINUOUS
 62
     2
 10
138.75
 20
142.8
 30
0.0
 11
136.0
 21
142.8
 31
0.0
  0
LINE
  8
0
  6
CONTINUOUS
 62
     2
 10
136.0
 20
139.2
 30
0.0
 11
138.75
 21
139.2
 31
0.0
  0
LINE
  8
0
  6
CONTINUOUS
 62
     2
 10
135.75
 20
142.25
 30
0.0
 11
136.25
 21
142.25
 31
0.0
  0
LINE
  8
0
  6
CONTINUOUS
 62
     2
 10
136.25
 20
142.25
 30
0.0
 11
136.25
 21
139.75
 31
0.0
  0
LINE
  8
0
  6
CONTINUOUS
 62
     2
 10
136.25
 20
139.75
 30
0.0
 11
135.75
 21
139.75
 31
0.0
  0
ARC
  8
0
  6
CONTINUOUS
 62
     2
 10
136.0
 20
147.05
 30
0.0
 40
0.25
 50
90.0
 51
180.0
  0
LINE
  8
0
  6
CONTINUOUS
 62
     2
 10
135.75
 20
147.05
 30
0.0
 11
135.75
 21
143.95
 31
0.0
  0
ARC
  8
0
  6
CONTINUOUS
 62
     2
 10
136.0
 20
143.95
 30
0.0
 40
0.25
 50
180.0
 51
270.0
  0
ARC
  8
0
  6
CONTINUOUS
 62
     2
 10
138.75
 20
147.55
 30
0.0
 40
0.25
 50
270.0
 51
0.0
  0
ARC
  8
0
  6
CONTINUOUS
 62
     2
 10
138.75
 20
143.45
 30
0.0
 40
0.25
 50
0.0
 51
90.0
  0
LINE
  8
0
  6
CONTINUOUS
 62
     2
 10
138.75
 20
147.3
 30
0.0
 11
136.0
 21
147.3
 31
0.0
  0
LINE
  8
0
  6
CONTINUOUS
 62
     2
 10
136.0
 20
143.7
 30
0.0
 11
138.75
 21
143.7
 31
0.0
  0
LINE
  8
0
  6
CONTINUOUS
 62
     2
 10
135.75
 20
146.75
 30
0.0
 11
136.25
 21
146.75
 31
0.0
  0
LINE
  8
0
  6
CONTINUOUS
 62
     2
 10
136.25
 20
146.75
 30
0.0
 11
136.25
 21
144.25
 31
0.0
  0
LINE
  8
0
  6
CONTINUOUS
 62
     2
 10
136.25
 20
144.25
 30
0.0
 11
135.75
 21
144.25
 31
0.0
  0
ARC
  8
0
  6
CONTINUOUS
 62
     2
 10
136.0
 20
151.55
 30
0.0
 40
0.25
 50
90.0
 51
180.0
  0
LINE
  8
0
  6
CONTINUOUS
 62
     2
 10
135.75
 20
151.55
 30
0.0
 11
135.75
 21
148.45
 31
0.0
  0
ARC
  8
0
  6
CONTINUOUS
 62
     2
 10
136.0
 20
148.45
 30
0.0
 40
0.25
 50
180.0
 51
270.0
  0
ARC
  8
0
  6
CONTINUOUS
 62
     2
 10
138.75
 20
152.05
 30
0.0
 40
0.25
 50
270.0
 51
0.0
  0
ARC
  8
0
  6
CONTINUOUS
 62
     2
 10
138.75
 20
147.95
 30
0.0
 40
0.25
 50
0.0
 51
90.0
  0
LINE
  8
0
  6
CONTINUOUS
 62
     2
 10
138.75
 20
151.8
 30
0.0
 11
136.0
 21
151.8
 31
0.0
  0
LINE
  8
0
  6
CONTINUOUS
 62
     2
 10
136.0
 20
148.2
 30
0.0
 11
138.75
 21
148.2
 31
0.0
  0
LINE
  8
0
  6
CONTINUOUS
 62
     2
 10
135.75
 20
151.25
 30
0.0
 11
136.25
 21
151.25
 31
0.0
  0
LINE
  8
0
  6
CONTINUOUS
 62
     2
 10
136.25
 20
151.25
 30
0.0
 11
136.25
 21
148.75
 31
0.0
  0
LINE
  8
0
  6
CONTINUOUS
 62
     2
 10
136.25
 20
148.75
 30
0.0
 11
135.75
 21
148.75
 31
0.0
  0
ARC
  8
0
  6
CONTINUOUS
 62
     2
 10
136.0
 20
138.05
 30
0.0
 40
0.25
 50
90.0
 51
180.0
  0
LINE
  8
0
  6
CONTINUOUS
 62
     2
 10
135.75
 20
138.05
 30
0.0
 11
135.75
 21
134.95
 31
0.0
  0
ARC
  8
0
  6
CONTINUOUS
 62
     2
 10
136.0
 20
134.95
 30
0.0
 40
0.25
 50
180.0
 51
270.0
  0
ARC
  8
0
  6
CONTINUOUS
 62
     2
 10
138.75
 20
138.55
 30
0.0
 40
0.25
 50
270.0
 51
0.0
  0
ARC
  8
0
  6
CONTINUOUS
 62
     2
 10
138.75
 20
134.45
 30
0.0
 40
0.25
 50
0.0
 51
90.0
  0
LINE
  8
0
  6
CONTINUOUS
 62
     2
 10
138.75
 20
138.3
 30
0.0
 11
136.0
 21
138.3
 31
0.0
  0
LINE
  8
0
  6
CONTINUOUS
 62
     2
 10
136.0
 20
134.7
 30
0.0
 11
138.75
 21
134.7
 31
0.0
  0
LINE
  8
0
  6
CONTINUOUS
 62
     2
 10
135.75
 20
137.75
 30
0.0
 11
136.25
 21
137.75
 31
0.0
  0
LINE
  8
0
  6
CONTINUOUS
 62
     2
 10
136.25
 20
137.75
 30
0.0
 11
136.25
 21
135.25
 31
0.0
  0
LINE
  8
0
  6
CONTINUOUS
 62
     2
 10
136.25
 20
135.25
 30
0.0
 11
135.75
 21
135.25
 31
0.0
  0
ARC
  8
0
  6
CONTINUOUS
 62
     2
 10
136.0
 20
133.55
 30
0.0
 40
0.25
 50
90.0
 51
180.0
  0
LINE
  8
0
  6
CONTINUOUS
 62
     2
 10
135.75
 20
133.55
 30
0.0
 11
135.75
 21
130.45
 31
0.0
  0
ARC
  8
0
  6
CONTINUOUS
 62
     2
 10
136.0
 20
130.45
 30
0.0
 40
0.25
 50
180.0
 51
270.0
  0
ARC
  8
0
  6
CONTINUOUS
 62
     2
 10
138.75
 20
134.05
 30
0.0
 40
0.25
 50
270.0
 51
0.0
  0
ARC
  8
0
  6
CONTINUOUS
 62
     2
 10
138.75
 20
129.95
 30
0.0
 40
0.25
 50
0.0
 51
90.0
  0
LINE
  8
0
  6
CONTINUOUS
 62
     2
 10
138.75
 20
133.8
 30
0.0
 11
136.0
 21
133.8
 31
0.0
  0
LINE
  8
0
  6
CONTINUOUS
 62
     2
 10
136.0
 20
130.2
 30
0.0
 11
138.75
 21
130.2
 31
0.0
  0
LINE
  8
0
  6
CONTINUOUS
 62
     2
 10
135.75
 20
133.25
 30
0.0
 11
136.25
 21
133.25
 31
0.0
  0
LINE
  8
0
  6
CONTINUOUS
 62
     2
 10
136.25
 20
133.25
 30
0.0
 11
136.25
 21
130.75
 31
0.0
  0
LINE
  8
0
  6
CONTINUOUS
 62
     2
 10
136.25
 20
130.75
 30
0.0
 11
135.75
 21
130.75
 31
0.0
  0
LINE
  8
0
  6
CONTINUOUS
 62
     2
 10
139.0
 20
152.5
 30
0.0
 11
139.85
 21
152.5
 31
0.0
  0
ARC
  8
0
  6
CONTINUOUS
 62
     2
 10
139.85
 20
152.9
 30
0.0
 40
0.4
 50
270.0
 51
360.0
  0
ARC
  8
0
  6
CONTINUOUS
 62
     2
 10
135.4
 20
154.4
 30
0.0
 40
0.4
 50
180.0
 51
270.0
  0
LINE
  8
0
  6
CONTINUOUS
 62
     2
 10
140.25
 20
152.9
 30
0.0
 11
140.25
 21
153.6
 31
0.0
  0
LINE
  8
0
  6
CONTINUOUS
 62
     2
 10
139.85
 20
154.0
 30
0.0
 11
135.4
 21
154.0
 31
0.0
  0
ARC
  8
0
  6
CONTINUOUS
 62
     2
 10
139.85
 20
153.6
 30
0.0
 40
0.4
 50
0.0
 51
90.0
  0
LINE
  8
0
  6
CONTINUOUS
 62
     2
 10
139.0
 20
129.5
 30
0.0
 11
139.85
 21
129.5
 31
0.0
  0
ARC
  8
0
  6
CONTINUOUS
 62
     2
 10
139.85
 20
129.1
 30
0.0
 40
0.4
 50
360.0
 51
90.0
  0
LINE
  8
0
  6
CONTINUOUS
 62
     2
 10
140.25
 20
129.1
 30
0.0
 11
140.25
 21
128.4
 31
0.0
  0
ARC
  8
0
  6
CONTINUOUS
 62
     2
 10
139.85
 20
128.4
 30
0.0
 40
0.4
 50
270.0
 51
0.0
  0
LINE
  8
0
  6
CONTINUOUS
 62
     2
 10
139.85
 20
128.0
 30
0.0
 11
135.4
 21
128.0
 31
0.0
  0
ARC
  8
0
  6
CONTINUOUS
 62
     2
 10
135.4
 20
127.6
 30
0.0
 40
0.4
 50
90.0
 51
180.0
  0
LINE
  8
0
  6
CONTINUOUS
 62
     2
 10
139.0
 20
152.5
 30
0.0
 11
139.0
 21
129.5
 31
0.0
  0
LINE
  8
0
  6
CONTINUOUS
 62
     2
 10
139.25
 20
152.5
 30
0.0
 11
139.25
 21
129.5
 31
0.0
  0
LINE
  8
0
  6
CONTINUOUS
 62
     2
 10
136.25
 20
151.25
 30
0.0
 11
136.25
 21
148.75
 31
0.0
  0
LINE
  8
0
  6
CONTINUOUS
 62
     2
 10
136.25
 20
151.25
 30
0.0
 11
136.25
 21
151.375
 31
0.0
  0
LINE
  8
0
  6
CONTINUOUS
 62
     2
 10
136.25
 20
151.375
 30
0.0
 11
136.794766293
 21
151.375
 31
0.0
  0
ARC
  8
0
  6
CONTINUOUS
 62
     2
 10
136.631682295
 20
150.902344089
 30
0.0
 40
0.5
 50
34.773912785
 51
70.963647363
  0
LINE
  8
0
  6
CONTINUOUS
 62
     2
 10
136.25
 20
148.75
 30
0.0
 11
136.25
 21
148.625
 31
0.0
  0
LINE
  8
0
  6
CONTINUOUS
 62
     2
 10
136.25
 20
148.625
 30
0.0
 11
136.794766293
 21
148.625
 31
0.0
  0
ARC
  8
0
  6
CONTINUOUS
 62
     2
 10
136.631682295
 20
149.097655911
 30
0.0
 40
0.5
 50
289.036352637
 51
325.226087215
  0
LINE
  8
0
  6
CONTINUOUS
 62
     2
 10
137.25
 20
150.2
 30
0.0
 11
136.7
 21
150.2
 31
0.0
  0
LINE
  8
0
  6
CONTINUOUS
 62
     2
 10
136.7
 20
150.2
 30
0.0
 11
136.7
 21
149.8
 31
0.0
  0
LINE
  8
0
  6
CONTINUOUS
 62
     2
 10
136.7
 20
149.8
 30
0.0
 11
137.25
 21
149.8
 31
0.0
  0
ARC
  8
0
  6
CONTINUOUS
 62
     2
 10
133.75
 20
150.0
 30
0.0
 40
3.5
 50
3.270487923
 51
19.833603907
  0
ARC
  8
0
  6
CONTINUOUS
 62
     2
 10
133.75
 20
150.0
 30
0.0
 40
3.5
 50
340.166396093
 51
356.729512077
  0
LINE
  8
0
  6
CONTINUOUS
 62
     2
 10
136.25
 20
146.75
 30
0.0
 11
136.25
 21
144.25
 31
0.0
  0
LINE
  8
0
  6
CONTINUOUS
 62
     2
 10
136.25
 20
146.75
 30
0.0
 11
136.25
 21
146.875
 31
0.0
  0
LINE
  8
0
  6
CONTINUOUS
 62
     2
 10
136.25
 20
146.875
 30
0.0
 11
136.794766293
 21
146.875
 31
0.0
  0
ARC
  8
0
  6
CONTINUOUS
 62
     2
 10
136.631682295
 20
146.402344089
 30
0.0
 40
0.5
 50
34.773912785
 51
70.963647363
  0
LINE
  8
0
  6
CONTINUOUS
 62
     2
 10
136.25
 20
144.25
 30
0.0
 11
136.25
 21
144.125
 31
0.0
  0
LINE
  8
0
  6
CONTINUOUS
 62
     2
 10
136.25
 20
144.125
 30
0.0
 11
136.794766293
 21
144.125
 31
0.0
  0
ARC
  8
0
  6
CONTINUOUS
 62
     2
 10
136.631682295
 20
144.597655911
 30
0.0
 40
0.5
 50
289.036352637
 51
325.226087215
  0
LINE
  8
0
  6
CONTINUOUS
 62
     2
 10
137.25
 20
145.7
 30
0.0
 11
136.7
 21
145.7
 31
0.0
  0
LINE
  8
0
  6
CONTINUOUS
 62
     2
 10
136.7
 20
145.7
 30
0.0
 11
136.7
 21
145.3
 31
0.0
  0
LINE
  8
0
  6
CONTINUOUS
 62
     2
 10
136.7
 20
145.3
 30
0.0
 11
137.25
 21
145.3
 31
0.0
  0
ARC
  8
0
  6
CONTINUOUS
 62
     2
 10
133.75
 20
145.5
 30
0.0
 40
3.5
 50
3.270487923
 51
19.833603907
  0
ARC
  8
0
  6
CONTINUOUS
 62
     2
 10
133.75
 20
145.5
 30
0.0
 40
3.5
 50
340.166396093
 51
356.729512077
  0
LINE
  8
0
  6
CONTINUOUS
 62
     2
 10
136.25
 20
142.25
 30
0.0
 11
136.25
 21
139.75
 31
0.0
  0
LINE
  8
0
  6
CONTINUOUS
 62
     2
 10
136.25
 20
142.25
 30
0.0
 11
136.25
 21
142.375
 31
0.0
  0
LINE
  8
0
  6
CONTINUOUS
 62
     2
 10
136.25
 20
142.375
 30
0.0
 11
136.794766293
 21
142.375
 31
0.0
  0
ARC
  8
0
  6
CONTINUOUS
 62
     2
 10
136.631682295
 20
141.902344089
 30
0.0
 40
0.5
 50
34.773912785
 51
70.963647363
  0
LINE
  8
0
  6
CONTINUOUS
 62
     2
 10
136.25
 20
139.75
 30
0.0
 11
136.25
 21
139.625
 31
0.0
  0
LINE
  8
0
  6
CONTINUOUS
 62
     2
 10
136.25
 20
139.625
 30
0.0
 11
136.794766293
 21
139.625
 31
0.0
  0
ARC
  8
0
  6
CONTINUOUS
 62
     2
 10
136.631682295
 20
140.097655911
 30
0.0
 40
0.5
 50
289.036352637
 51
325.226087215
  0
LINE
  8
0
  6
CONTINUOUS
 62
     2
 10
137.25
 20
141.2
 30
0.0
 11
136.7
 21
141.2
 31
0.0
  0
LINE
  8
0
  6
CONTINUOUS
 62
     2
 10
136.7
 20
141.2
 30
0.0
 11
136.7
 21
140.8
 31
0.0
  0
LINE
  8
0
  6
CONTINUOUS
 62
     2
 10
136.7
 20
140.8
 30
0.0
 11
137.25
 21
140.8
 31
0.0
  0
ARC
  8
0
  6
CONTINUOUS
 62
     2
 10
133.75
 20
141.0
 30
0.0
 40
3.5
 50
3.270487923
 51
19.833603907
  0
ARC
  8
0
  6
CONTINUOUS
 62
     2
 10
133.75
 20
141.0
 30
0.0
 40
3.5
 50
340.166396093
 51
356.729512077
  0
LINE
  8
0
  6
CONTINUOUS
 62
     2
 10
136.25
 20
137.75
 30
0.0
 11
136.25
 21
135.25
 31
0.0
  0
LINE
  8
0
  6
CONTINUOUS
 62
     2
 10
136.25
 20
137.75
 30
0.0
 11
136.25
 21
137.875
 31
0.0
  0
LINE
  8
0
  6
CONTINUOUS
 62
     2
 10
136.25
 20
137.875
 30
0.0
 11
136.794766293
 21
137.875
 31
0.0
  0
ARC
  8
0
  6
CONTINUOUS
 62
     2
 10
136.631682295
 20
137.402344089
 30
0.0
 40
0.5
 50
34.773912785
 51
70.963647363
  0
LINE
  8
0
  6
CONTINUOUS
 62
     2
 10
136.25
 20
135.25
 30
0.0
 11
136.25
 21
135.125
 31
0.0
  0
LINE
  8
0
  6
CONTINUOUS
 62
     2
 10
136.25
 20
135.125
 30
0.0
 11
136.794766293
 21
135.125
 31
0.0
  0
ARC
  8
0
  6
CONTINUOUS
 62
     2
 10
136.631682295
 20
135.597655911
 30
0.0
 40
0.5
 50
289.036352637
 51
325.226087215
  0
LINE
  8
0
  6
CONTINUOUS
 62
     2
 10
137.25
 20
136.7
 30
0.0
 11
136.7
 21
136.7
 31
0.0
  0
LINE
  8
0
  6
CONTINUOUS
 62
     2
 10
136.7
 20
136.7
 30
0.0
 11
136.7
 21
136.3
 31
0.0
  0
LINE
  8
0
  6
CONTINUOUS
 62
     2
 10
136.7
 20
136.3
 30
0.0
 11
137.25
 21
136.3
 31
0.0
  0
ARC
  8
0
  6
CONTINUOUS
 62
     2
 10
133.75
 20
136.5
 30
0.0
 40
3.5
 50
3.270487923
 51
19.833603907
  0
ARC
  8
0
  6
CONTINUOUS
 62
     2
 10
133.75
 20
136.5
 30
0.0
 40
3.5
 50
340.166396093
 51
356.729512077
  0
LINE
  8
0
  6
CONTINUOUS
 62
     2
 10
136.25
 20
133.25
 30
0.0
 11
136.25
 21
130.75
 31
0.0
  0
LINE
  8
0
  6
CONTINUOUS
 62
     2
 10
136.25
 20
133.25
 30
0.0
 11
136.25
 21
133.375
 31
0.0
  0
LINE
  8
0
  6
CONTINUOUS
 62
     2
 10
136.25
 20
133.375
 30
0.0
 11
136.794766293
 21
133.375
 31
0.0
  0
ARC
  8
0
  6
CONTINUOUS
 62
     2
 10
136.631682295
 20
132.902344089
 30
0.0
 40
0.5
 50
34.773912785
 51
70.963647363
  0
LINE
  8
0
  6
CONTINUOUS
 62
     2
 10
136.25
 20
130.75
 30
0.0
 11
136.25
 21
130.625
 31
0.0
  0
LINE
  8
0
  6
CONTINUOUS
 62
     2
 10
136.25
 20
130.625
 30
0.0
 11
136.794766293
 21
130.625
 31
0.0
  0
ARC
  8
0
  6
CONTINUOUS
 62
     2
 10
136.631682295
 20
131.097655911
 30
0.0
 40
0.5
 50
289.036352637
 51
325.226087215
  0
LINE
  8
0
  6
CONTINUOUS
 62
     2
 10
137.25
 20
132.2
 30
0.0
 11
136.7
 21
132.2
 31
0.0
  0
LINE
  8
0
  6
CONTINUOUS
 62
     2
 10
136.7
 20
132.2
 30
0.0
 11
136.7
 21
131.8
 31
0.0
  0
LINE
  8
0
  6
CONTINUOUS
 62
     2
 10
136.7
 20
131.8
 30
0.0
 11
137.25
 21
131.8
 31
0.0
  0
ARC
  8
0
  6
CONTINUOUS
 62
     2
 10
133.75
 20
132.0
 30
0.0
 40
3.5
 50
3.270487923
 51
19.833603907
  0
ARC
  8
0
  6
CONTINUOUS
 62
     2
 10
133.75
 20
132.0
 30
0.0
 40
3.5
 50
340.166396093
 51
356.729512077
  0
LINE
  8
0
  6
LTYPE4
 62
     2
 10
134.05
 20
150.0
 30
0.0
 11
139.5
 21
150.0
 31
0.0
  0
LINE
  8
0
  6
LTYPE4
 62
     2
 10
134.05
 20
145.5
 30
0.0
 11
139.5
 21
145.5
 31
0.0
  0
LINE
  8
0
  6
LTYPE4
 62
     2
 10
134.05
 20
141.0
 30
0.0
 11
140.5
 21
141.0
 31
0.0
  0
LINE
  8
0
  6
LTYPE4
 62
     2
 10
134.05
 20
136.5
 30
0.0
 11
139.5
 21
136.5
 31
0.0
  0
LINE
  8
0
  6
LTYPE4
 62
     2
 10
134.05
 20
132.0
 30
0.0
 11
139.5
 21
132.0
 31
0.0
  0
TEXT
  8
0
  6
CONTINUOUS
 62
     2
 10
134.875
 20
174.75
 30
0.0
 40
3.0
  1
１０．５
 50
0.0
 41
0.5
 51
0.0
  7
KANJI10
  0
ARC
  8
0
  6
CONTINUOUS
 62
     2
 10
178.75
 20
143.05
 30
0.0
 40
0.25
 50
180.0
 51
270.0
  0
LINE
  8
0
  6
CONTINUOUS
 62
     2
 10
178.75
 20
142.8
 30
0.0
 11
182.75
 21
142.8
 31
0.0
  0
CIRCLE
  8
0
  6
CONTINUOUS
 62
     2
 10
181.0
 20
141.0
 30
0.0
 40
1.375
  0
LINE
  8
0
  6
CONTINUOUS
 62
     2
 10
181.8
 20
141.8
 30
0.0
 11
180.2
 21
140.2
 31
0.0
  0
LINE
  8
0
  6
CONTINUOUS
 62
     2
 10
180.2
 20
141.8
 30
0.0
 11
181.8
 21
140.2
 31
0.0
  0
LINE
  8
0
  6
LTYPE3
 62
     2
 10
179.0
 20
141.0
 30
0.0
 11
183.0
 21
141.0
 31
0.0
  0
LINE
  8
0
  6
LTYPE3
 62
     2
 10
181.0
 20
143.0
 30
0.0
 11
181.0
 21
139.0
 31
0.0
  0
CIRCLE
  8
0
  6
CONTINUOUS
 62
     2
 10
181.0
 20
145.5
 30
0.0
 40
1.375
  0
LINE
  8
0
  6
CONTINUOUS
 62
     2
 10
181.8
 20
146.3
 30
0.0
 11
180.2
 21
144.7
 31
0.0
  0
LINE
  8
0
  6
CONTINUOUS
 62
     2
 10
180.2
 20
146.3
 30
0.0
 11
181.8
 21
144.7
 31
0.0
  0
LINE
  8
0
  6
LTYPE3
 62
     2
 10
179.0
 20
145.5
 30
0.0
 11
183.0
 21
145.5
 31
0.0
  0
LINE
  8
0
  6
LTYPE3
 62
     2
 10
181.0
 20
147.5
 30
0.0
 11
181.0
 21
143.5
 31
0.0
  0
CIRCLE
  8
0
  6
CONTINUOUS
 62
     2
 10
181.0
 20
150.0
 30
0.0
 40
1.375
  0
LINE
  8
0
  6
CONTINUOUS
 62
     2
 10
181.8
 20
150.8
 30
0.0
 11
180.2
 21
149.2
 31
0.0
  0
LINE
  8
0
  6
CONTINUOUS
 62
     2
 10
180.2
 20
150.8
 30
0.0
 11
181.8
 21
149.2
 31
0.0
  0
LINE
  8
0
  6
LTYPE3
 62
     2
 10
179.0
 20
150.0
 30
0.0
 11
183.0
 21
150.0
 31
0.0
  0
LINE
  8
0
  6
LTYPE3
 62
     2
 10
181.0
 20
152.0
 30
0.0
 11
181.0
 21
148.0
 31
0.0
  0
CIRCLE
  8
0
  6
CONTINUOUS
 62
     2
 10
181.0
 20
136.5
 30
0.0
 40
1.375
  0
LINE
  8
0
  6
CONTINUOUS
 62
     2
 10
181.8
 20
137.3
 30
0.0
 11
180.2
 21
135.7
 31
0.0
  0
LINE
  8
0
  6
CONTINUOUS
 62
     2
 10
180.2
 20
137.3
 30
0.0
 11
181.8
 21
135.7
 31
0.0
  0
LINE
  8
0
  6
LTYPE3
 62
     2
 10
179.0
 20
136.5
 30
0.0
 11
183.0
 21
136.5
 31
0.0
  0
LINE
  8
0
  6
LTYPE3
 62
     2
 10
181.0
 20
138.5
 30
0.0
 11
181.0
 21
134.5
 31
0.0
  0
CIRCLE
  8
0
  6
CONTINUOUS
 62
     2
 10
181.0
 20
132.0
 30
0.0
 40
1.375
  0
LINE
  8
0
  6
CONTINUOUS
 62
     2
 10
181.8
 20
132.8
 30
0.0
 11
180.2
 21
131.2
 31
0.0
  0
LINE
  8
0
  6
CONTINUOUS
 62
     2
 10
180.2
 20
132.8
 30
0.0
 11
181.8
 21
131.2
 31
0.0
  0
LINE
  8
0
  6
LTYPE3
 62
     2
 10
179.0
 20
132.0
 30
0.0
 11
183.0
 21
132.0
 31
0.0
  0
CIRCLE
  8
0
  6
CONTINUOUS
 62
     2
 10
189.0
 20
141.0
 30
0.0
 40
1.375
  0
LINE
  8
0
  6
CONTINUOUS
 62
     2
 10
188.2
 20
141.8
 30
0.0
 11
189.8
 21
140.2
 31
0.0
  0
LINE
  8
0
  6
CONTINUOUS
 62
     2
 10
189.8
 20
141.8
 30
0.0
 11
188.2
 21
140.2
 31
0.0
  0
LINE
  8
0
  6
LTYPE3
 62
     2
 10
191.0
 20
141.0
 30
0.0
 11
187.0
 21
141.0
 31
0.0
  0
LINE
  8
0
  6
LTYPE3
 62
     2
 10
189.0
 20
143.0
 30
0.0
 11
189.0
 21
139.0
 31
0.0
  0
CIRCLE
  8
0
  6
CONTINUOUS
 62
     2
 10
189.0
 20
145.5
 30
0.0
 40
1.375
  0
LINE
  8
0
  6
CONTINUOUS
 62
     2
 10
188.2
 20
146.3
 30
0.0
 11
189.8
 21
144.7
 31
0.0
  0
LINE
  8
0
  6
CONTINUOUS
 62
     2
 10
189.8
 20
146.3
 30
0.0
 11
188.2
 21
144.7
 31
0.0
  0
LINE
  8
0
  6
LTYPE3
 62
     2
 10
191.0
 20
145.5
 30
0.0
 11
187.0
 21
145.5
 31
0.0
  0
LINE
  8
0
  6
LTYPE3
 62
     2
 10
189.0
 20
147.5
 30
0.0
 11
189.0
 21
143.5
 31
0.0
  0
CIRCLE
  8
0
  6
CONTINUOUS
 62
     2
 10
189.0
 20
150.0
 30
0.0
 40
1.375
  0
LINE
  8
0
  6
CONTINUOUS
 62
     2
 10
188.2
 20
150.8
 30
0.0
 11
189.8
 21
149.2
 31
0.0
  0
LINE
  8
0
  6
CONTINUOUS
 62
     2
 10
189.8
 20
150.8
 30
0.0
 11
188.2
 21
149.2
 31
0.0
  0
LINE
  8
0
  6
LTYPE3
 62
     2
 10
191.0
 20
150.0
 30
0.0
 11
187.0
 21
150.0
 31
0.0
  0
LINE
  8
0
  6
LTYPE3
 62
     2
 10
189.0
 20
152.0
 30
0.0
 11
189.0
 21
148.0
 31
0.0
  0
CIRCLE
  8
0
  6
CONTINUOUS
 62
     2
 10
189.0
 20
136.5
 30
0.0
 40
1.375
  0
LINE
  8
0
  6
CONTINUOUS
 62
     2
 10
188.2
 20
137.3
 30
0.0
 11
189.8
 21
135.7
 31
0.0
  0
LINE
  8
0
  6
CONTINUOUS
 62
     2
 10
189.8
 20
137.3
 30
0.0
 11
188.2
 21
135.7
 31
0.0
  0
LINE
  8
0
  6
LTYPE3
 62
     2
 10
191.0
 20
136.5
 30
0.0
 11
187.0
 21
136.5
 31
0.0
  0
LINE
  8
0
  6
LTYPE3
 62
     2
 10
189.0
 20
138.5
 30
0.0
 11
189.0
 21
134.5
 31
0.0
  0
CIRCLE
  8
0
  6
CONTINUOUS
 62
     2
 10
189.0
 20
132.0
 30
0.0
 40
1.375
  0
LINE
  8
0
  6
CONTINUOUS
 62
     2
 10
188.2
 20
132.8
 30
0.0
 11
189.8
 21
131.2
 31
0.0
  0
LINE
  8
0
  6
CONTINUOUS
 62
     2
 10
189.8
 20
132.8
 30
0.0
 11
188.2
 21
131.2
 31
0.0
  0
LINE
  8
0
  6
LTYPE3
 62
     2
 10
191.0
 20
132.0
 30
0.0
 11
187.0
 21
132.0
 31
0.0
  0
LINE
  8
0
  6
LTYPE3
 62
     2
 10
189.0
 20
134.0
 30
0.0
 11
189.0
 21
130.0
 31
0.0
  0
LINE
  8
0
  6
LTYPE3
 62
     2
 10
181.0
 20
134.0
 30
0.0
 11
181.0
 21
130.0
 31
0.0
  0
ARC
  8
0
  6
CONTINUOUS
 62
     2
 10
192.25
 20
143.05
 30
0.0
 40
0.25
 50
270.0
 51
0.0
  0
ARC
  8
0
  6
CONTINUOUS
 62
     2
 10
192.25
 20
138.95
 30
0.0
 40
0.25
 50
0.0
 51
90.0
  0
ARC
  8
0
  6
CONTINUOUS
 62
     2
 10
192.25
 20
147.55
 30
0.0
 40
0.25
 50
270.0
 51
0.0
  0
ARC
  8
0
  6
CONTINUOUS
 62
     2
 10
192.25
 20
143.45
 30
0.0
 40
0.25
 50
0.0
 51
90.0
  0
ARC
  8
0
  6
CONTINUOUS
 62
     2
 10
192.25
 20
147.95
 30
0.0
 40
0.25
 50
0.0
 51
90.0
  0
ARC
  8
0
  6
CONTINUOUS
 62
     2
 10
192.25
 20
138.55
 30
0.0
 40
0.25
 50
270.0
 51
0.0
  0
ARC
  8
0
  6
CONTINUOUS
 62
     2
 10
192.25
 20
134.45
 30
0.0
 40
0.25
 50
0.0
 51
90.0
  0
ARC
  8
0
  6
CONTINUOUS
 62
     2
 10
192.25
 20
134.05
 30
0.0
 40
0.25
 50
270.0
 51
0.0
  0
ARC
  8
0
  6
CONTINUOUS
 62
     2
 10
192.25
 20
152.75
 30
0.0
 40
0.25
 50
270.0
 51
0.0
  0
ARC
  8
0
  6
CONTINUOUS
 62
     2
 10
192.25
 20
129.25
 30
0.0
 40
0.25
 50
0.0
 51
90.0
  0
ARC
  8
0
  6
CONTINUOUS
 62
     2
 10
177.75
 20
143.05
 30
0.0
 40
0.25
 50
180.0
 51
270.0
  0
ARC
  8
0
  6
CONTINUOUS
 62
     2
 10
177.75
 20
138.95
 30
0.0
 40
0.25
 50
90.0
 51
180.0
  0
ARC
  8
0
  6
CONTINUOUS
 62
     2
 10
177.75
 20
147.55
 30
0.0
 40
0.25
 50
180.0
 51
270.0
  0
ARC
  8
0
  6
CONTINUOUS
 62
     2
 10
177.75
 20
143.45
 30
0.0
 40
0.25
 50
90.0
 51
180.0
  0
ARC
  8
0
  6
CONTINUOUS
 62
     2
 10
177.75
 20
147.95
 30
0.0
 40
0.25
 50
90.0
 51
180.0
  0
ARC
  8
0
  6
CONTINUOUS
 62
     2
 10
177.75
 20
138.55
 30
0.0
 40
0.25
 50
180.0
 51
270.0
  0
ARC
  8
0
  6
CONTINUOUS
 62
     2
 10
177.75
 20
134.45
 30
0.0
 40
0.25
 50
90.0
 51
180.0
  0
ARC
  8
0
  6
CONTINUOUS
 62
     2
 10
177.75
 20
134.05
 30
0.0
 40
0.25
 50
180.0
 51
270.0
  0
ARC
  8
0
  6
CONTINUOUS
 62
     2
 10
177.75
 20
152.75
 30
0.0
 40
0.25
 50
180.0
 51
270.0
  0
ARC
  8
0
  6
CONTINUOUS
 62
     2
 10
177.75
 20
129.25
 30
0.0
 40
0.25
 50
90.0
 51
180.0
  0
LINE
  8
0
  6
CONTINUOUS
 62
     2
 10
178.5
 20
133.8
 30
0.0
 11
178.5
 21
130.2
 31
0.0
  0
LINE
  8
0
  6
CONTINUOUS
 62
     2
 10
178.5
 20
138.3
 30
0.0
 11
178.5
 21
134.7
 31
0.0
  0
LINE
  8
0
  6
CONTINUOUS
 62
     2
 10
178.5
 20
142.8
 30
0.0
 11
178.5
 21
139.2
 31
0.0
  0
LINE
  8
0
  6
CONTINUOUS
 62
     2
 10
178.5
 20
147.3
 30
0.0
 11
178.5
 21
143.7
 31
0.0
  0
LINE
  8
0
  6
CONTINUOUS
 62
     2
 10
178.5
 20
151.8
 30
0.0
 11
178.5
 21
148.2
 31
0.0
  0
LINE
  8
0
  6
CONTINUOUS
 62
     2
 10
177.5
 20
147.95
 30
0.0
 11
177.5
 21
147.55
 31
0.0
  0
LINE
  8
0
  6
CONTINUOUS
 62
     2
 10
177.5
 20
143.45
 30
0.0
 11
177.5
 21
143.05
 31
0.0
  0
LINE
  8
0
  6
CONTINUOUS
 62
     2
 10
177.5
 20
138.95
 30
0.0
 11
177.5
 21
138.55
 31
0.0
  0
LINE
  8
0
  6
CONTINUOUS
 62
     2
 10
177.5
 20
134.45
 30
0.0
 11
177.5
 21
134.05
 31
0.0
  0
LINE
  8
0
  6
CONTINUOUS
 62
     2
 10
192.5
 20
134.05
 30
0.0
 11
192.5
 21
134.45
 31
0.0
  0
LINE
  8
0
  6
CONTINUOUS
 62
     2
 10
192.5
 20
138.55
 30
0.0
 11
192.5
 21
138.95
 31
0.0
  0
LINE
  8
0
  6
CONTINUOUS
 62
     2
 10
192.5
 20
143.05
 30
0.0
 11
192.5
 21
143.45
 31
0.0
  0
LINE
  8
0
  6
CONTINUOUS
 62
     2
 10
192.5
 20
147.55
 30
0.0
 11
192.5
 21
147.95
 31
0.0
  0
LINE
  8
0
  6
CONTINUOUS
 62
     2
 10
177.75
 20
129.5
 30
0.0
 11
192.25
 21
129.5
 31
0.0
  0
LINE
  8
0
  6
CONTINUOUS
 62
     2
 10
191.5
 20
130.2
 30
0.0
 11
191.5
 21
133.8
 31
0.0
  0
LINE
  8
0
  6
CONTINUOUS
 62
     2
 10
191.5
 20
134.7
 30
0.0
 11
191.5
 21
138.3
 31
0.0
  0
LINE
  8
0
  6
CONTINUOUS
 62
     2
 10
191.5
 20
139.2
 30
0.0
 11
191.5
 21
142.8
 31
0.0
  0
LINE
  8
0
  6
CONTINUOUS
 62
     2
 10
191.5
 20
143.7
 30
0.0
 11
191.5
 21
147.3
 31
0.0
  0
LINE
  8
0
  6
CONTINUOUS
 62
     2
 10
191.5
 20
148.2
 30
0.0
 11
191.5
 21
151.8
 31
0.0
  0
LINE
  8
0
  6
CONTINUOUS
 62
     2
 10
177.75
 20
152.5
 30
0.0
 11
192.25
 21
152.5
 31
0.0
  0
ARC
  8
0
  6
CONTINUOUS
 62
     2
 10
177.95
 20
152.25
 30
0.0
 40
0.45
 50
180.0
 51
270.0
  0
ARC
  8
0
  6
CONTINUOUS
 62
     2
 10
192.05
 20
152.25
 30
0.0
 40
0.45
 50
270.0
 51
0.0
  0
ARC
  8
0
  6
CONTINUOUS
 62
     2
 10
177.95
 20
129.75
 30
0.0
 40
0.45
 50
90.0
 51
180.0
  0
ARC
  8
0
  6
CONTINUOUS
 62
     2
 10
192.05
 20
129.75
 30
0.0
 40
0.45
 50
360.0
 51
90.0
  0
LINE
  8
0
  6
CONTINUOUS
 62
     2
 10
177.95
 20
151.8
 30
0.0
 11
182.55
 21
151.8
 31
0.0
  0
ARC
  8
0
  6
CONTINUOUS
 62
     2
 10
182.55
 20
151.35
 30
0.0
 40
0.45
 50
360.0
 51
90.0
  0
LINE
  8
0
  6
CONTINUOUS
 62
     2
 10
182.55
 20
148.2
 30
0.0
 11
177.75
 21
148.2
 31
0.0
  0
LINE
  8
0
  6
CONTINUOUS
 62
     2
 10
183.0
 20
151.35
 30
0.0
 11
183.0
 21
148.65
 31
0.0
  0
ARC
  8
0
  6
CONTINUOUS
 62
     2
 10
182.55
 20
148.65
 30
0.0
 40
0.45
 50
270.0
 51
0.0
  0
LINE
  8
0
  6
CONTINUOUS
 62
     2
 10
177.75
 20
147.3
 30
0.0
 11
182.55
 21
147.3
 31
0.0
  0
ARC
  8
0
  6
CONTINUOUS
 62
     2
 10
182.55
 20
146.85
 30
0.0
 40
0.45
 50
0.0
 51
90.0
  0
LINE
  8
0
  6
CONTINUOUS
 62
     2
 10
183.0
 20
146.85
 30
0.0
 11
183.0
 21
144.15
 31
0.0
  0
LINE
  8
0
  6
CONTINUOUS
 62
     2
 10
182.55
 20
143.7
 30
0.0
 11
177.75
 21
143.7
 31
0.0
  0
ARC
  8
0
  6
CONTINUOUS
 62
     2
 10
182.55
 20
144.15
 30
0.0
 40
0.45
 50
270.0
 51
0.0
  0
LINE
  8
0
  6
CONTINUOUS
 62
     2
 10
177.75
 20
142.8
 30
0.0
 11
182.55
 21
142.8
 31
0.0
  0
ARC
  8
0
  6
CONTINUOUS
 62
     2
 10
182.55
 20
142.35
 30
0.0
 40
0.45
 50
0.0
 51
90.0
  0
LINE
  8
0
  6
CONTINUOUS
 62
     2
 10
182.55
 20
139.2
 30
0.0
 11
177.75
 21
139.2
 31
0.0
  0
LINE
  8
0
  6
CONTINUOUS
 62
     2
 10
183.0
 20
142.35
 30
0.0
 11
183.0
 21
139.65
 31
0.0
  0
ARC
  8
0
  6
CONTINUOUS
 62
     2
 10
182.55
 20
139.65
 30
0.0
 40
0.45
 50
270.0
 51
0.0
  0
LINE
  8
0
  6
CONTINUOUS
 62
     2
 10
177.75
 20
138.3
 30
0.0
 11
182.55
 21
138.3
 31
0.0
  0
ARC
  8
0
  6
CONTINUOUS
 62
     2
 10
182.55
 20
137.85
 30
0.0
 40
0.45
 50
0.0
 51
90.0
  0
LINE
  8
0
  6
CONTINUOUS
 62
     2
 10
182.55
 20
134.7
 30
0.0
 11
177.75
 21
134.7
 31
0.0
  0
LINE
  8
0
  6
CONTINUOUS
 62
     2
 10
183.0
 20
137.85
 30
0.0
 11
183.0
 21
135.15
 31
0.0
  0
ARC
  8
0
  6
CONTINUOUS
 62
     2
 10
182.55
 20
135.15
 30
0.0
 40
0.45
 50
270.0
 51
0.0
  0
LINE
  8
0
  6
CONTINUOUS
 62
     2
 10
177.75
 20
133.8
 30
0.0
 11
182.55
 21
133.8
 31
0.0
  0
ARC
  8
0
  6
CONTINUOUS
 62
     2
 10
182.55
 20
133.35
 30
0.0
 40
0.45
 50
0.0
 51
90.0
  0
LINE
  8
0
  6
CONTINUOUS
 62
     2
 10
182.55
 20
130.2
 30
0.0
 11
177.95
 21
130.2
 31
0.0
  0
LINE
  8
0
  6
CONTINUOUS
 62
     2
 10
183.0
 20
133.35
 30
0.0
 11
183.0
 21
130.65
 31
0.0
  0
ARC
  8
0
  6
CONTINUOUS
 62
     2
 10
182.55
 20
130.65
 30
0.0
 40
0.45
 50
270.0
 51
0.0
  0
LINE
  8
0
  6
CONTINUOUS
 62
     2
 10
187.45
 20
130.2
 30
0.0
 11
192.05
 21
130.2
 31
0.0
  0
ARC
  8
0
  6
CONTINUOUS
 62
     2
 10
187.45
 20
130.65
 30
0.0
 40
0.45
 50
180.0
 51
270.0
  0
LINE
  8
0
  6
CONTINUOUS
 62
     2
 10
192.25
 20
133.8
 30
0.0
 11
187.45
 21
133.8
 31
0.0
  0
LINE
  8
0
  6
CONTINUOUS
 62
     2
 10
187.0
 20
133.35
 30
0.0
 11
187.0
 21
130.65
 31
0.0
  0
ARC
  8
0
  6
CONTINUOUS
 62
     2
 10
187.45
 20
133.35
 30
0.0
 40
0.45
 50
90.0
 51
180.0
  0
LINE
  8
0
  6
CONTINUOUS
 62
     2
 10
187.45
 20
134.7
 30
0.0
 11
192.25
 21
134.7
 31
0.0
  0
ARC
  8
0
  6
CONTINUOUS
 62
     2
 10
187.45
 20
135.15
 30
0.0
 40
0.45
 50
180.0
 51
270.0
  0
LINE
  8
0
  6
CONTINUOUS
 62
     2
 10
192.25
 20
138.3
 30
0.0
 11
187.45
 21
138.3
 31
0.0
  0
LINE
  8
0
  6
CONTINUOUS
 62
     2
 10
187.0
 20
137.85
 30
0.0
 11
187.0
 21
135.15
 31
0.0
  0
ARC
  8
0
  6
CONTINUOUS
 62
     2
 10
187.45
 20
137.85
 30
0.0
 40
0.45
 50
90.0
 51
180.0
  0
LINE
  8
0
  6
CONTINUOUS
 62
     2
 10
187.45
 20
139.2
 30
0.0
 11
192.25
 21
139.2
 31
0.0
  0
ARC
  8
0
  6
CONTINUOUS
 62
     2
 10
187.45
 20
139.65
 30
0.0
 40
0.45
 50
180.0
 51
270.0
  0
LINE
  8
0
  6
CONTINUOUS
 62
     2
 10
187.0
 20
142.35
 30
0.0
 11
187.0
 21
139.65
 31
0.0
  0
LINE
  8
0
  6
CONTINUOUS
 62
     2
 10
192.25
 20
142.8
 30
0.0
 11
187.45
 21
142.8
 31
0.0
  0
ARC
  8
0
  6
CONTINUOUS
 62
     2
 10
187.45
 20
142.35
 30
0.0
 40
0.45
 50
90.0
 51
180.0
  0
LINE
  8
0
  6
CONTINUOUS
 62
     2
 10
187.45
 20
143.7
 30
0.0
 11
192.25
 21
143.7
 31
0.0
  0
ARC
  8
0
  6
CONTINUOUS
 62
     2
 10
187.45
 20
144.15
 30
0.0
 40
0.45
 50
180.0
 51
270.0
  0
LINE
  8
0
  6
CONTINUOUS
 62
     2
 10
187.0
 20
146.85
 30
0.0
 11
187.0
 21
144.15
 31
0.0
  0
LINE
  8
0
  6
CONTINUOUS
 62
     2
 10
192.25
 20
147.3
 30
0.0
 11
187.45
 21
147.3
 31
0.0
  0
ARC
  8
0
  6
CONTINUOUS
 62
     2
 10
187.45
 20
146.85
 30
0.0
 40
0.45
 50
90.0
 51
180.0
  0
LINE
  8
0
  6
CONTINUOUS
 62
     2
 10
187.45
 20
148.2
 30
0.0
 11
192.25
 21
148.2
 31
0.0
  0
ARC
  8
0
  6
CONTINUOUS
 62
     2
 10
187.45
 20
148.65
 30
0.0
 40
0.45
 50
180.0
 51
270.0
  0
LINE
  8
0
  6
CONTINUOUS
 62
     2
 10
187.0
 20
151.35
 30
0.0
 11
187.0
 21
148.65
 31
0.0
  0
LINE
  8
0
  6
CONTINUOUS
 62
     2
 10
192.05
 20
151.8
 30
0.0
 11
187.45
 21
151.8
 31
0.0
  0
ARC
  8
0
  6
CONTINUOUS
 62
     2
 10
187.45
 20
151.35
 30
0.0
 40
0.45
 50
90.0
 51
180.0
  0
LINE
  8
0
  6
CONTINUOUS
 62
     2
 10
177.5
 20
153.5
 30
0.0
 11
177.5
 21
152.25
 31
0.0
  0
ARC
  8
0
  6
CONTINUOUS
 62
     2
 10
178.0
 20
153.5
 30
0.0
 40
0.5
 50
90.0
 51
180.0
  0
LINE
  8
0
  6
CONTINUOUS
 62
     2
 10
192.0
 20
154.0
 30
0.0
 11
178.0
 21
154.0
 31
0.0
  0
LINE
  8
0
  6
CONTINUOUS
 62
     2
 10
192.5
 20
152.25
 30
0.0
 11
192.5
 21
153.5
 31
0.0
  0
ARC
  8
0
  6
CONTINUOUS
 62
     2
 10
192.0
 20
153.5
 30
0.0
 40
0.5
 50
0.0
 51
90.0
  0
LINE
  8
0
  6
CONTINUOUS
 62
     2
 10
177.5
 20
129.75
 30
0.0
 11
177.5
 21
128.5
 31
0.0
  0
ARC
  8
0
  6
CONTINUOUS
 62
     2
 10
178.0
 20
128.5
 30
0.0
 40
0.5
 50
180.0
 51
270.0
  0
LINE
  8
0
  6
CONTINUOUS
 62
     2
 10
192.5
 20
128.5
 30
0.0
 11
192.5
 21
129.75
 31
0.0
  0
LINE
  8
0
  6
CONTINUOUS
 62
     2
 10
178.0
 20
128.0
 30
0.0
 11
192.0
 21
128.0
 31
0.0
  0
ARC
  8
0
  6
CONTINUOUS
 62
     2
 10
192.0
 20
128.5
 30
0.0
 40
0.5
 50
270.0
 51
0.0
  0
TEXT
  8
0
  6
CONTINUOUS
 62
     2
 10
183.325
 20
149.25
 30
0.15
 40
1.5
  1
１
 50
0.0
 41
0.9
 51
0.0
  7
KANJI5
  0
TEXT
  8
0
  6
CONTINUOUS
 62
     2
 10
183.325
 20
144.75
 30
0.15
 40
1.5
  1
２
 50
0.0
 41
0.9
 51
0.0
  7
KANJI5
  0
TEXT
  8
0
  6
CONTINUOUS
 62
     2
 10
183.325
 20
140.25
 30
0.15
 40
1.5
  1
３
 50
0.0
 41
0.9
 51
0.0
  7
KANJI5
  0
TEXT
  8
0
  6
CONTINUOUS
 62
     2
 10
183.325
 20
135.75
 30
0.15
 40
1.5
  1
４
 50
0.0
 41
0.9
 51
0.0
  7
KANJI5
  0
TEXT
  8
0
  6
CONTINUOUS
 62
     2
 10
183.325
 20
131.25
 30
0.15
 40
1.5
  1
５
 50
0.0
 41
0.9
 51
0.0
  7
KANJI5
  0
TEXT
  8
0
  6
CONTINUOUS
 62
     2
 10
185.325
 20
149.25
 30
0.15
 40
1.5
  1
９
 50
0.0
 41
0.9
 51
0.0
  7
KANJI5
  0
TEXT
  8
0
  6
CONTINUOUS
 62
     2
 10
185.325
 20
144.75
 30
0.15
 40
1.5
  1
１０
 50
0.0
 41
0.45
 51
0.0
  7
KANJI6
  0
TEXT
  8
0
  6
CONTINUOUS
 62
     2
 10
185.325
 20
140.25
 30
0.15
 40
1.5
  1
６
 50
0.0
 41
0.9
 51
0.0
  7
KANJI5
  0
TEXT
  8
0
  6
CONTINUOUS
 62
     2
 10
185.325
 20
135.75
 30
0.15
 40
1.5
  1
７
 50
0.0
 41
0.9
 51
0.0
  7
KANJI5
  0
TEXT
  8
0
  6
CONTINUOUS
 62
     2
 10
185.325
 20
131.25
 30
0.15
 40
1.5
  1
８
 50
0.0
 41
0.9
 51
0.0
  7
KANJI5
  0
LINE
  8
0
  6
CONTINUOUS
 62
     2
 10
185.0
 20
152.0
 30
0.0
 11
185.0
 21
139.5
 31
0.0
  0
LINE
  8
0
  6
CONTINUOUS
 62
     2
 10
185.0
 20
138.0
 30
0.0
 11
185.0
 21
130.0
 31
0.0
  0
LINE
  8
0
  6
CONTINUOUS
 62
     2
 10
185.0
 20
139.5
 30
0.0
 11
185.0
 21
138.0
 31
0.0
  0
LINE
  8
0
  6
CONTINUOUS
 62
     2
 10
192.0
 20
129.75
 30
0.0
 11
192.0
 21
152.25
 31
0.0
  0
LINE
  8
0
  6
CONTINUOUS
 62
     2
 10
178.0
 20
152.25
 30
0.0
 11
178.0
 21
129.75
 31
0.0
  0
LINE
  8
0
  6
CONTINUOUS
 62
     2
 10
183.5
 20
152.25
 30
0.0
 11
178.0
 21
152.25
 31
0.0
  0
LINE
  8
0
  6
CONTINUOUS
 62
     2
 10
192.0
 20
152.25
 30
0.0
 11
186.5
 21
152.25
 31
0.0
  0
LINE
  8
0
  6
CONTINUOUS
 62
     2
 10
186.5
 20
129.75
 30
0.0
 11
192.0
 21
129.75
 31
0.0
  0
LINE
  8
0
  6
CONTINUOUS
 62
     2
 10
178.0
 20
129.75
 30
0.0
 11
183.5
 21
129.75
 31
0.0
  0
LINE
  8
0
  6
CONTINUOUS
 62
     2
 10
183.5
 20
152.25
 30
0.0
 11
183.5
 21
152.5
 31
0.0
  0
LINE
  8
0
  6
CONTINUOUS
 62
     2
 10
186.5
 20
152.25
 30
0.0
 11
186.5
 21
152.5
 31
0.0
  0
LINE
  8
0
  6
CONTINUOUS
 62
     2
 10
183.5
 20
129.75
 30
0.0
 11
183.5
 21
129.5
 31
0.0
  0
LINE
  8
0
  6
CONTINUOUS
 62
     2
 10
186.5
 20
129.75
 30
0.0
 11
186.5
 21
129.5
 31
0.0
  0
TEXT
  8
0
  6
CONTINUOUS
 62
     2
 10
146.75
 20
161.490381057
 30
0.3
 40
3.0
  1
端子カバー
 50
0.0
 41
0.9
 51
0.0
  7
KANJI2
  0
TEXT
  8
0
  6
CONTINUOUS
 62
     3
 10
231.8
 20
9.0
 30
0.6
 40
6.0
  1
ＭＳ－１０８４７Ｂ
 50
0.0
 41
0.9
 51
0.0
  7
KANJI11
  0
LINE
  8
0
  6
CONTINUOUS
 62
     5
 10
209.0
 20
141.0
 30
0.0
 11
216.0
 21
141.0
 31
0.0
  0
LINE
  8
0
  6
CONTINUOUS
 62
     5
 10
201.0
 20
160.0
 30
0.0
 11
201.0
 21
168.0
 31
0.0
  0
LINE
  8
0
  6
CONTINUOUS
 62
     5
 10
169.0
 20
160.5
 30
0.0
 11
169.0
 21
168.5
 31
0.0
  0
LINE
  8
0
  6
CONTINUOUS
 62
     5
 10
185.0
 20
164.4
 30
0.0
 11
185.0
 21
168.9
 31
0.0
  0
LINE
  8
0
  6
CONTINUOUS
 62
     5
 10
204.5
 20
157.0
 30
0.0
 11
216.0
 21
157.0
 31
0.0
  0
LINE
  8
0
  6
CONTINUOUS
 62
     5
 10
204.0
 20
125.0
 30
0.0
 11
216.0
 21
125.0
 31
0.0
  0
LINE
  8
0
  6
CONTINUOUS
 62
     5
 10
185.225
 20
137.7
 30
0.0
 11
185.432866563
 21
135.710831457
 31
0.0
  0
LINE
  8
0
  6
CONTINUOUS
 62
     5
 10
185.225
 20
137.7
 30
0.0
 11
186.399601996
 21
136.081262791
 31
0.0
  0
LINE
  8
0
  6
CONTINUOUS
 62
     5
 10
185.225
 20
137.7
 30
0.0
 11
193.425
 21
116.3
 31
0.0
  0
LINE
  8
0
  6
CONTINUOUS
 62
     5
 10
193.425
 20
116.3
 30
0.0
 11
216.925
 21
116.3
 31
0.0
  0
LINE
  8
0
  6
CONTINUOUS
 62
     5
 10
180.625
 20
131.0
 30
0.0
 11
179.238310248
 21
129.558788173
 31
0.0
  0
LINE
  8
0
  6
CONTINUOUS
 62
     5
 10
180.625
 20
131.0
 30
0.0
 11
180.144697361
 21
129.058529069
 31
0.0
  0
LINE
  8
0
  6
CONTINUOUS
 62
     5
 10
180.625
 20
131.0
 30
0.0
 11
172.484083529
 21
116.25
 31
0.0
  0
LINE
  8
0
  6
CONTINUOUS
 62
     5
 10
172.484083529
 20
116.25
 30
0.0
 11
147.984083529
 21
116.25
 31
0.0
  0
LINE
  8
0
  6
CONTINUOUS
 62
     5
 10
90.25
 20
125.0
 30
0.0
 11
90.897047613
 21
122.585185434
 31
0.0
  0
LINE
  8
0
  6
CONTINUOUS
 62
     5
 10
90.25
 20
125.0
 30
0.0
 11
92.017766953
 21
123.232233047
 31
0.0
  0
LINE
  8
0
  6
CONTINUOUS
 62
     5
 10
90.25
 20
125.0
 30
0.0
 11
94.724464586
 21
117.25
 31
0.0
  0
LINE
  8
0
  6
CONTINUOUS
 62
     5
 10
94.724464586
 20
117.25
 30
0.0
 11
113.124464586
 21
117.25
 31
0.0
  0
LINE
  8
0
  6
CONTINUOUS
 62
     5
 10
79.0
 20
173.75
 30
0.0
 11
76.585185434
 21
174.397047613
 31
0.0
  0
LINE
  8
0
  6
CONTINUOUS
 62
     5
 10
79.0
 20
173.75
 30
0.0
 11
76.585185434
 21
173.102952387
 31
0.0
  0
LINE
  8
0
  6
CONTINUOUS
 62
     5
 10
85.0
 20
170.75
 30
0.0
 11
85.0
 21
175.75
 31
0.0
  0
LINE
  8
0
  6
CONTINUOUS
 62
     5
 10
85.0
 20
173.75
 30
0.0
 11
87.414814566
 21
173.102952387
 31
0.0
  0
LINE
  8
0
  6
CONTINUOUS
 62
     5
 10
85.0
 20
173.75
 30
0.0
 11
87.414814566
 21
174.397047613
 31
0.0
  0
LINE
  8
0
  6
CONTINUOUS
 62
     5
 10
85.0
 20
173.75
 30
0.0
 11
87.414814566
 21
173.102952387
 31
0.0
  0
LINE
  8
0
  6
CONTINUOUS
 62
     5
 10
85.0
 20
173.75
 30
0.0
 11
87.414814566
 21
174.397047613
 31
0.0
  0
LINE
  8
0
  6
CONTINUOUS
 62
     5
 10
90.0
 20
173.75
 30
0.0
 11
74.0
 21
173.75
 31
0.0
  0
LINE
  8
0
  6
CONTINUOUS
 62
     5
 10
79.0
 20
161.25
 30
0.0
 11
79.0
 21
174.0
 31
0.0
  0
LINE
  8
0
  6
CONTINUOUS
 62
     5
 10
85.0
 20
168.75
 30
0.0
 11
82.585185434
 21
169.397047613
 31
0.0
  0
LINE
  8
0
  6
CONTINUOUS
 62
     5
 10
85.0
 20
168.75
 30
0.0
 11
82.585185434
 21
168.102952387
 31
0.0
  0
LINE
  8
0
  6
CONTINUOUS
 62
     5
 10
80.375
 20
168.75
 30
0.0
 11
90.25
 21
168.75
 31
0.0
  0
LINE
  8
0
  6
CONTINUOUS
 62
     5
 10
90.25
 20
168.75
 30
0.0
 11
92.664814566
 21
169.397047613
 31
0.0
  0
LINE
  8
0
  6
CONTINUOUS
 62
     5
 10
90.25
 20
168.75
 30
0.0
 11
92.664814566
 21
168.102952387
 31
0.0
  0
LINE
  8
0
  6
CONTINUOUS
 62
     5
 10
85.25
 20
168.75
 30
0.0
 11
95.25
 21
168.75
 31
0.0
  0
LINE
  8
0
  6
CONTINUOUS
 62
     5
 10
90.25
 20
158.725
 30
0.0
 11
90.25
 21
169.85
 31
0.0
  0
LINE
  8
0
  6
CONTINUOUS
 62
     5
 10
85.0
 20
162.25
 30
0.0
 11
85.0
 21
169.85
 31
0.0
  0
LINE
  8
0
  6
CONTINUOUS
 62
     5
 10
85.25
 20
159.95
 30
0.0
 11
85.25
 21
169.85
 31
0.0
  0
LINE
  8
0
  6
CONTINUOUS
 62
     5
 10
155.0
 20
141.0
 30
0.0
 11
154.352952387
 21
138.585185434
 31
0.0
  0
LINE
  8
0
  6
CONTINUOUS
 62
     5
 10
155.0
 20
141.0
 30
0.0
 11
155.647047613
 21
138.585185434
 31
0.0
  0
LINE
  8
0
  6
CONTINUOUS
 62
     5
 10
155.0
 20
142.0
 30
0.0
 11
155.647047613
 21
144.414814566
 31
0.0
  0
LINE
  8
0
  6
CONTINUOUS
 62
     5
 10
155.0
 20
142.0
 30
0.0
 11
154.352952387
 21
144.414814566
 31
0.0
  0
LINE
  8
0
  6
CONTINUOUS
 62
     5
 10
155.0
 20
147.0
 30
0.0
 11
155.0
 21
135.0
 31
0.0
  0
LINE
  8
0
  6
CONTINUOUS
 62
     5
 10
169.0
 20
167.0
 30
0.0
 11
171.414814566
 21
166.352952387
 31
0.0
  0
LINE
  8
0
  6
CONTINUOUS
 62
     5
 10
169.0
 20
167.0
 30
0.0
 11
171.414814566
 21
167.647047613
 31
0.0
  0
LINE
  8
0
  6
CONTINUOUS
 62
     5
 10
185.0
 20
167.0
 30
0.0
 11
182.585185434
 21
167.647047613
 31
0.0
  0
LINE
  8
0
  6
CONTINUOUS
 62
     5
 10
185.0
 20
167.0
 30
0.0
 11
182.585185434
 21
166.352952387
 31
0.0
  0
LINE
  8
0
  6
CONTINUOUS
 62
     5
 10
185.0
 20
167.0
 30
0.0
 11
169.0
 21
167.0
 31
0.0
  0
LINE
  8
0
  6
CONTINUOUS
 62
     5
 10
185.0
 20
167.0
 30
0.0
 11
187.414814566
 21
166.352952387
 31
0.0
  0
LINE
  8
0
  6
CONTINUOUS
 62
     5
 10
185.0
 20
167.0
 30
0.0
 11
187.414814566
 21
167.647047613
 31
0.0
  0
LINE
  8
0
  6
CONTINUOUS
 62
     5
 10
201.0
 20
167.0
 30
0.0
 11
198.585185434
 21
167.647047613
 31
0.0
  0
LINE
  8
0
  6
CONTINUOUS
 62
     5
 10
201.0
 20
167.0
 30
0.0
 11
198.585185434
 21
166.352952387
 31
0.0
  0
LINE
  8
0
  6
CONTINUOUS
 62
     5
 10
185.0
 20
167.0
 30
0.0
 11
201.0
 21
167.0
 31
0.0
  0
LINE
  8
0
  6
CONTINUOUS
 62
     5
 10
215.0
 20
141.0
 30
0.0
 11
215.647047613
 21
143.414814566
 31
0.0
  0
LINE
  8
0
  6
CONTINUOUS
 62
     5
 10
215.0
 20
141.0
 30
0.0
 11
214.352952387
 21
143.414814566
 31
0.0
  0
LINE
  8
0
  6
CONTINUOUS
 62
     5
 10
215.0
 20
157.0
 30
0.0
 11
214.352952387
 21
154.585185434
 31
0.0
  0
LINE
  8
0
  6
CONTINUOUS
 62
     5
 10
215.0
 20
157.0
 30
0.0
 11
215.647047613
 21
154.585185434
 31
0.0
  0
LINE
  8
0
  6
CONTINUOUS
 62
     5
 10
215.0
 20
141.0
 30
0.0
 11
215.0
 21
157.0
 31
0.0
  0
LINE
  8
0
  6
CONTINUOUS
 62
     5
 10
215.0
 20
125.0
 30
0.0
 11
215.647047613
 21
127.414814566
 31
0.0
  0
LINE
  8
0
  6
CONTINUOUS
 62
     5
 10
215.0
 20
125.0
 30
0.0
 11
214.352952387
 21
127.414814566
 31
0.0
  0
LINE
  8
0
  6
CONTINUOUS
 62
     5
 10
215.0
 20
141.0
 30
0.0
 11
214.352952387
 21
138.585185434
 31
0.0
  0
LINE
  8
0
  6
CONTINUOUS
 62
     5
 10
215.0
 20
141.0
 30
0.0
 11
215.647047613
 21
138.585185434
 31
0.0
  0
LINE
  8
0
  6
CONTINUOUS
 62
     5
 10
215.0
 20
125.0
 30
0.0
 11
215.0
 21
141.0
 31
0.0
  0
LINE
  8
0
  6
CONTINUOUS
 62
     5
 10
61.75
 20
172.0
 30
0.0
 11
59.335185434
 21
172.647047613
 31
0.0
  0
LINE
  8
0
  6
CONTINUOUS
 62
     5
 10
61.75
 20
172.0
 30
0.0
 11
59.335185434
 21
171.352952387
 31
0.0
  0
LINE
  8
0
  6
CONTINUOUS
 62
     5
 10
61.75
 20
161.375
 30
0.0
 11
61.75
 21
174.0
 31
0.0
  0
LINE
  8
0
  6
CONTINUOUS
 62
     5
 10
66.75
 20
162.0
 30
0.0
 11
66.102952387
 21
159.585185434
 31
0.0
  0
LINE
  8
0
  6
CONTINUOUS
 62
     5
 10
66.75
 20
162.0
 30
0.0
 11
67.397047613
 21
159.585185434
 31
0.0
  0
LINE
  8
0
  6
CONTINUOUS
 62
     5
 10
61.125
 20
162.0
 30
0.0
 11
68.75
 21
162.0
 31
0.0
  0
LINE
  8
0
  6
CONTINUOUS
 62
     5
 10
61.125
 20
122.0
 30
0.0
 11
68.75
 21
122.0
 31
0.0
  0
LINE
  8
0
  6
CONTINUOUS
 62
     5
 10
66.75
 20
122.0
 30
0.0
 11
67.397047613
 21
124.414814566
 31
0.0
  0
LINE
  8
0
  6
CONTINUOUS
 62
     5
 10
66.75
 20
122.0
 30
0.0
 11
66.102952387
 21
124.414814566
 31
0.0
  0
LINE
  8
0
  6
CONTINUOUS
 62
     5
 10
18.25
 20
161.375
 30
0.0
 11
18.25
 21
174.0
 31
0.0
  0
LINE
  8
0
  6
CONTINUOUS
 62
     5
 10
18.25
 20
172.0
 30
0.0
 11
20.664814566
 21
171.352952387
 31
0.0
  0
LINE
  8
0
  6
CONTINUOUS
 62
     5
 10
18.25
 20
172.0
 30
0.0
 11
20.664814566
 21
172.647047613
 31
0.0
  0
LINE
  8
0
  6
CONTINUOUS
 62
     5
 10
18.25
 20
172.0
 30
0.0
 11
61.75
 21
172.0
 31
0.0
  0
LINE
  8
0
  6
CONTINUOUS
 62
     5
 10
66.75
 20
122.0
 30
0.0
 11
66.75
 21
162.0
 31
0.0
  0
LINE
  8
0
  6
CONTINUOUS
 62
     5
 10
75.0
 20
128.75
 30
0.0
 11
75.0
 21
115.25
 31
0.0
  0
LINE
  8
0
  6
CONTINUOUS
 62
     5
 10
75.0
 20
117.25
 30
0.0
 11
77.414814566
 21
116.602952387
 31
0.0
  0
LINE
  8
0
  6
CONTINUOUS
 62
     5
 10
75.0
 20
117.25
 30
0.0
 11
77.414814566
 21
117.897047613
 31
0.0
  0
LINE
  8
0
  6
CONTINUOUS
 62
     5
 10
85.0
 20
121.25
 30
0.0
 11
85.0
 21
115.25
 31
0.0
  0
LINE
  8
0
  6
CONTINUOUS
 62
     5
 10
85.0
 20
117.25
 30
0.0
 11
82.585185434
 21
117.897047613
 31
0.0
  0
LINE
  8
0
  6
CONTINUOUS
 62
     5
 10
85.0
 20
117.25
 30
0.0
 11
82.585185434
 21
116.602952387
 31
0.0
  0
LINE
  8
0
  6
CONTINUOUS
 62
     5
 10
85.0
 20
117.25
 30
0.0
 11
75.0
 21
117.25
 31
0.0
  0
LINE
  8
0
  6
CONTINUOUS
 62
     5
 10
95.0
 20
124.802083333
 30
0.0
 11
95.647047613
 21
127.216897899
 31
0.0
  0
LINE
  8
0
  6
CONTINUOUS
 62
     5
 10
95.0
 20
124.802083333
 30
0.0
 11
94.352952387
 21
127.216897899
 31
0.0
  0
LINE
  8
0
  6
CONTINUOUS
 62
     5
 10
95.0
 20
157.197916667
 30
0.0
 11
94.352952387
 21
154.783102101
 31
0.0
  0
LINE
  8
0
  6
CONTINUOUS
 62
     5
 10
95.0
 20
157.197916667
 30
0.0
 11
95.647047613
 21
154.783102101
 31
0.0
  0
LINE
  8
0
  6
CONTINUOUS
 62
     5
 10
95.0
 20
157.197916667
 30
0.0
 11
95.0
 21
124.802083333
 31
0.0
  0
LINE
  8
0
  6
CONTINUOUS
 62
     5
 10
203.0
 20
66.0
 30
0.0
 11
213.0
 21
66.0
 31
0.0
  0
LINE
  8
0
  6
CONTINUOUS
 62
     5
 10
211.0
 20
66.0
 30
0.0
 11
211.647047613
 21
68.414814566
 31
0.0
  0
LINE
  8
0
  6
CONTINUOUS
 62
     5
 10
211.0
 20
66.0
 30
0.0
 11
210.352952387
 21
68.414814566
 31
0.0
  0
LINE
  8
0
  6
CONTINUOUS
 62
     5
 10
211.0
 20
82.0
 30
0.0
 11
210.352952387
 21
79.585185434
 31
0.0
  0
LINE
  8
0
  6
CONTINUOUS
 62
     5
 10
211.0
 20
82.0
 30
0.0
 11
211.647047613
 21
79.585185434
 31
0.0
  0
LINE
  8
0
  6
CONTINUOUS
 62
     5
 10
211.0
 20
82.0
 30
0.0
 11
211.0
 21
66.0
 31
0.0
  0
LINE
  8
0
  6
CONTINUOUS
 62
     5
 10
211.0
 20
82.0
 30
0.0
 11
211.647047613
 21
84.414814566
 31
0.0
  0
LINE
  8
0
  6
CONTINUOUS
 62
     5
 10
211.0
 20
82.0
 30
0.0
 11
210.352952387
 21
84.414814566
 31
0.0
  0
LINE
  8
0
  6
CONTINUOUS
 62
     5
 10
211.0
 20
98.0
 30
0.0
 11
210.352952387
 21
95.585185434
 31
0.0
  0
LINE
  8
0
  6
CONTINUOUS
 62
     5
 10
211.0
 20
98.0
 30
0.0
 11
211.647047613
 21
95.585185434
 31
0.0
  0
LINE
  8
0
  6
CONTINUOUS
 62
     5
 10
211.0
 20
82.0
 30
0.0
 11
211.0
 21
98.0
 31
0.0
  0
LINE
  8
0
  6
CONTINUOUS
 62
     5
 10
203.0
 20
98.0
 30
0.0
 11
213.0
 21
98.0
 31
0.0
  0
LINE
  8
0
  6
CONTINUOUS
 62
     5
 10
201.0
 20
108.0
 30
0.0
 11
198.585185434
 21
108.647047613
 31
0.0
  0
LINE
  8
0
  6
CONTINUOUS
 62
     5
 10
201.0
 20
108.0
 30
0.0
 11
198.585185434
 21
107.352952387
 31
0.0
  0
LINE
  8
0
  6
CONTINUOUS
 62
     5
 10
201.0
 20
100.0
 30
0.0
 11
201.0
 21
110.0
 31
0.0
  0
LINE
  8
0
  6
CONTINUOUS
 62
     5
 10
185.0
 20
108.0
 30
0.0
 11
182.585185434
 21
108.647047613
 31
0.0
  0
LINE
  8
0
  6
CONTINUOUS
 62
     5
 10
185.0
 20
108.0
 30
0.0
 11
182.585185434
 21
107.352952387
 31
0.0
  0
LINE
  8
0
  6
CONTINUOUS
 62
     5
 10
185.0
 20
107.0
 30
0.0
 11
185.0
 21
110.0
 31
0.0
  0
LINE
  8
0
  6
CONTINUOUS
 62
     5
 10
185.0
 20
108.0
 30
0.0
 11
187.414814566
 21
107.352952387
 31
0.0
  0
LINE
  8
0
  6
CONTINUOUS
 62
     5
 10
185.0
 20
108.0
 30
0.0
 11
187.414814566
 21
108.647047613
 31
0.0
  0
LINE
  8
0
  6
CONTINUOUS
 62
     5
 10
185.0
 20
108.0
 30
0.0
 11
201.0
 21
108.0
 31
0.0
  0
LINE
  8
0
  6
CONTINUOUS
 62
     5
 10
169.0
 20
100.0
 30
0.0
 11
169.0
 21
110.0
 31
0.0
  0
LINE
  8
0
  6
CONTINUOUS
 62
     5
 10
169.0
 20
108.0
 30
0.0
 11
171.414814566
 21
107.352952387
 31
0.0
  0
LINE
  8
0
  6
CONTINUOUS
 62
     5
 10
169.0
 20
108.0
 30
0.0
 11
171.414814566
 21
108.647047613
 31
0.0
  0
LINE
  8
0
  6
CONTINUOUS
 62
     5
 10
169.0
 20
108.0
 30
0.0
 11
185.0
 21
108.0
 31
0.0
  0
LINE
  8
0
  6
CONTINUOUS
 62
     5
 10
23.6875
 20
85.775
 30
0.0
 11
24.664743479
 21
87.519991456
 31
0.0
  0
LINE
  8
0
  6
CONTINUOUS
 62
     5
 10
23.6875
 20
85.775
 30
0.0
 11
23.66132195
 21
87.77482867
 31
0.0
  0
LINE
  8
0
  6
CONTINUOUS
 62
     5
 10
23.6875
 20
85.775
 30
0.0
 11
25.2875
 21
92.075
 31
0.0
  0
LINE
  8
0
  6
CONTINUOUS
 62
     5
 10
25.2875
 20
92.075
 30
0.0
 11
30.3875
 21
92.075
 31
0.0
  0
TEXT
  8
0
  6
CONTINUOUS
 62
     5
 10
25.2875
 20
93.075
 30
0.3
 40
3.0
  1
指針
 50
0.0
 41
0.8
 51
0.0
  7
KANJI12
  0
LINE
  8
0
  6
CONTINUOUS
 62
     5
 10
80.3875
 20
85.775
 30
0.0
 11
81.364743479
 21
87.519991456
 31
0.0
  0
LINE
  8
0
  6
CONTINUOUS
 62
     5
 10
80.3875
 20
85.775
 30
0.0
 11
80.36132195
 21
87.77482867
 31
0.0
  0
LINE
  8
0
  6
CONTINUOUS
 62
     5
 10
80.3875
 20
85.775
 30
0.0
 11
81.9875
 21
92.075
 31
0.0
  0
LINE
  8
0
  6
CONTINUOUS
 62
     5
 10
81.9875
 20
92.075
 30
0.0
 11
87.0875
 21
92.075
 31
0.0
  0
TEXT
  8
0
  6
CONTINUOUS
 62
     5
 10
81.9875
 20
93.075
 30
0.3
 40
3.0
  1
指針
 50
0.0
 41
0.8
 51
0.0
  7
KANJI12
  0
LINE
  8
0
  6
CONTINUOUS
 62
     5
 10
128.4875
 20
85.775
 30
0.0
 11
129.464743479
 21
87.519991456
 31
0.0
  0
LINE
  8
0
  6
CONTINUOUS
 62
     5
 10
128.4875
 20
85.775
 30
0.0
 11
128.46132195
 21
87.77482867
 31
0.0
  0
LINE
  8
0
  6
CONTINUOUS
 62
     5
 10
128.4875
 20
85.775
 30
0.0
 11
130.0875
 21
92.075
 31
0.0
  0
LINE
  8
0
  6
CONTINUOUS
 62
     5
 10
130.0875
 20
92.075
 30
0.0
 11
135.1875
 21
92.075
 31
0.0
  0
TEXT
  8
0
  6
CONTINUOUS
 62
     5
 10
130.0875
 20
93.075
 30
0.3
 40
3.0
  1
指針
 50
0.0
 41
0.8
 51
0.0
  7
KANJI12
  0
LINE
  8
0
  6
CONTINUOUS
 62
     5
 10
26.9
 20
84.460973107
 30
0.0
 11
28.196444959
 21
85.983875096
 31
0.0
  0
LINE
  8
0
  6
CONTINUOUS
 62
     5
 10
26.9
 20
84.460973107
 30
0.0
 11
27.261303274
 21
86.428067397
 31
0.0
  0
LINE
  8
0
  6
CONTINUOUS
 62
     5
 10
26.9
 20
84.460973107
 30
0.0
 11
28.8
 21
88.460973107
 31
0.0
  0
TEXT
  8
0
  6
CONTINUOUS
 62
     5
 10
30.5
 20
85.860973107
 30
0.1
 40
2.5
  1
（黄色）
 50
0.0
 41
0.8
 51
0.0
  7
KANJI13
  0
LINE
  8
0
  6
CONTINUOUS
 62
     5
 10
131.9
 20
84.460973107
 30
0.0
 11
133.196444959
 21
85.983875096
 31
0.0
  0
LINE
  8
0
  6
CONTINUOUS
 62
     5
 10
131.9
 20
84.460973107
 30
0.0
 11
132.261303274
 21
86.428067397
 31
0.0
  0
LINE
  8
0
  6
CONTINUOUS
 62
     5
 10
131.9
 20
84.460973107
 30
0.0
 11
133.8
 21
88.460973107
 31
0.0
  0
TEXT
  8
0
  6
CONTINUOUS
 62
     5
 10
135.5
 20
85.860973107
 30
0.1
 40
2.5
  1
（黄色）
 50
0.0
 41
0.8
 51
0.0
  7
KANJI13
  0
LINE
  8
0
  6
CONTINUOUS
 62
     5
 10
54.5
 20
86.35
 30
0.0
 11
54.323737974
 21
88.342217784
 31
0.0
  0
LINE
  8
0
  6
CONTINUOUS
 62
     5
 10
54.5
 20
86.35
 30
0.0
 11
53.351243716
 21
87.987180198
 31
0.0
  0
LINE
  8
0
  6
CONTINUOUS
 62
     5
 10
54.5
 20
86.35
 30
0.0
 11
49.9
 21
98.95
 31
0.0
  0
LINE
  8
0
  6
CONTINUOUS
 62
     5
 10
111.5
 20
86.35
 30
0.0
 11
106.9
 21
98.95
 31
0.0
  0
LINE
  8
0
  6
CONTINUOUS
 62
     5
 10
111.5
 20
86.35
 30
0.0
 11
111.323737974
 21
88.342217784
 31
0.0
  0
LINE
  8
0
  6
CONTINUOUS
 62
     5
 10
111.5
 20
86.35
 30
0.0
 11
110.351243716
 21
87.987180198
 31
0.0
  0
LINE
  8
0
  6
CONTINUOUS
 62
     5
 10
35.0
 20
65.834936491
 30
0.0
 11
33.232233047
 21
64.067169538
 31
0.0
  0
LINE
  8
0
  6
CONTINUOUS
 62
     5
 10
35.0
 20
65.834936491
 30
0.0
 11
34.352952387
 21
63.420121925
 31
0.0
  0
LINE
  8
0
  6
CONTINUOUS
 62
     5
 10
31.830932862
 20
60.358291974
 30
0.0
 11
20.310932862
 21
60.358291974
 31
0.0
  0
TEXT
  8
0
  6
CONTINUOUS
 62
     5
 10
20.310932862
 20
61.158291974
 30
0.24
 40
2.4
  1
Ｌ側設定ツマミ
 50
0.0
 41
0.6
 51
0.0
  7
KANJI9
  0
TEXT
  8
0
  6
CONTINUOUS
 62
     5
 10
20.310932862
 20
57.158291974
 30
0.24
 40
2.4
  1
（中央黄色）
 50
0.0
 41
0.6
 51
0.0
  7
KANJI9
  0
LINE
  8
0
  6
CONTINUOUS
 62
     5
 10
34.9878548
 20
65.826241166
 30
0.0
 11
31.830932862
 21
60.358291974
 31
0.0
  0
LINE
  8
0
  6
CONTINUOUS
 62
     5
 10
45.0
 20
65.834936491
 30
0.0
 11
45.647047613
 21
63.420121925
 31
0.0
  0
LINE
  8
0
  6
CONTINUOUS
 62
     5
 10
45.0
 20
65.834936491
 30
0.0
 11
46.767766953
 21
64.067169538
 31
0.0
  0
TEXT
  8
0
  6
CONTINUOUS
 62
     5
 10
48.184776738
 20
61.178291974
 30
0.24
 40
2.4
  1
Ｈ側設定ツマミ
 50
0.0
 41
0.6
 51
0.0
  7
KANJI9
  0
TEXT
  8
0
  6
CONTINUOUS
 62
     5
 10
48.184776738
 20
57.178291974
 30
0.24
 40
2.4
  1
（中央赤色）
 50
0.0
 41
0.6
 51
0.0
  7
KANJI9
  0
LINE
  8
0
  6
CONTINUOUS
 62
     5
 10
48.184776738
 20
60.378291974
 30
0.0
 11
59.704776738
 21
60.378291974
 31
0.0
  0
LINE
  8
0
  6
CONTINUOUS
 62
     5
 10
45.0278548
 20
65.846241166
 30
0.0
 11
48.184776738
 21
60.378291974
 31
0.0
  0
TEXT
  8
0
  6
CONTINUOUS
 62
     5
 10
105.184776738
 20
61.178291974
 30
0.24
 40
2.4
  1
Ｈ側設定ツマミ
 50
0.0
 41
0.6
 51
0.0
  7
KANJI9
  0
TEXT
  8
0
  6
CONTINUOUS
 62
     5
 10
105.184776738
 20
57.178291974
 30
0.24
 40
2.4
  1
（中央赤色）
 50
0.0
 41
0.6
 51
0.0
  7
KANJI9
  0
LINE
  8
0
  6
CONTINUOUS
 62
     5
 10
105.184776738
 20
60.378291974
 30
0.0
 11
116.704776738
 21
60.378291974
 31
0.0
  0
LINE
  8
0
  6
CONTINUOUS
 62
     5
 10
102.0
 20
65.834936491
 30
0.0
 11
102.647047613
 21
63.420121925
 31
0.0
  0
LINE
  8
0
  6
CONTINUOUS
 62
     5
 10
102.0
 20
65.834936491
 30
0.0
 11
103.767766953
 21
64.067169538
 31
0.0
  0
LINE
  8
0
  6
CONTINUOUS
 62
     5
 10
102.0278548
 20
65.846241166
 30
0.0
 11
105.184776738
 21
60.378291974
 31
0.0
  0
LINE
  8
0
  6
CONTINUOUS
 62
     5
 10
140.0
 20
65.834936491
 30
0.0
 11
138.232233047
 21
64.067169538
 31
0.0
  0
LINE
  8
0
  6
CONTINUOUS
 62
     5
 10
136.810932862
 20
60.378291974
 30
0.0
 11
125.290932862
 21
60.378291974
 31
0.0
  0
TEXT
  8
0
  6
CONTINUOUS
 62
     5
 10
125.290932862
 20
61.178291974
 30
0.24
 40
2.4
  1
Ｌ側設定ツマミ
 50
0.0
 41
0.6
 51
0.0
  7
KANJI9
  0
TEXT
  8
0
  6
CONTINUOUS
 62
     5
 10
125.290932862
 20
57.178291974
 30
0.24
 40
2.4
  1
（中央黄色）
 50
0.0
 41
0.6
 51
0.0
  7
KANJI9
  0
LINE
  8
0
  6
CONTINUOUS
 62
     5
 10
140.0
 20
65.834936491
 30
0.0
 11
139.352952387
 21
63.420121925
 31
0.0
  0
LINE
  8
0
  6
CONTINUOUS
 62
     5
 10
139.9678548
 20
65.846241166
 30
0.0
 11
136.810932862
 21
60.378291974
 31
0.0
  0
LINE
  8
0
  6
CONTINUOUS
 62
     5
 10
35.125
 20
137.991459869
 30
0.0
 11
33.940320194
 21
136.380083514
 31
0.0
  0
LINE
  8
0
  6
CONTINUOUS
 62
     5
 10
35.125
 20
137.991459869
 30
0.0
 11
34.90472537
 21
136.003627108
 31
0.0
  0
LINE
  8
0
  6
CONTINUOUS
 62
     5
 10
35.125
 20
137.991459869
 30
0.0
 11
26.225
 21
115.191459869
 31
0.0
  0
LINE
  8
0
  6
CONTINUOUS
 62
     5
 10
26.225
 20
115.191459869
 30
0.0
 11
15.825
 21
115.191459869
 31
0.0
  0
TEXT
  8
0
  6
CONTINUOUS
 62
     5
 10
15.825
 20
116.191459869
 30
0.1
 40
2.5
  1
遮光フード
 50
0.0
 41
0.8
 51
0.0
  7
KANJI13
  0
LINE
  8
0
  6
CONTINUOUS
 62
     5
 10
23.95
 20
148.591459869
 30
0.0
 11
25.148086593
 21
150.192893138
 31
0.0
  0
LINE
  8
0
  6
CONTINUOUS
 62
     5
 10
23.95
 20
148.591459869
 30
0.0
 11
24.186856791
 21
150.577385059
 31
0.0
  0
LINE
  8
0
  6
CONTINUOUS
 62
     5
 10
23.95
 20
148.591459869
 30
0.0
 11
26.55
 21
155.091459869
 31
0.0
  0
LINE
  8
0
  6
CONTINUOUS
 62
     5
 10
26.55
 20
155.091459869
 30
0.0
 11
39.05
 21
155.091459869
 31
0.0
  0
TEXT
  8
0
  6
CONTINUOUS
 62
     5
 10
26.55
 20
156.091459869
 30
0.1
 40
2.5
  1
指針（黒棒）
 50
0.0
 41
0.8
 51
0.0
  7
KANJI13
  0
LINE
  8
0
  6
LTYPE2
 62
     5
 10
11.2
 20
16.8
 30
0.0
 11
68.4
 21
16.8
 31
0.0
  0
LINE
  8
0
  6
LTYPE2
 62
     5
 10
68.4
 20
16.8
 30
0.0
 11
68.4
 21
105.4
 31
0.0
  0
LINE
  8
0
  6
LTYPE2
 62
     5
 10
68.4
 20
105.4
 30
0.0
 11
11.2
 21
105.4
 31
0.0
  0
LINE
  8
0
  6
LTYPE2
 62
     5
 10
11.2
 20
105.4
 30
0.0
 11
11.2
 21
16.8
 31
0.0
  0
LINE
  8
0
  6
LTYPE2
 62
     5
 10
68.4
 20
105.4
 30
0.0
 11
157.4
 21
105.4
 31
0.0
  0
LINE
  8
0
  6
LTYPE2
 62
     5
 10
157.4
 20
105.4
 30
0.0
 11
163.6
 21
54.8
 31
0.0
  0
LINE
  8
0
  6
LTYPE2
 62
     5
 10
163.6
 20
54.8
 30
0.0
 11
180.6
 21
39.2
 31
0.0
  0
LINE
  8
0
  6
LTYPE2
 62
     5
 10
180.6
 20
39.2
 30
0.0
 11
180.7
 21
16.8
 31
0.0
  0
LINE
  8
0
  6
LTYPE2
 62
     5
 10
180.7
 20
16.8
 30
0.0
 11
68.4
 21
16.8
 31
0.0
  0
LINE
  8
0
  6
LTYPE2
 62
     5
 10
119.3
 20
105.4
 30
0.0
 11
119.3
 21
16.8
 31
0.0
  0
TEXT
  8
0
  6
CONTINUOUS
 62
     5
 10
37.2
 20
99.55
 30
0.1
 40
2.5
  1
Ｈ側設定指針
 50
0.0
 41
0.8
 51
0.0
  7
KANJI13
  0
TEXT
  8
0
  6
CONTINUOUS
 62
     5
 10
39.4
 20
96.260973107
 30
0.1
 40
2.5
  1
（赤色）
 50
0.0
 41
0.8
 51
0.0
  7
KANJI13
  0
LINE
  8
0
  6
CONTINUOUS
 62
     5
 10
49.9
 20
98.95
 30
0.0
 11
36.9
 21
98.95
 31
0.0
  0
TEXT
  8
0
  6
CONTINUOUS
 62
     5
 10
94.4
 20
96.260973107
 30
0.1
 40
2.5
  1
（赤色）
 50
0.0
 41
0.8
 51
0.0
  7
KANJI13
  0
TEXT
  8
0
  6
CONTINUOUS
 62
     5
 10
94.2
 20
99.55
 30
0.1
 40
2.5
  1
Ｈ側設定指針
 50
0.0
 41
0.8
 51
0.0
  7
KANJI13
  0
LINE
  8
0
  6
CONTINUOUS
 62
     5
 10
106.9
 20
98.95
 30
0.0
 11
93.8
 21
98.95
 31
0.0
  0
TEXT
  8
0
  6
CONTINUOUS
 62
     5
 10
133.8
 20
89.060973107
 30
0.1
 40
2.5
  1
Ｌ側設定指針
 50
0.0
 41
0.8
 51
0.0
  7
KANJI13
  0
LINE
  8
0
  6
CONTINUOUS
 62
     5
 10
133.8
 20
88.460973107
 30
0.0
 11
146.4
 21
88.460973107
 31
0.0
  0
TEXT
  8
0
  6
CONTINUOUS
 62
     5
 10
28.8
 20
89.460973107
 30
0.1
 40
2.5
  1
Ｌ側設定指針
 50
0.0
 41
0.8
 51
0.0
  7
KANJI13
  0
LINE
  8
0
  6
CONTINUOUS
 62
     5
 10
28.8
 20
88.460973107
 30
0.0
 11
41.3
 21
88.460973107
 31
0.0
  0
LINE
  8
0
  6
CONTINUOUS
 62
     5
 10
40.7
 20
125.2
 30
0.0
 11
40.987596849
 21
123.220786001
 31
0.0
  0
LINE
  8
0
  6
CONTINUOUS
 62
     5
 10
40.7
 20
125.2
 30
0.0
 11
41.938673177
 21
123.629748822
 31
0.0
  0
LINE
  8
0
  6
CONTINUOUS
 62
     5
 10
40.7
 20
125.2
 30
0.0
 11
45.0
 21
115.2
 31
0.0
  0
LINE
  8
0
  6
CONTINUOUS
 62
     5
 10
45.0
 20
115.2
 30
0.0
 11
55.8
 21
115.2
 31
0.0
  0
TEXT
  8
0
  6
CONTINUOUS
 62
     5
 10
45.0
 20
116.2
 30
0.2
 40
2.5
  1
零位調整器
 50
0.0
 41
0.8
 51
0.0
  7
KANJI14
  0
LINE
  8
0
  6
CONTINUOUS
 62
     5
 10
135.0
 20
157.529304445
 30
0.0
 11
135.0
 21
175.75
 31
0.0
  0
LINE
  8
0
  6
CONTINUOUS
 62
     5
 10
135.0
 20
173.75
 30
0.0
 11
132.585185434
 21
174.397047613
 31
0.0
  0
LINE
  8
0
  6
CONTINUOUS
 62
     5
 10
135.0
 20
173.75
 30
0.0
 11
132.585185434
 21
173.102952387
 31
0.0
  0
LINE
  8
0
  6
CONTINUOUS
 62
     5
 10
135.0
 20
173.75
 30
0.0
 11
132.585185434
 21
174.397047613
 31
0.0
  0
LINE
  8
0
  6
CONTINUOUS
 62
     5
 10
135.0
 20
173.75
 30
0.0
 11
132.585185434
 21
173.102952387
 31
0.0
  0
LINE
  8
0
  6
CONTINUOUS
 62
     5
 10
85.0
 20
173.75
 30
0.0
 11
135.0
 21
173.75
 31
0.0
  0
LINE
  8
0
  6
CONTINUOUS
 62
     5
 10
135.0
 20
173.75
 30
0.0
 11
132.585185434
 21
174.397047613
 31
0.0
  0
LINE
  8
0
  6
CONTINUOUS
 62
     5
 10
135.0
 20
173.75
 30
0.0
 11
132.585185434
 21
173.102952387
 31
0.0
  0
LINE
  8
0
  6
CONTINUOUS
 62
     5
 10
135.0
 20
157.529304445
 30
0.0
 11
135.0
 21
175.75
 31
0.0
  0
LINE
  8
0
  6
CONTINUOUS
 62
     5
 10
135.0
 20
173.75
 30
0.0
 11
132.585185434
 21
174.397047613
 31
0.0
  0
LINE
  8
0
  6
CONTINUOUS
 62
     5
 10
135.0
 20
173.75
 30
0.0
 11
132.585185434
 21
173.102952387
 31
0.0
  0
LINE
  8
0
  6
CONTINUOUS
 62
     5
 10
135.0
 20
157.529304445
 30
0.0
 11
135.0
 21
175.75
 31
0.0
  0
LINE
  8
0
  6
CONTINUOUS
 62
     5
 10
135.0
 20
173.75
 30
0.0
 11
132.585185434
 21
174.397047613
 31
0.0
  0
LINE
  8
0
  6
CONTINUOUS
 62
     5
 10
135.0
 20
173.75
 30
0.0
 11
132.585185434
 21
173.102952387
 31
0.0
  0
LINE
  8
0
  6
CONTINUOUS
 62
     5
 10
130.0
 20
173.75
 30
0.0
 11
145.25
 21
173.75
 31
0.0
  0
LINE
  8
0
  6
CONTINUOUS
 62
     5
 10
140.25
 20
173.75
 30
0.0
 11
142.664814566
 21
173.102952387
 31
0.0
  0
LINE
  8
0
  6
CONTINUOUS
 62
     5
 10
140.25
 20
173.75
 30
0.0
 11
142.664814566
 21
174.397047613
 31
0.0
  0
LINE
  8
0
  6
CONTINUOUS
 62
     5
 10
140.25
 20
154.6
 30
0.0
 11
140.25
 21
175.75
 31
0.0
  0
LINE
  8
0
  6
CONTINUOUS
 62
     5
 10
146.75
 20
160.490381057
 30
0.0
 11
161.75
 21
160.490381057
 31
0.0
  0
LINE
  8
0
  6
CONTINUOUS
 62
     5
 10
139.25
 20
147.5
 30
0.0
 11
141.017766953
 21
149.267766953
 31
0.0
  0
LINE
  8
0
  6
CONTINUOUS
 62
     5
 10
139.25
 20
147.5
 30
0.0
 11
139.897047613
 21
149.914814566
 31
0.0
  0
LINE
  8
0
  6
CONTINUOUS
 62
     5
 10
139.25
 20
147.5
 30
0.0
 11
146.75
 21
160.490381057
 31
0.0
  0
TEXT
  8
0
  6
CONTINUOUS
 62
     1
 10
234.0
 20
35.0
 30
0.4
 40
4.0
  1
ＭＰＣ－８（ＨＬ，Ｈ，Ｌ設定）
 50
0.0
 41
0.9
 51
0.0
  7
KANJI15
  0
TEXT
  8
0
  6
CONTINUOUS
 62
     1
 10
232.1
 20
25.0
 30
0.4
 40
4.0
  1
無接点式メ－タリレ－外形図
 50
0.0
 41
0.9
 51
0.0
  7
KANJI15
  0
LINE
  8
0
  6
LTYPE1
 62
     2
 10
15.0
 20
142.0
 30
0.0
 11
62.0
 21
142.0
 31
0.0
  0
LINE
  8
0
  6
LTYPE1
 62
     2
 10
40.0
 20
163.0
 30
0.0
 11
40.0
 21
119.95
 31
0.0
  0
TEXT
  8
0
  6
CONTINUOUS
 62
     2
 10
94.0
 20
145.0
 30
0.3
 40
3.0
  1
φ６５
 50
90.0
 41
0.6
 51
0.0
  7
KANJI1
  0
LINE
  8
0
  6
LTYPE1
 62
     2
 10
130.0
 20
141.0
 30
0.0
 11
142.0
 21
141.0
 31
0.0
  0
LINE
  8
0
  6
LTYPE1
 62
     2
 10
185.0
 20
163.9
 30
0.0
 11
185.0
 21
120.0
 31
0.0
  0
LINE
  8
0
  6
LTYPE1
 62
     2
 10
185.0
 20
107.0
 30
0.0
 11
185.0
 21
62.0
 31
0.0
  0
LINE
  8
0
  6
LTYPE1
 62
     2
 10
145.0
 20
81.0
 30
0.0
 11
145.0
 21
58.75
 31
0.0
  0
LINE
  8
0
  6
LTYPE1
 62
     2
 10
97.0
 20
80.0
 30
0.0
 11
97.0
 21
58.75
 31
0.0
  0
ENDSEC
  0
EOF
