  0
SECTION
  2
HEADER
  9
$ACADVER
  1
AC1009
  9
$DWGCODEPAGE
  3
dos932
  9
$EXTMIN
 10
0.0
 20
0.0
 30
0.0
  9
$EXTMAX
 10
297.0
 20
210.0
 30
0.0
  9
$LIMMIN
 10
0.0
 20
0.0
  9
$LIMMAX
 10
297.0
 20
210.0
  9
$LTSCALE
 40
1.0
  9
$PDMODE
 70
     0
  0
ENDSEC
  0
SECTION
  2
TABLES
  0
TABLE
  2
VPORT
 70
     1
  0
VPORT
  2
*ACTIVE
 70
     0
 10
0.0
 20
0.0
 11
1.0
 21
1.0
 12
148.5
 22
105.0
 13
0.0
 23
0.0
 14
10.0
 24
10.0
 15
10.0
 25
10.0
 16
0.0
 26
0.0
 36
1.0
 17
0.0
 27
0.0
 37
0.0
 40
297.0
 41
1.414285714
 42
50.0
 43
0.0
 44
0.0
 50
0.0
 51
0.0
 71
     0
 72
  1000
 73
     1
 74
     3
 75
     0
 76
     0
 77
     0
 78
     0
  0
ENDTAB
  0
TABLE
  2
LTYPE
 70
     5
  0
LTYPE
  2
CONTINUOUS
 70
    64
  3
Solid line
 72
    65
 73
     0
 40
0.0
  0
LTYPE
  2
LTYPE1
 70
    64
  3
CENTER
 72
    65
 73
     4
 40
15.0
 49
10.5
 49
-1.5
 49
1.5
 49
-1.5
  0
LTYPE
  2
LTYPE2
 70
    64
  3
CENTER
 72
    65
 73
     4
 40
5.0
 49
3.5
 49
-0.5
 49
0.5
 49
-0.5
  0
LTYPE
  2
LTYPE3
 70
    64
  3
CENTER
 72
    65
 73
     4
 40
10.0
 49
7.0
 49
-1.0
 49
1.0
 49
-1.0
  0
LTYPE
  2
LTYPE4
 70
    64
  3
HIDDEN
 72
    65
 73
     2
 40
3.0
 49
1.8
 49
-1.2
  0
ENDTAB
  0
TABLE
  2
LAYER
 70
   128
  0
LAYER
  2
0
 70
     0
 62
     7
  6
CONTINUOUS
  0
LAYER
  2
2
 70
     0
 62
     7
  6
CONTINUOUS
  0
LAYER
  2
3
 70
     0
 62
     7
  6
CONTINUOUS
  0
LAYER
  2
4
 70
     0
 62
     7
  6
CONTINUOUS
  0
LAYER
  2
5
 70
     0
 62
     7
  6
CONTINUOUS
  0
LAYER
  2
6
 70
     0
 62
     7
  6
CONTINUOUS
  0
LAYER
  2
7
 70
     0
 62
     7
  6
CONTINUOUS
  0
LAYER
  2
8
 70
     0
 62
     7
  6
CONTINUOUS
  0
LAYER
  2
9
 70
     0
 62
     7
  6
CONTINUOUS
  0
LAYER
  2
10
 70
     0
 62
     7
  6
CONTINUOUS
  0
LAYER
  2
11
 70
     0
 62
     7
  6
CONTINUOUS
  0
LAYER
  2
12
 70
     0
 62
     7
  6
CONTINUOUS
  0
LAYER
  2
13
 70
     0
 62
     7
  6
CONTINUOUS
  0
LAYER
  2
14
 70
     0
 62
     7
  6
CONTINUOUS
  0
LAYER
  2
15
 70
     0
 62
     7
  6
CONTINUOUS
  0
LAYER
  2
16
 70
     0
 62
     7
  6
CONTINUOUS
  0
LAYER
  2
17
 70
     0
 62
     7
  6
CONTINUOUS
  0
LAYER
  2
18
 70
     0
 62
     7
  6
CONTINUOUS
  0
LAYER
  2
19
 70
     0
 62
     7
  6
CONTINUOUS
  0
LAYER
  2
20
 70
     0
 62
     7
  6
CONTINUOUS
  0
LAYER
  2
21
 70
     0
 62
     7
  6
CONTINUOUS
  0
LAYER
  2
22
 70
     0
 62
     7
  6
CONTINUOUS
  0
LAYER
  2
23
 70
     0
 62
     7
  6
CONTINUOUS
  0
LAYER
  2
24
 70
     0
 62
     7
  6
CONTINUOUS
  0
LAYER
  2
25
 70
     0
 62
     7
  6
CONTINUOUS
  0
LAYER
  2
26
 70
     0
 62
     7
  6
CONTINUOUS
  0
LAYER
  2
27
 70
     0
 62
     7
  6
CONTINUOUS
  0
LAYER
  2
28
 70
     0
 62
     7
  6
CONTINUOUS
  0
LAYER
  2
29
 70
     0
 62
     7
  6
CONTINUOUS
  0
LAYER
  2
30
 70
     0
 62
     7
  6
CONTINUOUS
  0
LAYER
  2
31
 70
     0
 62
     7
  6
CONTINUOUS
  0
LAYER
  2
32
 70
     0
 62
     7
  6
CONTINUOUS
  0
LAYER
  2
33
 70
     0
 62
     7
  6
CONTINUOUS
  0
LAYER
  2
34
 70
     0
 62
     7
  6
CONTINUOUS
  0
LAYER
  2
35
 70
     0
 62
     7
  6
CONTINUOUS
  0
LAYER
  2
36
 70
     0
 62
     7
  6
CONTINUOUS
  0
LAYER
  2
37
 70
     0
 62
     7
  6
CONTINUOUS
  0
LAYER
  2
38
 70
     0
 62
     7
  6
CONTINUOUS
  0
LAYER
  2
39
 70
     0
 62
     7
  6
CONTINUOUS
  0
LAYER
  2
40
 70
     0
 62
     7
  6
CONTINUOUS
  0
LAYER
  2
41
 70
     0
 62
     7
  6
CONTINUOUS
  0
LAYER
  2
42
 70
     0
 62
     7
  6
CONTINUOUS
  0
LAYER
  2
43
 70
     0
 62
     7
  6
CONTINUOUS
  0
LAYER
  2
44
 70
     0
 62
     7
  6
CONTINUOUS
  0
LAYER
  2
45
 70
     0
 62
     7
  6
CONTINUOUS
  0
LAYER
  2
46
 70
     0
 62
     7
  6
CONTINUOUS
  0
LAYER
  2
47
 70
     0
 62
     7
  6
CONTINUOUS
  0
LAYER
  2
48
 70
     0
 62
     7
  6
CONTINUOUS
  0
LAYER
  2
49
 70
     0
 62
     7
  6
CONTINUOUS
  0
LAYER
  2
50
 70
     0
 62
     7
  6
CONTINUOUS
  0
LAYER
  2
51
 70
     0
 62
     7
  6
CONTINUOUS
  0
LAYER
  2
52
 70
     0
 62
     7
  6
CONTINUOUS
  0
LAYER
  2
53
 70
     0
 62
     7
  6
CONTINUOUS
  0
LAYER
  2
54
 70
     0
 62
     7
  6
CONTINUOUS
  0
LAYER
  2
55
 70
     0
 62
     7
  6
CONTINUOUS
  0
LAYER
  2
56
 70
     0
 62
     7
  6
CONTINUOUS
  0
LAYER
  2
57
 70
     0
 62
     7
  6
CONTINUOUS
  0
LAYER
  2
58
 70
     0
 62
     7
  6
CONTINUOUS
  0
LAYER
  2
59
 70
     0
 62
     7
  6
CONTINUOUS
  0
LAYER
  2
60
 70
     0
 62
     7
  6
CONTINUOUS
  0
LAYER
  2
61
 70
     0
 62
     7
  6
CONTINUOUS
  0
LAYER
  2
62
 70
     0
 62
     7
  6
CONTINUOUS
  0
LAYER
  2
63
 70
     0
 62
     7
  6
CONTINUOUS
  0
LAYER
  2
64
 70
     0
 62
     7
  6
CONTINUOUS
  0
LAYER
  2
65
 70
     0
 62
     7
  6
CONTINUOUS
  0
LAYER
  2
66
 70
     0
 62
     7
  6
CONTINUOUS
  0
LAYER
  2
67
 70
     0
 62
     7
  6
CONTINUOUS
  0
LAYER
  2
68
 70
     0
 62
     7
  6
CONTINUOUS
  0
LAYER
  2
69
 70
     0
 62
     7
  6
CONTINUOUS
  0
LAYER
  2
70
 70
     0
 62
     7
  6
CONTINUOUS
  0
LAYER
  2
71
 70
     0
 62
     7
  6
CONTINUOUS
  0
LAYER
  2
72
 70
     0
 62
     7
  6
CONTINUOUS
  0
LAYER
  2
73
 70
     0
 62
     7
  6
CONTINUOUS
  0
LAYER
  2
74
 70
     0
 62
     7
  6
CONTINUOUS
  0
LAYER
  2
75
 70
     0
 62
     7
  6
CONTINUOUS
  0
LAYER
  2
76
 70
     0
 62
     7
  6
CONTINUOUS
  0
LAYER
  2
77
 70
     0
 62
     7
  6
CONTINUOUS
  0
LAYER
  2
78
 70
     0
 62
     7
  6
CONTINUOUS
  0
LAYER
  2
79
 70
     0
 62
     7
  6
CONTINUOUS
  0
LAYER
  2
80
 70
     0
 62
     7
  6
CONTINUOUS
  0
LAYER
  2
81
 70
     0
 62
     7
  6
CONTINUOUS
  0
LAYER
  2
82
 70
     0
 62
     7
  6
CONTINUOUS
  0
LAYER
  2
83
 70
     0
 62
     7
  6
CONTINUOUS
  0
LAYER
  2
84
 70
     0
 62
     7
  6
CONTINUOUS
  0
LAYER
  2
85
 70
     0
 62
     7
  6
CONTINUOUS
  0
LAYER
  2
86
 70
     0
 62
     7
  6
CONTINUOUS
  0
LAYER
  2
87
 70
     0
 62
     7
  6
CONTINUOUS
  0
LAYER
  2
88
 70
     0
 62
     7
  6
CONTINUOUS
  0
LAYER
  2
89
 70
     0
 62
     7
  6
CONTINUOUS
  0
LAYER
  2
90
 70
     0
 62
     7
  6
CONTINUOUS
  0
LAYER
  2
91
 70
     0
 62
     7
  6
CONTINUOUS
  0
LAYER
  2
92
 70
     0
 62
     7
  6
CONTINUOUS
  0
LAYER
  2
93
 70
     0
 62
     7
  6
CONTINUOUS
  0
LAYER
  2
94
 70
     0
 62
     7
  6
CONTINUOUS
  0
LAYER
  2
95
 70
     0
 62
     7
  6
CONTINUOUS
  0
LAYER
  2
96
 70
     0
 62
     7
  6
CONTINUOUS
  0
LAYER
  2
97
 70
     0
 62
     7
  6
CONTINUOUS
  0
LAYER
  2
98
 70
     0
 62
     7
  6
CONTINUOUS
  0
LAYER
  2
99
 70
     0
 62
     7
  6
CONTINUOUS
  0
LAYER
  2
100
 70
     0
 62
     7
  6
CONTINUOUS
  0
LAYER
  2
101
 70
     0
 62
     7
  6
CONTINUOUS
  0
LAYER
  2
102
 70
     0
 62
     7
  6
CONTINUOUS
  0
LAYER
  2
103
 70
     0
 62
     7
  6
CONTINUOUS
  0
LAYER
  2
104
 70
     0
 62
     7
  6
CONTINUOUS
  0
LAYER
  2
105
 70
     0
 62
     7
  6
CONTINUOUS
  0
LAYER
  2
106
 70
     0
 62
     7
  6
CONTINUOUS
  0
LAYER
  2
107
 70
     0
 62
     7
  6
CONTINUOUS
  0
LAYER
  2
108
 70
     0
 62
     7
  6
CONTINUOUS
  0
LAYER
  2
109
 70
     0
 62
     7
  6
CONTINUOUS
  0
LAYER
  2
110
 70
     0
 62
     7
  6
CONTINUOUS
  0
LAYER
  2
111
 70
     0
 62
     7
  6
CONTINUOUS
  0
LAYER
  2
112
 70
     0
 62
     7
  6
CONTINUOUS
  0
LAYER
  2
113
 70
     0
 62
     7
  6
CONTINUOUS
  0
LAYER
  2
114
 70
     0
 62
     7
  6
CONTINUOUS
  0
LAYER
  2
115
 70
     0
 62
     7
  6
CONTINUOUS
  0
LAYER
  2
116
 70
     0
 62
     7
  6
CONTINUOUS
  0
LAYER
  2
117
 70
     0
 62
     7
  6
CONTINUOUS
  0
LAYER
  2
118
 70
     0
 62
     7
  6
CONTINUOUS
  0
LAYER
  2
119
 70
     0
 62
     7
  6
CONTINUOUS
  0
LAYER
  2
120
 70
     0
 62
     7
  6
CONTINUOUS
  0
LAYER
  2
121
 70
     0
 62
     7
  6
CONTINUOUS
  0
LAYER
  2
122
 70
     0
 62
     7
  6
CONTINUOUS
  0
LAYER
  2
123
 70
     0
 62
     7
  6
CONTINUOUS
  0
LAYER
  2
124
 70
     0
 62
     7
  6
CONTINUOUS
  0
LAYER
  2
125
 70
     0
 62
     7
  6
CONTINUOUS
  0
LAYER
  2
126
 70
     0
 62
     7
  6
CONTINUOUS
  0
LAYER
  2
127
 70
     0
 62
     7
  6
CONTINUOUS
  0
LAYER
  2
128
 70
     0
 62
     7
  6
CONTINUOUS
  0
ENDTAB
  0
TABLE
  2
STYLE
 70
    12
  0
STYLE
  2
STANDARD
 70
     0
 40
0.0
 41
1.0
 50
0.0
 71
     0
 42
0.2
  3
txt.shx
  4
extfont.shx
  0
STYLE
  2
KANJI0
 70
     0
 40
3.0
 41
0.6
 50
0.0
 71
     0
 42
3.0
  3
txt.shx
  4
extfont.shx
  0
STYLE
  2
KANJI1
 70
     0
 40
1.0
 41
0.9
 50
0.0
 71
     0
 42
1.0
  3
txt.shx
  4
extfont.shx
  0
STYLE
  2
KANJI2
 70
     0
 40
3.0
 41
0.9
 50
0.0
 71
     0
 42
3.0
  3
txt.shx
  4
extfont.shx
  0
STYLE
  2
KANJI3
 70
     0
 40
2.0
 41
0.9
 50
0.0
 71
     0
 42
2.0
  3
txt.shx
  4
extfont.shx
  0
STYLE
  2
KANJI4
 70
     0
 40
3.0
 41
0.7
 50
0.0
 71
     0
 42
3.0
  3
txt.shx
  4
extfont.shx
  0
STYLE
  2
KANJI5
 70
     0
 40
1.8
 41
0.6
 50
0.0
 71
     0
 42
1.8
  3
txt.shx
  4
extfont.shx
  0
STYLE
  2
KANJI6
 70
     0
 40
1.5
 41
0.9
 50
0.0
 71
     0
 42
1.5
  3
txt.shx
  4
extfont.shx
  0
STYLE
  2
KANJI7
 70
     0
 40
1.5
 41
0.45
 50
0.0
 71
     0
 42
1.5
  3
txt.shx
  4
extfont.shx
  0
STYLE
  2
KANJI8
 70
     0
 40
6.0
 41
0.9
 50
0.0
 71
     0
 42
6.0
  3
txt.shx
  4
extfont.shx
  0
STYLE
  2
KANJI9
 70
     0
 40
4.0
 41
0.9
 50
0.0
 71
     0
 42
4.0
  3
txt.shx
  4
extfont.shx
  0
STYLE
  2
KANJI10
 70
     0
 40
3.0
 41
0.5
 50
0.0
 71
     0
 42
3.0
  3
txt.shx
  4
extfont.shx
  0
ENDTAB
  0
TABLE
  2
VIEW
 70
     0
  0
ENDTAB
  0
ENDSEC
  0
SECTION
  2
BLOCKS
  0
ENDSEC
  0
SECTION
  2
ENTITIES
  0
ARC
  8
0
  6
CONTINUOUS
 62
     2
 10
16.625
 20
130.875
 30
0.0
 40
0.625
 50
180.0
 51
270.0
  0
LINE
  8
0
  6
CONTINUOUS
 62
     2
 10
16.625
 20
130.25
 30
0.0
 11
63.375
 21
130.25
 31
0.0
  0
ARC
  8
0
  6
CONTINUOUS
 62
     2
 10
63.375
 20
130.875
 30
0.0
 40
0.625
 50
270.0
 51
0.0
  0
LINE
  8
0
  6
CONTINUOUS
 62
     2
 10
64.0
 20
130.875
 30
0.0
 11
64.0
 21
169.125
 31
0.0
  0
ARC
  8
0
  6
CONTINUOUS
 62
     2
 10
63.375
 20
169.125
 30
0.0
 40
0.625
 50
0.0
 51
90.0
  0
LINE
  8
0
  6
CONTINUOUS
 62
     2
 10
63.375
 20
169.75
 30
0.0
 11
16.625
 21
169.75
 31
0.0
  0
ARC
  8
0
  6
CONTINUOUS
 62
     2
 10
16.625
 20
169.125
 30
0.0
 40
0.625
 50
90.0
 51
180.0
  0
LINE
  8
0
  6
CONTINUOUS
 62
     2
 10
16.0
 20
169.125
 30
0.0
 11
16.0
 21
130.875
 31
0.0
  0
CIRCLE
  8
0
  6
CONTINUOUS
 62
     2
 10
40.0
 20
134.75
 30
0.0
 40
1.8
  0
CIRCLE
  8
0
  6
CONTINUOUS
 62
     2
 10
61.0
 20
141.5
 30
0.0
 40
1.6
  0
CIRCLE
  8
0
  6
CONTINUOUS
 62
     2
 10
19.0
 20
141.5
 30
0.0
 40
1.6
  0
LINE
  8
0
  6
CONTINUOUS
 62
     2
 10
28.5
 20
144.25
 30
0.0
 11
51.5
 21
144.25
 31
0.0
  0
LINE
  8
0
  6
CONTINUOUS
 62
     2
 10
51.049420471
 20
148.305215763
 30
0.0
 11
51.5
 21
144.25
 31
0.0
  0
ARC
  8
0
  6
CONTINUOUS
 62
     2
 10
50.552478603
 20
148.25
 30
0.0
 40
0.5
 50
6.340191746
 51
90.0
  0
LINE
  8
0
  6
CONTINUOUS
 62
     2
 10
28.950579529
 20
148.305215763
 30
0.0
 11
28.5
 21
144.25
 31
0.0
  0
LINE
  8
0
  6
CONTINUOUS
 62
     2
 10
50.552478603
 20
148.75
 30
0.0
 11
29.447521397
 21
148.75
 31
0.0
  0
ARC
  8
0
  6
CONTINUOUS
 62
     2
 10
29.447521397
 20
148.25
 30
0.0
 40
0.5
 50
90.0
 51
173.659808254
  0
LINE
  8
0
  6
CONTINUOUS
 62
     2
 10
39.75
 20
136.532554347
 30
0.0
 11
39.75
 21
132.967445653
 31
0.0
  0
LINE
  8
0
  6
CONTINUOUS
 62
     2
 10
40.25
 20
132.967445653
 30
0.0
 11
40.25
 21
136.532554347
 31
0.0
  0
LINE
  8
0
  6
LTYPE1
 62
     2
 10
58.5
 20
141.5
 30
0.0
 11
63.5
 21
141.5
 31
0.0
  0
LINE
  8
0
  6
LTYPE1
 62
     2
 10
61.0
 20
144.0
 30
0.0
 11
61.0
 21
139.0
 31
0.0
  0
LINE
  8
0
  6
CONTINUOUS
 62
     2
 10
60.2
 20
140.7
 30
0.0
 11
61.8
 21
142.3
 31
0.0
  0
LINE
  8
0
  6
CONTINUOUS
 62
     2
 10
60.2
 20
142.3
 30
0.0
 11
61.8
 21
140.7
 31
0.0
  0
LINE
  8
0
  6
LTYPE1
 62
     2
 10
16.5
 20
141.5
 30
0.0
 11
21.5
 21
141.5
 31
0.0
  0
LINE
  8
0
  6
LTYPE1
 62
     2
 10
19.0
 20
144.0
 30
0.0
 11
19.0
 21
139.0
 31
0.0
  0
LINE
  8
0
  6
CONTINUOUS
 62
     2
 10
18.2
 20
140.7
 30
0.0
 11
19.8
 21
142.3
 31
0.0
  0
LINE
  8
0
  6
CONTINUOUS
 62
     2
 10
18.2
 20
142.3
 30
0.0
 11
19.8
 21
140.7
 31
0.0
  0
CIRCLE
  8
0
  6
CONTINUOUS
 62
     2
 10
36.25
 20
139.0
 30
0.0
 40
1.75
  0
CIRCLE
  8
0
  6
CONTINUOUS
 62
     2
 10
36.25
 20
139.0
 30
0.0
 40
0.75
  0
LINE
  8
0
  6
CONTINUOUS
 62
     2
 10
35.430143345
 20
136.904687358
 30
0.0
 11
35.365008209
 21
136.661883337
 31
0.0
  0
LINE
  8
0
  6
CONTINUOUS
 62
     2
 10
35.912360369
 20
136.775477696
 30
0.0
 11
35.847367041
 21
136.532635677
 31
0.0
  0
ARC
  8
0
  6
CONTINUOUS
 62
     2
 10
35.667657149
 20
136.826666891
 30
0.0
 40
0.25
 50
348.184738537
 51
161.815261463
  0
ARC
  8
0
  6
CONTINUOUS
 62
     2
 10
35.602952387
 20
136.585185434
 30
0.0
 40
0.25
 50
347.865983983
 51
162.134016018
  0
LINE
  8
0
  6
CONTINUOUS
 62
     2
 10
34.492326989
 20
137.595334351
 30
0.0
 11
34.314516296
 21
137.417627468
 31
0.0
  0
LINE
  8
0
  6
CONTINUOUS
 62
     2
 10
34.845334351
 20
137.242326989
 30
0.0
 11
34.667627468
 21
137.064516296
 31
0.0
  0
ARC
  8
0
  6
CONTINUOUS
 62
     2
 10
34.659009742
 20
137.409009742
 30
0.0
 40
0.25
 50
318.184738537
 51
131.815261463
  0
ARC
  8
0
  6
CONTINUOUS
 62
     2
 10
34.482233047
 20
137.232233047
 30
0.0
 40
0.25
 50
317.865983983
 51
132.134016018
  0
LINE
  8
0
  6
CONTINUOUS
 62
     2
 10
34.025477696
 20
138.662360369
 30
0.0
 11
33.782635677
 21
138.597367041
 31
0.0
  0
LINE
  8
0
  6
CONTINUOUS
 62
     2
 10
34.154687358
 20
138.180143345
 30
0.0
 11
33.911883337
 21
138.115008209
 31
0.0
  0
ARC
  8
0
  6
CONTINUOUS
 62
     2
 10
34.076666891
 20
138.417657149
 30
0.0
 40
0.25
 50
288.184738537
 51
101.815261463
  0
ARC
  8
0
  6
CONTINUOUS
 62
     2
 10
33.835185434
 20
138.352952387
 30
0.0
 40
0.25
 50
287.865983983
 51
102.134016018
  0
ARC
  8
0
  6
CONTINUOUS
 62
     2
 10
36.25
 20
139.0
 30
0.0
 40
2.5
 50
230.731967965
 51
249.268032035
  0
ARC
  8
0
  6
CONTINUOUS
 62
     2
 10
36.25
 20
139.0
 30
0.0
 40
2.25
 50
231.369477073
 51
248.630522927
  0
ARC
  8
0
  6
CONTINUOUS
 62
     2
 10
36.25
 20
139.0
 30
0.0
 40
2.5
 50
200.731967965
 51
219.268032035
  0
ARC
  8
0
  6
CONTINUOUS
 62
     2
 10
36.25
 20
139.0
 30
0.0
 40
2.25
 50
201.369477073
 51
218.630522927
  0
LINE
  8
0
  6
CONTINUOUS
 62
     2
 10
37.069856655
 20
136.904687358
 30
0.0
 11
37.134991791
 21
136.661883337
 31
0.0
  0
LINE
  8
0
  6
CONTINUOUS
 62
     2
 10
36.587639631
 20
136.775477696
 30
0.0
 11
36.652632959
 21
136.532635677
 31
0.0
  0
ARC
  8
0
  6
CONTINUOUS
 62
     2
 10
36.832342851
 20
136.826666891
 30
0.0
 40
0.25
 50
18.184738537
 51
191.815261463
  0
ARC
  8
0
  6
CONTINUOUS
 62
     2
 10
36.897047613
 20
136.585185434
 30
0.0
 40
0.25
 50
17.865983982
 51
192.134016017
  0
LINE
  8
0
  6
CONTINUOUS
 62
     2
 10
38.007673011
 20
137.595334351
 30
0.0
 11
38.185483704
 21
137.417627468
 31
0.0
  0
LINE
  8
0
  6
CONTINUOUS
 62
     2
 10
37.654665649
 20
137.242326989
 30
0.0
 11
37.832372532
 21
137.064516296
 31
0.0
  0
ARC
  8
0
  6
CONTINUOUS
 62
     2
 10
37.840990258
 20
137.409009742
 30
0.0
 40
0.25
 50
48.184738537
 51
221.815261463
  0
ARC
  8
0
  6
CONTINUOUS
 62
     2
 10
38.017766953
 20
137.232233047
 30
0.0
 40
0.25
 50
47.865983982
 51
222.134016017
  0
LINE
  8
0
  6
CONTINUOUS
 62
     2
 10
38.474522304
 20
138.662360369
 30
0.0
 11
38.717364323
 21
138.597367041
 31
0.0
  0
LINE
  8
0
  6
CONTINUOUS
 62
     2
 10
38.345312642
 20
138.180143345
 30
0.0
 11
38.588116663
 21
138.115008209
 31
0.0
  0
ARC
  8
0
  6
CONTINUOUS
 62
     2
 10
38.423333109
 20
138.417657149
 30
0.0
 40
0.25
 50
78.184738537
 51
251.815261463
  0
ARC
  8
0
  6
CONTINUOUS
 62
     2
 10
38.664814566
 20
138.352952387
 30
0.0
 40
0.25
 50
77.865983982
 51
252.134016017
  0
ARC
  8
0
  6
CONTINUOUS
 62
     2
 10
36.25
 20
139.0
 30
0.0
 40
2.5
 50
290.731967965
 51
309.268032035
  0
ARC
  8
0
  6
CONTINUOUS
 62
     2
 10
36.25
 20
139.0
 30
0.0
 40
2.25
 50
291.369477073
 51
308.630522927
  0
ARC
  8
0
  6
CONTINUOUS
 62
     2
 10
36.25
 20
139.0
 30
0.0
 40
2.5
 50
320.731967965
 51
339.268032035
  0
ARC
  8
0
  6
CONTINUOUS
 62
     2
 10
36.25
 20
139.0
 30
0.0
 40
2.25
 50
321.369477073
 51
338.630522927
  0
ARC
  8
0
  6
CONTINUOUS
 62
     2
 10
36.25
 20
139.0
 30
0.0
 40
2.25
 50
261.369477073
 51
278.630522927
  0
ARC
  8
0
  6
CONTINUOUS
 62
     2
 10
36.25
 20
139.0
 30
0.0
 40
2.5
 50
260.731967965
 51
279.268032035
  0
LINE
  8
0
  6
CONTINUOUS
 62
     2
 10
35.430143345
 20
141.095312642
 30
0.0
 11
35.365008209
 21
141.338116663
 31
0.0
  0
LINE
  8
0
  6
CONTINUOUS
 62
     2
 10
35.912360369
 20
141.224522304
 30
0.0
 11
35.847367041
 21
141.467364323
 31
0.0
  0
ARC
  8
0
  6
CONTINUOUS
 62
     2
 10
35.667657149
 20
141.173333109
 30
0.0
 40
0.25
 50
198.184738537
 51
11.815261463
  0
ARC
  8
0
  6
CONTINUOUS
 62
     2
 10
35.602952387
 20
141.414814566
 30
0.0
 40
0.25
 50
197.865983982
 51
12.134016017
  0
LINE
  8
0
  6
CONTINUOUS
 62
     2
 10
34.492326989
 20
140.404665649
 30
0.0
 11
34.314516296
 21
140.582372532
 31
0.0
  0
LINE
  8
0
  6
CONTINUOUS
 62
     2
 10
34.845334351
 20
140.757673011
 30
0.0
 11
34.667627468
 21
140.935483704
 31
0.0
  0
ARC
  8
0
  6
CONTINUOUS
 62
     2
 10
34.659009742
 20
140.590990258
 30
0.0
 40
0.25
 50
228.184738537
 51
41.815261463
  0
ARC
  8
0
  6
CONTINUOUS
 62
     2
 10
34.482233047
 20
140.767766953
 30
0.0
 40
0.25
 50
227.865983982
 51
42.134016017
  0
LINE
  8
0
  6
CONTINUOUS
 62
     2
 10
34.025477696
 20
139.337639631
 30
0.0
 11
33.782635677
 21
139.402632959
 31
0.0
  0
LINE
  8
0
  6
CONTINUOUS
 62
     2
 10
34.154687358
 20
139.819856655
 30
0.0
 11
33.911883337
 21
139.884991791
 31
0.0
  0
ARC
  8
0
  6
CONTINUOUS
 62
     2
 10
34.076666891
 20
139.582342851
 30
0.0
 40
0.25
 50
258.184738537
 51
71.815261463
  0
ARC
  8
0
  6
CONTINUOUS
 62
     2
 10
33.835185434
 20
139.647047613
 30
0.0
 40
0.25
 50
257.865983982
 51
72.134016017
  0
ARC
  8
0
  6
CONTINUOUS
 62
     2
 10
36.25
 20
139.0
 30
0.0
 40
2.5
 50
110.731967965
 51
129.268032035
  0
ARC
  8
0
  6
CONTINUOUS
 62
     2
 10
36.25
 20
139.0
 30
0.0
 40
2.25
 50
111.369477073
 51
128.630522927
  0
ARC
  8
0
  6
CONTINUOUS
 62
     2
 10
36.25
 20
139.0
 30
0.0
 40
2.5
 50
140.731967965
 51
159.268032035
  0
ARC
  8
0
  6
CONTINUOUS
 62
     2
 10
36.25
 20
139.0
 30
0.0
 40
2.25
 50
141.369477073
 51
158.630522927
  0
LINE
  8
0
  6
CONTINUOUS
 62
     2
 10
37.069856655
 20
141.095312642
 30
0.0
 11
37.134991791
 21
141.338116663
 31
0.0
  0
LINE
  8
0
  6
CONTINUOUS
 62
     2
 10
36.587639631
 20
141.224522304
 30
0.0
 11
36.652632959
 21
141.467364323
 31
0.0
  0
ARC
  8
0
  6
CONTINUOUS
 62
     2
 10
36.832342851
 20
141.173333109
 30
0.0
 40
0.25
 50
168.184738537
 51
341.815261463
  0
ARC
  8
0
  6
CONTINUOUS
 62
     2
 10
36.897047613
 20
141.414814566
 30
0.0
 40
0.25
 50
167.865983983
 51
342.134016018
  0
LINE
  8
0
  6
CONTINUOUS
 62
     2
 10
38.007673011
 20
140.404665649
 30
0.0
 11
38.185483704
 21
140.582372532
 31
0.0
  0
LINE
  8
0
  6
CONTINUOUS
 62
     2
 10
37.654665649
 20
140.757673011
 30
0.0
 11
37.832372532
 21
140.935483704
 31
0.0
  0
ARC
  8
0
  6
CONTINUOUS
 62
     2
 10
37.840990258
 20
140.590990258
 30
0.0
 40
0.25
 50
138.184738537
 51
311.815261463
  0
ARC
  8
0
  6
CONTINUOUS
 62
     2
 10
38.017766953
 20
140.767766953
 30
0.0
 40
0.25
 50
137.865983983
 51
312.134016018
  0
LINE
  8
0
  6
CONTINUOUS
 62
     2
 10
38.474522304
 20
139.337639631
 30
0.0
 11
38.717364323
 21
139.402632959
 31
0.0
  0
LINE
  8
0
  6
CONTINUOUS
 62
     2
 10
38.345312642
 20
139.819856655
 30
0.0
 11
38.588116663
 21
139.884991791
 31
0.0
  0
ARC
  8
0
  6
CONTINUOUS
 62
     2
 10
38.423333109
 20
139.582342851
 30
0.0
 40
0.25
 50
108.184738537
 51
281.815261463
  0
ARC
  8
0
  6
CONTINUOUS
 62
     2
 10
38.664814566
 20
139.647047613
 30
0.0
 40
0.25
 50
107.865983983
 51
282.134016018
  0
ARC
  8
0
  6
CONTINUOUS
 62
     2
 10
36.25
 20
139.0
 30
0.0
 40
2.5
 50
50.731967965
 51
69.268032035
  0
ARC
  8
0
  6
CONTINUOUS
 62
     2
 10
36.25
 20
139.0
 30
0.0
 40
2.25
 50
51.369477073
 51
68.630522927
  0
ARC
  8
0
  6
CONTINUOUS
 62
     2
 10
36.25
 20
139.0
 30
0.0
 40
2.5
 50
20.731967965
 51
39.268032035
  0
ARC
  8
0
  6
CONTINUOUS
 62
     2
 10
36.25
 20
139.0
 30
0.0
 40
2.25
 50
21.369477073
 51
38.630522927
  0
ARC
  8
0
  6
CONTINUOUS
 62
     2
 10
36.25
 20
139.0
 30
0.0
 40
2.25
 50
81.369477073
 51
98.630522927
  0
ARC
  8
0
  6
CONTINUOUS
 62
     2
 10
36.25
 20
139.0
 30
0.0
 40
2.5
 50
80.731967965
 51
99.268032035
  0
ARC
  8
0
  6
CONTINUOUS
 62
     2
 10
36.25
 20
139.0
 30
0.0
 40
2.5
 50
170.731967965
 51
189.268032035
  0
ARC
  8
0
  6
CONTINUOUS
 62
     2
 10
36.25
 20
139.0
 30
0.0
 40
2.5
 50
350.731967965
 51
9.268032035
  0
ARC
  8
0
  6
CONTINUOUS
 62
     2
 10
36.25
 20
139.0
 30
0.0
 40
2.25
 50
171.369477073
 51
188.630522927
  0
ARC
  8
0
  6
CONTINUOUS
 62
     2
 10
36.25
 20
139.0
 30
0.0
 40
2.25
 50
351.369477073
 51
8.630522927
  0
LINE
  8
0
  6
LTYPE2
 62
     2
 10
33.25
 20
139.0
 30
0.0
 11
39.25
 21
139.0
 31
0.0
  0
LINE
  8
0
  6
LTYPE2
 62
     2
 10
36.25
 20
142.0
 30
0.0
 11
36.25
 21
136.0
 31
0.0
  0
LINE
  8
0
  6
LTYPE2
 62
     2
 10
37.0
 20
134.75
 30
0.0
 11
43.0
 21
134.75
 31
0.0
  0
CIRCLE
  8
0
  6
CONTINUOUS
 62
     2
 10
43.75
 20
139.0
 30
0.0
 40
1.75
  0
CIRCLE
  8
0
  6
CONTINUOUS
 62
     2
 10
43.75
 20
139.0
 30
0.0
 40
0.75
  0
LINE
  8
0
  6
CONTINUOUS
 62
     2
 10
42.930143345
 20
136.904687358
 30
0.0
 11
42.865008209
 21
136.661883337
 31
0.0
  0
LINE
  8
0
  6
CONTINUOUS
 62
     2
 10
43.412360369
 20
136.775477696
 30
0.0
 11
43.347367041
 21
136.532635677
 31
0.0
  0
ARC
  8
0
  6
CONTINUOUS
 62
     2
 10
43.167657149
 20
136.826666891
 30
0.0
 40
0.25
 50
348.184738537
 51
161.815261463
  0
ARC
  8
0
  6
CONTINUOUS
 62
     2
 10
43.102952387
 20
136.585185434
 30
0.0
 40
0.25
 50
347.865983983
 51
162.134016018
  0
LINE
  8
0
  6
CONTINUOUS
 62
     2
 10
41.992326989
 20
137.595334351
 30
0.0
 11
41.814516296
 21
137.417627468
 31
0.0
  0
LINE
  8
0
  6
CONTINUOUS
 62
     2
 10
42.345334351
 20
137.242326989
 30
0.0
 11
42.167627468
 21
137.064516296
 31
0.0
  0
ARC
  8
0
  6
CONTINUOUS
 62
     2
 10
42.159009742
 20
137.409009742
 30
0.0
 40
0.25
 50
318.184738537
 51
131.815261463
  0
ARC
  8
0
  6
CONTINUOUS
 62
     2
 10
41.982233047
 20
137.232233047
 30
0.0
 40
0.25
 50
317.865983983
 51
132.134016018
  0
LINE
  8
0
  6
CONTINUOUS
 62
     2
 10
41.525477696
 20
138.662360369
 30
0.0
 11
41.282635677
 21
138.597367041
 31
0.0
  0
LINE
  8
0
  6
CONTINUOUS
 62
     2
 10
41.654687358
 20
138.180143345
 30
0.0
 11
41.411883337
 21
138.115008209
 31
0.0
  0
ARC
  8
0
  6
CONTINUOUS
 62
     2
 10
41.576666891
 20
138.417657149
 30
0.0
 40
0.25
 50
288.184738537
 51
101.815261463
  0
ARC
  8
0
  6
CONTINUOUS
 62
     2
 10
41.335185434
 20
138.352952387
 30
0.0
 40
0.25
 50
287.865983983
 51
102.134016018
  0
ARC
  8
0
  6
CONTINUOUS
 62
     2
 10
43.75
 20
139.0
 30
0.0
 40
2.5
 50
230.731967965
 51
249.268032035
  0
ARC
  8
0
  6
CONTINUOUS
 62
     2
 10
43.75
 20
139.0
 30
0.0
 40
2.25
 50
231.369477073
 51
248.630522927
  0
ARC
  8
0
  6
CONTINUOUS
 62
     2
 10
43.75
 20
139.0
 30
0.0
 40
2.5
 50
200.731967965
 51
219.268032035
  0
ARC
  8
0
  6
CONTINUOUS
 62
     2
 10
43.75
 20
139.0
 30
0.0
 40
2.25
 50
201.369477073
 51
218.630522927
  0
LINE
  8
0
  6
CONTINUOUS
 62
     2
 10
44.569856655
 20
136.904687358
 30
0.0
 11
44.634991791
 21
136.661883337
 31
0.0
  0
LINE
  8
0
  6
CONTINUOUS
 62
     2
 10
44.087639631
 20
136.775477696
 30
0.0
 11
44.152632959
 21
136.532635677
 31
0.0
  0
ARC
  8
0
  6
CONTINUOUS
 62
     2
 10
44.332342851
 20
136.826666891
 30
0.0
 40
0.25
 50
18.184738537
 51
191.815261463
  0
ARC
  8
0
  6
CONTINUOUS
 62
     2
 10
44.397047613
 20
136.585185434
 30
0.0
 40
0.25
 50
17.865983982
 51
192.134016017
  0
LINE
  8
0
  6
CONTINUOUS
 62
     2
 10
45.507673011
 20
137.595334351
 30
0.0
 11
45.685483704
 21
137.417627468
 31
0.0
  0
LINE
  8
0
  6
CONTINUOUS
 62
     2
 10
45.154665649
 20
137.242326989
 30
0.0
 11
45.332372532
 21
137.064516296
 31
0.0
  0
ARC
  8
0
  6
CONTINUOUS
 62
     2
 10
45.340990258
 20
137.409009742
 30
0.0
 40
0.25
 50
48.184738537
 51
221.815261463
  0
ARC
  8
0
  6
CONTINUOUS
 62
     2
 10
45.517766953
 20
137.232233047
 30
0.0
 40
0.25
 50
47.865983982
 51
222.134016017
  0
LINE
  8
0
  6
CONTINUOUS
 62
     2
 10
45.974522304
 20
138.662360369
 30
0.0
 11
46.217364323
 21
138.597367041
 31
0.0
  0
LINE
  8
0
  6
CONTINUOUS
 62
     2
 10
45.845312642
 20
138.180143345
 30
0.0
 11
46.088116663
 21
138.115008209
 31
0.0
  0
ARC
  8
0
  6
CONTINUOUS
 62
     2
 10
45.923333109
 20
138.417657149
 30
0.0
 40
0.25
 50
78.184738537
 51
251.815261463
  0
ARC
  8
0
  6
CONTINUOUS
 62
     2
 10
46.164814566
 20
138.352952387
 30
0.0
 40
0.25
 50
77.865983982
 51
252.134016017
  0
ARC
  8
0
  6
CONTINUOUS
 62
     2
 10
43.75
 20
139.0
 30
0.0
 40
2.5
 50
290.731967965
 51
309.268032035
  0
ARC
  8
0
  6
CONTINUOUS
 62
     2
 10
43.75
 20
139.0
 30
0.0
 40
2.25
 50
291.369477073
 51
308.630522927
  0
ARC
  8
0
  6
CONTINUOUS
 62
     2
 10
43.75
 20
139.0
 30
0.0
 40
2.5
 50
320.731967965
 51
339.268032035
  0
ARC
  8
0
  6
CONTINUOUS
 62
     2
 10
43.75
 20
139.0
 30
0.0
 40
2.25
 50
321.369477073
 51
338.630522927
  0
ARC
  8
0
  6
CONTINUOUS
 62
     2
 10
43.75
 20
139.0
 30
0.0
 40
2.25
 50
261.369477073
 51
278.630522927
  0
ARC
  8
0
  6
CONTINUOUS
 62
     2
 10
43.75
 20
139.0
 30
0.0
 40
2.5
 50
260.731967965
 51
279.268032035
  0
LINE
  8
0
  6
CONTINUOUS
 62
     2
 10
42.930143345
 20
141.095312642
 30
0.0
 11
42.865008209
 21
141.338116663
 31
0.0
  0
LINE
  8
0
  6
CONTINUOUS
 62
     2
 10
43.412360369
 20
141.224522304
 30
0.0
 11
43.347367041
 21
141.467364323
 31
0.0
  0
ARC
  8
0
  6
CONTINUOUS
 62
     2
 10
43.167657149
 20
141.173333109
 30
0.0
 40
0.25
 50
198.184738537
 51
11.815261463
  0
ARC
  8
0
  6
CONTINUOUS
 62
     2
 10
43.102952387
 20
141.414814566
 30
0.0
 40
0.25
 50
197.865983982
 51
12.134016017
  0
LINE
  8
0
  6
CONTINUOUS
 62
     2
 10
41.992326989
 20
140.404665649
 30
0.0
 11
41.814516296
 21
140.582372532
 31
0.0
  0
LINE
  8
0
  6
CONTINUOUS
 62
     2
 10
42.345334351
 20
140.757673011
 30
0.0
 11
42.167627468
 21
140.935483704
 31
0.0
  0
ARC
  8
0
  6
CONTINUOUS
 62
     2
 10
42.159009742
 20
140.590990258
 30
0.0
 40
0.25
 50
228.184738537
 51
41.815261463
  0
ARC
  8
0
  6
CONTINUOUS
 62
     2
 10
41.982233047
 20
140.767766953
 30
0.0
 40
0.25
 50
227.865983982
 51
42.134016017
  0
LINE
  8
0
  6
CONTINUOUS
 62
     2
 10
41.525477696
 20
139.337639631
 30
0.0
 11
41.282635677
 21
139.402632959
 31
0.0
  0
LINE
  8
0
  6
CONTINUOUS
 62
     2
 10
41.654687358
 20
139.819856655
 30
0.0
 11
41.411883337
 21
139.884991791
 31
0.0
  0
ARC
  8
0
  6
CONTINUOUS
 62
     2
 10
41.576666891
 20
139.582342851
 30
0.0
 40
0.25
 50
258.184738537
 51
71.815261463
  0
ARC
  8
0
  6
CONTINUOUS
 62
     2
 10
41.335185434
 20
139.647047613
 30
0.0
 40
0.25
 50
257.865983982
 51
72.134016017
  0
ARC
  8
0
  6
CONTINUOUS
 62
     2
 10
43.75
 20
139.0
 30
0.0
 40
2.5
 50
110.731967965
 51
129.268032035
  0
ARC
  8
0
  6
CONTINUOUS
 62
     2
 10
43.75
 20
139.0
 30
0.0
 40
2.25
 50
111.369477073
 51
128.630522927
  0
ARC
  8
0
  6
CONTINUOUS
 62
     2
 10
43.75
 20
139.0
 30
0.0
 40
2.5
 50
140.731967965
 51
159.268032035
  0
ARC
  8
0
  6
CONTINUOUS
 62
     2
 10
43.75
 20
139.0
 30
0.0
 40
2.25
 50
141.369477073
 51
158.630522927
  0
LINE
  8
0
  6
CONTINUOUS
 62
     2
 10
44.569856655
 20
141.095312642
 30
0.0
 11
44.634991791
 21
141.338116663
 31
0.0
  0
LINE
  8
0
  6
CONTINUOUS
 62
     2
 10
44.087639631
 20
141.224522304
 30
0.0
 11
44.152632959
 21
141.467364323
 31
0.0
  0
ARC
  8
0
  6
CONTINUOUS
 62
     2
 10
44.332342851
 20
141.173333109
 30
0.0
 40
0.25
 50
168.184738537
 51
341.815261463
  0
ARC
  8
0
  6
CONTINUOUS
 62
     2
 10
44.397047613
 20
141.414814566
 30
0.0
 40
0.25
 50
167.865983983
 51
342.134016018
  0
LINE
  8
0
  6
CONTINUOUS
 62
     2
 10
45.507673011
 20
140.404665649
 30
0.0
 11
45.685483704
 21
140.582372532
 31
0.0
  0
LINE
  8
0
  6
CONTINUOUS
 62
     2
 10
45.154665649
 20
140.757673011
 30
0.0
 11
45.332372532
 21
140.935483704
 31
0.0
  0
ARC
  8
0
  6
CONTINUOUS
 62
     2
 10
45.340990258
 20
140.590990258
 30
0.0
 40
0.25
 50
138.184738537
 51
311.815261463
  0
ARC
  8
0
  6
CONTINUOUS
 62
     2
 10
45.517766953
 20
140.767766953
 30
0.0
 40
0.25
 50
137.865983983
 51
312.134016018
  0
LINE
  8
0
  6
CONTINUOUS
 62
     2
 10
45.974522304
 20
139.337639631
 30
0.0
 11
46.217364323
 21
139.402632959
 31
0.0
  0
LINE
  8
0
  6
CONTINUOUS
 62
     2
 10
45.845312642
 20
139.819856655
 30
0.0
 11
46.088116663
 21
139.884991791
 31
0.0
  0
ARC
  8
0
  6
CONTINUOUS
 62
     2
 10
45.923333109
 20
139.582342851
 30
0.0
 40
0.25
 50
108.184738537
 51
281.815261463
  0
ARC
  8
0
  6
CONTINUOUS
 62
     2
 10
46.164814566
 20
139.647047613
 30
0.0
 40
0.25
 50
107.865983983
 51
282.134016018
  0
ARC
  8
0
  6
CONTINUOUS
 62
     2
 10
43.75
 20
139.0
 30
0.0
 40
2.5
 50
50.731967965
 51
69.268032035
  0
ARC
  8
0
  6
CONTINUOUS
 62
     2
 10
43.75
 20
139.0
 30
0.0
 40
2.25
 50
51.369477073
 51
68.630522927
  0
ARC
  8
0
  6
CONTINUOUS
 62
     2
 10
43.75
 20
139.0
 30
0.0
 40
2.5
 50
20.731967965
 51
39.268032035
  0
ARC
  8
0
  6
CONTINUOUS
 62
     2
 10
43.75
 20
139.0
 30
0.0
 40
2.25
 50
21.369477073
 51
38.630522927
  0
ARC
  8
0
  6
CONTINUOUS
 62
     2
 10
43.75
 20
139.0
 30
0.0
 40
2.25
 50
81.369477073
 51
98.630522927
  0
ARC
  8
0
  6
CONTINUOUS
 62
     2
 10
43.75
 20
139.0
 30
0.0
 40
2.5
 50
80.731967965
 51
99.268032035
  0
ARC
  8
0
  6
CONTINUOUS
 62
     2
 10
43.75
 20
139.0
 30
0.0
 40
2.5
 50
170.731967965
 51
189.268032035
  0
ARC
  8
0
  6
CONTINUOUS
 62
     2
 10
43.75
 20
139.0
 30
0.0
 40
2.5
 50
350.731967965
 51
9.268032035
  0
ARC
  8
0
  6
CONTINUOUS
 62
     2
 10
43.75
 20
139.0
 30
0.0
 40
2.25
 50
171.369477073
 51
188.630522927
  0
ARC
  8
0
  6
CONTINUOUS
 62
     2
 10
43.75
 20
139.0
 30
0.0
 40
2.25
 50
351.369477073
 51
8.630522927
  0
LINE
  8
0
  6
LTYPE2
 62
     2
 10
40.75
 20
139.0
 30
0.0
 11
46.75
 21
139.0
 31
0.0
  0
LINE
  8
0
  6
LTYPE2
 62
     2
 10
43.75
 20
142.0
 30
0.0
 11
43.75
 21
136.0
 31
0.0
  0
CIRCLE
  8
0
  6
CONTINUOUS
 62
     2
 10
43.75
 20
139.0
 30
0.0
 40
2.5
  0
CIRCLE
  8
0
  6
CONTINUOUS
 62
     2
 10
36.25
 20
139.0
 30
0.0
 40
2.5
  0
LINE
  8
0
  6
CONTINUOUS
 62
     2
 10
40.9
 20
133.191154273
 30
0.0
 11
41.547047613
 21
130.776339707
 31
0.0
  0
LINE
  8
0
  6
CONTINUOUS
 62
     2
 10
40.9
 20
133.191154273
 30
0.0
 11
42.667766953
 21
131.42338732
 31
0.0
  0
LINE
  8
0
  6
CONTINUOUS
 62
     2
 10
21.327971115
 20
158.905507363
 30
0.0
 11
21.507806065
 21
159.079171955
 31
0.0
  0
LINE
  8
0
  6
CONTINUOUS
 62
     2
 10
21.507806065
 20
159.079171955
 30
0.0
 11
31.482571476
 21
148.75
 31
0.0
  0
LINE
  8
0
  6
CONTINUOUS
 62
     2
 10
31.135030578
 20
148.75
 30
0.0
 11
21.327971115
 21
158.905507363
 31
0.0
  0
LINE
  8
0
  6
CONTINUOUS
 62
     2
 10
56.712477852
 20
159.667155521
 30
0.0
 11
56.774106269
 21
158.962739495
 31
0.0
  0
LINE
  8
0
  6
CONTINUOUS
 62
     2
 10
56.774106269
 20
158.962739495
 30
0.0
 11
48.437144662
 21
148.75
 31
0.0
  0
LINE
  8
0
  6
CONTINUOUS
 62
     2
 10
47.551896681
 20
148.75
 30
0.0
 11
56.712477852
 21
159.667155521
 31
0.0
  0
LINE
  8
0
  6
CONTINUOUS
 62
     2
 10
23.287522148
 20
159.667155521
 30
0.0
 11
23.225893731
 21
158.962739495
 31
0.0
  0
LINE
  8
0
  6
CONTINUOUS
 62
     2
 10
23.225893731
 20
158.962739495
 30
0.0
 11
31.562855338
 21
148.75
 31
0.0
  0
LINE
  8
0
  6
CONTINUOUS
 62
     2
 10
32.448103319
 20
148.75
 30
0.0
 11
23.287522148
 21
159.667155521
 31
0.0
  0
LINE
  8
0
  6
CONTINUOUS
 62
     2
 10
46.062177826
 20
124.25
 30
0.0
 11
56.262177826
 21
124.25
 31
0.0
  0
TEXT
  8
0
  6
CONTINUOUS
 62
     2
 10
46.062177826
 20
125.25
 30
0.3
 40
3.0
  1
零位調整器
 50
0.0
 41
0.6
 51
0.0
  7
KANJI0
  0
LINE
  8
0
  6
CONTINUOUS
 62
     2
 10
40.9
 20
133.191154273
 30
0.0
 11
46.062177826
 21
124.25
 31
0.0
  0
CIRCLE
  8
0
  6
CONTINUOUS
 62
     2
 10
40.0
 20
84.75
 30
0.0
 40
1.8
  0
LINE
  8
0
  6
CONTINUOUS
 62
     2
 10
28.5
 20
94.25
 30
0.0
 11
51.5
 21
94.25
 31
0.0
  0
LINE
  8
0
  6
CONTINUOUS
 62
     2
 10
51.049420471
 20
98.305215763
 30
0.0
 11
51.5
 21
94.25
 31
0.0
  0
ARC
  8
0
  6
CONTINUOUS
 62
     2
 10
50.552478603
 20
98.25
 30
0.0
 40
0.5
 50
6.340191746
 51
90.0
  0
LINE
  8
0
  6
CONTINUOUS
 62
     2
 10
28.950579529
 20
98.305215763
 30
0.0
 11
28.5
 21
94.25
 31
0.0
  0
LINE
  8
0
  6
CONTINUOUS
 62
     2
 10
50.552478603
 20
98.75
 30
0.0
 11
29.447521397
 21
98.75
 31
0.0
  0
ARC
  8
0
  6
CONTINUOUS
 62
     2
 10
29.447521397
 20
98.25
 30
0.0
 40
0.5
 50
90.0
 51
173.659808254
  0
LINE
  8
0
  6
CONTINUOUS
 62
     2
 10
39.75
 20
86.532554347
 30
0.0
 11
39.75
 21
82.967445653
 31
0.0
  0
LINE
  8
0
  6
CONTINUOUS
 62
     2
 10
40.25
 20
82.967445653
 30
0.0
 11
40.25
 21
86.532554347
 31
0.0
  0
CIRCLE
  8
0
  6
CONTINUOUS
 62
     2
 10
36.25
 20
89.0
 30
0.0
 40
1.75
  0
CIRCLE
  8
0
  6
CONTINUOUS
 62
     2
 10
36.25
 20
89.0
 30
0.0
 40
0.75
  0
LINE
  8
0
  6
CONTINUOUS
 62
     2
 10
35.430143345
 20
86.904687358
 30
0.0
 11
35.365008209
 21
86.661883337
 31
0.0
  0
LINE
  8
0
  6
CONTINUOUS
 62
     2
 10
35.912360369
 20
86.775477696
 30
0.0
 11
35.847367041
 21
86.532635677
 31
0.0
  0
ARC
  8
0
  6
CONTINUOUS
 62
     2
 10
35.667657149
 20
86.826666891
 30
0.0
 40
0.25
 50
348.184738537
 51
161.815261463
  0
ARC
  8
0
  6
CONTINUOUS
 62
     2
 10
35.602952387
 20
86.585185434
 30
0.0
 40
0.25
 50
347.865983983
 51
162.134016018
  0
LINE
  8
0
  6
CONTINUOUS
 62
     2
 10
34.492326989
 20
87.595334351
 30
0.0
 11
34.314516296
 21
87.417627468
 31
0.0
  0
LINE
  8
0
  6
CONTINUOUS
 62
     2
 10
34.845334351
 20
87.242326989
 30
0.0
 11
34.667627468
 21
87.064516296
 31
0.0
  0
ARC
  8
0
  6
CONTINUOUS
 62
     2
 10
34.659009742
 20
87.409009742
 30
0.0
 40
0.25
 50
318.184738537
 51
131.815261463
  0
ARC
  8
0
  6
CONTINUOUS
 62
     2
 10
34.482233047
 20
87.232233047
 30
0.0
 40
0.25
 50
317.865983983
 51
132.134016018
  0
LINE
  8
0
  6
CONTINUOUS
 62
     2
 10
34.025477696
 20
88.662360369
 30
0.0
 11
33.782635677
 21
88.597367041
 31
0.0
  0
LINE
  8
0
  6
CONTINUOUS
 62
     2
 10
34.154687358
 20
88.180143345
 30
0.0
 11
33.911883337
 21
88.115008209
 31
0.0
  0
ARC
  8
0
  6
CONTINUOUS
 62
     2
 10
34.076666891
 20
88.417657149
 30
0.0
 40
0.25
 50
288.184738537
 51
101.815261463
  0
ARC
  8
0
  6
CONTINUOUS
 62
     2
 10
33.835185434
 20
88.352952387
 30
0.0
 40
0.25
 50
287.865983983
 51
102.134016018
  0
ARC
  8
0
  6
CONTINUOUS
 62
     2
 10
36.25
 20
89.0
 30
0.0
 40
2.5
 50
230.731967965
 51
249.268032035
  0
ARC
  8
0
  6
CONTINUOUS
 62
     2
 10
36.25
 20
89.0
 30
0.0
 40
2.25
 50
231.369477073
 51
248.630522927
  0
ARC
  8
0
  6
CONTINUOUS
 62
     2
 10
36.25
 20
89.0
 30
0.0
 40
2.5
 50
200.731967965
 51
219.268032035
  0
ARC
  8
0
  6
CONTINUOUS
 62
     2
 10
36.25
 20
89.0
 30
0.0
 40
2.25
 50
201.369477073
 51
218.630522927
  0
LINE
  8
0
  6
CONTINUOUS
 62
     2
 10
37.069856655
 20
86.904687358
 30
0.0
 11
37.134991791
 21
86.661883337
 31
0.0
  0
LINE
  8
0
  6
CONTINUOUS
 62
     2
 10
36.587639631
 20
86.775477696
 30
0.0
 11
36.652632959
 21
86.532635677
 31
0.0
  0
ARC
  8
0
  6
CONTINUOUS
 62
     2
 10
36.832342851
 20
86.826666891
 30
0.0
 40
0.25
 50
18.184738537
 51
191.815261463
  0
ARC
  8
0
  6
CONTINUOUS
 62
     2
 10
36.897047613
 20
86.585185434
 30
0.0
 40
0.25
 50
17.865983982
 51
192.134016017
  0
LINE
  8
0
  6
CONTINUOUS
 62
     2
 10
38.007673011
 20
87.595334351
 30
0.0
 11
38.185483704
 21
87.417627468
 31
0.0
  0
LINE
  8
0
  6
CONTINUOUS
 62
     2
 10
37.654665649
 20
87.242326989
 30
0.0
 11
37.832372532
 21
87.064516296
 31
0.0
  0
ARC
  8
0
  6
CONTINUOUS
 62
     2
 10
37.840990258
 20
87.409009742
 30
0.0
 40
0.25
 50
48.184738537
 51
221.815261463
  0
ARC
  8
0
  6
CONTINUOUS
 62
     2
 10
38.017766953
 20
87.232233047
 30
0.0
 40
0.25
 50
47.865983982
 51
222.134016017
  0
LINE
  8
0
  6
CONTINUOUS
 62
     2
 10
38.474522304
 20
88.662360369
 30
0.0
 11
38.717364323
 21
88.597367041
 31
0.0
  0
LINE
  8
0
  6
CONTINUOUS
 62
     2
 10
38.345312642
 20
88.180143345
 30
0.0
 11
38.588116663
 21
88.115008209
 31
0.0
  0
ARC
  8
0
  6
CONTINUOUS
 62
     2
 10
38.423333109
 20
88.417657149
 30
0.0
 40
0.25
 50
78.184738537
 51
251.815261463
  0
ARC
  8
0
  6
CONTINUOUS
 62
     2
 10
38.664814566
 20
88.352952387
 30
0.0
 40
0.25
 50
77.865983982
 51
252.134016017
  0
ARC
  8
0
  6
CONTINUOUS
 62
     2
 10
36.25
 20
89.0
 30
0.0
 40
2.5
 50
290.731967965
 51
309.268032035
  0
ARC
  8
0
  6
CONTINUOUS
 62
     2
 10
36.25
 20
89.0
 30
0.0
 40
2.25
 50
291.369477073
 51
308.630522927
  0
ARC
  8
0
  6
CONTINUOUS
 62
     2
 10
36.25
 20
89.0
 30
0.0
 40
2.5
 50
320.731967965
 51
339.268032035
  0
ARC
  8
0
  6
CONTINUOUS
 62
     2
 10
36.25
 20
89.0
 30
0.0
 40
2.25
 50
321.369477073
 51
338.630522927
  0
ARC
  8
0
  6
CONTINUOUS
 62
     2
 10
36.25
 20
89.0
 30
0.0
 40
2.25
 50
261.369477073
 51
278.630522927
  0
ARC
  8
0
  6
CONTINUOUS
 62
     2
 10
36.25
 20
89.0
 30
0.0
 40
2.5
 50
260.731967965
 51
279.268032035
  0
LINE
  8
0
  6
CONTINUOUS
 62
     2
 10
35.430143345
 20
91.095312642
 30
0.0
 11
35.365008209
 21
91.338116663
 31
0.0
  0
LINE
  8
0
  6
CONTINUOUS
 62
     2
 10
35.912360369
 20
91.224522304
 30
0.0
 11
35.847367041
 21
91.467364323
 31
0.0
  0
ARC
  8
0
  6
CONTINUOUS
 62
     2
 10
35.667657149
 20
91.173333109
 30
0.0
 40
0.25
 50
198.184738537
 51
11.815261463
  0
ARC
  8
0
  6
CONTINUOUS
 62
     2
 10
35.602952387
 20
91.414814566
 30
0.0
 40
0.25
 50
197.865983982
 51
12.134016017
  0
LINE
  8
0
  6
CONTINUOUS
 62
     2
 10
34.492326989
 20
90.404665649
 30
0.0
 11
34.314516296
 21
90.582372532
 31
0.0
  0
LINE
  8
0
  6
CONTINUOUS
 62
     2
 10
34.845334351
 20
90.757673011
 30
0.0
 11
34.667627468
 21
90.935483704
 31
0.0
  0
ARC
  8
0
  6
CONTINUOUS
 62
     2
 10
34.659009742
 20
90.590990258
 30
0.0
 40
0.25
 50
228.184738537
 51
41.815261463
  0
ARC
  8
0
  6
CONTINUOUS
 62
     2
 10
34.482233047
 20
90.767766953
 30
0.0
 40
0.25
 50
227.865983982
 51
42.134016017
  0
LINE
  8
0
  6
CONTINUOUS
 62
     2
 10
34.025477696
 20
89.337639631
 30
0.0
 11
33.782635677
 21
89.402632959
 31
0.0
  0
LINE
  8
0
  6
CONTINUOUS
 62
     2
 10
34.154687358
 20
89.819856655
 30
0.0
 11
33.911883337
 21
89.884991791
 31
0.0
  0
ARC
  8
0
  6
CONTINUOUS
 62
     2
 10
34.076666891
 20
89.582342851
 30
0.0
 40
0.25
 50
258.184738537
 51
71.815261463
  0
ARC
  8
0
  6
CONTINUOUS
 62
     2
 10
33.835185434
 20
89.647047613
 30
0.0
 40
0.25
 50
257.865983982
 51
72.134016017
  0
ARC
  8
0
  6
CONTINUOUS
 62
     2
 10
36.25
 20
89.0
 30
0.0
 40
2.5
 50
110.731967965
 51
129.268032035
  0
ARC
  8
0
  6
CONTINUOUS
 62
     2
 10
36.25
 20
89.0
 30
0.0
 40
2.25
 50
111.369477073
 51
128.630522927
  0
ARC
  8
0
  6
CONTINUOUS
 62
     2
 10
36.25
 20
89.0
 30
0.0
 40
2.5
 50
140.731967965
 51
159.268032035
  0
ARC
  8
0
  6
CONTINUOUS
 62
     2
 10
36.25
 20
89.0
 30
0.0
 40
2.25
 50
141.369477073
 51
158.630522927
  0
LINE
  8
0
  6
CONTINUOUS
 62
     2
 10
37.069856655
 20
91.095312642
 30
0.0
 11
37.134991791
 21
91.338116663
 31
0.0
  0
LINE
  8
0
  6
CONTINUOUS
 62
     2
 10
36.587639631
 20
91.224522304
 30
0.0
 11
36.652632959
 21
91.467364323
 31
0.0
  0
ARC
  8
0
  6
CONTINUOUS
 62
     2
 10
36.832342851
 20
91.173333109
 30
0.0
 40
0.25
 50
168.184738537
 51
341.815261463
  0
ARC
  8
0
  6
CONTINUOUS
 62
     2
 10
36.897047613
 20
91.414814566
 30
0.0
 40
0.25
 50
167.865983983
 51
342.134016018
  0
LINE
  8
0
  6
CONTINUOUS
 62
     2
 10
38.007673011
 20
90.404665649
 30
0.0
 11
38.185483704
 21
90.582372532
 31
0.0
  0
LINE
  8
0
  6
CONTINUOUS
 62
     2
 10
37.654665649
 20
90.757673011
 30
0.0
 11
37.832372532
 21
90.935483704
 31
0.0
  0
ARC
  8
0
  6
CONTINUOUS
 62
     2
 10
37.840990258
 20
90.590990258
 30
0.0
 40
0.25
 50
138.184738537
 51
311.815261463
  0
ARC
  8
0
  6
CONTINUOUS
 62
     2
 10
38.017766953
 20
90.767766953
 30
0.0
 40
0.25
 50
137.865983983
 51
312.134016018
  0
LINE
  8
0
  6
CONTINUOUS
 62
     2
 10
38.474522304
 20
89.337639631
 30
0.0
 11
38.717364323
 21
89.402632959
 31
0.0
  0
LINE
  8
0
  6
CONTINUOUS
 62
     2
 10
38.345312642
 20
89.819856655
 30
0.0
 11
38.588116663
 21
89.884991791
 31
0.0
  0
ARC
  8
0
  6
CONTINUOUS
 62
     2
 10
38.423333109
 20
89.582342851
 30
0.0
 40
0.25
 50
108.184738537
 51
281.815261463
  0
ARC
  8
0
  6
CONTINUOUS
 62
     2
 10
38.664814566
 20
89.647047613
 30
0.0
 40
0.25
 50
107.865983983
 51
282.134016018
  0
ARC
  8
0
  6
CONTINUOUS
 62
     2
 10
36.25
 20
89.0
 30
0.0
 40
2.5
 50
50.731967965
 51
69.268032035
  0
ARC
  8
0
  6
CONTINUOUS
 62
     2
 10
36.25
 20
89.0
 30
0.0
 40
2.25
 50
51.369477073
 51
68.630522927
  0
ARC
  8
0
  6
CONTINUOUS
 62
     2
 10
36.25
 20
89.0
 30
0.0
 40
2.5
 50
20.731967965
 51
39.268032035
  0
ARC
  8
0
  6
CONTINUOUS
 62
     2
 10
36.25
 20
89.0
 30
0.0
 40
2.25
 50
21.369477073
 51
38.630522927
  0
ARC
  8
0
  6
CONTINUOUS
 62
     2
 10
36.25
 20
89.0
 30
0.0
 40
2.25
 50
81.369477073
 51
98.630522927
  0
ARC
  8
0
  6
CONTINUOUS
 62
     2
 10
36.25
 20
89.0
 30
0.0
 40
2.5
 50
80.731967965
 51
99.268032035
  0
ARC
  8
0
  6
CONTINUOUS
 62
     2
 10
36.25
 20
89.0
 30
0.0
 40
2.5
 50
170.731967965
 51
189.268032035
  0
ARC
  8
0
  6
CONTINUOUS
 62
     2
 10
36.25
 20
89.0
 30
0.0
 40
2.5
 50
350.731967965
 51
9.268032035
  0
ARC
  8
0
  6
CONTINUOUS
 62
     2
 10
36.25
 20
89.0
 30
0.0
 40
2.25
 50
171.369477073
 51
188.630522927
  0
ARC
  8
0
  6
CONTINUOUS
 62
     2
 10
36.25
 20
89.0
 30
0.0
 40
2.25
 50
351.369477073
 51
8.630522927
  0
LINE
  8
0
  6
LTYPE2
 62
     2
 10
33.25
 20
89.0
 30
0.0
 11
39.25
 21
89.0
 31
0.0
  0
LINE
  8
0
  6
LTYPE2
 62
     2
 10
36.25
 20
92.0
 30
0.0
 11
36.25
 21
86.0
 31
0.0
  0
LINE
  8
0
  6
LTYPE2
 62
     2
 10
37.0
 20
84.75
 30
0.0
 11
43.0
 21
84.75
 31
0.0
  0
CIRCLE
  8
0
  6
CONTINUOUS
 62
     2
 10
43.75
 20
89.0
 30
0.0
 40
1.75
  0
CIRCLE
  8
0
  6
CONTINUOUS
 62
     2
 10
43.75
 20
89.0
 30
0.0
 40
0.75
  0
LINE
  8
0
  6
CONTINUOUS
 62
     2
 10
42.930143345
 20
86.904687358
 30
0.0
 11
42.865008209
 21
86.661883337
 31
0.0
  0
LINE
  8
0
  6
CONTINUOUS
 62
     2
 10
43.412360369
 20
86.775477696
 30
0.0
 11
43.347367041
 21
86.532635677
 31
0.0
  0
ARC
  8
0
  6
CONTINUOUS
 62
     2
 10
43.167657149
 20
86.826666891
 30
0.0
 40
0.25
 50
348.184738537
 51
161.815261463
  0
ARC
  8
0
  6
CONTINUOUS
 62
     2
 10
43.102952387
 20
86.585185434
 30
0.0
 40
0.25
 50
347.865983983
 51
162.134016018
  0
LINE
  8
0
  6
CONTINUOUS
 62
     2
 10
41.992326989
 20
87.595334351
 30
0.0
 11
41.814516296
 21
87.417627468
 31
0.0
  0
LINE
  8
0
  6
CONTINUOUS
 62
     2
 10
42.345334351
 20
87.242326989
 30
0.0
 11
42.167627468
 21
87.064516296
 31
0.0
  0
ARC
  8
0
  6
CONTINUOUS
 62
     2
 10
42.159009742
 20
87.409009742
 30
0.0
 40
0.25
 50
318.184738537
 51
131.815261463
  0
ARC
  8
0
  6
CONTINUOUS
 62
     2
 10
41.982233047
 20
87.232233047
 30
0.0
 40
0.25
 50
317.865983983
 51
132.134016018
  0
LINE
  8
0
  6
CONTINUOUS
 62
     2
 10
41.525477696
 20
88.662360369
 30
0.0
 11
41.282635677
 21
88.597367041
 31
0.0
  0
LINE
  8
0
  6
CONTINUOUS
 62
     2
 10
41.654687358
 20
88.180143345
 30
0.0
 11
41.411883337
 21
88.115008209
 31
0.0
  0
ARC
  8
0
  6
CONTINUOUS
 62
     2
 10
41.576666891
 20
88.417657149
 30
0.0
 40
0.25
 50
288.184738537
 51
101.815261463
  0
ARC
  8
0
  6
CONTINUOUS
 62
     2
 10
41.335185434
 20
88.352952387
 30
0.0
 40
0.25
 50
287.865983983
 51
102.134016018
  0
ARC
  8
0
  6
CONTINUOUS
 62
     2
 10
43.75
 20
89.0
 30
0.0
 40
2.5
 50
230.731967965
 51
249.268032035
  0
ARC
  8
0
  6
CONTINUOUS
 62
     2
 10
43.75
 20
89.0
 30
0.0
 40
2.25
 50
231.369477073
 51
248.630522927
  0
ARC
  8
0
  6
CONTINUOUS
 62
     2
 10
43.75
 20
89.0
 30
0.0
 40
2.5
 50
200.731967965
 51
219.268032035
  0
ARC
  8
0
  6
CONTINUOUS
 62
     2
 10
43.75
 20
89.0
 30
0.0
 40
2.25
 50
201.369477073
 51
218.630522927
  0
LINE
  8
0
  6
CONTINUOUS
 62
     2
 10
44.569856655
 20
86.904687358
 30
0.0
 11
44.634991791
 21
86.661883337
 31
0.0
  0
LINE
  8
0
  6
CONTINUOUS
 62
     2
 10
44.087639631
 20
86.775477696
 30
0.0
 11
44.152632959
 21
86.532635677
 31
0.0
  0
ARC
  8
0
  6
CONTINUOUS
 62
     2
 10
44.332342851
 20
86.826666891
 30
0.0
 40
0.25
 50
18.184738537
 51
191.815261463
  0
ARC
  8
0
  6
CONTINUOUS
 62
     2
 10
44.397047613
 20
86.585185434
 30
0.0
 40
0.25
 50
17.865983982
 51
192.134016017
  0
LINE
  8
0
  6
CONTINUOUS
 62
     2
 10
45.507673011
 20
87.595334351
 30
0.0
 11
45.685483704
 21
87.417627468
 31
0.0
  0
LINE
  8
0
  6
CONTINUOUS
 62
     2
 10
45.154665649
 20
87.242326989
 30
0.0
 11
45.332372532
 21
87.064516296
 31
0.0
  0
ARC
  8
0
  6
CONTINUOUS
 62
     2
 10
45.340990258
 20
87.409009742
 30
0.0
 40
0.25
 50
48.184738537
 51
221.815261463
  0
ARC
  8
0
  6
CONTINUOUS
 62
     2
 10
45.517766953
 20
87.232233047
 30
0.0
 40
0.25
 50
47.865983982
 51
222.134016017
  0
LINE
  8
0
  6
CONTINUOUS
 62
     2
 10
45.974522304
 20
88.662360369
 30
0.0
 11
46.217364323
 21
88.597367041
 31
0.0
  0
LINE
  8
0
  6
CONTINUOUS
 62
     2
 10
45.845312642
 20
88.180143345
 30
0.0
 11
46.088116663
 21
88.115008209
 31
0.0
  0
ARC
  8
0
  6
CONTINUOUS
 62
     2
 10
45.923333109
 20
88.417657149
 30
0.0
 40
0.25
 50
78.184738537
 51
251.815261463
  0
ARC
  8
0
  6
CONTINUOUS
 62
     2
 10
46.164814566
 20
88.352952387
 30
0.0
 40
0.25
 50
77.865983982
 51
252.134016017
  0
ARC
  8
0
  6
CONTINUOUS
 62
     2
 10
43.75
 20
89.0
 30
0.0
 40
2.5
 50
290.731967965
 51
309.268032035
  0
ARC
  8
0
  6
CONTINUOUS
 62
     2
 10
43.75
 20
89.0
 30
0.0
 40
2.25
 50
291.369477073
 51
308.630522927
  0
ARC
  8
0
  6
CONTINUOUS
 62
     2
 10
43.75
 20
89.0
 30
0.0
 40
2.5
 50
320.731967965
 51
339.268032035
  0
ARC
  8
0
  6
CONTINUOUS
 62
     2
 10
43.75
 20
89.0
 30
0.0
 40
2.25
 50
321.369477073
 51
338.630522927
  0
ARC
  8
0
  6
CONTINUOUS
 62
     2
 10
43.75
 20
89.0
 30
0.0
 40
2.25
 50
261.369477073
 51
278.630522927
  0
ARC
  8
0
  6
CONTINUOUS
 62
     2
 10
43.75
 20
89.0
 30
0.0
 40
2.5
 50
260.731967965
 51
279.268032035
  0
LINE
  8
0
  6
CONTINUOUS
 62
     2
 10
42.930143345
 20
91.095312642
 30
0.0
 11
42.865008209
 21
91.338116663
 31
0.0
  0
LINE
  8
0
  6
CONTINUOUS
 62
     2
 10
43.412360369
 20
91.224522304
 30
0.0
 11
43.347367041
 21
91.467364323
 31
0.0
  0
ARC
  8
0
  6
CONTINUOUS
 62
     2
 10
43.167657149
 20
91.173333109
 30
0.0
 40
0.25
 50
198.184738537
 51
11.815261463
  0
ARC
  8
0
  6
CONTINUOUS
 62
     2
 10
43.102952387
 20
91.414814566
 30
0.0
 40
0.25
 50
197.865983982
 51
12.134016017
  0
LINE
  8
0
  6
CONTINUOUS
 62
     2
 10
41.992326989
 20
90.404665649
 30
0.0
 11
41.814516296
 21
90.582372532
 31
0.0
  0
LINE
  8
0
  6
CONTINUOUS
 62
     2
 10
42.345334351
 20
90.757673011
 30
0.0
 11
42.167627468
 21
90.935483704
 31
0.0
  0
ARC
  8
0
  6
CONTINUOUS
 62
     2
 10
42.159009742
 20
90.590990258
 30
0.0
 40
0.25
 50
228.184738537
 51
41.815261463
  0
ARC
  8
0
  6
CONTINUOUS
 62
     2
 10
41.982233047
 20
90.767766953
 30
0.0
 40
0.25
 50
227.865983982
 51
42.134016017
  0
LINE
  8
0
  6
CONTINUOUS
 62
     2
 10
41.525477696
 20
89.337639631
 30
0.0
 11
41.282635677
 21
89.402632959
 31
0.0
  0
LINE
  8
0
  6
CONTINUOUS
 62
     2
 10
41.654687358
 20
89.819856655
 30
0.0
 11
41.411883337
 21
89.884991791
 31
0.0
  0
ARC
  8
0
  6
CONTINUOUS
 62
     2
 10
41.576666891
 20
89.582342851
 30
0.0
 40
0.25
 50
258.184738537
 51
71.815261463
  0
ARC
  8
0
  6
CONTINUOUS
 62
     2
 10
41.335185434
 20
89.647047613
 30
0.0
 40
0.25
 50
257.865983982
 51
72.134016017
  0
ARC
  8
0
  6
CONTINUOUS
 62
     2
 10
43.75
 20
89.0
 30
0.0
 40
2.5
 50
110.731967965
 51
129.268032035
  0
ARC
  8
0
  6
CONTINUOUS
 62
     2
 10
43.75
 20
89.0
 30
0.0
 40
2.25
 50
111.369477073
 51
128.630522927
  0
ARC
  8
0
  6
CONTINUOUS
 62
     2
 10
43.75
 20
89.0
 30
0.0
 40
2.5
 50
140.731967965
 51
159.268032035
  0
ARC
  8
0
  6
CONTINUOUS
 62
     2
 10
43.75
 20
89.0
 30
0.0
 40
2.25
 50
141.369477073
 51
158.630522927
  0
LINE
  8
0
  6
CONTINUOUS
 62
     2
 10
44.569856655
 20
91.095312642
 30
0.0
 11
44.634991791
 21
91.338116663
 31
0.0
  0
LINE
  8
0
  6
CONTINUOUS
 62
     2
 10
44.087639631
 20
91.224522304
 30
0.0
 11
44.152632959
 21
91.467364323
 31
0.0
  0
ARC
  8
0
  6
CONTINUOUS
 62
     2
 10
44.332342851
 20
91.173333109
 30
0.0
 40
0.25
 50
168.184738537
 51
341.815261463
  0
ARC
  8
0
  6
CONTINUOUS
 62
     2
 10
44.397047613
 20
91.414814566
 30
0.0
 40
0.25
 50
167.865983983
 51
342.134016018
  0
LINE
  8
0
  6
CONTINUOUS
 62
     2
 10
45.507673011
 20
90.404665649
 30
0.0
 11
45.685483704
 21
90.582372532
 31
0.0
  0
LINE
  8
0
  6
CONTINUOUS
 62
     2
 10
45.154665649
 20
90.757673011
 30
0.0
 11
45.332372532
 21
90.935483704
 31
0.0
  0
ARC
  8
0
  6
CONTINUOUS
 62
     2
 10
45.340990258
 20
90.590990258
 30
0.0
 40
0.25
 50
138.184738537
 51
311.815261463
  0
ARC
  8
0
  6
CONTINUOUS
 62
     2
 10
45.517766953
 20
90.767766953
 30
0.0
 40
0.25
 50
137.865983983
 51
312.134016018
  0
LINE
  8
0
  6
CONTINUOUS
 62
     2
 10
45.974522304
 20
89.337639631
 30
0.0
 11
46.217364323
 21
89.402632959
 31
0.0
  0
LINE
  8
0
  6
CONTINUOUS
 62
     2
 10
45.845312642
 20
89.819856655
 30
0.0
 11
46.088116663
 21
89.884991791
 31
0.0
  0
ARC
  8
0
  6
CONTINUOUS
 62
     2
 10
45.923333109
 20
89.582342851
 30
0.0
 40
0.25
 50
108.184738537
 51
281.815261463
  0
ARC
  8
0
  6
CONTINUOUS
 62
     2
 10
46.164814566
 20
89.647047613
 30
0.0
 40
0.25
 50
107.865983983
 51
282.134016018
  0
ARC
  8
0
  6
CONTINUOUS
 62
     2
 10
43.75
 20
89.0
 30
0.0
 40
2.5
 50
50.731967965
 51
69.268032035
  0
ARC
  8
0
  6
CONTINUOUS
 62
     2
 10
43.75
 20
89.0
 30
0.0
 40
2.25
 50
51.369477073
 51
68.630522927
  0
ARC
  8
0
  6
CONTINUOUS
 62
     2
 10
43.75
 20
89.0
 30
0.0
 40
2.5
 50
20.731967965
 51
39.268032035
  0
ARC
  8
0
  6
CONTINUOUS
 62
     2
 10
43.75
 20
89.0
 30
0.0
 40
2.25
 50
21.369477073
 51
38.630522927
  0
ARC
  8
0
  6
CONTINUOUS
 62
     2
 10
43.75
 20
89.0
 30
0.0
 40
2.25
 50
81.369477073
 51
98.630522927
  0
ARC
  8
0
  6
CONTINUOUS
 62
     2
 10
43.75
 20
89.0
 30
0.0
 40
2.5
 50
80.731967965
 51
99.268032035
  0
ARC
  8
0
  6
CONTINUOUS
 62
     2
 10
43.75
 20
89.0
 30
0.0
 40
2.5
 50
170.731967965
 51
189.268032035
  0
ARC
  8
0
  6
CONTINUOUS
 62
     2
 10
43.75
 20
89.0
 30
0.0
 40
2.5
 50
350.731967965
 51
9.268032035
  0
ARC
  8
0
  6
CONTINUOUS
 62
     2
 10
43.75
 20
89.0
 30
0.0
 40
2.25
 50
171.369477073
 51
188.630522927
  0
ARC
  8
0
  6
CONTINUOUS
 62
     2
 10
43.75
 20
89.0
 30
0.0
 40
2.25
 50
351.369477073
 51
8.630522927
  0
LINE
  8
0
  6
LTYPE2
 62
     2
 10
40.75
 20
89.0
 30
0.0
 11
46.75
 21
89.0
 31
0.0
  0
LINE
  8
0
  6
LTYPE2
 62
     2
 10
43.75
 20
92.0
 30
0.0
 11
43.75
 21
86.0
 31
0.0
  0
CIRCLE
  8
0
  6
CONTINUOUS
 62
     2
 10
43.75
 20
89.0
 30
0.0
 40
2.5
  0
CIRCLE
  8
0
  6
CONTINUOUS
 62
     2
 10
36.25
 20
89.0
 30
0.0
 40
2.5
  0
LINE
  8
0
  6
CONTINUOUS
 62
     2
 10
45.0
 20
86.834936491
 30
0.0
 11
45.647047613
 21
84.420121925
 31
0.0
  0
LINE
  8
0
  6
CONTINUOUS
 62
     2
 10
45.0
 20
86.834936491
 30
0.0
 11
46.767766953
 21
85.067169538
 31
0.0
  0
LINE
  8
0
  6
CONTINUOUS
 62
     2
 10
35.0
 20
86.834936491
 30
0.0
 11
33.232233047
 21
85.067169538
 31
0.0
  0
LINE
  8
0
  6
CONTINUOUS
 62
     2
 10
35.0
 20
86.834936491
 30
0.0
 11
34.352952387
 21
84.420121925
 31
0.0
  0
LINE
  8
0
  6
CONTINUOUS
 62
     2
 10
21.327971115
 20
108.905507363
 30
0.0
 11
21.507806065
 21
109.079171955
 31
0.0
  0
LINE
  8
0
  6
CONTINUOUS
 62
     2
 10
21.507806065
 20
109.079171955
 30
0.0
 11
31.482571476
 21
98.75
 31
0.0
  0
LINE
  8
0
  6
CONTINUOUS
 62
     2
 10
31.135030578
 20
98.75
 30
0.0
 11
21.327971115
 21
108.905507363
 31
0.0
  0
LINE
  8
0
  6
CONTINUOUS
 62
     2
 10
21.427971115
 20
109.005507363
 30
0.0
 11
20.780923502
 21
111.420321928
 31
0.0
  0
LINE
  8
0
  6
CONTINUOUS
 62
     2
 10
21.427971115
 20
109.005507363
 30
0.0
 11
19.660204162
 21
110.773274316
 31
0.0
  0
LINE
  8
0
  6
CONTINUOUS
 62
     2
 10
56.712477852
 20
109.667155521
 30
0.0
 11
56.774106269
 21
108.962739495
 31
0.0
  0
LINE
  8
0
  6
CONTINUOUS
 62
     2
 10
56.774106269
 20
108.962739495
 30
0.0
 11
48.437144662
 21
98.75
 31
0.0
  0
LINE
  8
0
  6
CONTINUOUS
 62
     2
 10
47.551896681
 20
98.75
 30
0.0
 11
56.712477852
 21
109.667155521
 31
0.0
  0
LINE
  8
0
  6
CONTINUOUS
 62
     2
 10
23.287522148
 20
109.667155521
 30
0.0
 11
23.225893731
 21
108.962739495
 31
0.0
  0
LINE
  8
0
  6
CONTINUOUS
 62
     2
 10
23.225893731
 20
108.962739495
 30
0.0
 11
31.562855338
 21
98.75
 31
0.0
  0
LINE
  8
0
  6
CONTINUOUS
 62
     2
 10
32.448103319
 20
98.75
 30
0.0
 11
23.287522148
 21
109.667155521
 31
0.0
  0
LINE
  8
0
  6
CONTINUOUS
 62
     2
 10
23.287522148
 20
109.667155521
 30
0.0
 11
25.055289101
 21
111.434922474
 31
0.0
  0
LINE
  8
0
  6
CONTINUOUS
 62
     2
 10
23.287522148
 20
109.667155521
 30
0.0
 11
23.934569761
 21
112.081970087
 31
0.0
  0
LINE
  8
0
  6
CONTINUOUS
 62
     2
 10
56.712477852
 20
109.667155521
 30
0.0
 11
56.065430239
 21
112.081970087
 31
0.0
  0
LINE
  8
0
  6
CONTINUOUS
 62
     2
 10
56.712477852
 20
109.667155521
 30
0.0
 11
54.944710899
 21
111.434922474
 31
0.0
  0
LINE
  8
0
  6
CONTINUOUS
 62
     2
 10
25.0
 20
94.25
 30
0.0
 11
55.0
 21
94.25
 31
0.0
  0
TEXT
  8
0
  6
CONTINUOUS
 62
     2
 10
48.946152423
 20
81.0
 30
0.3
 40
3.0
  1
Ｈ側設定ツマミ
 50
0.0
 41
0.6
 51
0.0
  7
KANJI0
  0
TEXT
  8
0
  6
CONTINUOUS
 62
     2
 10
48.946152423
 20
76.0
 30
0.3
 40
3.0
  1
（中央赤色）
 50
0.0
 41
0.6
 51
0.0
  7
KANJI0
  0
LINE
  8
0
  6
CONTINUOUS
 62
     2
 10
48.946152423
 20
80.0
 30
0.0
 11
63.346152423
 21
80.0
 31
0.0
  0
LINE
  8
0
  6
CONTINUOUS
 62
     2
 10
31.053847577
 20
80.0
 30
0.0
 11
16.653847577
 21
80.0
 31
0.0
  0
TEXT
  8
0
  6
CONTINUOUS
 62
     2
 10
16.653847577
 20
81.0
 30
0.3
 40
3.0
  1
Ｌ側設定ツマミ
 50
0.0
 41
0.6
 51
0.0
  7
KANJI0
  0
TEXT
  8
0
  6
CONTINUOUS
 62
     2
 10
16.653847577
 20
76.0
 30
0.3
 40
3.0
  1
（中央黄色）
 50
0.0
 41
0.6
 51
0.0
  7
KANJI0
  0
LINE
  8
0
  6
CONTINUOUS
 62
     2
 10
35.0
 20
86.834936491
 30
0.0
 11
31.053847577
 21
80.0
 31
0.0
  0
LINE
  8
0
  6
CONTINUOUS
 62
     2
 10
45.0
 20
86.834936491
 30
0.0
 11
48.946152423
 21
80.0
 31
0.0
  0
LINE
  8
0
  6
CONTINUOUS
 62
     2
 10
64.778858118
 20
117.0
 30
0.0
 11
52.478858118
 21
117.0
 31
0.0
  0
TEXT
  8
0
  6
CONTINUOUS
 62
     2
 10
52.478858118
 20
118.0
 30
0.3
 40
3.0
  1
Ｈ側設定指針
 50
0.0
 41
0.6
 51
0.0
  7
KANJI0
  0
TEXT
  8
0
  6
CONTINUOUS
 62
     2
 10
55.478858118
 20
113.0
 30
0.3
 40
3.0
  1
（赤色）
 50
0.0
 41
0.6
 51
0.0
  7
KANJI0
  0
LINE
  8
0
  6
CONTINUOUS
 62
     2
 10
27.521141882
 20
117.0
 30
0.0
 11
39.821141882
 21
117.0
 31
0.0
  0
TEXT
  8
0
  6
CONTINUOUS
 62
     2
 10
27.521141882
 20
118.0
 30
0.3
 40
3.0
  1
Ｌ側設定指針
 50
0.0
 41
0.6
 51
0.0
  7
KANJI0
  0
TEXT
  8
0
  6
CONTINUOUS
 62
     2
 10
27.521141882
 20
113.0
 30
0.3
 40
3.0
  1
（黄色）
 50
0.0
 41
0.6
 51
0.0
  7
KANJI0
  0
LINE
  8
0
  6
CONTINUOUS
 62
     2
 10
20.712348639
 20
117.0
 30
0.0
 11
16.812348639
 21
117.0
 31
0.0
  0
TEXT
  8
0
  6
CONTINUOUS
 62
     2
 10
16.812348639
 20
118.0
 30
0.3
 40
3.0
  1
指針
 50
0.0
 41
0.6
 51
0.0
  7
KANJI0
  0
LINE
  8
0
  6
CONTINUOUS
 62
     2
 10
21.427971115
 20
109.005507363
 30
0.0
 11
16.812348639
 21
117.0
 31
0.0
  0
LINE
  8
0
  6
CONTINUOUS
 62
     2
 10
23.287522148
 20
109.667155521
 30
0.0
 11
27.521141882
 21
117.0
 31
0.0
  0
LINE
  8
0
  6
CONTINUOUS
 62
     2
 10
56.712477852
 20
109.667155521
 30
0.0
 11
52.478858118
 21
117.0
 31
0.0
  0
CIRCLE
  8
0
  6
CONTINUOUS
 62
     2
 10
36.0
 20
58.0
 30
0.0
 40
1.375
  0
CIRCLE
  8
0
  6
CONTINUOUS
 62
     2
 10
36.0
 20
62.5
 30
0.0
 40
1.375
  0
CIRCLE
  8
0
  6
CONTINUOUS
 62
     2
 10
36.0
 20
67.0
 30
0.0
 40
1.375
  0
CIRCLE
  8
0
  6
CONTINUOUS
 62
     2
 10
36.0
 20
53.5
 30
0.0
 40
1.375
  0
CIRCLE
  8
0
  6
CONTINUOUS
 62
     2
 10
36.0
 20
49.0
 30
0.0
 40
1.375
  0
CIRCLE
  8
0
  6
CONTINUOUS
 62
     2
 10
44.0
 20
58.0
 30
0.0
 40
1.375
  0
CIRCLE
  8
0
  6
CONTINUOUS
 62
     2
 10
44.0
 20
62.5
 30
0.0
 40
1.375
  0
CIRCLE
  8
0
  6
CONTINUOUS
 62
     2
 10
44.0
 20
67.0
 30
0.0
 40
1.375
  0
CIRCLE
  8
0
  6
CONTINUOUS
 62
     2
 10
44.0
 20
53.5
 30
0.0
 40
1.375
  0
CIRCLE
  8
0
  6
CONTINUOUS
 62
     2
 10
44.0
 20
49.0
 30
0.0
 40
1.375
  0
LINE
  8
0
  6
CONTINUOUS
 62
     2
 10
28.0
 20
67.0
 30
0.0
 11
30.414814566
 21
66.352952387
 31
0.0
  0
LINE
  8
0
  6
CONTINUOUS
 62
     2
 10
28.0
 20
67.0
 30
0.0
 11
30.414814566
 21
67.647047613
 31
0.0
  0
LINE
  8
0
  6
CONTINUOUS
 62
     2
 10
28.0
 20
62.5
 30
0.0
 11
30.414814566
 21
61.852952387
 31
0.0
  0
LINE
  8
0
  6
CONTINUOUS
 62
     2
 10
28.0
 20
62.5
 30
0.0
 11
30.414814566
 21
63.147047613
 31
0.0
  0
LINE
  8
0
  6
CONTINUOUS
 62
     2
 10
34.625
 20
62.5
 30
0.0
 11
28.0
 21
62.5
 31
0.0
  0
LINE
  8
0
  6
CONTINUOUS
 62
     2
 10
32.5
 20
67.0
 30
0.0
 11
28.0
 21
67.0
 31
0.0
  0
TEXT
  8
0
  6
CONTINUOUS
 62
     2
 10
32.0
 20
66.5
 30
0.1
 40
1.0
  1
（＋）
 50
0.0
 41
0.9
 51
0.0
  7
KANJI1
  0
LINE
  8
0
  6
CONTINUOUS
 62
     2
 10
45.375
 20
62.5
 30
0.0
 11
52.0
 21
62.5
 31
0.0
  0
LINE
  8
0
  6
CONTINUOUS
 62
     2
 10
47.5
 20
67.0
 30
0.0
 11
52.0
 21
67.0
 31
0.0
  0
TEXT
  8
0
  6
CONTINUOUS
 62
     2
 10
45.1
 20
66.5
 30
0.1
 40
1.0
  1
（＋）
 50
0.0
 41
0.9
 51
0.0
  7
KANJI1
  0
TEXT
  8
0
  6
CONTINUOUS
 62
     2
 10
48.9
 20
63.3
 30
0.3
 40
3.0
  1
制御電源
 50
0.0
 41
0.9
 51
0.0
  7
KANJI2
  0
TEXT
  8
0
  6
CONTINUOUS
 62
     2
 10
15.9
 20
63.3
 30
0.3
 40
3.0
  1
計器入力
 50
0.0
 41
0.9
 51
0.0
  7
KANJI2
  0
CIRCLE
  8
0
  6
CONTINUOUS
 62
     2
 10
32.0
 20
58.0
 30
0.0
 40
1.0
  0
LINE
  8
0
  6
CONTINUOUS
 62
     2
 10
24.647047613
 20
55.585185434
 30
0.0
 11
25.294095226
 21
58.0
 31
0.0
  0
LINE
  8
0
  6
CONTINUOUS
 62
     2
 10
24.647047613
 20
55.585185434
 30
0.0
 11
24.0
 21
58.0
 31
0.0
  0
LINE
  8
0
  6
CONTINUOUS
 62
     2
 10
24.647047613
 20
51.414814566
 30
0.0
 11
25.294095226
 21
49.0
 31
0.0
  0
LINE
  8
0
  6
CONTINUOUS
 62
     2
 10
24.647047613
 20
51.414814566
 30
0.0
 11
24.0
 21
49.0
 31
0.0
  0
LINE
  8
0
  6
CONTINUOUS
 62
     2
 10
24.647047613
 20
50.642073905
 30
0.0
 11
24.260645075
 21
49.2
 31
0.0
  0
LINE
  8
0
  6
CONTINUOUS
 62
     2
 10
24.647047613
 20
49.869333244
 30
0.0
 11
24.521290149
 21
49.4
 31
0.0
  0
LINE
  8
0
  6
CONTINUOUS
 62
     2
 10
24.647047613
 20
49.869333244
 30
0.0
 11
24.772805076
 21
49.4
 31
0.0
  0
LINE
  8
0
  6
CONTINUOUS
 62
     2
 10
24.772805076
 20
49.4
 30
0.0
 11
24.521290149
 21
49.4
 31
0.0
  0
LINE
  8
0
  6
CONTINUOUS
 62
     2
 10
24.647047613
 20
50.642073905
 30
0.0
 11
25.033450151
 21
49.2
 31
0.0
  0
LINE
  8
0
  6
CONTINUOUS
 62
     2
 10
24.260645075
 20
49.2
 30
0.0
 11
25.033450151
 21
49.2
 31
0.0
  0
CIRCLE
  8
0
  6
CONTINUOUS
 62
     2
 10
32.0
 20
53.5
 30
0.0
 40
1.0
  0
CIRCLE
  8
0
  6
CONTINUOUS
 62
     2
 10
32.0
 20
49.0
 30
0.0
 40
1.0
  0
LINE
  8
0
  6
CONTINUOUS
 62
     2
 10
31.0
 20
58.0
 30
0.0
 11
24.0
 21
58.0
 31
0.0
  0
LINE
  8
0
  6
CONTINUOUS
 62
     2
 10
31.037936749
 20
53.227173498
 30
0.0
 11
23.647047613
 21
51.131229779
 31
0.0
  0
LINE
  8
0
  6
CONTINUOUS
 62
     2
 10
31.0
 20
49.0
 30
0.0
 11
24.0
 21
49.0
 31
0.0
  0
TEXT
  8
0
  6
CONTINUOUS
 62
     2
 10
32.9
 20
57.4
 30
0.2
 40
2.0
  1
ａ
 50
0.0
 41
0.9
 51
0.0
  7
KANJI3
  0
TEXT
  8
0
  6
CONTINUOUS
 62
     2
 10
32.9
 20
52.9
 30
0.2
 40
2.0
  1
ｃ
 50
0.0
 41
0.9
 51
0.0
  7
KANJI3
  0
TEXT
  8
0
  6
CONTINUOUS
 62
     2
 10
32.9
 20
48.4
 30
0.2
 40
2.0
  1
ｂ
 50
0.0
 41
0.9
 51
0.0
  7
KANJI3
  0
CIRCLE
  8
0
  6
CONTINUOUS
 62
     2
 10
48.0
 20
58.0
 30
0.0
 40
1.0
  0
LINE
  8
0
  6
CONTINUOUS
 62
     2
 10
55.352952387
 20
55.585185434
 30
0.0
 11
54.705904774
 21
58.0
 31
0.0
  0
LINE
  8
0
  6
CONTINUOUS
 62
     2
 10
55.352952387
 20
55.585185434
 30
0.0
 11
56.0
 21
58.0
 31
0.0
  0
LINE
  8
0
  6
CONTINUOUS
 62
     2
 10
55.352952387
 20
51.414814566
 30
0.0
 11
54.705904774
 21
49.0
 31
0.0
  0
LINE
  8
0
  6
CONTINUOUS
 62
     2
 10
55.352952387
 20
51.414814566
 30
0.0
 11
56.0
 21
49.0
 31
0.0
  0
LINE
  8
0
  6
CONTINUOUS
 62
     2
 10
55.352952387
 20
50.642073905
 30
0.0
 11
55.739354925
 21
49.2
 31
0.0
  0
LINE
  8
0
  6
CONTINUOUS
 62
     2
 10
55.352952387
 20
49.869333244
 30
0.0
 11
55.478709851
 21
49.4
 31
0.0
  0
LINE
  8
0
  6
CONTINUOUS
 62
     2
 10
55.352952387
 20
49.869333244
 30
0.0
 11
55.227194924
 21
49.4
 31
0.0
  0
LINE
  8
0
  6
CONTINUOUS
 62
     2
 10
55.227194924
 20
49.4
 30
0.0
 11
55.478709851
 21
49.4
 31
0.0
  0
LINE
  8
0
  6
CONTINUOUS
 62
     2
 10
55.352952387
 20
50.642073905
 30
0.0
 11
54.966549849
 21
49.2
 31
0.0
  0
LINE
  8
0
  6
CONTINUOUS
 62
     2
 10
55.739354925
 20
49.2
 30
0.0
 11
54.966549849
 21
49.2
 31
0.0
  0
CIRCLE
  8
0
  6
CONTINUOUS
 62
     2
 10
48.0
 20
53.5
 30
0.0
 40
1.0
  0
CIRCLE
  8
0
  6
CONTINUOUS
 62
     2
 10
48.0
 20
49.0
 30
0.0
 40
1.0
  0
LINE
  8
0
  6
CONTINUOUS
 62
     2
 10
49.0
 20
58.0
 30
0.0
 11
56.0
 21
58.0
 31
0.0
  0
LINE
  8
0
  6
CONTINUOUS
 62
     2
 10
48.962063251
 20
53.227173498
 30
0.0
 11
56.352952387
 21
51.131229779
 31
0.0
  0
LINE
  8
0
  6
CONTINUOUS
 62
     2
 10
49.0
 20
49.0
 30
0.0
 11
56.0
 21
49.0
 31
0.0
  0
TEXT
  8
0
  6
CONTINUOUS
 62
     2
 10
56.9
 20
55.3
 30
0.3
 40
3.0
  1
Ｌ側
 50
0.0
 41
0.9
 51
0.0
  7
KANJI2
  0
TEXT
  8
0
  6
CONTINUOUS
 62
     2
 10
45.275
 20
57.4
 30
0.2
 40
2.0
  1
ａ
 50
0.0
 41
0.9
 51
0.0
  7
KANJI3
  0
TEXT
  8
0
  6
CONTINUOUS
 62
     2
 10
45.275
 20
52.9
 30
0.2
 40
2.0
  1
ｃ
 50
0.0
 41
0.9
 51
0.0
  7
KANJI3
  0
TEXT
  8
0
  6
CONTINUOUS
 62
     2
 10
45.275
 20
48.4
 30
0.2
 40
2.0
  1
ｂ
 50
0.0
 41
0.9
 51
0.0
  7
KANJI3
  0
TEXT
  8
0
  6
CONTINUOUS
 62
     2
 10
9.9
 20
50.3
 30
0.3
 40
3.0
  1
負荷リレ－
 50
0.0
 41
0.9
 51
0.0
  7
KANJI2
  0
TEXT
  8
0
  6
CONTINUOUS
 62
     2
 10
9.9
 20
55.3
 30
0.3
 40
3.0
  1
Ｈ側
 50
0.0
 41
0.9
 51
0.0
  7
KANJI2
  0
TEXT
  8
0
  6
CONTINUOUS
 62
     2
 10
56.9
 20
50.3
 30
0.2
 40
3.0
  1
負荷リレ－
 50
0.0
 41
0.7
 51
0.0
  7
KANJI4
  0
LINE
  8
0
  6
CONTINUOUS
 62
     2
 10
21.427971115
 20
159.005507363
 30
0.0
 11
21.645860472
 21
161.495994108
 31
0.0
  0
LINE
  8
0
  6
CONTINUOUS
 62
     2
 10
21.427971115
 20
159.005507363
 30
0.0
 11
20.371425461
 21
161.27127683
 31
0.0
  0
LINE
  8
0
  6
CONTINUOUS
 62
     2
 10
21.427971115
 20
159.005507363
 30
0.0
 11
18.475465285
 21
175.75
 31
0.0
  0
LINE
  8
0
  6
CONTINUOUS
 62
     2
 10
15.0
 20
170.125
 30
0.0
 11
15.0
 21
182.75
 31
0.0
  0
LINE
  8
0
  6
CONTINUOUS
 62
     2
 10
15.0
 20
180.75
 30
0.0
 11
17.414814566
 21
180.102952387
 31
0.0
  0
LINE
  8
0
  6
CONTINUOUS
 62
     2
 10
15.0
 20
180.75
 30
0.0
 11
17.414814566
 21
181.397047613
 31
0.0
  0
LINE
  8
0
  6
CONTINUOUS
 62
     2
 10
15.0
 20
180.75
 30
0.0
 11
65.0
 21
180.75
 31
0.0
  0
LINE
  8
0
  6
CONTINUOUS
 62
     2
 10
65.0
 20
180.75
 30
0.0
 11
62.585185434
 21
181.397047613
 31
0.0
  0
LINE
  8
0
  6
CONTINUOUS
 62
     2
 10
65.0
 20
180.75
 30
0.0
 11
62.585185434
 21
180.102952387
 31
0.0
  0
LINE
  8
0
  6
CONTINUOUS
 62
     2
 10
65.0
 20
170.125
 30
0.0
 11
65.0
 21
182.75
 31
0.0
  0
TEXT
  8
0
  6
CONTINUOUS
 62
     2
 10
35.88
 20
181.75
 30
0.3
 40
3.0
  1
１００
 50
0.0
 41
0.6
 51
0.0
  7
KANJI0
  0
TEXT
  8
0
  6
CONTINUOUS
 62
     2
 10
41.78
 20
181.75
 30
0.18
 40
1.8
  1
±１
 50
0.0
 41
0.6
 51
0.0
  7
KANJI5
  0
LINE
  8
0
  6
CONTINUOUS
 62
     2
 10
64.375
 20
129.25
 30
0.0
 11
72.0
 21
129.25
 31
0.0
  0
LINE
  8
0
  6
CONTINUOUS
 62
     2
 10
70.0
 20
129.25
 30
0.0
 11
70.647047613
 21
131.664814566
 31
0.0
  0
LINE
  8
0
  6
CONTINUOUS
 62
     2
 10
70.0
 20
129.25
 30
0.0
 11
69.352952387
 21
131.664814566
 31
0.0
  0
LINE
  8
0
  6
CONTINUOUS
 62
     2
 10
70.0
 20
129.25
 30
0.0
 11
70.0
 21
170.75
 31
0.0
  0
LINE
  8
0
  6
CONTINUOUS
 62
     2
 10
70.0
 20
170.75
 30
0.0
 11
69.352952387
 21
168.335185434
 31
0.0
  0
LINE
  8
0
  6
CONTINUOUS
 62
     2
 10
70.0
 20
170.75
 30
0.0
 11
70.647047613
 21
168.335185434
 31
0.0
  0
LINE
  8
0
  6
CONTINUOUS
 62
     2
 10
64.375
 20
170.75
 30
0.0
 11
72.0
 21
170.75
 31
0.0
  0
TEXT
  8
0
  6
CONTINUOUS
 62
     2
 10
69.0
 20
146.78
 30
0.3
 40
3.0
  1
８３
 50
90.0
 41
0.6
 51
0.0
  7
KANJI0
  0
TEXT
  8
0
  6
CONTINUOUS
 62
     2
 10
69.0
 20
150.88
 30
0.18
 40
1.8
  1
±１
 50
90.0
 41
0.6
 51
0.0
  7
KANJI5
  0
TEXT
  8
0
  6
CONTINUOUS
 62
     2
 10
32.0
 20
68.0
 30
0.3
 40
3.0
  1
注２
 50
0.0
 41
0.6
 51
0.0
  7
KANJI0
  0
TEXT
  8
0
  6
CONTINUOUS
 62
     2
 10
45.3
 20
68.0
 30
0.3
 40
3.0
  1
注２
 50
0.0
 41
0.6
 51
0.0
  7
KANJI0
  0
TEXT
  8
0
  6
CONTINUOUS
 62
     2
 10
20.0
 20
30.0
 30
0.3
 40
3.0
  1
注１）感度調整用可変抵抗器は，ＭＰＣ－１０Ｖ形に限り付きます。
 50
0.0
 41
0.9
 51
0.0
  7
KANJI2
  0
LINE
  8
0
  6
CONTINUOUS
 62
     2
 10
23.0
 20
24.0
 30
0.0
 11
112.0
 21
24.0
 31
0.0
  0
TEXT
  8
0
  6
CONTINUOUS
 62
     2
 10
23.0
 20
25.0
 30
0.3
 40
3.0
  1
２）計器入力，電源端子の（＋）記号は，交流の場合関係ありません。
 50
0.0
 41
0.9
 51
0.0
  7
KANJI2
  0
LINE
  8
0
  6
CONTINUOUS
 62
     2
 10
20.0
 20
29.0
 30
0.0
 11
111.0
 21
29.0
 31
0.0
  0
TEXT
  8
0
  6
CONTINUOUS
 62
     2
 10
18.475465285
 20
176.75
 30
0.3
 40
3.0
  1
指針（黒棒）
 50
0.0
 41
0.6
 51
0.0
  7
KANJI0
  0
LINE
  8
0
  6
CONTINUOUS
 62
     2
 10
30.375465285
 20
175.75
 30
0.0
 11
18.475465285
 21
175.75
 31
0.0
  0
LINE
  8
0
  6
CONTINUOUS
 62
     2
 10
35.0
 20
146.25
 30
0.0
 11
33.232233047
 21
144.482233047
 31
0.0
  0
LINE
  8
0
  6
CONTINUOUS
 62
     2
 10
35.0
 20
146.25
 30
0.0
 11
34.352952387
 21
143.835185434
 31
0.0
  0
LINE
  8
0
  6
CONTINUOUS
 62
     2
 10
35.0
 20
146.25
 30
0.0
 11
22.298294078
 21
124.25
 31
0.0
  0
LINE
  8
0
  6
CONTINUOUS
 62
     2
 10
22.298294078
 20
124.25
 30
0.0
 11
12.098294078
 21
124.25
 31
0.0
  0
TEXT
  8
0
  6
CONTINUOUS
 62
     2
 10
12.098294078
 20
125.25
 30
0.3
 40
3.0
  1
遮光フ－ド
 50
0.0
 41
0.6
 51
0.0
  7
KANJI0
  0
TEXT
  8
0
  6
CONTINUOUS
 62
     2
 10
19.0
 20
40.0
 30
0.3
 40
3.0
  1
Ｈ，Ｌ設定用端子構成及び設定部
 50
0.0
 41
0.9
 51
0.0
  7
KANJI2
  0
LINE
  8
0
  6
CONTINUOUS
 62
     2
 10
19.0
 20
39.0
 30
0.0
 11
62.0
 21
39.0
 31
0.0
  0
TEXT
  8
0
  6
CONTINUOUS
 62
     2
 10
37.9
 20
66.25
 30
0.15
 40
1.5
  1
１
 50
0.0
 41
0.9
 51
0.0
  7
KANJI6
  0
TEXT
  8
0
  6
CONTINUOUS
 62
     2
 10
37.9
 20
61.75
 30
0.15
 40
1.5
  1
２
 50
0.0
 41
0.9
 51
0.0
  7
KANJI6
  0
TEXT
  8
0
  6
CONTINUOUS
 62
     2
 10
37.9
 20
57.25
 30
0.15
 40
1.5
  1
３
 50
0.0
 41
0.9
 51
0.0
  7
KANJI6
  0
TEXT
  8
0
  6
CONTINUOUS
 62
     2
 10
37.9
 20
52.75
 30
0.15
 40
1.5
  1
４
 50
0.0
 41
0.9
 51
0.0
  7
KANJI6
  0
TEXT
  8
0
  6
CONTINUOUS
 62
     2
 10
37.9
 20
48.25
 30
0.15
 40
1.5
  1
５
 50
0.0
 41
0.9
 51
0.0
  7
KANJI6
  0
TEXT
  8
0
  6
CONTINUOUS
 62
     2
 10
40.9
 20
66.25
 30
0.15
 40
1.5
  1
９
 50
0.0
 41
0.9
 51
0.0
  7
KANJI6
  0
TEXT
  8
0
  6
CONTINUOUS
 62
     2
 10
40.9
 20
61.75
 30
0.15
 40
1.5
  1
１０
 50
0.0
 41
0.45
 51
0.0
  7
KANJI7
  0
TEXT
  8
0
  6
CONTINUOUS
 62
     2
 10
40.9
 20
57.25
 30
0.15
 40
1.5
  1
６
 50
0.0
 41
0.9
 51
0.0
  7
KANJI6
  0
TEXT
  8
0
  6
CONTINUOUS
 62
     2
 10
40.9
 20
52.75
 30
0.15
 40
1.5
  1
７
 50
0.0
 41
0.9
 51
0.0
  7
KANJI6
  0
TEXT
  8
0
  6
CONTINUOUS
 62
     2
 10
40.9
 20
48.25
 30
0.15
 40
1.5
  1
８
 50
0.0
 41
0.9
 51
0.0
  7
KANJI6
  0
TEXT
  8
0
  6
CONTINUOUS
 62
     3
 10
232.5
 20
17.0
 30
0.6
 40
6.0
  1
ＭＳ－１１００２Ａ
 50
0.0
 41
0.9
 51
0.0
  7
KANJI8
  0
LINE
  8
0
  6
CONTINUOUS
 62
     1
 10
15.0
 20
169.125
 30
0.0
 11
15.0
 21
130.875
 31
0.0
  0
ARC
  8
0
  6
CONTINUOUS
 62
     1
 10
16.625
 20
169.125
 30
0.0
 40
1.625
 50
90.0
 51
180.0
  0
ARC
  8
0
  6
CONTINUOUS
 62
     1
 10
63.375
 20
169.125
 30
0.0
 40
1.625
 50
0.0
 51
90.0
  0
LINE
  8
0
  6
CONTINUOUS
 62
     1
 10
63.375
 20
170.75
 30
0.0
 11
16.625
 21
170.75
 31
0.0
  0
LINE
  8
0
  6
CONTINUOUS
 62
     1
 10
65.0
 20
130.875
 30
0.0
 11
65.0
 21
169.125
 31
0.0
  0
ARC
  8
0
  6
CONTINUOUS
 62
     2
 10
17.25
 20
168.5
 30
0.0
 40
0.5
 50
90.0
 51
180.0
  0
LINE
  8
0
  6
CONTINUOUS
 62
     2
 10
16.75
 20
168.5
 30
0.0
 11
16.75
 21
144.25
 31
0.0
  0
LINE
  8
0
  6
CONTINUOUS
 62
     2
 10
16.75
 20
144.25
 30
0.0
 11
63.25
 21
144.25
 31
0.0
  0
ARC
  8
0
  6
CONTINUOUS
 62
     2
 10
62.75
 20
168.5
 30
0.0
 40
0.5
 50
0.0
 51
90.0
  0
LINE
  8
0
  6
CONTINUOUS
 62
     2
 10
63.25
 20
144.25
 30
0.0
 11
63.25
 21
168.5
 31
0.0
  0
LINE
  8
0
  6
CONTINUOUS
 62
     2
 10
62.75
 20
169.0
 30
0.0
 11
17.25
 21
169.0
 31
0.0
  0
LINE
  8
0
  6
CONTINUOUS
 62
     1
 10
16.625
 20
129.25
 30
0.0
 11
63.375
 21
129.25
 31
0.0
  0
ARC
  8
0
  6
CONTINUOUS
 62
     1
 10
63.375
 20
130.875
 30
0.0
 40
1.625
 50
270.0
 51
0.0
  0
ARC
  8
0
  6
CONTINUOUS
 62
     1
 10
16.625
 20
130.875
 30
0.0
 40
1.625
 50
180.0
 51
270.0
  0
TEXT
  8
0
  6
CONTINUOUS
 62
     2
 10
236.0
 20
43.0
 30
0.4
 40
4.0
  1
ＭＰＣ－１０（ＨＬ，Ｈ，Ｌ設定）
 50
0.0
 41
0.9
 51
0.0
  7
KANJI9
  0
TEXT
  8
0
  6
CONTINUOUS
 62
     2
 10
236.0
 20
33.0
 30
0.4
 40
4.0
  1
無接点式メ－タリレ－外形図
 50
0.0
 41
0.9
 51
0.0
  7
KANJI9
  0
LINE
  8
0
  6
CONTINUOUS
 62
     2
 10
13.0
 20
150.0
 30
0.0
 11
66.0
 21
150.0
 31
0.0
  0
LINE
  8
0
  6
LTYPE1
 62
     2
 10
40.0
 20
175.0
 30
0.0
 11
40.0
 21
127.0
 31
0.0
  0
LINE
  8
0
  6
LTYPE1
 62
     2
 10
40.0
 20
104.0
 30
0.0
 11
40.0
 21
80.0
 31
0.0
  0
LINE
  8
0
  6
CONTINUOUS
 62
     2
 10
84.15
 20
169.0
 30
0.0
 11
84.0
 21
169.0
 31
0.0
  0
ARC
  8
0
  6
CONTINUOUS
 62
     2
 10
90.9
 20
134.75
 30
0.0
 40
7.0
 50
165.068582822
 51
194.931417178
  0
LINE
  8
0
  6
CONTINUOUS
 62
     2
 10
140.0
 20
149.825
 30
0.0
 11
140.0
 21
146.175
 31
0.0
  0
LINE
  8
0
  6
LTYPE1
 62
     2
 10
82.15
 20
141.5
 30
0.0
 11
86.15
 21
141.5
 31
0.0
  0
LINE
  8
0
  6
LTYPE1
 62
     2
 10
82.15
 20
134.75
 30
0.0
 11
86.15
 21
134.75
 31
0.0
  0
LINE
  8
0
  6
CONTINUOUS
 62
     2
 10
139.0
 20
149.25
 30
0.0
 11
139.0
 21
146.75
 31
0.0
  0
LINE
  8
0
  6
CONTINUOUS
 62
     2
 10
139.0
 20
149.25
 30
0.0
 11
139.0
 21
149.375
 31
0.0
  0
LINE
  8
0
  6
CONTINUOUS
 62
     2
 10
139.0
 20
149.375
 30
0.0
 11
139.544766293
 21
149.375
 31
0.0
  0
ARC
  8
0
  6
CONTINUOUS
 62
     2
 10
139.381682295
 20
148.902344089
 30
0.0
 40
0.5
 50
34.773912785
 51
70.963647363
  0
LINE
  8
0
  6
CONTINUOUS
 62
     2
 10
139.0
 20
146.75
 30
0.0
 11
139.0
 21
146.625
 31
0.0
  0
LINE
  8
0
  6
CONTINUOUS
 62
     2
 10
139.0
 20
146.625
 30
0.0
 11
139.544766293
 21
146.625
 31
0.0
  0
ARC
  8
0
  6
CONTINUOUS
 62
     2
 10
139.381682295
 20
147.097655911
 30
0.0
 40
0.5
 50
289.036352637
 51
325.226087215
  0
LINE
  8
0
  6
CONTINUOUS
 62
     2
 10
140.0
 20
148.2
 30
0.0
 11
139.45
 21
148.2
 31
0.0
  0
LINE
  8
0
  6
CONTINUOUS
 62
     2
 10
139.45
 20
148.2
 30
0.0
 11
139.45
 21
147.8
 31
0.0
  0
LINE
  8
0
  6
CONTINUOUS
 62
     2
 10
139.45
 20
147.8
 30
0.0
 11
140.0
 21
147.8
 31
0.0
  0
ARC
  8
0
  6
CONTINUOUS
 62
     2
 10
136.5
 20
148.0
 30
0.0
 40
3.5
 50
3.270487923
 51
19.833603907
  0
ARC
  8
0
  6
CONTINUOUS
 62
     2
 10
136.5
 20
148.0
 30
0.0
 40
3.5
 50
340.166396093
 51
356.729512077
  0
LINE
  8
0
  6
LTYPE2
 62
     2
 10
143.75
 20
148.0
 30
0.0
 11
140.25
 21
148.0
 31
0.0
  0
LINE
  8
0
  6
LTYPE2
 62
     2
 10
89.2
 20
164.0
 30
0.0
 11
96.6
 21
164.0
 31
0.0
  0
LINE
  8
0
  6
CONTINUOUS
 62
     2
 10
90.0
 20
165.95
 30
0.0
 11
90.25
 21
165.95
 31
0.0
  0
LINE
  8
0
  6
CONTINUOUS
 62
     2
 10
90.25
 20
161.95
 30
0.0
 11
90.0
 21
161.95
 31
0.0
  0
LINE
  8
0
  6
CONTINUOUS
 62
     2
 10
90.25
 20
165.95
 30
0.0
 11
90.25
 21
161.95
 31
0.0
  0
LINE
  8
0
  6
CONTINUOUS
 62
     2
 10
92.6
 20
165.525
 30
0.0
 11
92.8
 21
165.325
 31
0.0
  0
LINE
  8
0
  6
CONTINUOUS
 62
     2
 10
92.575
 20
164.7
 30
0.0
 11
92.775
 21
164.9
 31
0.0
  0
LINE
  8
0
  6
CONTINUOUS
 62
     2
 10
92.775
 20
164.5
 30
0.0
 11
92.575
 21
164.7
 31
0.0
  0
LINE
  8
0
  6
CONTINUOUS
 62
     2
 10
91.6
 20
165.525
 30
0.0
 11
92.6
 21
165.525
 31
0.0
  0
LINE
  8
0
  6
CONTINUOUS
 62
     2
 10
91.6
 20
164.7
 30
0.0
 11
92.575
 21
164.7
 31
0.0
  0
LINE
  8
0
  6
CONTINUOUS
 62
     2
 10
92.6
 20
162.425
 30
0.0
 11
92.8
 21
162.625
 31
0.0
  0
LINE
  8
0
  6
CONTINUOUS
 62
     2
 10
92.6
 20
162.425
 30
0.0
 11
91.6
 21
162.425
 31
0.0
  0
LINE
  8
0
  6
CONTINUOUS
 62
     2
 10
91.6
 20
162.425
 30
0.0
 11
91.6
 21
165.525
 31
0.0
  0
LINE
  8
0
  6
CONTINUOUS
 62
     2
 10
92.8
 20
165.325
 30
0.0
 11
92.8
 21
162.625
 31
0.0
  0
LINE
  8
0
  6
CONTINUOUS
 62
     2
 10
92.8
 20
164.725
 30
0.0
 11
95.25
 21
164.725
 31
0.0
  0
LINE
  8
0
  6
CONTINUOUS
 62
     2
 10
95.23
 20
164.55
 30
0.0
 11
92.8
 21
164.55
 31
0.0
  0
POLYLINE
  8
0
  6
CONTINUOUS
 62
     2
 66
     1
  0
VERTEX
  8
0
  6
CONTINUOUS
 62
     2
 10
91.6
 20
165.525
 30
0.0
  0
VERTEX
  8
0
  6
CONTINUOUS
 62
     2
 10
91.3
 20
165.825
 30
0.0
  0
VERTEX
  8
0
  6
CONTINUOUS
 62
     2
 10
91.3
 20
162.125
 30
0.0
  0
SEQEND
  0
LINE
  8
0
  6
CONTINUOUS
 62
     2
 10
91.6
 20
162.425
 30
0.0
 11
91.3
 21
162.125
 31
0.0
  0
LINE
  8
0
  6
CONTINUOUS
 62
     2
 10
91.3
 20
163.45
 30
0.0
 11
90.25
 21
163.45
 31
0.0
  0
LINE
  8
0
  6
CONTINUOUS
 62
     2
 10
90.25
 20
164.7
 30
0.0
 11
91.3
 21
164.7
 31
0.0
  0
LINE
  8
0
  6
CONTINUOUS
 62
     2
 10
91.3
 20
164.55
 30
0.0
 11
90.25
 21
164.55
 31
0.0
  0
LINE
  8
0
  6
CONTINUOUS
 62
     2
 10
95.25
 20
164.725
 30
0.0
 11
95.25
 21
163.275
 31
0.0
  0
LINE
  8
0
  6
CONTINUOUS
 62
     2
 10
95.25
 20
163.275
 30
0.0
 11
92.8
 21
163.275
 31
0.0
  0
LINE
  8
0
  6
CONTINUOUS
 62
     2
 10
92.8
 20
163.45
 30
0.0
 11
95.25
 21
163.45
 31
0.0
  0
LINE
  8
0
  6
CONTINUOUS
 62
     2
 10
92.585
 20
163.275
 30
0.0
 11
91.6
 21
163.275
 31
0.0
  0
LINE
  8
0
  6
CONTINUOUS
 62
     2
 10
90.25
 20
163.275
 30
0.0
 11
91.3
 21
163.275
 31
0.0
  0
LINE
  8
0
  6
CONTINUOUS
 62
     2
 10
92.585
 20
163.275
 30
0.0
 11
92.785
 21
163.475
 31
0.0
  0
LINE
  8
0
  6
CONTINUOUS
 62
     2
 10
92.785
 20
163.075
 30
0.0
 11
92.585
 21
163.275
 31
0.0
  0
LINE
  8
0
  6
LTYPE2
 62
     2
 10
89.2
 20
132.0
 30
0.0
 11
96.6
 21
132.0
 31
0.0
  0
LINE
  8
0
  6
CONTINUOUS
 62
     2
 10
90.0
 20
133.95
 30
0.0
 11
90.25
 21
133.95
 31
0.0
  0
LINE
  8
0
  6
CONTINUOUS
 62
     2
 10
90.25
 20
129.95
 30
0.0
 11
90.0
 21
129.95
 31
0.0
  0
LINE
  8
0
  6
CONTINUOUS
 62
     2
 10
90.25
 20
133.95
 30
0.0
 11
90.25
 21
129.95
 31
0.0
  0
LINE
  8
0
  6
CONTINUOUS
 62
     2
 10
92.6
 20
133.525
 30
0.0
 11
92.8
 21
133.325
 31
0.0
  0
LINE
  8
0
  6
CONTINUOUS
 62
     2
 10
92.575
 20
132.7
 30
0.0
 11
92.775
 21
132.9
 31
0.0
  0
LINE
  8
0
  6
CONTINUOUS
 62
     2
 10
92.775
 20
132.5
 30
0.0
 11
92.575
 21
132.7
 31
0.0
  0
LINE
  8
0
  6
CONTINUOUS
 62
     2
 10
91.6
 20
133.525
 30
0.0
 11
92.6
 21
133.525
 31
0.0
  0
LINE
  8
0
  6
CONTINUOUS
 62
     2
 10
91.6
 20
132.7
 30
0.0
 11
92.575
 21
132.7
 31
0.0
  0
LINE
  8
0
  6
CONTINUOUS
 62
     2
 10
92.6
 20
130.425
 30
0.0
 11
92.8
 21
130.625
 31
0.0
  0
LINE
  8
0
  6
CONTINUOUS
 62
     2
 10
92.6
 20
130.425
 30
0.0
 11
91.6
 21
130.425
 31
0.0
  0
LINE
  8
0
  6
CONTINUOUS
 62
     2
 10
91.6
 20
130.425
 30
0.0
 11
91.6
 21
133.525
 31
0.0
  0
LINE
  8
0
  6
CONTINUOUS
 62
     2
 10
92.8
 20
133.325
 30
0.0
 11
92.8
 21
130.625
 31
0.0
  0
LINE
  8
0
  6
CONTINUOUS
 62
     2
 10
92.8
 20
132.725
 30
0.0
 11
95.25
 21
132.725
 31
0.0
  0
LINE
  8
0
  6
CONTINUOUS
 62
     2
 10
95.23
 20
132.55
 30
0.0
 11
92.8
 21
132.55
 31
0.0
  0
LINE
  8
0
  6
CONTINUOUS
 62
     2
 10
91.6
 20
133.525
 30
0.0
 11
91.3
 21
133.825
 31
0.0
  0
LINE
  8
0
  6
CONTINUOUS
 62
     2
 10
91.3
 20
133.825
 30
0.0
 11
91.3
 21
130.125
 31
0.0
  0
LINE
  8
0
  6
CONTINUOUS
 62
     2
 10
91.6
 20
130.425
 30
0.0
 11
91.3
 21
130.125
 31
0.0
  0
LINE
  8
0
  6
CONTINUOUS
 62
     2
 10
91.3
 20
131.45
 30
0.0
 11
90.25
 21
131.45
 31
0.0
  0
LINE
  8
0
  6
CONTINUOUS
 62
     2
 10
90.25
 20
132.7
 30
0.0
 11
91.3
 21
132.7
 31
0.0
  0
LINE
  8
0
  6
CONTINUOUS
 62
     2
 10
91.3
 20
132.55
 30
0.0
 11
90.25
 21
132.55
 31
0.0
  0
LINE
  8
0
  6
CONTINUOUS
 62
     2
 10
95.25
 20
132.725
 30
0.0
 11
95.25
 21
131.275
 31
0.0
  0
LINE
  8
0
  6
CONTINUOUS
 62
     2
 10
95.25
 20
131.275
 30
0.0
 11
92.8
 21
131.275
 31
0.0
  0
LINE
  8
0
  6
CONTINUOUS
 62
     2
 10
92.8
 20
131.45
 30
0.0
 11
95.25
 21
131.45
 31
0.0
  0
LINE
  8
0
  6
CONTINUOUS
 62
     2
 10
92.585
 20
131.275
 30
0.0
 11
91.6
 21
131.275
 31
0.0
  0
LINE
  8
0
  6
CONTINUOUS
 62
     2
 10
90.25
 20
131.275
 30
0.0
 11
91.3
 21
131.275
 31
0.0
  0
LINE
  8
0
  6
CONTINUOUS
 62
     2
 10
92.585
 20
131.275
 30
0.0
 11
92.785
 21
131.475
 31
0.0
  0
LINE
  8
0
  6
CONTINUOUS
 62
     2
 10
92.785
 20
131.075
 30
0.0
 11
92.585
 21
131.275
 31
0.0
  0
LINE
  8
0
  6
CONTINUOUS
 62
     2
 10
100.0
 20
164.197916667
 30
0.0
 11
99.352952387
 21
161.783102101
 31
0.0
  0
LINE
  8
0
  6
CONTINUOUS
 62
     2
 10
100.0
 20
164.197916667
 30
0.0
 11
100.647047613
 21
161.783102101
 31
0.0
  0
LINE
  8
0
  6
CONTINUOUS
 62
     2
 10
100.0
 20
164.197916667
 30
0.0
 11
100.0
 21
131.802083333
 31
0.0
  0
LINE
  8
0
  6
CONTINUOUS
 62
     2
 10
100.0
 20
131.802083333
 30
0.0
 11
100.647047613
 21
134.216897899
 31
0.0
  0
LINE
  8
0
  6
CONTINUOUS
 62
     2
 10
100.0
 20
131.802083333
 30
0.0
 11
99.352952387
 21
134.216897899
 31
0.0
  0
LINE
  8
0
  6
CONTINUOUS
 62
     2
 10
90.0
 20
171.75
 30
0.0
 11
90.0
 21
177.75
 31
0.0
  0
LINE
  8
0
  6
CONTINUOUS
 62
     2
 10
90.0
 20
175.75
 30
0.0
 11
87.585185434
 21
176.397047613
 31
0.0
  0
LINE
  8
0
  6
CONTINUOUS
 62
     2
 10
90.0
 20
175.75
 30
0.0
 11
87.585185434
 21
175.102952387
 31
0.0
  0
LINE
  8
0
  6
CONTINUOUS
 62
     2
 10
90.25
 20
166.95
 30
0.0
 11
90.25
 21
177.75
 31
0.0
  0
LINE
  8
0
  6
CONTINUOUS
 62
     2
 10
95.25
 20
165.725
 30
0.0
 11
95.25
 21
177.75
 31
0.0
  0
TEXT
  8
0
  6
CONTINUOUS
 62
     2
 10
90.8
 20
176.75
 30
0.3
 40
3.0
  1
１０
 50
0.0
 41
0.6
 51
0.0
  7
KANJI0
  0
LINE
  8
0
  6
CONTINUOUS
 62
     2
 10
90.0
 20
177.75
 30
0.0
 11
90.0
 21
182.75
 31
0.0
  0
LINE
  8
0
  6
CONTINUOUS
 62
     2
 10
90.0
 20
180.75
 30
0.0
 11
92.414814566
 21
180.102952387
 31
0.0
  0
LINE
  8
0
  6
CONTINUOUS
 62
     2
 10
90.0
 20
180.75
 30
0.0
 11
92.414814566
 21
181.397047613
 31
0.0
  0
LINE
  8
0
  6
CONTINUOUS
 62
     2
 10
95.0
 20
180.75
 30
0.0
 11
79.0
 21
180.75
 31
0.0
  0
LINE
  8
0
  6
CONTINUOUS
 62
     2
 10
84.0
 20
180.75
 30
0.0
 11
81.585185434
 21
181.397047613
 31
0.0
  0
LINE
  8
0
  6
CONTINUOUS
 62
     2
 10
84.0
 20
180.75
 30
0.0
 11
81.585185434
 21
180.102952387
 31
0.0
  0
LINE
  8
0
  6
CONTINUOUS
 62
     2
 10
84.0
 20
170.0
 30
0.0
 11
84.0
 21
182.75
 31
0.0
  0
TEXT
  8
0
  6
CONTINUOUS
 62
     2
 10
85.05
 20
181.75
 30
0.3
 40
3.0
  1
１２
 50
0.0
 41
0.6
 51
0.0
  7
KANJI0
  0
LINE
  8
0
  6
CONTINUOUS
 62
     2
 10
90.0
 20
180.75
 30
0.0
 11
92.414814566
 21
180.102952387
 31
0.0
  0
LINE
  8
0
  6
CONTINUOUS
 62
     2
 10
90.0
 20
180.75
 30
0.0
 11
92.414814566
 21
181.397047613
 31
0.0
  0
POLYLINE
  8
0
  6
CONTINUOUS
 62
     2
 66
     1
  0
VERTEX
  8
0
  6
CONTINUOUS
 62
     2
 10
90.0
 20
180.75
 30
0.0
  0
VERTEX
  8
0
  6
CONTINUOUS
 62
     2
 10
140.0
 20
180.75
 30
0.0
  0
VERTEX
  8
0
  6
CONTINUOUS
 62
     2
 10
137.585185434
 20
181.397047613
 30
0.0
  0
SEQEND
  0
LINE
  8
0
  6
CONTINUOUS
 62
     2
 10
140.0
 20
180.75
 30
0.0
 11
137.585185434
 21
180.102952387
 31
0.0
  0
LINE
  8
0
  6
CONTINUOUS
 62
     2
 10
140.0
 20
164.529304445
 30
0.0
 11
140.0
 21
182.75
 31
0.0
  0
TEXT
  8
0
  6
CONTINUOUS
 62
     2
 10
112.0
 20
181.75
 30
0.3
 40
3.0
  1
１００
 50
0.0
 41
0.6
 51
0.0
  7
KANJI0
  0
LINE
  8
0
  6
CONTINUOUS
 62
     2
 10
140.0
 20
180.75
 30
0.0
 11
137.585185434
 21
181.397047613
 31
0.0
  0
LINE
  8
0
  6
CONTINUOUS
 62
     2
 10
140.0
 20
180.75
 30
0.0
 11
137.585185434
 21
180.102952387
 31
0.0
  0
LINE
  8
0
  6
CONTINUOUS
 62
     2
 10
95.25
 20
132.0
 30
0.0
 11
95.897047613
 21
129.585185434
 31
0.0
  0
LINE
  8
0
  6
CONTINUOUS
 62
     2
 10
95.25
 20
132.0
 30
0.0
 11
97.017766953
 21
130.232233047
 31
0.0
  0
LINE
  8
0
  6
CONTINUOUS
 62
     2
 10
95.25
 20
132.0
 30
0.0
 11
99.724464586
 21
124.25
 31
0.0
  0
LINE
  8
0
  6
CONTINUOUS
 62
     2
 10
80.0
 20
141.25
 30
0.0
 11
80.0
 21
136.75
 31
0.0
  0
POLYLINE
  8
0
  6
CONTINUOUS
 62
     2
 66
     1
  0
VERTEX
  8
0
  6
CONTINUOUS
 62
     2
 10
83.25
 20
141.5
 30
0.0
  0
VERTEX
  8
0
  6
CONTINUOUS
 62
     2
 10
83.25
 20
136.5
 30
0.0
  0
VERTEX
  8
0
  6
CONTINUOUS
 62
     2
 10
80.0
 20
136.75
 30
0.0
  0
SEQEND
  0
LINE
  8
0
  6
CONTINUOUS
 62
     2
 10
80.0
 20
141.25
 30
0.0
 11
83.25
 21
141.5
 31
0.0
  0
POLYLINE
  8
0
  6
CONTINUOUS
 62
     2
 66
     1
  0
VERTEX
  8
0
  6
CONTINUOUS
 62
     2
 10
83.25
 20
141.5
 30
0.0
  0
VERTEX
  8
0
  6
CONTINUOUS
 62
     2
 10
83.5
 20
141.25
 30
0.0
  0
VERTEX
  8
0
  6
CONTINUOUS
 62
     2
 10
83.5
 20
136.75
 30
0.0
  0
VERTEX
  8
0
  6
CONTINUOUS
 62
     2
 10
83.25
 20
136.5
 30
0.0
  0
SEQEND
  0
LINE
  8
0
  6
CONTINUOUS
 62
     2
 10
82.5
 20
138.597367041
 30
0.0
 11
80.0
 21
138.662360369
 31
0.0
  0
LINE
  8
0
  6
CONTINUOUS
 62
     2
 10
82.5
 20
138.115008209
 30
0.0
 11
80.0
 21
138.180143345
 31
0.0
  0
LINE
  8
0
  6
CONTINUOUS
 62
     2
 10
82.5
 20
137.417627468
 30
0.0
 11
80.0
 21
137.595334351
 31
0.0
  0
LINE
  8
0
  6
CONTINUOUS
 62
     2
 10
82.5
 20
137.064516296
 30
0.0
 11
80.0
 21
137.242326989
 31
0.0
  0
LINE
  8
0
  6
CONTINUOUS
 62
     2
 10
82.5
 20
136.661883337
 30
0.0
 11
80.0
 21
136.904687358
 31
0.0
  0
POLYLINE
  8
0
  6
CONTINUOUS
 62
     2
 66
     1
  0
VERTEX
  8
0
  6
CONTINUOUS
 62
     2
 10
82.5
 20
138.115008209
 30
0.0
 42
0.02103597
  0
VERTEX
  8
0
  6
CONTINUOUS
 62
     2
 10
82.521788936
 20
138.115925287
 30
0.0
 42
0.021055715
  0
VERTEX
  8
0
  6
CONTINUOUS
 62
     2
 10
82.543412044
 20
138.118669541
 30
0.0
 42
0.021097556
  0
VERTEX
  8
0
  6
CONTINUOUS
 62
     2
 10
82.564704761
 20
138.123220085
 30
0.0
 42
0.021160478
  0
VERTEX
  8
0
  6
CONTINUOUS
 62
     2
 10
82.585505036
 20
138.129542288
 30
0.0
 42
0.021242925
  0
VERTEX
  8
0
  6
CONTINUOUS
 62
     2
 10
82.605654565
 20
138.137588033
 30
0.0
 42
0.02134281
  0
VERTEX
  8
0
  6
CONTINUOUS
 62
     2
 10
82.625
 20
138.147296087
 30
0.0
 42
0.021457536
  0
VERTEX
  8
0
  6
CONTINUOUS
 62
     2
 10
82.643394109
 20
138.158592567
 30
0.0
 42
0.021584022
  0
VERTEX
  8
0
  6
CONTINUOUS
 62
     2
 10
82.660696902
 20
138.171391499
 30
0.0
 42
0.021718748
  0
VERTEX
  8
0
  6
CONTINUOUS
 62
     2
 10
82.676776695
 20
138.185595475
 30
0.0
 42
0.021857823
  0
VERTEX
  8
0
  6
CONTINUOUS
 62
     2
 10
82.691511111
 20
138.201096396
 30
0.0
 42
0.021997074
  0
VERTEX
  8
0
  6
CONTINUOUS
 62
     2
 10
82.704788011
 20
138.217776288
 30
0.0
 42
0.022132162
  0
VERTEX
  8
0
  6
CONTINUOUS
 62
     2
 10
82.716506351
 20
138.235508209
 30
0.0
 42
0.022258722
  0
VERTEX
  8
0
  6
CONTINUOUS
 62
     2
 10
82.726576947
 20
138.254157208
 30
0.0
 42
0.022372526
  0
VERTEX
  8
0
  6
CONTINUOUS
 62
     2
 10
82.734923155
 20
138.273581355
 30
0.0
 42
0.022469651
  0
VERTEX
  8
0
  6
CONTINUOUS
 62
     2
 10
82.741481457
 20
138.29363282
 30
0.0
 42
0.022546665
  0
VERTEX
  8
0
  6
CONTINUOUS
 62
     2
 10
82.746201938
 20
138.314158999
 30
0.0
 42
0.022600784
  0
VERTEX
  8
0
  6
CONTINUOUS
 62
     2
 10
82.749048675
 20
138.335003675
 30
0.0
 42
0.022630022
  0
VERTEX
  8
0
  6
CONTINUOUS
 62
     2
 10
82.75
 20
138.356008209
 30
0.0
 42
0.022633296
  0
VERTEX
  8
0
  6
CONTINUOUS
 62
     2
 10
82.749048675
 20
138.377012743
 30
0.0
 42
0.022610484
  0
VERTEX
  8
0
  6
CONTINUOUS
 62
     2
 10
82.746201938
 20
138.39785742
 30
0.0
 42
0.022562433
  0
VERTEX
  8
0
  6
CONTINUOUS
 62
     2
 10
82.741481457
 20
138.418383599
 30
0.0
 42
0.022490911
  0
VERTEX
  8
0
  6
CONTINUOUS
 62
     2
 10
82.734923155
 20
138.438435064
 30
0.0
 42
0.022398514
  0
VERTEX
  8
0
  6
CONTINUOUS
 62
     2
 10
82.726576947
 20
138.457859211
 30
0.0
 42
0.022288529
  0
VERTEX
  8
0
  6
CONTINUOUS
 62
     2
 10
82.716506351
 20
138.476508209
 30
0.0
 42
0.02216477
  0
VERTEX
  8
0
  6
CONTINUOUS
 62
     2
 10
82.704788011
 20
138.494240131
 30
0.0
 42
0.022031407
  0
VERTEX
  8
0
  6
CONTINUOUS
 62
     2
 10
82.691511111
 20
138.510920023
 30
0.0
 42
0.021892787
  0
VERTEX
  8
0
  6
CONTINUOUS
 62
     2
 10
82.676776695
 20
138.526420944
 30
0.0
 42
0.021753268
  0
VERTEX
  8
0
  6
CONTINUOUS
 62
     2
 10
82.660696902
 20
138.54062492
 30
0.0
 42
0.021617077
  0
VERTEX
  8
0
  6
CONTINUOUS
 62
     2
 10
82.643394109
 20
138.553423852
 30
0.0
 42
0.021488186
  0
VERTEX
  8
0
  6
CONTINUOUS
 62
     2
 10
82.625
 20
138.564720332
 30
0.0
 42
0.021370213
  0
VERTEX
  8
0
  6
CONTINUOUS
 62
     2
 10
82.605654565
 20
138.574428386
 30
0.0
 42
0.021266354
  0
VERTEX
  8
0
  6
CONTINUOUS
 62
     2
 10
82.585505036
 20
138.582474131
 30
0.0
 42
0.021179332
  0
VERTEX
  8
0
  6
CONTINUOUS
 62
     2
 10
82.564704761
 20
138.588796334
 30
0.0
 42
0.021111362
  0
VERTEX
  8
0
  6
CONTINUOUS
 62
     2
 10
82.543412044
 20
138.593346878
 30
0.0
 42
0.021064134
  0
VERTEX
  8
0
  6
CONTINUOUS
 62
     2
 10
82.521788936
 20
138.596091132
 30
0.0
 42
0.0210388
  0
VERTEX
  8
0
  6
CONTINUOUS
 62
     2
 10
82.5
 20
138.597008209
 30
0.0
  0
SEQEND
  8
0
  6
CONTINUOUS
 62
     2
  0
POLYLINE
  8
0
  6
CONTINUOUS
 62
     2
 66
     1
  0
VERTEX
  8
0
  6
CONTINUOUS
 62
     2
 10
82.5
 20
137.064516296
 30
0.0
 42
0.015412332
  0
VERTEX
  8
0
  6
CONTINUOUS
 62
     2
 10
82.521788936
 20
137.065187931
 30
0.0
 42
0.015515584
  0
VERTEX
  8
0
  6
CONTINUOUS
 62
     2
 10
82.543412044
 20
137.067197727
 30
0.0
 42
0.015738372
  0
VERTEX
  8
0
  6
CONTINUOUS
 62
     2
 10
82.564704761
 20
137.070530387
 30
0.0
 42
0.016083955
  0
VERTEX
  8
0
  6
CONTINUOUS
 62
     2
 10
82.585505036
 20
137.075160548
 30
0.0
 42
0.016557065
  0
VERTEX
  8
0
  6
CONTINUOUS
 62
     2
 10
82.605654565
 20
137.081052971
 30
0.0
 42
0.017163493
  0
VERTEX
  8
0
  6
CONTINUOUS
 62
     2
 10
82.625
 20
137.088162812
 30
0.0
 42
0.017909379
  0
VERTEX
  8
0
  6
CONTINUOUS
 62
     2
 10
82.643394109
 20
137.09643596
 30
0.0
 42
0.018800064
  0
VERTEX
  8
0
  6
CONTINUOUS
 62
     2
 10
82.660696902
 20
137.105809451
 30
0.0
 42
0.019838316
  0
VERTEX
  8
0
  6
CONTINUOUS
 62
     2
 10
82.676776695
 20
137.116211949
 30
0.0
 42
0.021021724
  0
VERTEX
  8
0
  6
CONTINUOUS
 62
     2
 10
82.691511111
 20
137.127564283
 30
0.0
 42
0.022339115
  0
VERTEX
  8
0
  6
CONTINUOUS
 62
     2
 10
82.704788011
 20
137.139780055
 30
0.0
 42
0.023766055
  0
VERTEX
  8
0
  6
CONTINUOUS
 62
     2
 10
82.716506351
 20
137.152766296
 30
0.0
 42
0.025259945
  0
VERTEX
  8
0
  6
CONTINUOUS
 62
     2
 10
82.726576947
 20
137.166424172
 30
0.0
 42
0.026756003
  0
VERTEX
  8
0
  6
CONTINUOUS
 62
     2
 10
82.734923155
 20
137.18064974
 30
0.0
 42
0.028166363
  0
VERTEX
  8
0
  6
CONTINUOUS
 62
     2
 10
82.741481457
 20
137.195334734
 30
0.0
 42
0.029385072
  0
VERTEX
  8
0
  6
CONTINUOUS
 62
     2
 10
82.746201938
 20
137.210367392
 30
0.0
 42
0.030301045
  0
VERTEX
  8
0
  6
CONTINUOUS
 62
     2
 10
82.749048675
 20
137.225633307
 30
0.0
 42
0.030818133
  0
VERTEX
  8
0
  6
CONTINUOUS
 62
     2
 10
82.75
 20
137.241016296
 30
0.0
 42
0.030877053
  0
VERTEX
  8
0
  6
CONTINUOUS
 62
     2
 10
82.749048675
 20
137.256399284
 30
0.0
 42
0.030470815
  0
VERTEX
  8
0
  6
CONTINUOUS
 62
     2
 10
82.746201938
 20
137.271665199
 30
0.0
 42
0.029646632
  0
VERTEX
  8
0
  6
CONTINUOUS
 62
     2
 10
82.741481457
 20
137.286697857
 30
0.0
 42
0.028493394
  0
VERTEX
  8
0
  6
CONTINUOUS
 62
     2
 10
82.734923155
 20
137.301382851
 30
0.0
 42
0.027120527
  0
VERTEX
  8
0
  6
CONTINUOUS
 62
     2
 10
82.726576947
 20
137.315608419
 30
0.0
 42
0.025636807
  0
VERTEX
  8
0
  6
CONTINUOUS
 62
     2
 10
82.716506351
 20
137.329266296
 30
0.0
 42
0.02413538
  0
VERTEX
  8
0
  6
CONTINUOUS
 62
     2
 10
82.704788011
 20
137.342252537
 30
0.0
 42
0.022686896
  0
VERTEX
  8
0
  6
CONTINUOUS
 62
     2
 10
82.691511111
 20
137.354468309
 30
0.0
 42
0.021339201
  0
VERTEX
  8
0
  6
CONTINUOUS
 62
     2
 10
82.676776695
 20
137.365820643
 30
0.0
 42
0.020120814
  0
VERTEX
  8
0
  6
CONTINUOUS
 62
     2
 10
82.660696902
 20
137.37622314
 30
0.0
 42
0.019045774
  0
VERTEX
  8
0
  6
CONTINUOUS
 62
     2
 10
82.643394109
 20
137.385596631
 30
0.0
 42
0.018118306
  0
VERTEX
  8
0
  6
CONTINUOUS
 62
     2
 10
82.625
 20
137.393869779
 30
0.0
 42
0.017336657
  0
VERTEX
  8
0
  6
CONTINUOUS
 62
     2
 10
82.605654565
 20
137.40097962
 30
0.0
 42
0.016695933
  0
VERTEX
  8
0
  6
CONTINUOUS
 62
     2
 10
82.585505036
 20
137.406872043
 30
0.0
 42
0.016190065
  0
VERTEX
  8
0
  6
CONTINUOUS
 62
     2
 10
82.564704761
 20
137.411502204
 30
0.0
 42
0.015813094
  0
VERTEX
  8
0
  6
CONTINUOUS
 62
     2
 10
82.543412044
 20
137.414834864
 30
0.0
 42
0.015559975
  0
VERTEX
  8
0
  6
CONTINUOUS
 62
     2
 10
82.521788936
 20
137.41684466
 30
0.0
 42
0.015427054
  0
VERTEX
  8
0
  6
CONTINUOUS
 62
     2
 10
82.5
 20
137.417516296
 30
0.0
  0
SEQEND
  8
0
  6
CONTINUOUS
 62
     2
  0
POLYLINE
  8
0
  6
CONTINUOUS
 62
     2
 66
     1
  0
VERTEX
  8
0
  6
CONTINUOUS
 62
     2
 10
82.74583255
 20
136.538782112
 30
0.0
 42
0.047646099
  0
VERTEX
  8
0
  6
CONTINUOUS
 62
     2
 10
82.748868835
 20
136.547810201
 30
0.0
 42
0.05177306
  0
VERTEX
  8
0
  6
CONTINUOUS
 62
     2
 10
82.749993003
 20
136.556914216
 30
0.0
 42
0.052570142
  0
VERTEX
  8
0
  6
CONTINUOUS
 62
     2
 10
82.749196418
 20
136.56602421
 30
0.0
 42
0.049705543
  0
VERTEX
  8
0
  6
CONTINUOUS
 62
     2
 10
82.7464852
 20
136.575070188
 30
0.0
 42
0.044306081
  0
VERTEX
  8
0
  6
CONTINUOUS
 62
     2
 10
82.741880179
 20
136.583982648
 30
0.0
 42
0.038019413
  0
VERTEX
  8
0
  6
CONTINUOUS
 62
     2
 10
82.735416738
 20
136.592693113
 30
0.0
 42
0.032051009
  0
VERTEX
  8
0
  6
CONTINUOUS
 62
     2
 10
82.727144537
 20
136.601134659
 30
0.0
 42
0.02694418
  0
VERTEX
  8
0
  6
CONTINUOUS
 62
     2
 10
82.717127132
 20
136.609242427
 30
0.0
 42
0.022799057
  0
VERTEX
  8
0
  6
CONTINUOUS
 62
     2
 10
82.705441489
 20
136.616954124
 30
0.0
 42
0.019517382
  0
VERTEX
  8
0
  6
CONTINUOUS
 62
     2
 10
82.692177393
 20
136.624210499
 30
0.0
 42
0.01694562
  0
VERTEX
  8
0
  6
CONTINUOUS
 62
     2
 10
82.677436753
 20
136.6309558
 30
0.0
 42
0.014936363
  0
VERTEX
  8
0
  6
CONTINUOUS
 62
     2
 10
82.661332827
 20
136.6371382
 30
0.0
 42
0.013367538
  0
VERTEX
  8
0
  6
CONTINUOUS
 62
     2
 10
82.643989344
 20
136.642710199
 30
0.0
 42
0.012144258
  0
VERTEX
  8
0
  6
CONTINUOUS
 62
     2
 10
82.625539557
 20
136.647628987
 30
0.0
 42
0.011194996
  0
VERTEX
  8
0
  6
CONTINUOUS
 62
     2
 10
82.606125222
 20
136.65185677
 30
0.0
 42
0.01046677
  0
VERTEX
  8
0
  6
CONTINUOUS
 62
     2
 10
82.585895502
 20
136.655361066
 30
0.0
 42
0.009920899
  0
VERTEX
  8
0
  6
CONTINUOUS
 62
     2
 10
82.565005827
 20
136.658114951
 30
0.0
 42
0.009529713
  0
VERTEX
  8
0
  6
CONTINUOUS
 62
     2
 10
82.543616698
 20
136.660097266
 30
0.0
 42
0.009274162
  0
VERTEX
  8
0
  6
CONTINUOUS
 62
     2
 10
82.521892451
 20
136.66129278
 30
0.0
 42
0.009142179
  0
VERTEX
  8
0
  6
CONTINUOUS
 62
     2
 10
82.5
 20
136.661692308
 30
0.0
  0
SEQEND
  8
0
  6
CONTINUOUS
 62
     2
  0
LINE
  8
0
  6
CONTINUOUS
 62
     2
 10
82.5
 20
139.402632959
 30
0.0
 11
80.0
 21
139.337639631
 31
0.0
  0
LINE
  8
0
  6
CONTINUOUS
 62
     2
 10
82.5
 20
139.884991791
 30
0.0
 11
80.0
 21
139.819856655
 31
0.0
  0
LINE
  8
0
  6
CONTINUOUS
 62
     2
 10
82.5
 20
140.582372532
 30
0.0
 11
80.0
 21
140.404665649
 31
0.0
  0
LINE
  8
0
  6
CONTINUOUS
 62
     2
 10
82.5
 20
140.935483704
 30
0.0
 11
80.0
 21
140.757673011
 31
0.0
  0
LINE
  8
0
  6
CONTINUOUS
 62
     2
 10
82.5
 20
141.338116663
 30
0.0
 11
80.0
 21
141.095312642
 31
0.0
  0
POLYLINE
  8
0
  6
CONTINUOUS
 62
     2
 66
     1
  0
VERTEX
  8
0
  6
CONTINUOUS
 62
     2
 10
82.5
 20
139.884991791
 30
0.0
 42
-0.02103597
  0
VERTEX
  8
0
  6
CONTINUOUS
 62
     2
 10
82.521788936
 20
139.884074713
 30
0.0
 42
-0.021055715
  0
VERTEX
  8
0
  6
CONTINUOUS
 62
     2
 10
82.543412044
 20
139.881330459
 30
0.0
 42
-0.021097556
  0
VERTEX
  8
0
  6
CONTINUOUS
 62
     2
 10
82.564704761
 20
139.876779915
 30
0.0
 42
-0.021160478
  0
VERTEX
  8
0
  6
CONTINUOUS
 62
     2
 10
82.585505036
 20
139.870457712
 30
0.0
 42
-0.021242925
  0
VERTEX
  8
0
  6
CONTINUOUS
 62
     2
 10
82.605654565
 20
139.862411967
 30
0.0
 42
-0.02134281
  0
VERTEX
  8
0
  6
CONTINUOUS
 62
     2
 10
82.625
 20
139.852703913
 30
0.0
 42
-0.021457536
  0
VERTEX
  8
0
  6
CONTINUOUS
 62
     2
 10
82.643394109
 20
139.841407433
 30
0.0
 42
-0.021584022
  0
VERTEX
  8
0
  6
CONTINUOUS
 62
     2
 10
82.660696902
 20
139.828608501
 30
0.0
 42
-0.021718748
  0
VERTEX
  8
0
  6
CONTINUOUS
 62
     2
 10
82.676776695
 20
139.814404525
 30
0.0
 42
-0.021857823
  0
VERTEX
  8
0
  6
CONTINUOUS
 62
     2
 10
82.691511111
 20
139.798903604
 30
0.0
 42
-0.021997074
  0
VERTEX
  8
0
  6
CONTINUOUS
 62
     2
 10
82.704788011
 20
139.782223712
 30
0.0
 42
-0.022132162
  0
VERTEX
  8
0
  6
CONTINUOUS
 62
     2
 10
82.716506351
 20
139.764491791
 30
0.0
 42
-0.022258722
  0
VERTEX
  8
0
  6
CONTINUOUS
 62
     2
 10
82.726576947
 20
139.745842792
 30
0.0
 42
-0.022372526
  0
VERTEX
  8
0
  6
CONTINUOUS
 62
     2
 10
82.734923155
 20
139.726418645
 30
0.0
 42
-0.022469651
  0
VERTEX
  8
0
  6
CONTINUOUS
 62
     2
 10
82.741481457
 20
139.70636718
 30
0.0
 42
-0.022546665
  0
VERTEX
  8
0
  6
CONTINUOUS
 62
     2
 10
82.746201938
 20
139.685841001
 30
0.0
 42
-0.022600784
  0
VERTEX
  8
0
  6
CONTINUOUS
 62
     2
 10
82.749048675
 20
139.664996325
 30
0.0
 42
-0.022630022
  0
VERTEX
  8
0
  6
CONTINUOUS
 62
     2
 10
82.75
 20
139.643991791
 30
0.0
 42
-0.022633296
  0
VERTEX
  8
0
  6
CONTINUOUS
 62
     2
 10
82.749048675
 20
139.622987257
 30
0.0
 42
-0.022610484
  0
VERTEX
  8
0
  6
CONTINUOUS
 62
     2
 10
82.746201938
 20
139.60214258
 30
0.0
 42
-0.022562433
  0
VERTEX
  8
0
  6
CONTINUOUS
 62
     2
 10
82.741481457
 20
139.581616401
 30
0.0
 42
-0.022490911
  0
VERTEX
  8
0
  6
CONTINUOUS
 62
     2
 10
82.734923155
 20
139.561564936
 30
0.0
 42
-0.022398514
  0
VERTEX
  8
0
  6
CONTINUOUS
 62
     2
 10
82.726576947
 20
139.542140789
 30
0.0
 42
-0.022288529
  0
VERTEX
  8
0
  6
CONTINUOUS
 62
     2
 10
82.716506351
 20
139.523491791
 30
0.0
 42
-0.02216477
  0
VERTEX
  8
0
  6
CONTINUOUS
 62
     2
 10
82.704788011
 20
139.505759869
 30
0.0
 42
-0.022031407
  0
VERTEX
  8
0
  6
CONTINUOUS
 62
     2
 10
82.691511111
 20
139.489079977
 30
0.0
 42
-0.021892787
  0
VERTEX
  8
0
  6
CONTINUOUS
 62
     2
 10
82.676776695
 20
139.473579056
 30
0.0
 42
-0.021753268
  0
VERTEX
  8
0
  6
CONTINUOUS
 62
     2
 10
82.660696902
 20
139.45937508
 30
0.0
 42
-0.021617077
  0
VERTEX
  8
0
  6
CONTINUOUS
 62
     2
 10
82.643394109
 20
139.446576148
 30
0.0
 42
-0.021488186
  0
VERTEX
  8
0
  6
CONTINUOUS
 62
     2
 10
82.625
 20
139.435279668
 30
0.0
 42
-0.021370213
  0
VERTEX
  8
0
  6
CONTINUOUS
 62
     2
 10
82.605654565
 20
139.425571614
 30
0.0
 42
-0.021266354
  0
VERTEX
  8
0
  6
CONTINUOUS
 62
     2
 10
82.585505036
 20
139.417525869
 30
0.0
 42
-0.021179332
  0
VERTEX
  8
0
  6
CONTINUOUS
 62
     2
 10
82.564704761
 20
139.411203666
 30
0.0
 42
-0.021111362
  0
VERTEX
  8
0
  6
CONTINUOUS
 62
     2
 10
82.543412044
 20
139.406653122
 30
0.0
 42
-0.021064134
  0
VERTEX
  8
0
  6
CONTINUOUS
 62
     2
 10
82.521788936
 20
139.403908868
 30
0.0
 42
-0.0210388
  0
VERTEX
  8
0
  6
CONTINUOUS
 62
     2
 10
82.5
 20
139.402991791
 30
0.0
  0
SEQEND
  8
0
  6
CONTINUOUS
 62
     2
  0
POLYLINE
  8
0
  6
CONTINUOUS
 62
     2
 66
     1
  0
VERTEX
  8
0
  6
CONTINUOUS
 62
     2
 10
82.5
 20
140.935483704
 30
0.0
 42
-0.015412332
  0
VERTEX
  8
0
  6
CONTINUOUS
 62
     2
 10
82.521788936
 20
140.934812069
 30
0.0
 42
-0.015515584
  0
VERTEX
  8
0
  6
CONTINUOUS
 62
     2
 10
82.543412044
 20
140.932802273
 30
0.0
 42
-0.015738372
  0
VERTEX
  8
0
  6
CONTINUOUS
 62
     2
 10
82.564704761
 20
140.929469613
 30
0.0
 42
-0.016083955
  0
VERTEX
  8
0
  6
CONTINUOUS
 62
     2
 10
82.585505036
 20
140.924839452
 30
0.0
 42
-0.016557065
  0
VERTEX
  8
0
  6
CONTINUOUS
 62
     2
 10
82.605654565
 20
140.918947029
 30
0.0
 42
-0.017163493
  0
VERTEX
  8
0
  6
CONTINUOUS
 62
     2
 10
82.625
 20
140.911837188
 30
0.0
 42
-0.017909379
  0
VERTEX
  8
0
  6
CONTINUOUS
 62
     2
 10
82.643394109
 20
140.90356404
 30
0.0
 42
-0.018800064
  0
VERTEX
  8
0
  6
CONTINUOUS
 62
     2
 10
82.660696902
 20
140.894190549
 30
0.0
 42
-0.019838316
  0
VERTEX
  8
0
  6
CONTINUOUS
 62
     2
 10
82.676776695
 20
140.883788051
 30
0.0
 42
-0.021021724
  0
VERTEX
  8
0
  6
CONTINUOUS
 62
     2
 10
82.691511111
 20
140.872435717
 30
0.0
 42
-0.022339115
  0
VERTEX
  8
0
  6
CONTINUOUS
 62
     2
 10
82.704788011
 20
140.860219945
 30
0.0
 42
-0.023766055
  0
VERTEX
  8
0
  6
CONTINUOUS
 62
     2
 10
82.716506351
 20
140.847233704
 30
0.0
 42
-0.025259945
  0
VERTEX
  8
0
  6
CONTINUOUS
 62
     2
 10
82.726576947
 20
140.833575828
 30
0.0
 42
-0.026756003
  0
VERTEX
  8
0
  6
CONTINUOUS
 62
     2
 10
82.734923155
 20
140.81935026
 30
0.0
 42
-0.028166363
  0
VERTEX
  8
0
  6
CONTINUOUS
 62
     2
 10
82.741481457
 20
140.804665266
 30
0.0
 42
-0.029385072
  0
VERTEX
  8
0
  6
CONTINUOUS
 62
     2
 10
82.746201938
 20
140.789632608
 30
0.0
 42
-0.030301045
  0
VERTEX
  8
0
  6
CONTINUOUS
 62
     2
 10
82.749048675
 20
140.774366693
 30
0.0
 42
-0.030818133
  0
VERTEX
  8
0
  6
CONTINUOUS
 62
     2
 10
82.75
 20
140.758983704
 30
0.0
 42
-0.030877053
  0
VERTEX
  8
0
  6
CONTINUOUS
 62
     2
 10
82.749048675
 20
140.743600716
 30
0.0
 42
-0.030470815
  0
VERTEX
  8
0
  6
CONTINUOUS
 62
     2
 10
82.746201938
 20
140.728334801
 30
0.0
 42
-0.029646632
  0
VERTEX
  8
0
  6
CONTINUOUS
 62
     2
 10
82.741481457
 20
140.713302143
 30
0.0
 42
-0.028493394
  0
VERTEX
  8
0
  6
CONTINUOUS
 62
     2
 10
82.734923155
 20
140.698617149
 30
0.0
 42
-0.027120527
  0
VERTEX
  8
0
  6
CONTINUOUS
 62
     2
 10
82.726576947
 20
140.684391581
 30
0.0
 42
-0.025636807
  0
VERTEX
  8
0
  6
CONTINUOUS
 62
     2
 10
82.716506351
 20
140.670733704
 30
0.0
 42
-0.02413538
  0
VERTEX
  8
0
  6
CONTINUOUS
 62
     2
 10
82.704788011
 20
140.657747463
 30
0.0
 42
-0.022686896
  0
VERTEX
  8
0
  6
CONTINUOUS
 62
     2
 10
82.691511111
 20
140.645531691
 30
0.0
 42
-0.021339201
  0
VERTEX
  8
0
  6
CONTINUOUS
 62
     2
 10
82.676776695
 20
140.634179357
 30
0.0
 42
-0.020120814
  0
VERTEX
  8
0
  6
CONTINUOUS
 62
     2
 10
82.660696902
 20
140.62377686
 30
0.0
 42
-0.019045774
  0
VERTEX
  8
0
  6
CONTINUOUS
 62
     2
 10
82.643394109
 20
140.614403369
 30
0.0
 42
-0.018118306
  0
VERTEX
  8
0
  6
CONTINUOUS
 62
     2
 10
82.625
 20
140.606130221
 30
0.0
 42
-0.017336657
  0
VERTEX
  8
0
  6
CONTINUOUS
 62
     2
 10
82.605654565
 20
140.59902038
 30
0.0
 42
-0.016695933
  0
VERTEX
  8
0
  6
CONTINUOUS
 62
     2
 10
82.585505036
 20
140.593127957
 30
0.0
 42
-0.016190065
  0
VERTEX
  8
0
  6
CONTINUOUS
 62
     2
 10
82.564704761
 20
140.588497796
 30
0.0
 42
-0.015813094
  0
VERTEX
  8
0
  6
CONTINUOUS
 62
     2
 10
82.543412044
 20
140.585165136
 30
0.0
 42
-0.015559975
  0
VERTEX
  8
0
  6
CONTINUOUS
 62
     2
 10
82.521788936
 20
140.58315534
 30
0.0
 42
-0.015427054
  0
VERTEX
  8
0
  6
CONTINUOUS
 62
     2
 10
82.5
 20
140.582483704
 30
0.0
  0
SEQEND
  8
0
  6
CONTINUOUS
 62
     2
  0
POLYLINE
  8
0
  6
CONTINUOUS
 62
     2
 66
     1
  0
VERTEX
  8
0
  6
CONTINUOUS
 62
     2
 10
82.74583255
 20
141.461217888
 30
0.0
 42
-0.047646099
  0
VERTEX
  8
0
  6
CONTINUOUS
 62
     2
 10
82.748868835
 20
141.452189799
 30
0.0
 42
-0.05177306
  0
VERTEX
  8
0
  6
CONTINUOUS
 62
     2
 10
82.749993003
 20
141.443085784
 30
0.0
 42
-0.052570142
  0
VERTEX
  8
0
  6
CONTINUOUS
 62
     2
 10
82.749196418
 20
141.43397579
 30
0.0
 42
-0.049705543
  0
VERTEX
  8
0
  6
CONTINUOUS
 62
     2
 10
82.7464852
 20
141.424929812
 30
0.0
 42
-0.044306081
  0
VERTEX
  8
0
  6
CONTINUOUS
 62
     2
 10
82.741880179
 20
141.416017352
 30
0.0
 42
-0.038019413
  0
VERTEX
  8
0
  6
CONTINUOUS
 62
     2
 10
82.735416738
 20
141.407306887
 30
0.0
 42
-0.032051009
  0
VERTEX
  8
0
  6
CONTINUOUS
 62
     2
 10
82.727144537
 20
141.398865341
 30
0.0
 42
-0.02694418
  0
VERTEX
  8
0
  6
CONTINUOUS
 62
     2
 10
82.717127132
 20
141.390757573
 30
0.0
 42
-0.022799057
  0
VERTEX
  8
0
  6
CONTINUOUS
 62
     2
 10
82.705441489
 20
141.383045876
 30
0.0
 42
-0.019517382
  0
VERTEX
  8
0
  6
CONTINUOUS
 62
     2
 10
82.692177393
 20
141.375789501
 30
0.0
 42
-0.01694562
  0
VERTEX
  8
0
  6
CONTINUOUS
 62
     2
 10
82.677436753
 20
141.3690442
 30
0.0
 42
-0.014936363
  0
VERTEX
  8
0
  6
CONTINUOUS
 62
     2
 10
82.661332827
 20
141.3628618
 30
0.0
 42
-0.013367538
  0
VERTEX
  8
0
  6
CONTINUOUS
 62
     2
 10
82.643989344
 20
141.357289801
 30
0.0
 42
-0.012144258
  0
VERTEX
  8
0
  6
CONTINUOUS
 62
     2
 10
82.625539557
 20
141.352371013
 30
0.0
 42
-0.011194996
  0
VERTEX
  8
0
  6
CONTINUOUS
 62
     2
 10
82.606125222
 20
141.34814323
 30
0.0
 42
-0.01046677
  0
VERTEX
  8
0
  6
CONTINUOUS
 62
     2
 10
82.585895502
 20
141.344638934
 30
0.0
 42
-0.009920899
  0
VERTEX
  8
0
  6
CONTINUOUS
 62
     2
 10
82.565005827
 20
141.341885049
 30
0.0
 42
-0.009529713
  0
VERTEX
  8
0
  6
CONTINUOUS
 62
     2
 10
82.543616698
 20
141.339902734
 30
0.0
 42
-0.009274162
  0
VERTEX
  8
0
  6
CONTINUOUS
 62
     2
 10
82.521892451
 20
141.33870722
 30
0.0
 42
-0.009142179
  0
VERTEX
  8
0
  6
CONTINUOUS
 62
     2
 10
82.5
 20
141.338307692
 30
0.0
  0
SEQEND
  8
0
  6
CONTINUOUS
 62
     2
  0
LINE
  8
0
  6
CONTINUOUS
 62
     2
 10
83.5
 20
139.6
 30
0.0
 11
84.15
 21
139.6
 31
0.0
  0
LINE
  8
0
  6
CONTINUOUS
 62
     2
 10
83.5
 20
138.4
 30
0.0
 11
84.15
 21
138.4
 31
0.0
  0
LINE
  8
0
  6
LTYPE2
 62
     2
 10
78.0
 20
139.0
 30
0.0
 11
86.0
 21
139.0
 31
0.0
  0
LINE
  8
0
  6
CONTINUOUS
 62
     2
 10
90.0
 20
128.25
 30
0.0
 11
90.0
 21
122.25
 31
0.0
  0
LINE
  8
0
  6
CONTINUOUS
 62
     2
 10
90.0
 20
124.25
 30
0.0
 11
87.585185434
 21
124.897047613
 31
0.0
  0
LINE
  8
0
  6
CONTINUOUS
 62
     2
 10
90.0
 20
124.25
 30
0.0
 11
87.585185434
 21
123.602952387
 31
0.0
  0
LINE
  8
0
  6
CONTINUOUS
 62
     2
 10
90.0
 20
124.25
 30
0.0
 11
80.0
 21
124.25
 31
0.0
  0
LINE
  8
0
  6
CONTINUOUS
 62
     2
 10
80.0
 20
124.25
 30
0.0
 11
82.414814566
 21
123.602952387
 31
0.0
  0
LINE
  8
0
  6
CONTINUOUS
 62
     2
 10
80.0
 20
124.25
 30
0.0
 11
82.414814566
 21
124.897047613
 31
0.0
  0
LINE
  8
0
  6
CONTINUOUS
 62
     2
 10
80.0
 20
135.75
 30
0.0
 11
80.0
 21
122.25
 31
0.0
  0
TEXT
  8
0
  6
CONTINUOUS
 62
     2
 10
83.05
 20
125.25
 30
0.3
 40
3.0
  1
２０
 50
0.0
 41
0.6
 51
0.0
  7
KANJI0
  0
TEXT
  8
0
  6
CONTINUOUS
 62
     2
 10
181.2
 20
56.0
 30
0.3
 40
3.0
  1
パネルカット
 50
0.0
 41
0.9
 51
0.0
  7
KANJI2
  0
LINE
  8
0
  6
CONTINUOUS
 62
     2
 10
181.0
 20
55.0
 30
0.0
 11
199.0
 21
55.0
 31
0.0
  0
CIRCLE
  8
0
  6
CONTINUOUS
 62
     2
 10
150.0
 20
84.75
 30
0.0
 40
1.8
  0
LINE
  8
0
  6
CONTINUOUS
 62
     2
 10
138.5
 20
94.25
 30
0.0
 11
161.5
 21
94.25
 31
0.0
  0
LINE
  8
0
  6
CONTINUOUS
 62
     2
 10
161.049420471
 20
98.305215763
 30
0.0
 11
161.5
 21
94.25
 31
0.0
  0
ARC
  8
0
  6
CONTINUOUS
 62
     2
 10
160.552478603
 20
98.25
 30
0.0
 40
0.5
 50
6.340191746
 51
90.0
  0
LINE
  8
0
  6
CONTINUOUS
 62
     2
 10
138.950579529
 20
98.305215763
 30
0.0
 11
138.5
 21
94.25
 31
0.0
  0
LINE
  8
0
  6
CONTINUOUS
 62
     2
 10
160.552478603
 20
98.75
 30
0.0
 11
139.447521397
 21
98.75
 31
0.0
  0
ARC
  8
0
  6
CONTINUOUS
 62
     2
 10
139.447521397
 20
98.25
 30
0.0
 40
0.5
 50
90.0
 51
173.659808254
  0
LINE
  8
0
  6
CONTINUOUS
 62
     2
 10
149.75
 20
86.532554347
 30
0.0
 11
149.75
 21
82.967445653
 31
0.0
  0
LINE
  8
0
  6
CONTINUOUS
 62
     2
 10
150.25
 20
82.967445653
 30
0.0
 11
150.25
 21
86.532554347
 31
0.0
  0
CIRCLE
  8
0
  6
CONTINUOUS
 62
     2
 10
146.25
 20
89.0
 30
0.0
 40
1.75
  0
CIRCLE
  8
0
  6
CONTINUOUS
 62
     2
 10
146.25
 20
89.0
 30
0.0
 40
0.75
  0
LINE
  8
0
  6
CONTINUOUS
 62
     2
 10
145.430143345
 20
86.904687358
 30
0.0
 11
145.365008209
 21
86.661883337
 31
0.0
  0
LINE
  8
0
  6
CONTINUOUS
 62
     2
 10
145.912360369
 20
86.775477696
 30
0.0
 11
145.847367041
 21
86.532635677
 31
0.0
  0
ARC
  8
0
  6
CONTINUOUS
 62
     2
 10
145.667657149
 20
86.826666891
 30
0.0
 40
0.25
 50
348.184738537
 51
161.815261463
  0
ARC
  8
0
  6
CONTINUOUS
 62
     2
 10
145.602952387
 20
86.585185434
 30
0.0
 40
0.25
 50
347.865983983
 51
162.134016018
  0
LINE
  8
0
  6
CONTINUOUS
 62
     2
 10
144.492326989
 20
87.595334351
 30
0.0
 11
144.314516296
 21
87.417627468
 31
0.0
  0
LINE
  8
0
  6
CONTINUOUS
 62
     2
 10
144.845334351
 20
87.242326989
 30
0.0
 11
144.667627468
 21
87.064516296
 31
0.0
  0
ARC
  8
0
  6
CONTINUOUS
 62
     2
 10
144.659009742
 20
87.409009742
 30
0.0
 40
0.25
 50
318.184738537
 51
131.815261463
  0
ARC
  8
0
  6
CONTINUOUS
 62
     2
 10
144.482233047
 20
87.232233047
 30
0.0
 40
0.25
 50
317.865983983
 51
132.134016018
  0
LINE
  8
0
  6
CONTINUOUS
 62
     2
 10
144.025477696
 20
88.662360369
 30
0.0
 11
143.782635677
 21
88.597367041
 31
0.0
  0
LINE
  8
0
  6
CONTINUOUS
 62
     2
 10
144.154687358
 20
88.180143345
 30
0.0
 11
143.911883337
 21
88.115008209
 31
0.0
  0
ARC
  8
0
  6
CONTINUOUS
 62
     2
 10
144.076666891
 20
88.417657149
 30
0.0
 40
0.25
 50
288.184738537
 51
101.815261463
  0
ARC
  8
0
  6
CONTINUOUS
 62
     2
 10
143.835185434
 20
88.352952387
 30
0.0
 40
0.25
 50
287.865983983
 51
102.134016018
  0
ARC
  8
0
  6
CONTINUOUS
 62
     2
 10
146.25
 20
89.0
 30
0.0
 40
2.5
 50
230.731967965
 51
249.268032035
  0
ARC
  8
0
  6
CONTINUOUS
 62
     2
 10
146.25
 20
89.0
 30
0.0
 40
2.25
 50
231.369477073
 51
248.630522927
  0
ARC
  8
0
  6
CONTINUOUS
 62
     2
 10
146.25
 20
89.0
 30
0.0
 40
2.5
 50
200.731967965
 51
219.268032035
  0
ARC
  8
0
  6
CONTINUOUS
 62
     2
 10
146.25
 20
89.0
 30
0.0
 40
2.25
 50
201.369477073
 51
218.630522927
  0
LINE
  8
0
  6
CONTINUOUS
 62
     2
 10
147.069856655
 20
86.904687358
 30
0.0
 11
147.134991791
 21
86.661883337
 31
0.0
  0
LINE
  8
0
  6
CONTINUOUS
 62
     2
 10
146.587639631
 20
86.775477696
 30
0.0
 11
146.652632959
 21
86.532635677
 31
0.0
  0
ARC
  8
0
  6
CONTINUOUS
 62
     2
 10
146.832342851
 20
86.826666891
 30
0.0
 40
0.25
 50
18.184738537
 51
191.815261463
  0
ARC
  8
0
  6
CONTINUOUS
 62
     2
 10
146.897047613
 20
86.585185434
 30
0.0
 40
0.25
 50
17.865983982
 51
192.134016017
  0
LINE
  8
0
  6
CONTINUOUS
 62
     2
 10
148.007673011
 20
87.595334351
 30
0.0
 11
148.185483704
 21
87.417627468
 31
0.0
  0
LINE
  8
0
  6
CONTINUOUS
 62
     2
 10
147.654665649
 20
87.242326989
 30
0.0
 11
147.832372532
 21
87.064516296
 31
0.0
  0
ARC
  8
0
  6
CONTINUOUS
 62
     2
 10
147.840990258
 20
87.409009742
 30
0.0
 40
0.25
 50
48.184738537
 51
221.815261463
  0
ARC
  8
0
  6
CONTINUOUS
 62
     2
 10
148.017766953
 20
87.232233047
 30
0.0
 40
0.25
 50
47.865983982
 51
222.134016017
  0
LINE
  8
0
  6
CONTINUOUS
 62
     2
 10
148.474522304
 20
88.662360369
 30
0.0
 11
148.717364323
 21
88.597367041
 31
0.0
  0
LINE
  8
0
  6
CONTINUOUS
 62
     2
 10
148.345312642
 20
88.180143345
 30
0.0
 11
148.588116663
 21
88.115008209
 31
0.0
  0
ARC
  8
0
  6
CONTINUOUS
 62
     2
 10
148.423333109
 20
88.417657149
 30
0.0
 40
0.25
 50
78.184738537
 51
251.815261463
  0
ARC
  8
0
  6
CONTINUOUS
 62
     2
 10
148.664814566
 20
88.352952387
 30
0.0
 40
0.25
 50
77.865983982
 51
252.134016017
  0
ARC
  8
0
  6
CONTINUOUS
 62
     2
 10
146.25
 20
89.0
 30
0.0
 40
2.5
 50
290.731967965
 51
309.268032035
  0
ARC
  8
0
  6
CONTINUOUS
 62
     2
 10
146.25
 20
89.0
 30
0.0
 40
2.25
 50
291.369477073
 51
308.630522927
  0
ARC
  8
0
  6
CONTINUOUS
 62
     2
 10
146.25
 20
89.0
 30
0.0
 40
2.5
 50
320.731967965
 51
339.268032035
  0
ARC
  8
0
  6
CONTINUOUS
 62
     2
 10
146.25
 20
89.0
 30
0.0
 40
2.25
 50
321.369477073
 51
338.630522927
  0
ARC
  8
0
  6
CONTINUOUS
 62
     2
 10
146.25
 20
89.0
 30
0.0
 40
2.25
 50
261.369477073
 51
278.630522927
  0
ARC
  8
0
  6
CONTINUOUS
 62
     2
 10
146.25
 20
89.0
 30
0.0
 40
2.5
 50
260.731967965
 51
279.268032035
  0
LINE
  8
0
  6
CONTINUOUS
 62
     2
 10
145.430143345
 20
91.095312642
 30
0.0
 11
145.365008209
 21
91.338116663
 31
0.0
  0
LINE
  8
0
  6
CONTINUOUS
 62
     2
 10
145.912360369
 20
91.224522304
 30
0.0
 11
145.847367041
 21
91.467364323
 31
0.0
  0
ARC
  8
0
  6
CONTINUOUS
 62
     2
 10
145.667657149
 20
91.173333109
 30
0.0
 40
0.25
 50
198.184738537
 51
11.815261463
  0
ARC
  8
0
  6
CONTINUOUS
 62
     2
 10
145.602952387
 20
91.414814566
 30
0.0
 40
0.25
 50
197.865983982
 51
12.134016017
  0
LINE
  8
0
  6
CONTINUOUS
 62
     2
 10
144.492326989
 20
90.404665649
 30
0.0
 11
144.314516296
 21
90.582372532
 31
0.0
  0
LINE
  8
0
  6
CONTINUOUS
 62
     2
 10
144.845334351
 20
90.757673011
 30
0.0
 11
144.667627468
 21
90.935483704
 31
0.0
  0
ARC
  8
0
  6
CONTINUOUS
 62
     2
 10
144.659009742
 20
90.590990258
 30
0.0
 40
0.25
 50
228.184738537
 51
41.815261463
  0
ARC
  8
0
  6
CONTINUOUS
 62
     2
 10
144.482233047
 20
90.767766953
 30
0.0
 40
0.25
 50
227.865983982
 51
42.134016017
  0
LINE
  8
0
  6
CONTINUOUS
 62
     2
 10
144.025477696
 20
89.337639631
 30
0.0
 11
143.782635677
 21
89.402632959
 31
0.0
  0
LINE
  8
0
  6
CONTINUOUS
 62
     2
 10
144.154687358
 20
89.819856655
 30
0.0
 11
143.911883337
 21
89.884991791
 31
0.0
  0
ARC
  8
0
  6
CONTINUOUS
 62
     2
 10
144.076666891
 20
89.582342851
 30
0.0
 40
0.25
 50
258.184738537
 51
71.815261463
  0
ARC
  8
0
  6
CONTINUOUS
 62
     2
 10
143.835185434
 20
89.647047613
 30
0.0
 40
0.25
 50
257.865983982
 51
72.134016017
  0
ARC
  8
0
  6
CONTINUOUS
 62
     2
 10
146.25
 20
89.0
 30
0.0
 40
2.5
 50
110.731967965
 51
129.268032035
  0
ARC
  8
0
  6
CONTINUOUS
 62
     2
 10
146.25
 20
89.0
 30
0.0
 40
2.25
 50
111.369477073
 51
128.630522927
  0
ARC
  8
0
  6
CONTINUOUS
 62
     2
 10
146.25
 20
89.0
 30
0.0
 40
2.5
 50
140.731967965
 51
159.268032035
  0
ARC
  8
0
  6
CONTINUOUS
 62
     2
 10
146.25
 20
89.0
 30
0.0
 40
2.25
 50
141.369477073
 51
158.630522927
  0
LINE
  8
0
  6
CONTINUOUS
 62
     2
 10
147.069856655
 20
91.095312642
 30
0.0
 11
147.134991791
 21
91.338116663
 31
0.0
  0
LINE
  8
0
  6
CONTINUOUS
 62
     2
 10
146.587639631
 20
91.224522304
 30
0.0
 11
146.652632959
 21
91.467364323
 31
0.0
  0
ARC
  8
0
  6
CONTINUOUS
 62
     2
 10
146.832342851
 20
91.173333109
 30
0.0
 40
0.25
 50
168.184738537
 51
341.815261463
  0
ARC
  8
0
  6
CONTINUOUS
 62
     2
 10
146.897047613
 20
91.414814566
 30
0.0
 40
0.25
 50
167.865983983
 51
342.134016018
  0
LINE
  8
0
  6
CONTINUOUS
 62
     2
 10
148.007673011
 20
90.404665649
 30
0.0
 11
148.185483704
 21
90.582372532
 31
0.0
  0
LINE
  8
0
  6
CONTINUOUS
 62
     2
 10
147.654665649
 20
90.757673011
 30
0.0
 11
147.832372532
 21
90.935483704
 31
0.0
  0
ARC
  8
0
  6
CONTINUOUS
 62
     2
 10
147.840990258
 20
90.590990258
 30
0.0
 40
0.25
 50
138.184738537
 51
311.815261463
  0
ARC
  8
0
  6
CONTINUOUS
 62
     2
 10
148.017766953
 20
90.767766953
 30
0.0
 40
0.25
 50
137.865983983
 51
312.134016018
  0
LINE
  8
0
  6
CONTINUOUS
 62
     2
 10
148.474522304
 20
89.337639631
 30
0.0
 11
148.717364323
 21
89.402632959
 31
0.0
  0
LINE
  8
0
  6
CONTINUOUS
 62
     2
 10
148.345312642
 20
89.819856655
 30
0.0
 11
148.588116663
 21
89.884991791
 31
0.0
  0
ARC
  8
0
  6
CONTINUOUS
 62
     2
 10
148.423333109
 20
89.582342851
 30
0.0
 40
0.25
 50
108.184738537
 51
281.815261463
  0
ARC
  8
0
  6
CONTINUOUS
 62
     2
 10
148.664814566
 20
89.647047613
 30
0.0
 40
0.25
 50
107.865983983
 51
282.134016018
  0
ARC
  8
0
  6
CONTINUOUS
 62
     2
 10
146.25
 20
89.0
 30
0.0
 40
2.5
 50
50.731967965
 51
69.268032035
  0
ARC
  8
0
  6
CONTINUOUS
 62
     2
 10
146.25
 20
89.0
 30
0.0
 40
2.25
 50
51.369477073
 51
68.630522927
  0
ARC
  8
0
  6
CONTINUOUS
 62
     2
 10
146.25
 20
89.0
 30
0.0
 40
2.5
 50
20.731967965
 51
39.268032035
  0
ARC
  8
0
  6
CONTINUOUS
 62
     2
 10
146.25
 20
89.0
 30
0.0
 40
2.25
 50
21.369477073
 51
38.630522927
  0
ARC
  8
0
  6
CONTINUOUS
 62
     2
 10
146.25
 20
89.0
 30
0.0
 40
2.25
 50
81.369477073
 51
98.630522927
  0
ARC
  8
0
  6
CONTINUOUS
 62
     2
 10
146.25
 20
89.0
 30
0.0
 40
2.5
 50
80.731967965
 51
99.268032035
  0
ARC
  8
0
  6
CONTINUOUS
 62
     2
 10
146.25
 20
89.0
 30
0.0
 40
2.5
 50
170.731967965
 51
189.268032035
  0
ARC
  8
0
  6
CONTINUOUS
 62
     2
 10
146.25
 20
89.0
 30
0.0
 40
2.5
 50
350.731967965
 51
9.268032035
  0
ARC
  8
0
  6
CONTINUOUS
 62
     2
 10
146.25
 20
89.0
 30
0.0
 40
2.25
 50
171.369477073
 51
188.630522927
  0
ARC
  8
0
  6
CONTINUOUS
 62
     2
 10
146.25
 20
89.0
 30
0.0
 40
2.25
 50
351.369477073
 51
8.630522927
  0
LINE
  8
0
  6
LTYPE2
 62
     2
 10
143.25
 20
89.0
 30
0.0
 11
149.25
 21
89.0
 31
0.0
  0
LINE
  8
0
  6
LTYPE2
 62
     2
 10
146.25
 20
92.0
 30
0.0
 11
146.25
 21
86.0
 31
0.0
  0
LINE
  8
0
  6
LTYPE2
 62
     2
 10
147.0
 20
84.75
 30
0.0
 11
153.0
 21
84.75
 31
0.0
  0
CIRCLE
  8
0
  6
CONTINUOUS
 62
     2
 10
146.25
 20
89.0
 30
0.0
 40
2.5
  0
LINE
  8
0
  6
CONTINUOUS
 62
     2
 10
145.0
 20
86.834936491
 30
0.0
 11
143.232233047
 21
85.067169538
 31
0.0
  0
LINE
  8
0
  6
CONTINUOUS
 62
     2
 10
145.0
 20
86.834936491
 30
0.0
 11
144.352952387
 21
84.420121925
 31
0.0
  0
POLYLINE
  8
0
  6
CONTINUOUS
 62
     2
 66
     1
  0
VERTEX
  8
0
  6
CONTINUOUS
 62
     2
 10
131.327971115
 20
108.905507363
 30
0.0
  0
VERTEX
  8
0
  6
CONTINUOUS
 62
     2
 10
131.507806065
 20
109.079171955
 30
0.0
  0
VERTEX
  8
0
  6
CONTINUOUS
 62
     2
 10
141.482571476
 20
98.75
 30
0.0
  0
SEQEND
  0
LINE
  8
0
  6
CONTINUOUS
 62
     2
 10
141.135030578
 20
98.75
 30
0.0
 11
131.327971115
 21
108.905507363
 31
0.0
  0
POLYLINE
  8
0
  6
CONTINUOUS
 62
     2
 66
     1
  0
VERTEX
  8
0
  6
CONTINUOUS
 62
     2
 10
133.287522148
 20
109.667155521
 30
0.0
  0
VERTEX
  8
0
  6
CONTINUOUS
 62
     2
 10
133.225893731
 20
108.962739495
 30
0.0
  0
VERTEX
  8
0
  6
CONTINUOUS
 62
     2
 10
141.562855338
 20
98.75
 30
0.0
  0
SEQEND
  0
LINE
  8
0
  6
CONTINUOUS
 62
     2
 10
142.448103319
 20
98.75
 30
0.0
 11
133.287522148
 21
109.667155521
 31
0.0
  0
LINE
  8
0
  6
CONTINUOUS
 62
     2
 10
133.287522148
 20
109.667155521
 30
0.0
 11
135.055289101
 21
111.434922474
 31
0.0
  0
LINE
  8
0
  6
CONTINUOUS
 62
     2
 10
133.287522148
 20
109.667155521
 30
0.0
 11
133.934569761
 21
112.081970087
 31
0.0
  0
LINE
  8
0
  6
CONTINUOUS
 62
     2
 10
135.0
 20
94.25
 30
0.0
 11
165.0
 21
94.25
 31
0.0
  0
LINE
  8
0
  6
CONTINUOUS
 62
     2
 10
141.053847577
 20
80.0
 30
0.0
 11
126.653847577
 21
80.0
 31
0.0
  0
TEXT
  8
0
  6
CONTINUOUS
 62
     2
 10
126.653847577
 20
81.0
 30
0.3
 40
3.0
  1
Ｌ側設定ツマミ
 50
0.0
 41
0.6
 51
0.0
  7
KANJI0
  0
TEXT
  8
0
  6
CONTINUOUS
 62
     2
 10
126.653847577
 20
76.0
 30
0.3
 40
3.0
  1
（中央黄色）
 50
0.0
 41
0.6
 51
0.0
  7
KANJI0
  0
LINE
  8
0
  6
CONTINUOUS
 62
     2
 10
145.0
 20
86.834936491
 30
0.0
 11
141.053847577
 21
80.0
 31
0.0
  0
LINE
  8
0
  6
CONTINUOUS
 62
     2
 10
137.521141882
 20
117.0
 30
0.0
 11
149.821141882
 21
117.0
 31
0.0
  0
TEXT
  8
0
  6
CONTINUOUS
 62
     2
 10
137.521141882
 20
118.0
 30
0.3
 40
3.0
  1
Ｌ側設定指針
 50
0.0
 41
0.6
 51
0.0
  7
KANJI0
  0
TEXT
  8
0
  6
CONTINUOUS
 62
     2
 10
137.521141882
 20
113.0
 30
0.3
 40
3.0
  1
（黄色）
 50
0.0
 41
0.6
 51
0.0
  7
KANJI0
  0
LINE
  8
0
  6
CONTINUOUS
 62
     2
 10
133.287522148
 20
109.667155521
 30
0.0
 11
137.521141882
 21
117.0
 31
0.0
  0
LINE
  8
0
  6
CONTINUOUS
 62
     2
 10
82.327971115
 20
108.905507363
 30
0.0
 11
82.507806065
 21
109.079171955
 31
0.0
  0
LINE
  8
0
  6
CONTINUOUS
 62
     2
 10
131.427971115
 20
109.005507363
 30
0.0
 11
130.993850671
 21
111.467526745
 31
0.0
  0
LINE
  8
0
  6
CONTINUOUS
 62
     2
 10
131.427971115
 20
109.005507363
 30
0.0
 11
129.821002091
 21
110.920618471
 31
0.0
  0
LINE
  8
0
  6
CONTINUOUS
 62
     2
 10
131.600077975
 20
117.0
 30
0.0
 11
127.700077975
 21
117.0
 31
0.0
  0
TEXT
  8
0
  6
CONTINUOUS
 62
     2
 10
127.700077975
 20
118.0
 30
0.3
 40
3.0
  1
指針
 50
0.0
 41
0.6
 51
0.0
  7
KANJI0
  0
LINE
  8
0
  6
CONTINUOUS
 62
     2
 10
131.427971115
 20
109.005507363
 30
0.0
 11
127.700077975
 21
117.0
 31
0.0
  0
CIRCLE
  8
0
  6
CONTINUOUS
 62
     2
 10
102.0
 20
84.75
 30
0.0
 40
1.8
  0
LINE
  8
0
  6
CONTINUOUS
 62
     2
 10
90.5
 20
94.25
 30
0.0
 11
113.5
 21
94.25
 31
0.0
  0
LINE
  8
0
  6
CONTINUOUS
 62
     2
 10
113.049420471
 20
98.305215763
 30
0.0
 11
113.5
 21
94.25
 31
0.0
  0
ARC
  8
0
  6
CONTINUOUS
 62
     2
 10
112.552478603
 20
98.25
 30
0.0
 40
0.5
 50
6.340191746
 51
90.0
  0
LINE
  8
0
  6
CONTINUOUS
 62
     2
 10
90.950579529
 20
98.305215763
 30
0.0
 11
90.5
 21
94.25
 31
0.0
  0
LINE
  8
0
  6
CONTINUOUS
 62
     2
 10
112.552478603
 20
98.75
 30
0.0
 11
91.447521397
 21
98.75
 31
0.0
  0
ARC
  8
0
  6
CONTINUOUS
 62
     2
 10
91.447521397
 20
98.25
 30
0.0
 40
0.5
 50
90.0
 51
173.659808254
  0
LINE
  8
0
  6
CONTINUOUS
 62
     2
 10
101.75
 20
86.532554347
 30
0.0
 11
101.75
 21
82.967445653
 31
0.0
  0
LINE
  8
0
  6
CONTINUOUS
 62
     2
 10
102.25
 20
82.967445653
 30
0.0
 11
102.25
 21
86.532554347
 31
0.0
  0
LINE
  8
0
  6
LTYPE2
 62
     2
 10
99.0
 20
84.75
 30
0.0
 11
105.0
 21
84.75
 31
0.0
  0
CIRCLE
  8
0
  6
CONTINUOUS
 62
     2
 10
105.75
 20
89.0
 30
0.0
 40
1.75
  0
CIRCLE
  8
0
  6
CONTINUOUS
 62
     2
 10
105.75
 20
89.0
 30
0.0
 40
0.75
  0
LINE
  8
0
  6
CONTINUOUS
 62
     2
 10
104.930143345
 20
86.904687358
 30
0.0
 11
104.865008209
 21
86.661883337
 31
0.0
  0
LINE
  8
0
  6
CONTINUOUS
 62
     2
 10
105.412360369
 20
86.775477696
 30
0.0
 11
105.347367041
 21
86.532635677
 31
0.0
  0
ARC
  8
0
  6
CONTINUOUS
 62
     2
 10
105.167657149
 20
86.826666891
 30
0.0
 40
0.25
 50
348.184738537
 51
161.815261463
  0
ARC
  8
0
  6
CONTINUOUS
 62
     2
 10
105.102952387
 20
86.585185434
 30
0.0
 40
0.25
 50
347.865983983
 51
162.134016018
  0
LINE
  8
0
  6
CONTINUOUS
 62
     2
 10
103.992326989
 20
87.595334351
 30
0.0
 11
103.814516296
 21
87.417627468
 31
0.0
  0
LINE
  8
0
  6
CONTINUOUS
 62
     2
 10
104.345334351
 20
87.242326989
 30
0.0
 11
104.167627468
 21
87.064516296
 31
0.0
  0
ARC
  8
0
  6
CONTINUOUS
 62
     2
 10
104.159009742
 20
87.409009742
 30
0.0
 40
0.25
 50
318.184738537
 51
131.815261463
  0
ARC
  8
0
  6
CONTINUOUS
 62
     2
 10
103.982233047
 20
87.232233047
 30
0.0
 40
0.25
 50
317.865983983
 51
132.134016018
  0
LINE
  8
0
  6
CONTINUOUS
 62
     2
 10
103.525477696
 20
88.662360369
 30
0.0
 11
103.282635677
 21
88.597367041
 31
0.0
  0
LINE
  8
0
  6
CONTINUOUS
 62
     2
 10
103.654687358
 20
88.180143345
 30
0.0
 11
103.411883337
 21
88.115008209
 31
0.0
  0
ARC
  8
0
  6
CONTINUOUS
 62
     2
 10
103.576666891
 20
88.417657149
 30
0.0
 40
0.25
 50
288.184738537
 51
101.815261463
  0
ARC
  8
0
  6
CONTINUOUS
 62
     2
 10
103.335185434
 20
88.352952387
 30
0.0
 40
0.25
 50
287.865983983
 51
102.134016018
  0
ARC
  8
0
  6
CONTINUOUS
 62
     2
 10
105.75
 20
89.0
 30
0.0
 40
2.5
 50
230.731967965
 51
249.268032035
  0
ARC
  8
0
  6
CONTINUOUS
 62
     2
 10
105.75
 20
89.0
 30
0.0
 40
2.25
 50
231.369477073
 51
248.630522927
  0
ARC
  8
0
  6
CONTINUOUS
 62
     2
 10
105.75
 20
89.0
 30
0.0
 40
2.5
 50
200.731967965
 51
219.268032035
  0
ARC
  8
0
  6
CONTINUOUS
 62
     2
 10
105.75
 20
89.0
 30
0.0
 40
2.25
 50
201.369477073
 51
218.630522927
  0
LINE
  8
0
  6
CONTINUOUS
 62
     2
 10
106.569856655
 20
86.904687358
 30
0.0
 11
106.634991791
 21
86.661883337
 31
0.0
  0
LINE
  8
0
  6
CONTINUOUS
 62
     2
 10
106.087639631
 20
86.775477696
 30
0.0
 11
106.152632959
 21
86.532635677
 31
0.0
  0
ARC
  8
0
  6
CONTINUOUS
 62
     2
 10
106.332342851
 20
86.826666891
 30
0.0
 40
0.25
 50
18.184738537
 51
191.815261463
  0
ARC
  8
0
  6
CONTINUOUS
 62
     2
 10
106.397047613
 20
86.585185434
 30
0.0
 40
0.25
 50
17.865983982
 51
192.134016017
  0
LINE
  8
0
  6
CONTINUOUS
 62
     2
 10
107.507673011
 20
87.595334351
 30
0.0
 11
107.685483704
 21
87.417627468
 31
0.0
  0
LINE
  8
0
  6
CONTINUOUS
 62
     2
 10
107.154665649
 20
87.242326989
 30
0.0
 11
107.332372532
 21
87.064516296
 31
0.0
  0
ARC
  8
0
  6
CONTINUOUS
 62
     2
 10
107.340990258
 20
87.409009742
 30
0.0
 40
0.25
 50
48.184738537
 51
221.815261463
  0
ARC
  8
0
  6
CONTINUOUS
 62
     2
 10
107.517766953
 20
87.232233047
 30
0.0
 40
0.25
 50
47.865983982
 51
222.134016017
  0
LINE
  8
0
  6
CONTINUOUS
 62
     2
 10
107.974522304
 20
88.662360369
 30
0.0
 11
108.217364323
 21
88.597367041
 31
0.0
  0
LINE
  8
0
  6
CONTINUOUS
 62
     2
 10
107.845312642
 20
88.180143345
 30
0.0
 11
108.088116663
 21
88.115008209
 31
0.0
  0
ARC
  8
0
  6
CONTINUOUS
 62
     2
 10
107.923333109
 20
88.417657149
 30
0.0
 40
0.25
 50
78.184738537
 51
251.815261463
  0
ARC
  8
0
  6
CONTINUOUS
 62
     2
 10
108.164814566
 20
88.352952387
 30
0.0
 40
0.25
 50
77.865983982
 51
252.134016017
  0
ARC
  8
0
  6
CONTINUOUS
 62
     2
 10
105.75
 20
89.0
 30
0.0
 40
2.5
 50
290.731967965
 51
309.268032035
  0
ARC
  8
0
  6
CONTINUOUS
 62
     2
 10
105.75
 20
89.0
 30
0.0
 40
2.25
 50
291.369477073
 51
308.630522927
  0
ARC
  8
0
  6
CONTINUOUS
 62
     2
 10
105.75
 20
89.0
 30
0.0
 40
2.5
 50
320.731967965
 51
339.268032035
  0
ARC
  8
0
  6
CONTINUOUS
 62
     2
 10
105.75
 20
89.0
 30
0.0
 40
2.25
 50
321.369477073
 51
338.630522927
  0
ARC
  8
0
  6
CONTINUOUS
 62
     2
 10
105.75
 20
89.0
 30
0.0
 40
2.25
 50
261.369477073
 51
278.630522927
  0
ARC
  8
0
  6
CONTINUOUS
 62
     2
 10
105.75
 20
89.0
 30
0.0
 40
2.5
 50
260.731967965
 51
279.268032035
  0
LINE
  8
0
  6
CONTINUOUS
 62
     2
 10
104.930143345
 20
91.095312642
 30
0.0
 11
104.865008209
 21
91.338116663
 31
0.0
  0
LINE
  8
0
  6
CONTINUOUS
 62
     2
 10
105.412360369
 20
91.224522304
 30
0.0
 11
105.347367041
 21
91.467364323
 31
0.0
  0
ARC
  8
0
  6
CONTINUOUS
 62
     2
 10
105.167657149
 20
91.173333109
 30
0.0
 40
0.25
 50
198.184738537
 51
11.815261463
  0
ARC
  8
0
  6
CONTINUOUS
 62
     2
 10
105.102952387
 20
91.414814566
 30
0.0
 40
0.25
 50
197.865983982
 51
12.134016017
  0
LINE
  8
0
  6
CONTINUOUS
 62
     2
 10
103.992326989
 20
90.404665649
 30
0.0
 11
103.814516296
 21
90.582372532
 31
0.0
  0
LINE
  8
0
  6
CONTINUOUS
 62
     2
 10
104.345334351
 20
90.757673011
 30
0.0
 11
104.167627468
 21
90.935483704
 31
0.0
  0
ARC
  8
0
  6
CONTINUOUS
 62
     2
 10
104.159009742
 20
90.590990258
 30
0.0
 40
0.25
 50
228.184738537
 51
41.815261463
  0
ARC
  8
0
  6
CONTINUOUS
 62
     2
 10
103.982233047
 20
90.767766953
 30
0.0
 40
0.25
 50
227.865983982
 51
42.134016017
  0
LINE
  8
0
  6
CONTINUOUS
 62
     2
 10
103.525477696
 20
89.337639631
 30
0.0
 11
103.282635677
 21
89.402632959
 31
0.0
  0
LINE
  8
0
  6
CONTINUOUS
 62
     2
 10
103.654687358
 20
89.819856655
 30
0.0
 11
103.411883337
 21
89.884991791
 31
0.0
  0
ARC
  8
0
  6
CONTINUOUS
 62
     2
 10
103.576666891
 20
89.582342851
 30
0.0
 40
0.25
 50
258.184738537
 51
71.815261463
  0
ARC
  8
0
  6
CONTINUOUS
 62
     2
 10
103.335185434
 20
89.647047613
 30
0.0
 40
0.25
 50
257.865983982
 51
72.134016017
  0
ARC
  8
0
  6
CONTINUOUS
 62
     2
 10
105.75
 20
89.0
 30
0.0
 40
2.5
 50
110.731967965
 51
129.268032035
  0
ARC
  8
0
  6
CONTINUOUS
 62
     2
 10
105.75
 20
89.0
 30
0.0
 40
2.25
 50
111.369477073
 51
128.630522927
  0
ARC
  8
0
  6
CONTINUOUS
 62
     2
 10
105.75
 20
89.0
 30
0.0
 40
2.5
 50
140.731967965
 51
159.268032035
  0
ARC
  8
0
  6
CONTINUOUS
 62
     2
 10
105.75
 20
89.0
 30
0.0
 40
2.25
 50
141.369477073
 51
158.630522927
  0
LINE
  8
0
  6
CONTINUOUS
 62
     2
 10
106.569856655
 20
91.095312642
 30
0.0
 11
106.634991791
 21
91.338116663
 31
0.0
  0
LINE
  8
0
  6
CONTINUOUS
 62
     2
 10
106.087639631
 20
91.224522304
 30
0.0
 11
106.152632959
 21
91.467364323
 31
0.0
  0
ARC
  8
0
  6
CONTINUOUS
 62
     2
 10
106.332342851
 20
91.173333109
 30
0.0
 40
0.25
 50
168.184738537
 51
341.815261463
  0
ARC
  8
0
  6
CONTINUOUS
 62
     2
 10
106.397047613
 20
91.414814566
 30
0.0
 40
0.25
 50
167.865983983
 51
342.134016018
  0
LINE
  8
0
  6
CONTINUOUS
 62
     2
 10
107.507673011
 20
90.404665649
 30
0.0
 11
107.685483704
 21
90.582372532
 31
0.0
  0
LINE
  8
0
  6
CONTINUOUS
 62
     2
 10
107.154665649
 20
90.757673011
 30
0.0
 11
107.332372532
 21
90.935483704
 31
0.0
  0
ARC
  8
0
  6
CONTINUOUS
 62
     2
 10
107.340990258
 20
90.590990258
 30
0.0
 40
0.25
 50
138.184738537
 51
311.815261463
  0
ARC
  8
0
  6
CONTINUOUS
 62
     2
 10
107.517766953
 20
90.767766953
 30
0.0
 40
0.25
 50
137.865983983
 51
312.134016018
  0
LINE
  8
0
  6
CONTINUOUS
 62
     2
 10
107.974522304
 20
89.337639631
 30
0.0
 11
108.217364323
 21
89.402632959
 31
0.0
  0
LINE
  8
0
  6
CONTINUOUS
 62
     2
 10
107.845312642
 20
89.819856655
 30
0.0
 11
108.088116663
 21
89.884991791
 31
0.0
  0
ARC
  8
0
  6
CONTINUOUS
 62
     2
 10
107.923333109
 20
89.582342851
 30
0.0
 40
0.25
 50
108.184738537
 51
281.815261463
  0
ARC
  8
0
  6
CONTINUOUS
 62
     2
 10
108.164814566
 20
89.647047613
 30
0.0
 40
0.25
 50
107.865983983
 51
282.134016018
  0
ARC
  8
0
  6
CONTINUOUS
 62
     2
 10
105.75
 20
89.0
 30
0.0
 40
2.5
 50
50.731967965
 51
69.268032035
  0
ARC
  8
0
  6
CONTINUOUS
 62
     2
 10
105.75
 20
89.0
 30
0.0
 40
2.25
 50
51.369477073
 51
68.630522927
  0
ARC
  8
0
  6
CONTINUOUS
 62
     2
 10
105.75
 20
89.0
 30
0.0
 40
2.5
 50
20.731967965
 51
39.268032035
  0
ARC
  8
0
  6
CONTINUOUS
 62
     2
 10
105.75
 20
89.0
 30
0.0
 40
2.25
 50
21.369477073
 51
38.630522927
  0
ARC
  8
0
  6
CONTINUOUS
 62
     2
 10
105.75
 20
89.0
 30
0.0
 40
2.25
 50
81.369477073
 51
98.630522927
  0
ARC
  8
0
  6
CONTINUOUS
 62
     2
 10
105.75
 20
89.0
 30
0.0
 40
2.5
 50
80.731967965
 51
99.268032035
  0
ARC
  8
0
  6
CONTINUOUS
 62
     2
 10
105.75
 20
89.0
 30
0.0
 40
2.5
 50
170.731967965
 51
189.268032035
  0
ARC
  8
0
  6
CONTINUOUS
 62
     2
 10
105.75
 20
89.0
 30
0.0
 40
2.5
 50
350.731967965
 51
9.268032035
  0
ARC
  8
0
  6
CONTINUOUS
 62
     2
 10
105.75
 20
89.0
 30
0.0
 40
2.25
 50
171.369477073
 51
188.630522927
  0
ARC
  8
0
  6
CONTINUOUS
 62
     2
 10
105.75
 20
89.0
 30
0.0
 40
2.25
 50
351.369477073
 51
8.630522927
  0
LINE
  8
0
  6
LTYPE2
 62
     2
 10
102.75
 20
89.0
 30
0.0
 11
108.75
 21
89.0
 31
0.0
  0
LINE
  8
0
  6
LTYPE2
 62
     2
 10
105.75
 20
92.0
 30
0.0
 11
105.75
 21
86.0
 31
0.0
  0
CIRCLE
  8
0
  6
CONTINUOUS
 62
     2
 10
105.75
 20
89.0
 30
0.0
 40
2.5
  0
LINE
  8
0
  6
CONTINUOUS
 62
     2
 10
107.0
 20
86.834936491
 30
0.0
 11
107.647047613
 21
84.420121925
 31
0.0
  0
LINE
  8
0
  6
CONTINUOUS
 62
     2
 10
107.0
 20
86.834936491
 30
0.0
 11
108.767766953
 21
85.067169538
 31
0.0
  0
LINE
  8
0
  6
CONTINUOUS
 62
     2
 10
83.507806065
 20
109.079171955
 30
0.0
 11
93.482571476
 21
98.75
 31
0.0
  0
LINE
  8
0
  6
CONTINUOUS
 62
     2
 10
93.135030578
 20
98.75
 30
0.0
 11
83.327971115
 21
108.905507363
 31
0.0
  0
POLYLINE
  8
0
  6
CONTINUOUS
 62
     2
 66
     1
  0
VERTEX
  8
0
  6
CONTINUOUS
 62
     2
 10
118.712477852
 20
109.667155521
 30
0.0
  0
VERTEX
  8
0
  6
CONTINUOUS
 62
     2
 10
118.774106269
 20
108.962739495
 30
0.0
  0
VERTEX
  8
0
  6
CONTINUOUS
 62
     2
 10
110.437144662
 20
98.75
 30
0.0
  0
SEQEND
  0
LINE
  8
0
  6
CONTINUOUS
 62
     2
 10
109.551896681
 20
98.75
 30
0.0
 11
118.712477852
 21
109.667155521
 31
0.0
  0
LINE
  8
0
  6
CONTINUOUS
 62
     2
 10
87.0
 20
94.25
 30
0.0
 11
117.0
 21
94.25
 31
0.0
  0
TEXT
  8
0
  6
CONTINUOUS
 62
     2
 10
110.946152423
 20
81.0
 30
0.3
 40
3.0
  1
Ｈ側設定ツマミ
 50
0.0
 41
0.6
 51
0.0
  7
KANJI0
  0
TEXT
  8
0
  6
CONTINUOUS
 62
     2
 10
110.946152423
 20
76.0
 30
0.3
 40
3.0
  1
（中央赤色）
 50
0.0
 41
0.6
 51
0.0
  7
KANJI0
  0
LINE
  8
0
  6
CONTINUOUS
 62
     2
 10
110.946152423
 20
80.0
 30
0.0
 11
125.346152423
 21
80.0
 31
0.0
  0
LINE
  8
0
  6
CONTINUOUS
 62
     2
 10
107.0
 20
86.834936491
 30
0.0
 11
110.946152423
 21
80.0
 31
0.0
  0
CIRCLE
  8
0
  6
CONTINUOUS
 62
     2
 10
98.0
 20
58.0
 30
0.0
 40
1.375
  0
CIRCLE
  8
0
  6
CONTINUOUS
 62
     2
 10
98.0
 20
62.5
 30
0.0
 40
1.375
  0
CIRCLE
  8
0
  6
CONTINUOUS
 62
     2
 10
98.0
 20
67.0
 30
0.0
 40
1.375
  0
CIRCLE
  8
0
  6
CONTINUOUS
 62
     2
 10
98.0
 20
53.5
 30
0.0
 40
1.375
  0
CIRCLE
  8
0
  6
CONTINUOUS
 62
     2
 10
98.0
 20
49.0
 30
0.0
 40
1.375
  0
CIRCLE
  8
0
  6
CONTINUOUS
 62
     2
 10
106.0
 20
58.0
 30
0.0
 40
1.375
  0
CIRCLE
  8
0
  6
CONTINUOUS
 62
     2
 10
106.0
 20
62.5
 30
0.0
 40
1.375
  0
CIRCLE
  8
0
  6
CONTINUOUS
 62
     2
 10
106.0
 20
67.0
 30
0.0
 40
1.375
  0
CIRCLE
  8
0
  6
CONTINUOUS
 62
     2
 10
106.0
 20
53.5
 30
0.0
 40
1.375
  0
CIRCLE
  8
0
  6
CONTINUOUS
 62
     2
 10
106.0
 20
49.0
 30
0.0
 40
1.375
  0
LINE
  8
0
  6
CONTINUOUS
 62
     2
 10
90.0
 20
67.0
 30
0.0
 11
92.414814566
 21
66.352952387
 31
0.0
  0
LINE
  8
0
  6
CONTINUOUS
 62
     2
 10
90.0
 20
67.0
 30
0.0
 11
92.414814566
 21
67.647047613
 31
0.0
  0
LINE
  8
0
  6
CONTINUOUS
 62
     2
 10
90.0
 20
62.5
 30
0.0
 11
92.414814566
 21
61.852952387
 31
0.0
  0
LINE
  8
0
  6
CONTINUOUS
 62
     2
 10
90.0
 20
62.5
 30
0.0
 11
92.414814566
 21
63.147047613
 31
0.0
  0
LINE
  8
0
  6
CONTINUOUS
 62
     2
 10
96.625
 20
62.5
 30
0.0
 11
90.0
 21
62.5
 31
0.0
  0
LINE
  8
0
  6
CONTINUOUS
 62
     2
 10
94.5
 20
67.0
 30
0.0
 11
90.0
 21
67.0
 31
0.0
  0
TEXT
  8
0
  6
CONTINUOUS
 62
     2
 10
94.0
 20
66.5
 30
0.1
 40
1.0
  1
（＋）
 50
0.0
 41
0.9
 51
0.0
  7
KANJI1
  0
LINE
  8
0
  6
CONTINUOUS
 62
     2
 10
107.375
 20
62.5
 30
0.0
 11
114.0
 21
62.5
 31
0.0
  0
LINE
  8
0
  6
CONTINUOUS
 62
     2
 10
109.5
 20
67.0
 30
0.0
 11
114.0
 21
67.0
 31
0.0
  0
TEXT
  8
0
  6
CONTINUOUS
 62
     2
 10
107.1
 20
66.5
 30
0.1
 40
1.0
  1
（＋）
 50
0.0
 41
0.9
 51
0.0
  7
KANJI1
  0
TEXT
  8
0
  6
CONTINUOUS
 62
     2
 10
110.9
 20
63.3
 30
0.3
 40
3.0
  1
制御電源
 50
0.0
 41
0.9
 51
0.0
  7
KANJI2
  0
TEXT
  8
0
  6
CONTINUOUS
 62
     2
 10
77.9
 20
63.3
 30
0.3
 40
3.0
  1
計器入力
 50
0.0
 41
0.9
 51
0.0
  7
KANJI2
  0
CIRCLE
  8
0
  6
CONTINUOUS
 62
     2
 10
94.0
 20
58.0
 30
0.0
 40
1.0
  0
LINE
  8
0
  6
CONTINUOUS
 62
     2
 10
86.647047613
 20
55.585185434
 30
0.0
 11
87.294095226
 21
58.0
 31
0.0
  0
LINE
  8
0
  6
CONTINUOUS
 62
     2
 10
86.647047613
 20
55.585185434
 30
0.0
 11
86.0
 21
58.0
 31
0.0
  0
LINE
  8
0
  6
CONTINUOUS
 62
     2
 10
86.647047613
 20
51.414814566
 30
0.0
 11
87.294095226
 21
49.0
 31
0.0
  0
LINE
  8
0
  6
CONTINUOUS
 62
     2
 10
86.647047613
 20
51.414814566
 30
0.0
 11
86.0
 21
49.0
 31
0.0
  0
LINE
  8
0
  6
CONTINUOUS
 62
     2
 10
86.647047613
 20
50.642073905
 30
0.0
 11
86.260645075
 21
49.2
 31
0.0
  0
LINE
  8
0
  6
CONTINUOUS
 62
     2
 10
86.647047613
 20
49.869333244
 30
0.0
 11
86.521290149
 21
49.4
 31
0.0
  0
POLYLINE
  8
0
  6
CONTINUOUS
 62
     2
 66
     1
  0
VERTEX
  8
0
  6
CONTINUOUS
 62
     2
 10
86.647047613
 20
49.869333244
 30
0.0
  0
VERTEX
  8
0
  6
CONTINUOUS
 62
     2
 10
86.772805076
 20
49.4
 30
0.0
  0
VERTEX
  8
0
  6
CONTINUOUS
 62
     2
 10
86.521290149
 20
49.4
 30
0.0
  0
SEQEND
  0
LINE
  8
0
  6
CONTINUOUS
 62
     2
 10
86.647047613
 20
50.642073905
 30
0.0
 11
87.033450151
 21
49.2
 31
0.0
  0
LINE
  8
0
  6
CONTINUOUS
 62
     2
 10
86.260645075
 20
49.2
 30
0.0
 11
87.033450151
 21
49.2
 31
0.0
  0
CIRCLE
  8
0
  6
CONTINUOUS
 62
     2
 10
94.0
 20
53.5
 30
0.0
 40
1.0
  0
CIRCLE
  8
0
  6
CONTINUOUS
 62
     2
 10
94.0
 20
49.0
 30
0.0
 40
1.0
  0
LINE
  8
0
  6
CONTINUOUS
 62
     2
 10
93.0
 20
58.0
 30
0.0
 11
86.0
 21
58.0
 31
0.0
  0
LINE
  8
0
  6
CONTINUOUS
 62
     2
 10
93.037936749
 20
53.227173498
 30
0.0
 11
85.647047613
 21
51.131229779
 31
0.0
  0
LINE
  8
0
  6
CONTINUOUS
 62
     2
 10
93.0
 20
49.0
 30
0.0
 11
86.0
 21
49.0
 31
0.0
  0
TEXT
  8
0
  6
CONTINUOUS
 62
     2
 10
94.9
 20
57.4
 30
0.2
 40
2.0
  1
ａ
 50
0.0
 41
0.9
 51
0.0
  7
KANJI3
  0
TEXT
  8
0
  6
CONTINUOUS
 62
     2
 10
94.9
 20
52.9
 30
0.2
 40
2.0
  1
ｃ
 50
0.0
 41
0.9
 51
0.0
  7
KANJI3
  0
TEXT
  8
0
  6
CONTINUOUS
 62
     2
 10
94.9
 20
48.4
 30
0.2
 40
2.0
  1
ｂ
 50
0.0
 41
0.9
 51
0.0
  7
KANJI3
  0
LINE
  8
0
  6
CONTINUOUS
 62
     2
 10
118.712477852
 20
109.667155521
 30
0.0
 11
117.857427494
 21
112.016387073
 31
0.0
  0
LINE
  8
0
  6
CONTINUOUS
 62
     2
 10
118.712477852
 20
109.667155521
 30
0.0
 11
116.797366744
 21
111.274124545
 31
0.0
  0
LINE
  8
0
  6
CONTINUOUS
 62
     2
 10
125.877964871
 20
117.0
 30
0.0
 11
113.577964871
 21
117.0
 31
0.0
  0
TEXT
  8
0
  6
CONTINUOUS
 62
     2
 10
113.577964871
 20
118.0
 30
0.3
 40
3.0
  1
Ｈ側設定指針
 50
0.0
 41
0.6
 51
0.0
  7
KANJI0
  0
TEXT
  8
0
  6
CONTINUOUS
 62
     2
 10
116.577964871
 20
113.0
 30
0.3
 40
3.0
  1
（赤色）
 50
0.0
 41
0.6
 51
0.0
  7
KANJI0
  0
LINE
  8
0
  6
CONTINUOUS
 62
     2
 10
118.712477852
 20
109.667155521
 30
0.0
 11
113.577964871
 21
117.0
 31
0.0
  0
LINE
  8
0
  6
CONTINUOUS
 62
     2
 10
83.427971115
 20
109.005507363
 30
0.0
 11
82.780923502
 21
111.420321928
 31
0.0
  0
LINE
  8
0
  6
CONTINUOUS
 62
     2
 10
83.427971115
 20
109.005507363
 30
0.0
 11
81.660204162
 21
110.773274316
 31
0.0
  0
LINE
  8
0
  6
CONTINUOUS
 62
     2
 10
82.712348639
 20
117.0
 30
0.0
 11
78.812348639
 21
117.0
 31
0.0
  0
TEXT
  8
0
  6
CONTINUOUS
 62
     2
 10
78.812348639
 20
118.0
 30
0.3
 40
3.0
  1
指針
 50
0.0
 41
0.6
 51
0.0
  7
KANJI0
  0
LINE
  8
0
  6
CONTINUOUS
 62
     2
 10
83.427971115
 20
109.005507363
 30
0.0
 11
78.812348639
 21
117.0
 31
0.0
  0
TEXT
  8
0
  6
CONTINUOUS
 62
     2
 10
76.9
 20
55.3
 30
0.3
 40
3.0
  1
Ｈ側
 50
0.0
 41
0.9
 51
0.0
  7
KANJI2
  0
TEXT
  8
0
  6
CONTINUOUS
 62
     2
 10
74.9
 20
50.3
 30
0.2
 40
3.0
  1
負荷リレ－
 50
0.0
 41
0.7
 51
0.0
  7
KANJI4
  0
TEXT
  8
0
  6
CONTINUOUS
 62
     2
 10
84.0
 20
176.75
 30
0.3
 40
3.0
  1
０．５
 50
0.0
 41
0.6
 51
0.0
  7
KANJI0
  0
LINE
  8
0
  6
CONTINUOUS
 62
     2
 10
83.0
 20
175.75
 30
0.0
 11
95.25
 21
175.75
 31
0.0
  0
LINE
  8
0
  6
CONTINUOUS
 62
     2
 10
95.25
 20
175.75
 30
0.0
 11
97.664814566
 21
176.397047613
 31
0.0
  0
LINE
  8
0
  6
CONTINUOUS
 62
     2
 10
95.25
 20
175.75
 30
0.0
 11
97.664814566
 21
175.102952387
 31
0.0
  0
LINE
  8
0
  6
CONTINUOUS
 62
     2
 10
90.25
 20
175.75
 30
0.0
 11
100.25
 21
175.75
 31
0.0
  0
CIRCLE
  8
0
  6
CONTINUOUS
 62
     2
 10
90.25
 20
175.75
 30
0.0
 40
0.1
  0
TEXT
  8
0
  6
CONTINUOUS
 62
     2
 10
99.724464586
 20
125.25
 30
0.3
 40
3.0
  1
４－Ｍ３取付ボルト
 50
0.0
 41
0.6
 51
0.0
  7
KANJI0
  0
LINE
  8
0
  6
CONTINUOUS
 62
     2
 10
99.724464586
 20
124.25
 30
0.0
 11
118.124464586
 21
124.25
 31
0.0
  0
TEXT
  8
0
  6
CONTINUOUS
 62
     2
 10
94.0
 20
68.0
 30
0.3
 40
3.0
  1
注２
 50
0.0
 41
0.6
 51
0.0
  7
KANJI0
  0
TEXT
  8
0
  6
CONTINUOUS
 62
     2
 10
107.3
 20
68.0
 30
0.3
 40
3.0
  1
注２
 50
0.0
 41
0.6
 51
0.0
  7
KANJI0
  0
TEXT
  8
0
  6
CONTINUOUS
 62
     2
 10
83.5
 20
40.0
 30
0.3
 40
3.0
  1
Ｈ設定用端子構成及び設定部
 50
0.0
 41
0.9
 51
0.0
  7
KANJI2
  0
LINE
  8
0
  6
CONTINUOUS
 62
     2
 10
83.0
 20
39.0
 30
0.0
 11
122.0
 21
39.0
 31
0.0
  0
TEXT
  8
0
  6
CONTINUOUS
 62
     2
 10
99.9
 20
66.25
 30
0.15
 40
1.5
  1
１
 50
0.0
 41
0.9
 51
0.0
  7
KANJI6
  0
TEXT
  8
0
  6
CONTINUOUS
 62
     2
 10
99.9
 20
61.75
 30
0.15
 40
1.5
  1
２
 50
0.0
 41
0.9
 51
0.0
  7
KANJI6
  0
TEXT
  8
0
  6
CONTINUOUS
 62
     2
 10
99.9
 20
57.25
 30
0.15
 40
1.5
  1
３
 50
0.0
 41
0.9
 51
0.0
  7
KANJI6
  0
TEXT
  8
0
  6
CONTINUOUS
 62
     2
 10
99.9
 20
52.75
 30
0.15
 40
1.5
  1
４
 50
0.0
 41
0.9
 51
0.0
  7
KANJI6
  0
TEXT
  8
0
  6
CONTINUOUS
 62
     2
 10
99.9
 20
48.25
 30
0.15
 40
1.5
  1
５
 50
0.0
 41
0.9
 51
0.0
  7
KANJI6
  0
TEXT
  8
0
  6
CONTINUOUS
 62
     2
 10
102.9
 20
66.25
 30
0.15
 40
1.5
  1
９
 50
0.0
 41
0.9
 51
0.0
  7
KANJI6
  0
TEXT
  8
0
  6
CONTINUOUS
 62
     2
 10
102.9
 20
61.75
 30
0.15
 40
1.5
  1
１０
 50
0.0
 41
0.45
 51
0.0
  7
KANJI7
  0
TEXT
  8
0
  6
CONTINUOUS
 62
     2
 10
102.9
 20
57.25
 30
0.15
 40
1.5
  1
６
 50
0.0
 41
0.9
 51
0.0
  7
KANJI6
  0
TEXT
  8
0
  6
CONTINUOUS
 62
     2
 10
102.9
 20
52.75
 30
0.15
 40
1.5
  1
７
 50
0.0
 41
0.9
 51
0.0
  7
KANJI6
  0
TEXT
  8
0
  6
CONTINUOUS
 62
     2
 10
102.9
 20
48.25
 30
0.15
 40
1.5
  1
８
 50
0.0
 41
0.9
 51
0.0
  7
KANJI6
  0
POLYLINE
  8
0
  6
CONTINUOUS
 62
     2
 66
     1
  0
VERTEX
  8
0
  6
CONTINUOUS
 62
     2
 10
140.75
 20
149.25
 30
0.0
  0
VERTEX
  8
0
  6
CONTINUOUS
 62
     2
 10
141.25
 20
149.25
 30
0.0
  0
VERTEX
  8
0
  6
CONTINUOUS
 62
     2
 10
141.25
 20
146.75
 30
0.0
  0
VERTEX
  8
0
  6
CONTINUOUS
 62
     2
 10
140.75
 20
146.75
 30
0.0
  0
SEQEND
  0
LINE
  8
0
  6
CONTINUOUS
 62
     2
 10
140.75
 20
153.75
 30
0.0
 11
141.25
 21
153.75
 31
0.0
  0
POLYLINE
  8
0
  6
CONTINUOUS
 62
     2
 66
     1
  0
VERTEX
  8
0
  6
CONTINUOUS
 62
     2
 10
141.25
 20
153.75
 30
0.0
  0
VERTEX
  8
0
  6
CONTINUOUS
 62
     2
 10
141.25
 20
151.25
 30
0.0
  0
VERTEX
  8
0
  6
CONTINUOUS
 62
     2
 10
140.75
 20
151.25
 30
0.0
  0
SEQEND
  0
LINE
  8
0
  6
CONTINUOUS
 62
     2
 10
140.75
 20
158.25
 30
0.0
 11
141.25
 21
158.25
 31
0.0
  0
POLYLINE
  8
0
  6
CONTINUOUS
 62
     2
 66
     1
  0
VERTEX
  8
0
  6
CONTINUOUS
 62
     2
 10
141.25
 20
158.25
 30
0.0
  0
VERTEX
  8
0
  6
CONTINUOUS
 62
     2
 10
141.25
 20
155.75
 30
0.0
  0
VERTEX
  8
0
  6
CONTINUOUS
 62
     2
 10
140.75
 20
155.75
 30
0.0
  0
SEQEND
  0
LINE
  8
0
  6
CONTINUOUS
 62
     2
 10
140.75
 20
144.75
 30
0.0
 11
141.25
 21
144.75
 31
0.0
  0
POLYLINE
  8
0
  6
CONTINUOUS
 62
     2
 66
     1
  0
VERTEX
  8
0
  6
CONTINUOUS
 62
     2
 10
141.25
 20
144.75
 30
0.0
  0
VERTEX
  8
0
  6
CONTINUOUS
 62
     2
 10
141.25
 20
142.25
 30
0.0
  0
VERTEX
  8
0
  6
CONTINUOUS
 62
     2
 10
140.75
 20
142.25
 30
0.0
  0
SEQEND
  0
LINE
  8
0
  6
CONTINUOUS
 62
     2
 10
140.75
 20
140.25
 30
0.0
 11
141.25
 21
140.25
 31
0.0
  0
POLYLINE
  8
0
  6
CONTINUOUS
 62
     2
 66
     1
  0
VERTEX
  8
0
  6
CONTINUOUS
 62
     2
 10
141.25
 20
140.25
 30
0.0
  0
VERTEX
  8
0
  6
CONTINUOUS
 62
     2
 10
141.25
 20
137.75
 30
0.0
  0
VERTEX
  8
0
  6
CONTINUOUS
 62
     2
 10
140.75
 20
137.75
 30
0.0
  0
SEQEND
  0
LINE
  8
0
  6
CONTINUOUS
 62
     2
 10
144.0
 20
159.5
 30
0.0
 11
144.0
 21
136.5
 31
0.0
  0
LINE
  8
0
  6
CONTINUOUS
 62
     2
 10
144.25
 20
159.5
 30
0.0
 11
144.25
 21
136.5
 31
0.0
  0
LINE
  8
0
  6
CONTINUOUS
 62
     2
 10
141.25
 20
158.25
 30
0.0
 11
141.25
 21
155.75
 31
0.0
  0
LINE
  8
0
  6
CONTINUOUS
 62
     2
 10
141.25
 20
158.25
 30
0.0
 11
141.25
 21
158.375
 31
0.0
  0
LINE
  8
0
  6
CONTINUOUS
 62
     2
 10
141.25
 20
158.375
 30
0.0
 11
141.794766293
 21
158.375
 31
0.0
  0
ARC
  8
0
  6
CONTINUOUS
 62
     2
 10
141.631682295
 20
157.902344089
 30
0.0
 40
0.5
 50
34.773912785
 51
70.963647363
  0
LINE
  8
0
  6
CONTINUOUS
 62
     2
 10
141.25
 20
155.75
 30
0.0
 11
141.25
 21
155.625
 31
0.0
  0
LINE
  8
0
  6
CONTINUOUS
 62
     2
 10
141.25
 20
155.625
 30
0.0
 11
141.794766293
 21
155.625
 31
0.0
  0
ARC
  8
0
  6
CONTINUOUS
 62
     2
 10
141.631682295
 20
156.097655911
 30
0.0
 40
0.5
 50
289.036352637
 51
325.226087215
  0
LINE
  8
0
  6
CONTINUOUS
 62
     2
 10
142.25
 20
157.2
 30
0.0
 11
141.7
 21
157.2
 31
0.0
  0
LINE
  8
0
  6
CONTINUOUS
 62
     2
 10
141.7
 20
157.2
 30
0.0
 11
141.7
 21
156.8
 31
0.0
  0
LINE
  8
0
  6
CONTINUOUS
 62
     2
 10
141.7
 20
156.8
 30
0.0
 11
142.25
 21
156.8
 31
0.0
  0
ARC
  8
0
  6
CONTINUOUS
 62
     2
 10
138.75
 20
157.0
 30
0.0
 40
3.5
 50
3.270487923
 51
19.833603907
  0
ARC
  8
0
  6
CONTINUOUS
 62
     2
 10
138.75
 20
157.0
 30
0.0
 40
3.5
 50
340.166396093
 51
356.729512077
  0
LINE
  8
0
  6
CONTINUOUS
 62
     2
 10
141.25
 20
153.75
 30
0.0
 11
141.25
 21
151.25
 31
0.0
  0
LINE
  8
0
  6
CONTINUOUS
 62
     2
 10
141.25
 20
153.75
 30
0.0
 11
141.25
 21
153.875
 31
0.0
  0
LINE
  8
0
  6
CONTINUOUS
 62
     2
 10
141.25
 20
153.875
 30
0.0
 11
141.794766293
 21
153.875
 31
0.0
  0
ARC
  8
0
  6
CONTINUOUS
 62
     2
 10
141.631682295
 20
153.402344089
 30
0.0
 40
0.5
 50
34.773912785
 51
70.963647363
  0
LINE
  8
0
  6
CONTINUOUS
 62
     2
 10
141.25
 20
151.25
 30
0.0
 11
141.25
 21
151.125
 31
0.0
  0
LINE
  8
0
  6
CONTINUOUS
 62
     2
 10
141.25
 20
151.125
 30
0.0
 11
141.794766293
 21
151.125
 31
0.0
  0
ARC
  8
0
  6
CONTINUOUS
 62
     2
 10
141.631682295
 20
151.597655911
 30
0.0
 40
0.5
 50
289.036352637
 51
325.226087215
  0
LINE
  8
0
  6
CONTINUOUS
 62
     2
 10
142.25
 20
152.7
 30
0.0
 11
141.7
 21
152.7
 31
0.0
  0
LINE
  8
0
  6
CONTINUOUS
 62
     2
 10
141.7
 20
152.7
 30
0.0
 11
141.7
 21
152.3
 31
0.0
  0
LINE
  8
0
  6
CONTINUOUS
 62
     2
 10
141.7
 20
152.3
 30
0.0
 11
142.25
 21
152.3
 31
0.0
  0
ARC
  8
0
  6
CONTINUOUS
 62
     2
 10
138.75
 20
152.5
 30
0.0
 40
3.5
 50
3.270487923
 51
19.833603907
  0
ARC
  8
0
  6
CONTINUOUS
 62
     2
 10
138.75
 20
152.5
 30
0.0
 40
3.5
 50
340.166396093
 51
356.729512077
  0
LINE
  8
0
  6
CONTINUOUS
 62
     2
 10
141.25
 20
149.25
 30
0.0
 11
141.25
 21
146.75
 31
0.0
  0
LINE
  8
0
  6
CONTINUOUS
 62
     2
 10
141.25
 20
149.25
 30
0.0
 11
141.25
 21
149.375
 31
0.0
  0
LINE
  8
0
  6
CONTINUOUS
 62
     2
 10
141.25
 20
149.375
 30
0.0
 11
141.794766293
 21
149.375
 31
0.0
  0
ARC
  8
0
  6
CONTINUOUS
 62
     2
 10
141.631682295
 20
148.902344089
 30
0.0
 40
0.5
 50
34.773912785
 51
70.963647363
  0
LINE
  8
0
  6
CONTINUOUS
 62
     2
 10
141.25
 20
146.75
 30
0.0
 11
141.25
 21
146.625
 31
0.0
  0
LINE
  8
0
  6
CONTINUOUS
 62
     2
 10
141.25
 20
146.625
 30
0.0
 11
141.794766293
 21
146.625
 31
0.0
  0
ARC
  8
0
  6
CONTINUOUS
 62
     2
 10
141.631682295
 20
147.097655911
 30
0.0
 40
0.5
 50
289.036352637
 51
325.226087215
  0
LINE
  8
0
  6
CONTINUOUS
 62
     2
 10
142.25
 20
148.2
 30
0.0
 11
141.7
 21
148.2
 31
0.0
  0
LINE
  8
0
  6
CONTINUOUS
 62
     2
 10
141.7
 20
148.2
 30
0.0
 11
141.7
 21
147.8
 31
0.0
  0
LINE
  8
0
  6
CONTINUOUS
 62
     2
 10
141.7
 20
147.8
 30
0.0
 11
142.25
 21
147.8
 31
0.0
  0
ARC
  8
0
  6
CONTINUOUS
 62
     2
 10
138.75
 20
148.0
 30
0.0
 40
3.5
 50
3.270487923
 51
19.833603907
  0
ARC
  8
0
  6
CONTINUOUS
 62
     2
 10
138.75
 20
148.0
 30
0.0
 40
3.5
 50
340.166396093
 51
356.729512077
  0
LINE
  8
0
  6
CONTINUOUS
 62
     2
 10
141.25
 20
144.75
 30
0.0
 11
141.25
 21
142.25
 31
0.0
  0
LINE
  8
0
  6
CONTINUOUS
 62
     2
 10
141.25
 20
144.75
 30
0.0
 11
141.25
 21
144.875
 31
0.0
  0
LINE
  8
0
  6
CONTINUOUS
 62
     2
 10
141.25
 20
144.875
 30
0.0
 11
141.794766293
 21
144.875
 31
0.0
  0
ARC
  8
0
  6
CONTINUOUS
 62
     2
 10
141.631682295
 20
144.402344089
 30
0.0
 40
0.5
 50
34.773912785
 51
70.963647363
  0
LINE
  8
0
  6
CONTINUOUS
 62
     2
 10
141.25
 20
142.25
 30
0.0
 11
141.25
 21
142.125
 31
0.0
  0
LINE
  8
0
  6
CONTINUOUS
 62
     2
 10
141.25
 20
142.125
 30
0.0
 11
141.794766293
 21
142.125
 31
0.0
  0
ARC
  8
0
  6
CONTINUOUS
 62
     2
 10
141.631682295
 20
142.597655911
 30
0.0
 40
0.5
 50
289.036352637
 51
325.226087215
  0
LINE
  8
0
  6
CONTINUOUS
 62
     2
 10
142.25
 20
143.7
 30
0.0
 11
141.7
 21
143.7
 31
0.0
  0
LINE
  8
0
  6
CONTINUOUS
 62
     2
 10
141.7
 20
143.7
 30
0.0
 11
141.7
 21
143.3
 31
0.0
  0
LINE
  8
0
  6
CONTINUOUS
 62
     2
 10
141.7
 20
143.3
 30
0.0
 11
142.25
 21
143.3
 31
0.0
  0
ARC
  8
0
  6
CONTINUOUS
 62
     2
 10
138.75
 20
143.5
 30
0.0
 40
3.5
 50
3.270487923
 51
19.833603907
  0
ARC
  8
0
  6
CONTINUOUS
 62
     2
 10
138.75
 20
143.5
 30
0.0
 40
3.5
 50
340.166396093
 51
356.729512077
  0
LINE
  8
0
  6
CONTINUOUS
 62
     2
 10
141.25
 20
140.25
 30
0.0
 11
141.25
 21
137.75
 31
0.0
  0
LINE
  8
0
  6
CONTINUOUS
 62
     2
 10
141.25
 20
140.25
 30
0.0
 11
141.25
 21
140.375
 31
0.0
  0
LINE
  8
0
  6
CONTINUOUS
 62
     2
 10
141.25
 20
140.375
 30
0.0
 11
141.794766293
 21
140.375
 31
0.0
  0
ARC
  8
0
  6
CONTINUOUS
 62
     2
 10
141.631682295
 20
139.902344089
 30
0.0
 40
0.5
 50
34.773912785
 51
70.963647363
  0
LINE
  8
0
  6
CONTINUOUS
 62
     2
 10
141.25
 20
137.75
 30
0.0
 11
141.25
 21
137.625
 31
0.0
  0
LINE
  8
0
  6
CONTINUOUS
 62
     2
 10
141.25
 20
137.625
 30
0.0
 11
141.794766293
 21
137.625
 31
0.0
  0
ARC
  8
0
  6
CONTINUOUS
 62
     2
 10
141.631682295
 20
138.097655911
 30
0.0
 40
0.5
 50
289.036352637
 51
325.226087215
  0
LINE
  8
0
  6
CONTINUOUS
 62
     2
 10
142.25
 20
139.2
 30
0.0
 11
141.7
 21
139.2
 31
0.0
  0
LINE
  8
0
  6
CONTINUOUS
 62
     2
 10
141.7
 20
139.2
 30
0.0
 11
141.7
 21
138.8
 31
0.0
  0
LINE
  8
0
  6
CONTINUOUS
 62
     2
 10
141.7
 20
138.8
 30
0.0
 11
142.25
 21
138.8
 31
0.0
  0
ARC
  8
0
  6
CONTINUOUS
 62
     2
 10
138.75
 20
139.0
 30
0.0
 40
3.5
 50
3.270487923
 51
19.833603907
  0
ARC
  8
0
  6
CONTINUOUS
 62
     2
 10
138.75
 20
139.0
 30
0.0
 40
3.5
 50
340.166396093
 51
356.729512077
  0
LINE
  8
0
  6
LTYPE3
 62
     2
 10
139.05
 20
157.0
 30
0.0
 11
144.5
 21
157.0
 31
0.0
  0
LINE
  8
0
  6
LTYPE3
 62
     2
 10
139.05
 20
152.5
 30
0.0
 11
144.5
 21
152.5
 31
0.0
  0
LINE
  8
0
  6
LTYPE3
 62
     2
 10
139.05
 20
148.0
 30
0.0
 11
145.5
 21
148.0
 31
0.0
  0
LINE
  8
0
  6
LTYPE3
 62
     2
 10
139.05
 20
143.5
 30
0.0
 11
144.5
 21
143.5
 31
0.0
  0
LINE
  8
0
  6
LTYPE3
 62
     2
 10
139.05
 20
139.0
 30
0.0
 11
144.5
 21
139.0
 31
0.0
  0
LINE
  8
0
  6
CONTINUOUS
 62
     2
 10
140.0
 20
164.529304445
 30
0.0
 11
140.0
 21
182.75
 31
0.0
  0
LINE
  8
0
  6
CONTINUOUS
 62
     2
 10
140.0
 20
180.75
 30
0.0
 11
137.585185434
 21
181.397047613
 31
0.0
  0
LINE
  8
0
  6
CONTINUOUS
 62
     2
 10
140.0
 20
180.75
 30
0.0
 11
137.585185434
 21
180.102952387
 31
0.0
  0
LINE
  8
0
  6
CONTINUOUS
 62
     2
 10
135.0
 20
180.75
 30
0.0
 11
150.25
 21
180.75
 31
0.0
  0
LINE
  8
0
  6
CONTINUOUS
 62
     2
 10
145.25
 20
180.75
 30
0.0
 11
147.664814566
 21
180.102952387
 31
0.0
  0
LINE
  8
0
  6
CONTINUOUS
 62
     2
 10
145.25
 20
180.75
 30
0.0
 11
147.664814566
 21
181.397047613
 31
0.0
  0
LINE
  8
0
  6
CONTINUOUS
 62
     2
 10
145.25
 20
161.6
 30
0.0
 11
145.25
 21
182.75
 31
0.0
  0
TEXT
  8
0
  6
CONTINUOUS
 62
     2
 10
139.875
 20
181.75
 30
0.0
 40
3.0
  1
１０．５
 50
0.0
 41
0.5
 51
0.0
  7
KANJI10
  0
LINE
  8
0
  6
CONTINUOUS
 62
     2
 10
144.25
 20
156.152627944
 30
0.0
 11
146.017766953
 21
157.920394897
 31
0.0
  0
LINE
  8
0
  6
CONTINUOUS
 62
     2
 10
144.25
 20
156.152627944
 30
0.0
 11
144.897047613
 21
158.56744251
 31
0.0
  0
LINE
  8
0
  6
CONTINUOUS
 62
     2
 10
144.25
 20
156.152627944
 30
0.0
 11
148.868802154
 21
164.152627944
 31
0.0
  0
LINE
  8
0
  6
CONTINUOUS
 62
     2
 10
148.868802154
 20
164.152627944
 30
0.0
 11
163.568802154
 21
164.152627944
 31
0.0
  0
TEXT
  8
0
  6
CONTINUOUS
 62
     2
 10
148.868802154
 20
165.152627944
 30
0.3
 40
3.0
  1
端子カバー
 50
0.0
 41
0.9
 51
0.0
  7
KANJI2
  0
POLYLINE
  8
0
  6
CONTINUOUS
 62
     1
 66
     1
  0
VERTEX
  8
0
  6
CONTINUOUS
 62
     1
 10
90.0
 20
170.75
 30
0.0
  0
VERTEX
  8
0
  6
CONTINUOUS
 62
     1
 10
84.15
 20
169.75
 30
0.0
  0
VERTEX
  8
0
  6
CONTINUOUS
 62
     1
 10
84.15
 20
169.0
 30
0.0
  0
SEQEND
  0
LINE
  8
0
  6
CONTINUOUS
 62
     1
 10
84.0
 20
144.25
 30
0.0
 11
84.15
 21
144.25
 31
0.0
  0
LINE
  8
0
  6
CONTINUOUS
 62
     1
 10
84.15
 20
144.25
 30
0.0
 11
84.15
 21
130.25
 31
0.0
  0
LINE
  8
0
  6
CONTINUOUS
 62
     1
 10
84.0
 20
169.0
 30
0.0
 11
84.0
 21
144.25
 31
0.0
  0
LINE
  8
0
  6
CONTINUOUS
 62
     1
 10
84.15
 20
130.25
 30
0.0
 11
90.0
 21
129.25
 31
0.0
  0
LINE
  8
0
  6
CONTINUOUS
 62
     1
 10
95.25
 20
164.22265625
 30
0.0
 11
138.0
 21
164.0
 31
0.0
  0
ARC
  8
0
  6
CONTINUOUS
 62
     1
 10
139.75
 20
163.529304445
 30
0.0
 40
0.25
 50
0.0
 51
82.874983651
  0
LINE
  8
0
  6
CONTINUOUS
 62
     1
 10
138.0
 20
164.0
 30
0.0
 11
139.781008684
 21
163.777373915
 31
0.0
  0
ARC
  8
0
  6
CONTINUOUS
 62
     1
 10
140.4
 20
161.4
 30
0.0
 40
0.4
 50
180.0
 51
270.0
  0
LINE
  8
0
  6
CONTINUOUS
 62
     1
 10
144.85
 20
161.0
 30
0.0
 11
140.4
 21
161.0
 31
0.0
  0
LINE
  8
0
  6
CONTINUOUS
 62
     1
 10
140.0
 20
163.529304445
 30
0.0
 11
140.0
 21
149.825
 31
0.0
  0
ARC
  8
0
  6
CONTINUOUS
 62
     1
 10
144.85
 20
159.9
 30
0.0
 40
0.4
 50
270.0
 51
360.0
  0
LINE
  8
0
  6
CONTINUOUS
 62
     1
 10
145.25
 20
159.9
 30
0.0
 11
145.25
 21
160.6
 31
0.0
  0
ARC
  8
0
  6
CONTINUOUS
 62
     1
 10
144.85
 20
160.6
 30
0.0
 40
0.4
 50
0.0
 51
90.0
  0
ARC
  8
0
  6
CONTINUOUS
 62
     1
 10
141.0
 20
158.55
 30
0.0
 40
0.25
 50
90.0
 51
180.0
  0
LINE
  8
0
  6
CONTINUOUS
 62
     1
 10
143.75
 20
158.8
 30
0.0
 11
141.0
 21
158.8
 31
0.0
  0
LINE
  8
0
  6
CONTINUOUS
 62
     1
 10
144.0
 20
159.5
 30
0.0
 11
144.85
 21
159.5
 31
0.0
  0
ARC
  8
0
  6
CONTINUOUS
 62
     1
 10
143.75
 20
159.05
 30
0.0
 40
0.25
 50
270.0
 51
0.0
  0
LINE
  8
0
  6
CONTINUOUS
 62
     1
 10
139.0
 20
149.575
 30
0.0
 11
139.0
 21
146.425
 31
0.0
  0
LINE
  8
0
  6
CONTINUOUS
 62
     1
 10
139.75
 20
149.575
 30
0.0
 11
139.0
 21
149.575
 31
0.0
  0
ARC
  8
0
  6
CONTINUOUS
 62
     1
 10
139.75
 20
149.825
 30
0.0
 40
0.25
 50
270.0
 51
360.0
  0
ARC
  8
0
  6
CONTINUOUS
 62
     1
 10
139.75
 20
146.175
 30
0.0
 40
0.25
 50
0.0
 51
90.0
  0
LINE
  8
0
  6
CONTINUOUS
 62
     1
 10
139.0
 20
146.425
 30
0.0
 11
139.75
 21
146.425
 31
0.0
  0
ARC
  8
0
  6
CONTINUOUS
 62
     1
 10
143.75
 20
145.95
 30
0.0
 40
0.25
 50
0.0
 51
90.0
  0
ARC
  8
0
  6
CONTINUOUS
 62
     1
 10
143.75
 20
145.55
 30
0.0
 40
0.25
 50
270.0
 51
0.0
  0
LINE
  8
0
  6
CONTINUOUS
 62
     1
 10
143.75
 20
145.3
 30
0.0
 11
141.0
 21
145.3
 31
0.0
  0
LINE
  8
0
  6
CONTINUOUS
 62
     1
 10
140.75
 20
149.55
 30
0.0
 11
140.75
 21
146.45
 31
0.0
  0
ARC
  8
0
  6
CONTINUOUS
 62
     1
 10
141.0
 20
146.45
 30
0.0
 40
0.25
 50
180.0
 51
270.0
  0
LINE
  8
0
  6
CONTINUOUS
 62
     1
 10
141.0
 20
146.2
 30
0.0
 11
143.75
 21
146.2
 31
0.0
  0
ARC
  8
0
  6
CONTINUOUS
 62
     1
 10
141.0
 20
149.55
 30
0.0
 40
0.25
 50
90.0
 51
180.0
  0
LINE
  8
0
  6
CONTINUOUS
 62
     1
 10
143.75
 20
149.8
 30
0.0
 11
141.0
 21
149.8
 31
0.0
  0
LINE
  8
0
  6
CONTINUOUS
 62
     1
 10
141.0
 20
150.7
 30
0.0
 11
143.75
 21
150.7
 31
0.0
  0
LINE
  8
0
  6
CONTINUOUS
 62
     1
 10
140.75
 20
154.05
 30
0.0
 11
140.75
 21
150.95
 31
0.0
  0
ARC
  8
0
  6
CONTINUOUS
 62
     1
 10
141.0
 20
150.95
 30
0.0
 40
0.25
 50
180.0
 51
270.0
  0
ARC
  8
0
  6
CONTINUOUS
 62
     1
 10
141.0
 20
154.05
 30
0.0
 40
0.25
 50
90.0
 51
180.0
  0
ARC
  8
0
  6
CONTINUOUS
 62
     1
 10
141.0
 20
155.45
 30
0.0
 40
0.25
 50
180.0
 51
270.0
  0
LINE
  8
0
  6
CONTINUOUS
 62
     1
 10
143.75
 20
154.3
 30
0.0
 11
141.0
 21
154.3
 31
0.0
  0
LINE
  8
0
  6
CONTINUOUS
 62
     1
 10
141.0
 20
155.2
 30
0.0
 11
143.75
 21
155.2
 31
0.0
  0
LINE
  8
0
  6
CONTINUOUS
 62
     1
 10
140.75
 20
158.55
 30
0.0
 11
140.75
 21
155.45
 31
0.0
  0
ARC
  8
0
  6
CONTINUOUS
 62
     1
 10
143.75
 20
150.05
 30
0.0
 40
0.25
 50
270.0
 51
0.0
  0
ARC
  8
0
  6
CONTINUOUS
 62
     1
 10
143.75
 20
150.45
 30
0.0
 40
0.25
 50
0.0
 51
90.0
  0
ARC
  8
0
  6
CONTINUOUS
 62
     1
 10
143.75
 20
154.55
 30
0.0
 40
0.25
 50
270.0
 51
0.0
  0
ARC
  8
0
  6
CONTINUOUS
 62
     1
 10
143.75
 20
154.95
 30
0.0
 40
0.25
 50
0.0
 51
90.0
  0
ARC
  8
0
  6
CONTINUOUS
 62
     1
 10
141.0
 20
145.05
 30
0.0
 40
0.25
 50
90.0
 51
180.0
  0
ARC
  8
0
  6
CONTINUOUS
 62
     1
 10
143.75
 20
141.45
 30
0.0
 40
0.25
 50
0.0
 51
90.0
  0
ARC
  8
0
  6
CONTINUOUS
 62
     1
 10
143.75
 20
141.05
 30
0.0
 40
0.25
 50
270.0
 51
0.0
  0
ARC
  8
0
  6
CONTINUOUS
 62
     1
 10
141.0
 20
141.95
 30
0.0
 40
0.25
 50
180.0
 51
270.0
  0
LINE
  8
0
  6
CONTINUOUS
 62
     1
 10
140.75
 20
145.05
 30
0.0
 11
140.75
 21
141.95
 31
0.0
  0
LINE
  8
0
  6
CONTINUOUS
 62
     1
 10
141.0
 20
141.7
 30
0.0
 11
143.75
 21
141.7
 31
0.0
  0
LINE
  8
0
  6
CONTINUOUS
 62
     1
 10
143.75
 20
140.8
 30
0.0
 11
141.0
 21
140.8
 31
0.0
  0
LINE
  8
0
  6
CONTINUOUS
 62
     1
 10
139.781008684
 20
132.222626085
 30
0.0
 11
138.0
 21
132.0
 31
0.0
  0
LINE
  8
0
  6
CONTINUOUS
 62
     1
 10
138.0
 20
132.0
 30
0.0
 11
95.25
 21
131.77734375
 31
0.0
  0
LINE
  8
0
  6
CONTINUOUS
 62
     1
 10
138.0
 20
164.0
 30
0.0
 11
138.0
 21
132.0
 31
0.0
  0
ARC
  8
0
  6
CONTINUOUS
 62
     1
 10
140.4
 20
134.6
 30
0.0
 40
0.4
 50
90.0
 51
180.0
  0
LINE
  8
0
  6
CONTINUOUS
 62
     1
 10
140.0
 20
146.175
 30
0.0
 11
140.0
 21
132.470695555
 31
0.0
  0
ARC
  8
0
  6
CONTINUOUS
 62
     1
 10
139.75
 20
132.470695555
 30
0.0
 40
0.25
 50
277.125016349
 51
0.0
  0
LINE
  8
0
  6
CONTINUOUS
 62
     1
 10
144.0
 20
136.5
 30
0.0
 11
144.85
 21
136.5
 31
0.0
  0
ARC
  8
0
  6
CONTINUOUS
 62
     1
 10
144.85
 20
136.1
 30
0.0
 40
0.4
 50
360.0
 51
90.0
  0
LINE
  8
0
  6
CONTINUOUS
 62
     1
 10
145.25
 20
136.1
 30
0.0
 11
145.25
 21
135.4
 31
0.0
  0
ARC
  8
0
  6
CONTINUOUS
 62
     1
 10
144.85
 20
135.4
 30
0.0
 40
0.4
 50
270.0
 51
0.0
  0
LINE
  8
0
  6
CONTINUOUS
 62
     1
 10
144.85
 20
135.0
 30
0.0
 11
140.4
 21
135.0
 31
0.0
  0
ARC
  8
0
  6
CONTINUOUS
 62
     1
 10
141.0
 20
137.45
 30
0.0
 40
0.25
 50
180.0
 51
270.0
  0
ARC
  8
0
  6
CONTINUOUS
 62
     1
 10
143.75
 20
136.95
 30
0.0
 40
0.25
 50
0.0
 51
90.0
  0
LINE
  8
0
  6
CONTINUOUS
 62
     1
 10
141.0
 20
137.2
 30
0.0
 11
143.75
 21
137.2
 31
0.0
  0
LINE
  8
0
  6
CONTINUOUS
 62
     1
 10
140.75
 20
140.55
 30
0.0
 11
140.75
 21
137.45
 31
0.0
  0
ARC
  8
0
  6
CONTINUOUS
 62
     1
 10
141.0
 20
140.55
 30
0.0
 40
0.25
 50
90.0
 51
180.0
  0
LINE
  8
0
  6
CONTINUOUS
 62
     1
 10
90.0
 20
129.25
 30
0.0
 11
90.0
 21
170.75
 31
0.0
  0
LINE
  8
0
  6
LTYPE1
 62
     2
 10
133.0
 20
148.0
 30
0.0
 11
139.05
 21
148.0
 31
0.0
  0
LINE
  8
0
  6
LTYPE1
 62
     2
 10
102.0
 20
103.0
 30
0.0
 11
102.0
 21
79.75
 31
0.0
  0
LINE
  8
0
  6
LTYPE1
 62
     2
 10
150.0
 20
103.0
 30
0.0
 11
150.0
 21
79.75
 31
0.0
  0
CIRCLE
  8
0
  6
CONTINUOUS
 62
     2
 10
150.0
 20
58.0
 30
0.0
 40
1.375
  0
CIRCLE
  8
0
  6
CONTINUOUS
 62
     2
 10
150.0
 20
62.5
 30
0.0
 40
1.375
  0
CIRCLE
  8
0
  6
CONTINUOUS
 62
     2
 10
150.0
 20
67.0
 30
0.0
 40
1.375
  0
CIRCLE
  8
0
  6
CONTINUOUS
 62
     2
 10
150.0
 20
53.5
 30
0.0
 40
1.375
  0
CIRCLE
  8
0
  6
CONTINUOUS
 62
     2
 10
150.0
 20
49.0
 30
0.0
 40
1.375
  0
CIRCLE
  8
0
  6
CONTINUOUS
 62
     2
 10
158.0
 20
58.0
 30
0.0
 40
1.375
  0
CIRCLE
  8
0
  6
CONTINUOUS
 62
     2
 10
158.0
 20
62.5
 30
0.0
 40
1.375
  0
CIRCLE
  8
0
  6
CONTINUOUS
 62
     2
 10
158.0
 20
67.0
 30
0.0
 40
1.375
  0
CIRCLE
  8
0
  6
CONTINUOUS
 62
     2
 10
158.0
 20
53.5
 30
0.0
 40
1.375
  0
CIRCLE
  8
0
  6
CONTINUOUS
 62
     2
 10
158.0
 20
49.0
 30
0.0
 40
1.375
  0
LINE
  8
0
  6
CONTINUOUS
 62
     2
 10
142.0
 20
67.0
 30
0.0
 11
144.414814566
 21
66.352952387
 31
0.0
  0
LINE
  8
0
  6
CONTINUOUS
 62
     2
 10
142.0
 20
67.0
 30
0.0
 11
144.414814566
 21
67.647047613
 31
0.0
  0
LINE
  8
0
  6
CONTINUOUS
 62
     2
 10
142.0
 20
62.5
 30
0.0
 11
144.414814566
 21
61.852952387
 31
0.0
  0
LINE
  8
0
  6
CONTINUOUS
 62
     2
 10
142.0
 20
62.5
 30
0.0
 11
144.414814566
 21
63.147047613
 31
0.0
  0
LINE
  8
0
  6
CONTINUOUS
 62
     2
 10
148.625
 20
62.5
 30
0.0
 11
142.0
 21
62.5
 31
0.0
  0
LINE
  8
0
  6
CONTINUOUS
 62
     2
 10
146.5
 20
67.0
 30
0.0
 11
142.0
 21
67.0
 31
0.0
  0
TEXT
  8
0
  6
CONTINUOUS
 62
     2
 10
146.0
 20
66.5
 30
0.1
 40
1.0
  1
（＋）
 50
0.0
 41
0.9
 51
0.0
  7
KANJI1
  0
LINE
  8
0
  6
CONTINUOUS
 62
     2
 10
159.375
 20
62.5
 30
0.0
 11
166.0
 21
62.5
 31
0.0
  0
LINE
  8
0
  6
CONTINUOUS
 62
     2
 10
161.5
 20
67.0
 30
0.0
 11
166.0
 21
67.0
 31
0.0
  0
TEXT
  8
0
  6
CONTINUOUS
 62
     2
 10
159.1
 20
66.5
 30
0.1
 40
1.0
  1
（＋）
 50
0.0
 41
0.9
 51
0.0
  7
KANJI1
  0
TEXT
  8
0
  6
CONTINUOUS
 62
     2
 10
162.9
 20
63.3
 30
0.3
 40
3.0
  1
制御電源
 50
0.0
 41
0.9
 51
0.0
  7
KANJI2
  0
TEXT
  8
0
  6
CONTINUOUS
 62
     2
 10
129.9
 20
63.3
 30
0.3
 40
3.0
  1
計器入力
 50
0.0
 41
0.9
 51
0.0
  7
KANJI2
  0
CIRCLE
  8
0
  6
CONTINUOUS
 62
     2
 10
162.0
 20
58.0
 30
0.0
 40
1.0
  0
LINE
  8
0
  6
CONTINUOUS
 62
     2
 10
169.352952387
 20
55.585185434
 30
0.0
 11
168.705904774
 21
58.0
 31
0.0
  0
LINE
  8
0
  6
CONTINUOUS
 62
     2
 10
169.352952387
 20
55.585185434
 30
0.0
 11
170.0
 21
58.0
 31
0.0
  0
LINE
  8
0
  6
CONTINUOUS
 62
     2
 10
169.352952387
 20
51.414814566
 30
0.0
 11
168.705904774
 21
49.0
 31
0.0
  0
LINE
  8
0
  6
CONTINUOUS
 62
     2
 10
169.352952387
 20
51.414814566
 30
0.0
 11
170.0
 21
49.0
 31
0.0
  0
LINE
  8
0
  6
CONTINUOUS
 62
     2
 10
169.352952387
 20
50.642073905
 30
0.0
 11
169.739354925
 21
49.2
 31
0.0
  0
LINE
  8
0
  6
CONTINUOUS
 62
     2
 10
169.352952387
 20
49.869333244
 30
0.0
 11
169.478709851
 21
49.4
 31
0.0
  0
POLYLINE
  8
0
  6
CONTINUOUS
 62
     2
 66
     1
  0
VERTEX
  8
0
  6
CONTINUOUS
 62
     2
 10
169.352952387
 20
49.869333244
 30
0.0
  0
VERTEX
  8
0
  6
CONTINUOUS
 62
     2
 10
169.227194924
 20
49.4
 30
0.0
  0
VERTEX
  8
0
  6
CONTINUOUS
 62
     2
 10
169.478709851
 20
49.4
 30
0.0
  0
SEQEND
  0
LINE
  8
0
  6
CONTINUOUS
 62
     2
 10
169.352952387
 20
50.642073905
 30
0.0
 11
168.966549849
 21
49.2
 31
0.0
  0
LINE
  8
0
  6
CONTINUOUS
 62
     2
 10
169.739354925
 20
49.2
 30
0.0
 11
168.966549849
 21
49.2
 31
0.0
  0
CIRCLE
  8
0
  6
CONTINUOUS
 62
     2
 10
162.0
 20
53.5
 30
0.0
 40
1.0
  0
CIRCLE
  8
0
  6
CONTINUOUS
 62
     2
 10
162.0
 20
49.0
 30
0.0
 40
1.0
  0
LINE
  8
0
  6
CONTINUOUS
 62
     2
 10
163.0
 20
58.0
 30
0.0
 11
170.0
 21
58.0
 31
0.0
  0
LINE
  8
0
  6
CONTINUOUS
 62
     2
 10
162.962063251
 20
53.227173498
 30
0.0
 11
170.352952387
 21
51.131229779
 31
0.0
  0
LINE
  8
0
  6
CONTINUOUS
 62
     2
 10
163.0
 20
49.0
 30
0.0
 11
170.0
 21
49.0
 31
0.0
  0
TEXT
  8
0
  6
CONTINUOUS
 62
     2
 10
170.9
 20
55.3
 30
0.3
 40
3.0
  1
Ｌ側
 50
0.0
 41
0.9
 51
0.0
  7
KANJI2
  0
TEXT
  8
0
  6
CONTINUOUS
 62
     2
 10
170.9
 20
50.3
 30
0.3
 40
3.0
  1
負荷リレ－
 50
0.0
 41
0.9
 51
0.0
  7
KANJI2
  0
TEXT
  8
0
  6
CONTINUOUS
 62
     2
 10
159.275
 20
57.4
 30
0.2
 40
2.0
  1
ａ
 50
0.0
 41
0.9
 51
0.0
  7
KANJI3
  0
TEXT
  8
0
  6
CONTINUOUS
 62
     2
 10
159.275
 20
52.9
 30
0.2
 40
2.0
  1
ｃ
 50
0.0
 41
0.9
 51
0.0
  7
KANJI3
  0
TEXT
  8
0
  6
CONTINUOUS
 62
     2
 10
159.275
 20
48.4
 30
0.2
 40
2.0
  1
ｂ
 50
0.0
 41
0.9
 51
0.0
  7
KANJI3
  0
TEXT
  8
0
  6
CONTINUOUS
 62
     2
 10
146.0
 20
68.0
 30
0.3
 40
3.0
  1
注２
 50
0.0
 41
0.6
 51
0.0
  7
KANJI0
  0
TEXT
  8
0
  6
CONTINUOUS
 62
     2
 10
159.3
 20
68.0
 30
0.3
 40
3.0
  1
注２
 50
0.0
 41
0.6
 51
0.0
  7
KANJI0
  0
TEXT
  8
0
  6
CONTINUOUS
 62
     2
 10
135.5
 20
40.0
 30
0.3
 40
3.0
  1
Ｌ設定用端子構成及び設定部
 50
0.0
 41
0.9
 51
0.0
  7
KANJI2
  0
LINE
  8
0
  6
CONTINUOUS
 62
     2
 10
135.0
 20
39.0
 30
0.0
 11
174.0
 21
39.0
 31
0.0
  0
TEXT
  8
0
  6
CONTINUOUS
 62
     2
 10
151.9
 20
66.25
 30
0.15
 40
1.5
  1
１
 50
0.0
 41
0.9
 51
0.0
  7
KANJI6
  0
TEXT
  8
0
  6
CONTINUOUS
 62
     2
 10
151.9
 20
61.75
 30
0.15
 40
1.5
  1
２
 50
0.0
 41
0.9
 51
0.0
  7
KANJI6
  0
TEXT
  8
0
  6
CONTINUOUS
 62
     2
 10
151.9
 20
57.25
 30
0.15
 40
1.5
  1
３
 50
0.0
 41
0.9
 51
0.0
  7
KANJI6
  0
TEXT
  8
0
  6
CONTINUOUS
 62
     2
 10
151.9
 20
52.75
 30
0.15
 40
1.5
  1
４
 50
0.0
 41
0.9
 51
0.0
  7
KANJI6
  0
TEXT
  8
0
  6
CONTINUOUS
 62
     2
 10
151.9
 20
48.25
 30
0.15
 40
1.5
  1
５
 50
0.0
 41
0.9
 51
0.0
  7
KANJI6
  0
TEXT
  8
0
  6
CONTINUOUS
 62
     2
 10
154.9
 20
66.25
 30
0.15
 40
1.5
  1
９
 50
0.0
 41
0.9
 51
0.0
  7
KANJI6
  0
TEXT
  8
0
  6
CONTINUOUS
 62
     2
 10
154.9
 20
61.75
 30
0.15
 40
1.5
  1
１０
 50
0.0
 41
0.45
 51
0.0
  7
KANJI7
  0
TEXT
  8
0
  6
CONTINUOUS
 62
     2
 10
154.9
 20
57.25
 30
0.15
 40
1.5
  1
６
 50
0.0
 41
0.9
 51
0.0
  7
KANJI6
  0
TEXT
  8
0
  6
CONTINUOUS
 62
     2
 10
154.9
 20
52.75
 30
0.15
 40
1.5
  1
７
 50
0.0
 41
0.9
 51
0.0
  7
KANJI6
  0
TEXT
  8
0
  6
CONTINUOUS
 62
     2
 10
154.9
 20
48.25
 30
0.15
 40
1.5
  1
８
 50
0.0
 41
0.9
 51
0.0
  7
KANJI6
  0
ARC
  8
0
  6
CONTINUOUS
 62
     2
 10
183.928275646
 20
150.325
 30
0.0
 40
0.75
 50
171.230542851
 51
270.0
  0
ARC
  8
0
  6
CONTINUOUS
 62
     2
 10
184.18128295
 20
150.325
 30
0.0
 40
0.75
 50
171.083203747
 51
270.0
  0
LINE
  8
0
  6
CONTINUOUS
 62
     2
 10
185.0
 20
149.575
 30
0.0
 11
183.928275646
 21
149.575
 31
0.0
  0
ARC
  8
0
  6
CONTINUOUS
 62
     2
 10
185.0
 20
148.0
 30
0.0
 40
1.575
 50
270.0
 51
90.0
  0
ARC
  8
0
  6
CONTINUOUS
 62
     2
 10
183.928275646
 20
145.675
 30
0.0
 40
0.75
 50
90.0
 51
188.769457149
  0
ARC
  8
0
  6
CONTINUOUS
 62
     2
 10
184.18128295
 20
145.675
 30
0.0
 40
0.75
 50
90.0
 51
188.916796253
  0
LINE
  8
0
  6
CONTINUOUS
 62
     2
 10
185.0
 20
146.425
 30
0.0
 11
183.928275646
 21
146.425
 31
0.0
  0
ARC
  8
0
  6
CONTINUOUS
 62
     2
 10
199.0
 20
148.0
 30
0.0
 40
15.75
 50
188.916789398
 51
171.083194053
  0
ARC
  8
0
  6
CONTINUOUS
 62
     2
 10
199.0
 20
148.0
 30
0.0
 40
15.75
 50
173.297331124
 51
186.702668876
  0
CIRCLE
  8
0
  6
CONTINUOUS
 62
     2
 10
185.0
 20
148.0
 30
0.0
 40
1.375
  0
LINE
  8
0
  6
CONTINUOUS
 62
     2
 10
184.2
 20
147.2
 30
0.0
 11
185.8
 21
148.8
 31
0.0
  0
LINE
  8
0
  6
CONTINUOUS
 62
     2
 10
185.8
 20
147.2
 30
0.0
 11
184.2
 21
148.8
 31
0.0
  0
ARC
  8
0
  6
CONTINUOUS
 62
     2
 10
214.071724354
 20
150.325
 30
0.0
 40
0.75
 50
270.0
 51
8.769457149
  0
ARC
  8
0
  6
CONTINUOUS
 62
     2
 10
213.81871705
 20
150.325
 30
0.0
 40
0.75
 50
270.0
 51
8.916796253
  0
LINE
  8
0
  6
CONTINUOUS
 62
     2
 10
213.0
 20
149.575
 30
0.0
 11
214.071724354
 21
149.575
 31
0.0
  0
ARC
  8
0
  6
CONTINUOUS
 62
     2
 10
213.0
 20
148.0
 30
0.0
 40
1.575
 50
90.0
 51
270.0
  0
ARC
  8
0
  6
CONTINUOUS
 62
     2
 10
214.071724354
 20
145.675
 30
0.0
 40
0.75
 50
351.230542851
 51
90.0
  0
ARC
  8
0
  6
CONTINUOUS
 62
     2
 10
213.81871705
 20
145.675
 30
0.0
 40
0.75
 50
351.083203747
 51
90.0
  0
LINE
  8
0
  6
CONTINUOUS
 62
     2
 10
213.0
 20
146.425
 30
0.0
 11
214.071724354
 21
146.425
 31
0.0
  0
ARC
  8
0
  6
CONTINUOUS
 62
     2
 10
199.0
 20
148.0
 30
0.0
 40
15.75
 50
353.297331124
 51
6.702668876
  0
CIRCLE
  8
0
  6
CONTINUOUS
 62
     2
 10
213.0
 20
148.0
 30
0.0
 40
1.375
  0
LINE
  8
0
  6
CONTINUOUS
 62
     2
 10
213.8
 20
147.2
 30
0.0
 11
212.2
 21
148.8
 31
0.0
  0
LINE
  8
0
  6
CONTINUOUS
 62
     2
 10
212.2
 20
147.2
 30
0.0
 11
213.8
 21
148.8
 31
0.0
  0
ARC
  8
0
  6
CONTINUOUS
 62
     2
 10
192.75
 20
150.05
 30
0.0
 40
0.25
 50
180.0
 51
270.0
  0
LINE
  8
0
  6
CONTINUOUS
 62
     2
 10
192.75
 20
149.8
 30
0.0
 11
196.75
 21
149.8
 31
0.0
  0
CIRCLE
  8
0
  6
CONTINUOUS
 62
     2
 10
195.0
 20
148.0
 30
0.0
 40
1.375
  0
LINE
  8
0
  6
CONTINUOUS
 62
     2
 10
195.8
 20
148.8
 30
0.0
 11
194.2
 21
147.2
 31
0.0
  0
LINE
  8
0
  6
CONTINUOUS
 62
     2
 10
194.2
 20
148.8
 30
0.0
 11
195.8
 21
147.2
 31
0.0
  0
LINE
  8
0
  6
LTYPE2
 62
     2
 10
193.0
 20
148.0
 30
0.0
 11
197.0
 21
148.0
 31
0.0
  0
LINE
  8
0
  6
LTYPE2
 62
     2
 10
195.0
 20
150.0
 30
0.0
 11
195.0
 21
146.0
 31
0.0
  0
CIRCLE
  8
0
  6
CONTINUOUS
 62
     2
 10
195.0
 20
152.5
 30
0.0
 40
1.375
  0
LINE
  8
0
  6
CONTINUOUS
 62
     2
 10
195.8
 20
153.3
 30
0.0
 11
194.2
 21
151.7
 31
0.0
  0
LINE
  8
0
  6
CONTINUOUS
 62
     2
 10
194.2
 20
153.3
 30
0.0
 11
195.8
 21
151.7
 31
0.0
  0
LINE
  8
0
  6
LTYPE2
 62
     2
 10
193.0
 20
152.5
 30
0.0
 11
197.0
 21
152.5
 31
0.0
  0
LINE
  8
0
  6
LTYPE2
 62
     2
 10
195.0
 20
154.5
 30
0.0
 11
195.0
 21
150.5
 31
0.0
  0
CIRCLE
  8
0
  6
CONTINUOUS
 62
     2
 10
195.0
 20
157.0
 30
0.0
 40
1.375
  0
LINE
  8
0
  6
CONTINUOUS
 62
     2
 10
195.8
 20
157.8
 30
0.0
 11
194.2
 21
156.2
 31
0.0
  0
LINE
  8
0
  6
CONTINUOUS
 62
     2
 10
194.2
 20
157.8
 30
0.0
 11
195.8
 21
156.2
 31
0.0
  0
LINE
  8
0
  6
LTYPE2
 62
     2
 10
193.0
 20
157.0
 30
0.0
 11
197.0
 21
157.0
 31
0.0
  0
LINE
  8
0
  6
LTYPE2
 62
     2
 10
195.0
 20
159.0
 30
0.0
 11
195.0
 21
155.0
 31
0.0
  0
CIRCLE
  8
0
  6
CONTINUOUS
 62
     2
 10
195.0
 20
143.5
 30
0.0
 40
1.375
  0
LINE
  8
0
  6
CONTINUOUS
 62
     2
 10
195.8
 20
144.3
 30
0.0
 11
194.2
 21
142.7
 31
0.0
  0
LINE
  8
0
  6
CONTINUOUS
 62
     2
 10
194.2
 20
144.3
 30
0.0
 11
195.8
 21
142.7
 31
0.0
  0
LINE
  8
0
  6
LTYPE2
 62
     2
 10
193.0
 20
143.5
 30
0.0
 11
197.0
 21
143.5
 31
0.0
  0
LINE
  8
0
  6
LTYPE2
 62
     2
 10
195.0
 20
145.5
 30
0.0
 11
195.0
 21
141.5
 31
0.0
  0
CIRCLE
  8
0
  6
CONTINUOUS
 62
     2
 10
195.0
 20
139.0
 30
0.0
 40
1.375
  0
LINE
  8
0
  6
CONTINUOUS
 62
     2
 10
195.8
 20
139.8
 30
0.0
 11
194.2
 21
138.2
 31
0.0
  0
LINE
  8
0
  6
CONTINUOUS
 62
     2
 10
194.2
 20
139.8
 30
0.0
 11
195.8
 21
138.2
 31
0.0
  0
LINE
  8
0
  6
LTYPE2
 62
     2
 10
193.0
 20
139.0
 30
0.0
 11
197.0
 21
139.0
 31
0.0
  0
CIRCLE
  8
0
  6
CONTINUOUS
 62
     2
 10
203.0
 20
148.0
 30
0.0
 40
1.375
  0
LINE
  8
0
  6
CONTINUOUS
 62
     2
 10
202.2
 20
148.8
 30
0.0
 11
203.8
 21
147.2
 31
0.0
  0
LINE
  8
0
  6
CONTINUOUS
 62
     2
 10
203.8
 20
148.8
 30
0.0
 11
202.2
 21
147.2
 31
0.0
  0
LINE
  8
0
  6
LTYPE2
 62
     2
 10
205.0
 20
148.0
 30
0.0
 11
201.0
 21
148.0
 31
0.0
  0
LINE
  8
0
  6
LTYPE2
 62
     2
 10
203.0
 20
150.0
 30
0.0
 11
203.0
 21
146.0
 31
0.0
  0
CIRCLE
  8
0
  6
CONTINUOUS
 62
     2
 10
203.0
 20
152.5
 30
0.0
 40
1.375
  0
LINE
  8
0
  6
CONTINUOUS
 62
     2
 10
202.2
 20
153.3
 30
0.0
 11
203.8
 21
151.7
 31
0.0
  0
LINE
  8
0
  6
CONTINUOUS
 62
     2
 10
203.8
 20
153.3
 30
0.0
 11
202.2
 21
151.7
 31
0.0
  0
LINE
  8
0
  6
LTYPE2
 62
     2
 10
205.0
 20
152.5
 30
0.0
 11
201.0
 21
152.5
 31
0.0
  0
LINE
  8
0
  6
LTYPE2
 62
     2
 10
203.0
 20
154.5
 30
0.0
 11
203.0
 21
150.5
 31
0.0
  0
CIRCLE
  8
0
  6
CONTINUOUS
 62
     2
 10
203.0
 20
157.0
 30
0.0
 40
1.375
  0
LINE
  8
0
  6
CONTINUOUS
 62
     2
 10
202.2
 20
157.8
 30
0.0
 11
203.8
 21
156.2
 31
0.0
  0
LINE
  8
0
  6
CONTINUOUS
 62
     2
 10
203.8
 20
157.8
 30
0.0
 11
202.2
 21
156.2
 31
0.0
  0
LINE
  8
0
  6
LTYPE2
 62
     2
 10
205.0
 20
157.0
 30
0.0
 11
201.0
 21
157.0
 31
0.0
  0
LINE
  8
0
  6
LTYPE2
 62
     2
 10
203.0
 20
159.0
 30
0.0
 11
203.0
 21
155.0
 31
0.0
  0
CIRCLE
  8
0
  6
CONTINUOUS
 62
     2
 10
203.0
 20
143.5
 30
0.0
 40
1.375
  0
LINE
  8
0
  6
CONTINUOUS
 62
     2
 10
202.2
 20
144.3
 30
0.0
 11
203.8
 21
142.7
 31
0.0
  0
LINE
  8
0
  6
CONTINUOUS
 62
     2
 10
203.8
 20
144.3
 30
0.0
 11
202.2
 21
142.7
 31
0.0
  0
LINE
  8
0
  6
LTYPE2
 62
     2
 10
205.0
 20
143.5
 30
0.0
 11
201.0
 21
143.5
 31
0.0
  0
LINE
  8
0
  6
LTYPE2
 62
     2
 10
203.0
 20
145.5
 30
0.0
 11
203.0
 21
141.5
 31
0.0
  0
CIRCLE
  8
0
  6
CONTINUOUS
 62
     2
 10
203.0
 20
139.0
 30
0.0
 40
1.375
  0
LINE
  8
0
  6
CONTINUOUS
 62
     2
 10
202.2
 20
139.8
 30
0.0
 11
203.8
 21
138.2
 31
0.0
  0
LINE
  8
0
  6
CONTINUOUS
 62
     2
 10
203.8
 20
139.8
 30
0.0
 11
202.2
 21
138.2
 31
0.0
  0
LINE
  8
0
  6
LTYPE2
 62
     2
 10
205.0
 20
139.0
 30
0.0
 11
201.0
 21
139.0
 31
0.0
  0
LINE
  8
0
  6
LTYPE2
 62
     2
 10
203.0
 20
141.0
 30
0.0
 11
203.0
 21
137.0
 31
0.0
  0
LINE
  8
0
  6
LTYPE1
 62
     2
 10
199.0
 20
175.0
 30
0.0
 11
199.0
 21
125.0
 31
0.0
  0
CIRCLE
  8
0
  6
CONTINUOUS
 62
     2
 10
215.0
 20
132.0
 30
0.0
 40
2.0
  0
CIRCLE
  8
0
  6
CONTINUOUS
 62
     2
 10
215.0
 20
132.0
 30
0.0
 40
0.75
  0
LINE
  8
0
  6
CONTINUOUS
 62
     2
 10
215.0
 20
133.6
 30
0.0
 11
213.614359354
 21
132.8
 31
0.0
  0
LINE
  8
0
  6
CONTINUOUS
 62
     2
 10
213.614359354
 20
132.8
 30
0.0
 11
213.614359354
 21
131.2
 31
0.0
  0
LINE
  8
0
  6
CONTINUOUS
 62
     2
 10
213.614359354
 20
131.2
 30
0.0
 11
215.0
 21
130.4
 31
0.0
  0
LINE
  8
0
  6
CONTINUOUS
 62
     2
 10
215.0
 20
130.4
 30
0.0
 11
216.385640646
 21
131.2
 31
0.0
  0
LINE
  8
0
  6
CONTINUOUS
 62
     2
 10
216.385640646
 20
131.2
 30
0.0
 11
216.385640646
 21
132.8
 31
0.0
  0
LINE
  8
0
  6
CONTINUOUS
 62
     2
 10
216.385640646
 20
132.8
 30
0.0
 11
215.0
 21
133.6
 31
0.0
  0
LINE
  8
0
  6
LTYPE2
 62
     2
 10
212.0
 20
132.0
 30
0.0
 11
218.0
 21
132.0
 31
0.0
  0
LINE
  8
0
  6
LTYPE2
 62
     2
 10
215.0
 20
135.0
 30
0.0
 11
215.0
 21
129.0
 31
0.0
  0
CIRCLE
  8
0
  6
CONTINUOUS
 62
     2
 10
183.0
 20
132.0
 30
0.0
 40
2.0
  0
CIRCLE
  8
0
  6
CONTINUOUS
 62
     2
 10
183.0
 20
132.0
 30
0.0
 40
0.75
  0
LINE
  8
0
  6
CONTINUOUS
 62
     2
 10
183.0
 20
133.6
 30
0.0
 11
181.614359354
 21
132.8
 31
0.0
  0
LINE
  8
0
  6
CONTINUOUS
 62
     2
 10
181.614359354
 20
132.8
 30
0.0
 11
181.614359354
 21
131.2
 31
0.0
  0
LINE
  8
0
  6
CONTINUOUS
 62
     2
 10
181.614359354
 20
131.2
 30
0.0
 11
183.0
 21
130.4
 31
0.0
  0
LINE
  8
0
  6
CONTINUOUS
 62
     2
 10
183.0
 20
130.4
 30
0.0
 11
184.385640646
 21
131.2
 31
0.0
  0
LINE
  8
0
  6
CONTINUOUS
 62
     2
 10
184.385640646
 20
131.2
 30
0.0
 11
184.385640646
 21
132.8
 31
0.0
  0
LINE
  8
0
  6
CONTINUOUS
 62
     2
 10
184.385640646
 20
132.8
 30
0.0
 11
183.0
 21
133.6
 31
0.0
  0
LINE
  8
0
  6
LTYPE2
 62
     2
 10
180.0
 20
132.0
 30
0.0
 11
186.0
 21
132.0
 31
0.0
  0
LINE
  8
0
  6
LTYPE2
 62
     2
 10
183.0
 20
135.0
 30
0.0
 11
183.0
 21
129.0
 31
0.0
  0
CIRCLE
  8
0
  6
CONTINUOUS
 62
     2
 10
183.0
 20
164.0
 30
0.0
 40
2.0
  0
CIRCLE
  8
0
  6
CONTINUOUS
 62
     2
 10
183.0
 20
164.0
 30
0.0
 40
0.75
  0
LINE
  8
0
  6
CONTINUOUS
 62
     2
 10
183.0
 20
165.6
 30
0.0
 11
181.614359354
 21
164.8
 31
0.0
  0
LINE
  8
0
  6
CONTINUOUS
 62
     2
 10
181.614359354
 20
164.8
 30
0.0
 11
181.614359354
 21
163.2
 31
0.0
  0
LINE
  8
0
  6
CONTINUOUS
 62
     2
 10
181.614359354
 20
163.2
 30
0.0
 11
183.0
 21
162.4
 31
0.0
  0
LINE
  8
0
  6
CONTINUOUS
 62
     2
 10
183.0
 20
162.4
 30
0.0
 11
184.385640646
 21
163.2
 31
0.0
  0
LINE
  8
0
  6
CONTINUOUS
 62
     2
 10
184.385640646
 20
163.2
 30
0.0
 11
184.385640646
 21
164.8
 31
0.0
  0
LINE
  8
0
  6
CONTINUOUS
 62
     2
 10
184.385640646
 20
164.8
 30
0.0
 11
183.0
 21
165.6
 31
0.0
  0
LINE
  8
0
  6
LTYPE2
 62
     2
 10
180.0
 20
164.0
 30
0.0
 11
186.0
 21
164.0
 31
0.0
  0
LINE
  8
0
  6
LTYPE2
 62
     2
 10
183.0
 20
167.0
 30
0.0
 11
183.0
 21
161.0
 31
0.0
  0
CIRCLE
  8
0
  6
CONTINUOUS
 62
     2
 10
215.0
 20
164.0
 30
0.0
 40
2.0
  0
CIRCLE
  8
0
  6
CONTINUOUS
 62
     2
 10
215.0
 20
164.0
 30
0.0
 40
0.75
  0
POLYLINE
  8
0
  6
CONTINUOUS
 62
     2
 66
     1
  0
VERTEX
  8
0
  6
CONTINUOUS
 62
     2
 10
215.0
 20
165.6
 30
0.0
  0
VERTEX
  8
0
  6
CONTINUOUS
 62
     2
 10
213.614359354
 20
164.8
 30
0.0
  0
VERTEX
  8
0
  6
CONTINUOUS
 62
     2
 10
213.614359354
 20
163.2
 30
0.0
  0
VERTEX
  8
0
  6
CONTINUOUS
 62
     2
 10
215.0
 20
162.4
 30
0.0
  0
VERTEX
  8
0
  6
CONTINUOUS
 62
     2
 10
216.385640646
 20
163.2
 30
0.0
  0
VERTEX
  8
0
  6
CONTINUOUS
 62
     2
 10
216.385640646
 20
164.8
 30
0.0
  0
VERTEX
  8
0
  6
CONTINUOUS
 62
     2
 10
215.0
 20
165.6
 30
0.0
  0
SEQEND
  0
LINE
  8
0
  6
LTYPE2
 62
     2
 10
212.0
 20
164.0
 30
0.0
 11
218.0
 21
164.0
 31
0.0
  0
LINE
  8
0
  6
LTYPE2
 62
     2
 10
215.0
 20
167.0
 30
0.0
 11
215.0
 21
161.0
 31
0.0
  0
LINE
  8
0
  6
CONTINUOUS
 62
     2
 10
218.0
 20
132.0
 30
0.0
 11
231.0
 21
132.0
 31
0.0
  0
LINE
  8
0
  6
CONTINUOUS
 62
     2
 10
229.0
 20
132.0
 30
0.0
 11
229.647047613
 21
134.414814566
 31
0.0
  0
LINE
  8
0
  6
CONTINUOUS
 62
     2
 10
229.0
 20
132.0
 30
0.0
 11
228.352952387
 21
134.414814566
 31
0.0
  0
POLYLINE
  8
0
  6
CONTINUOUS
 62
     2
 66
     1
  0
VERTEX
  8
0
  6
CONTINUOUS
 62
     2
 10
229.0
 20
132.0
 30
0.0
  0
VERTEX
  8
0
  6
CONTINUOUS
 62
     2
 10
229.0
 20
148.0
 30
0.0
  0
VERTEX
  8
0
  6
CONTINUOUS
 62
     2
 10
228.352952387
 20
145.585185434
 30
0.0
  0
SEQEND
  0
LINE
  8
0
  6
CONTINUOUS
 62
     2
 10
229.0
 20
148.0
 30
0.0
 11
229.647047613
 21
145.585185434
 31
0.0
  0
LINE
  8
0
  6
CONTINUOUS
 62
     2
 10
223.0
 20
148.0
 30
0.0
 11
231.0
 21
148.0
 31
0.0
  0
TEXT
  8
0
  6
CONTINUOUS
 62
     2
 10
228.0
 20
139.52
 30
0.18
 40
1.8
  1
±０．５
 50
90.0
 41
0.6
 51
0.0
  7
KANJI5
  0
LINE
  8
0
  6
CONTINUOUS
 62
     2
 10
229.0
 20
148.0
 30
0.0
 11
229.647047613
 21
150.414814566
 31
0.0
  0
LINE
  8
0
  6
CONTINUOUS
 62
     2
 10
229.0
 20
148.0
 30
0.0
 11
228.352952387
 21
150.414814566
 31
0.0
  0
POLYLINE
  8
0
  6
CONTINUOUS
 62
     2
 66
     1
  0
VERTEX
  8
0
  6
CONTINUOUS
 62
     2
 10
229.0
 20
148.0
 30
0.0
  0
VERTEX
  8
0
  6
CONTINUOUS
 62
     2
 10
229.0
 20
164.0
 30
0.0
  0
VERTEX
  8
0
  6
CONTINUOUS
 62
     2
 10
228.352952387
 20
161.585185434
 30
0.0
  0
SEQEND
  0
LINE
  8
0
  6
CONTINUOUS
 62
     2
 10
229.0
 20
164.0
 30
0.0
 11
229.647047613
 21
161.585185434
 31
0.0
  0
LINE
  8
0
  6
CONTINUOUS
 62
     2
 10
218.0
 20
164.0
 30
0.0
 11
231.0
 21
164.0
 31
0.0
  0
TEXT
  8
0
  6
CONTINUOUS
 62
     2
 10
228.0
 20
155.52
 30
0.18
 40
1.8
  1
±０．５
 50
90.0
 41
0.6
 51
0.0
  7
KANJI5
  0
TEXT
  8
0
  6
CONTINUOUS
 62
     2
 10
228.0
 20
135.62
 30
0.3
 40
3.0
  1
３２
 50
90.0
 41
0.6
 51
0.0
  7
KANJI0
  0
TEXT
  8
0
  6
CONTINUOUS
 62
     2
 10
228.0
 20
151.62
 30
0.3
 40
3.0
  1
３２
 50
90.0
 41
0.6
 51
0.0
  7
KANJI0
  0
LINE
  8
0
  6
CONTINUOUS
 62
     2
 10
199.0
 20
175.0
 30
0.0
 11
199.0
 21
177.75
 31
0.0
  0
LINE
  8
0
  6
CONTINUOUS
 62
     2
 10
199.0
 20
175.75
 30
0.0
 11
196.585185434
 21
176.397047613
 31
0.0
  0
LINE
  8
0
  6
CONTINUOUS
 62
     2
 10
199.0
 20
175.75
 30
0.0
 11
196.585185434
 21
175.102952387
 31
0.0
  0
LINE
  8
0
  6
CONTINUOUS
 62
     2
 10
199.0
 20
175.75
 30
0.0
 11
183.0
 21
175.75
 31
0.0
  0
LINE
  8
0
  6
CONTINUOUS
 62
     2
 10
183.0
 20
175.75
 30
0.0
 11
185.414814566
 21
175.102952387
 31
0.0
  0
LINE
  8
0
  6
CONTINUOUS
 62
     2
 10
183.0
 20
175.75
 30
0.0
 11
185.414814566
 21
176.397047613
 31
0.0
  0
LINE
  8
0
  6
CONTINUOUS
 62
     2
 10
183.0
 20
167.0
 30
0.0
 11
183.0
 21
177.75
 31
0.0
  0
TEXT
  8
0
  6
CONTINUOUS
 62
     2
 10
190.52
 20
176.75
 30
0.18
 40
1.8
  1
±０．５
 50
0.0
 41
0.6
 51
0.0
  7
KANJI5
  0
LINE
  8
0
  6
CONTINUOUS
 62
     2
 10
199.0
 20
175.75
 30
0.0
 11
201.414814566
 21
175.102952387
 31
0.0
  0
LINE
  8
0
  6
CONTINUOUS
 62
     2
 10
199.0
 20
175.75
 30
0.0
 11
201.414814566
 21
176.397047613
 31
0.0
  0
POLYLINE
  8
0
  6
CONTINUOUS
 62
     2
 66
     1
  0
VERTEX
  8
0
  6
CONTINUOUS
 62
     2
 10
199.0
 20
175.75
 30
0.0
  0
VERTEX
  8
0
  6
CONTINUOUS
 62
     2
 10
215.0
 20
175.75
 30
0.0
  0
VERTEX
  8
0
  6
CONTINUOUS
 62
     2
 10
212.585185434
 20
176.397047613
 30
0.0
  0
SEQEND
  0
LINE
  8
0
  6
CONTINUOUS
 62
     2
 10
215.0
 20
175.75
 30
0.0
 11
212.585185434
 21
175.102952387
 31
0.0
  0
LINE
  8
0
  6
CONTINUOUS
 62
     2
 10
215.0
 20
167.0
 30
0.0
 11
215.0
 21
177.75
 31
0.0
  0
TEXT
  8
0
  6
CONTINUOUS
 62
     2
 10
206.52
 20
176.75
 30
0.18
 40
1.8
  1
±０．５
 50
0.0
 41
0.6
 51
0.0
  7
KANJI5
  0
TEXT
  8
0
  6
CONTINUOUS
 62
     2
 10
186.62
 20
176.75
 30
0.3
 40
3.0
  1
３２
 50
0.0
 41
0.6
 51
0.0
  7
KANJI0
  0
TEXT
  8
0
  6
CONTINUOUS
 62
     2
 10
202.62
 20
176.75
 30
0.3
 40
3.0
  1
３２
 50
0.0
 41
0.6
 51
0.0
  7
KANJI0
  0
CIRCLE
  8
0
  6
LTYPE4
 62
     2
 10
199.0
 20
145.75
 30
0.0
 40
1.0
  0
LINE
  8
0
  6
CONTINUOUS
 62
     2
 10
199.5
 20
144.883974596
 30
0.0
 11
200.147047613
 21
142.46916003
 31
0.0
  0
LINE
  8
0
  6
CONTINUOUS
 62
     2
 10
199.5
 20
144.883974596
 30
0.0
 11
201.267766953
 21
143.116207643
 31
0.0
  0
LINE
  8
0
  6
CONTINUOUS
 62
     2
 10
199.5
 20
144.883974596
 30
0.0
 11
211.413030788
 21
124.25
 31
0.0
  0
LINE
  8
0
  6
CONTINUOUS
 62
     2
 10
211.413030788
 20
124.25
 30
0.0
 11
232.113030788
 21
124.25
 31
0.0
  0
TEXT
  8
0
  6
CONTINUOUS
 62
     2
 10
211.413030788
 20
125.25
 30
0.3
 40
3.0
  1
感度調整用可変抵抗器
 50
0.0
 41
0.6
 51
0.0
  7
KANJI0
  0
LINE
  8
0
  6
LTYPE2
 62
     2
 10
195.0
 20
141.0
 30
0.0
 11
195.0
 21
137.0
 31
0.0
  0
LINE
  8
0
  6
CONTINUOUS
 62
     2
 10
194.3125
 20
137.80921507
 30
0.0
 11
193.665452387
 21
135.394400504
 31
0.0
  0
LINE
  8
0
  6
CONTINUOUS
 62
     2
 10
194.3125
 20
137.80921507
 30
0.0
 11
192.544733047
 21
136.041448117
 31
0.0
  0
LINE
  8
0
  6
CONTINUOUS
 62
     2
 10
194.3125
 20
137.80921507
 30
0.0
 11
186.484083529
 21
124.25
 31
0.0
  0
TEXT
  8
0
  6
CONTINUOUS
 62
     2
 10
161.884083529
 20
125.25
 30
0.3
 40
3.0
  1
１０－Ｍ３タ－ミナルネジ
 50
0.0
 41
0.6
 51
0.0
  7
KANJI0
  0
LINE
  8
0
  6
CONTINUOUS
 62
     2
 10
161.384083529
 20
124.25
 30
0.0
 11
186.484083529
 21
124.25
 31
0.0
  0
LINE
  8
0
  6
LTYPE1
 62
     2
 10
167.0
 20
148.0
 30
0.0
 11
223.0
 21
148.0
 31
0.0
  0
LINE
  8
0
  6
LTYPE1
 62
     2
 10
164.0
 20
150.0
 30
0.0
 11
229.0
 21
150.0
 31
0.0
  0
TEXT
  8
0
  6
CONTINUOUS
 62
     2
 10
211.413030788
 20
121.25
 30
0.3
 40
3.0
  1
注１
 50
0.0
 41
0.6
 51
0.0
  7
KANJI0
  0
ARC
  8
0
  6
CONTINUOUS
 62
     2
 10
175.25
 20
130.5
 30
0.0
 40
0.5
 50
180.0
 51
270.0
  0
LINE
  8
0
  6
CONTINUOUS
 62
     2
 10
175.25
 20
130.0
 30
0.0
 11
222.75
 21
130.0
 31
0.0
  0
ARC
  8
0
  6
CONTINUOUS
 62
     2
 10
222.75
 20
130.5
 30
0.0
 40
0.5
 50
270.0
 51
0.0
  0
LINE
  8
0
  6
CONTINUOUS
 62
     2
 10
223.25
 20
130.5
 30
0.0
 11
223.25
 21
169.5
 31
0.0
  0
ARC
  8
0
  6
CONTINUOUS
 62
     2
 10
222.75
 20
169.5
 30
0.0
 40
0.5
 50
0.0
 51
90.0
  0
LINE
  8
0
  6
CONTINUOUS
 62
     2
 10
222.75
 20
170.0
 30
0.0
 11
175.25
 21
170.0
 31
0.0
  0
ARC
  8
0
  6
CONTINUOUS
 62
     2
 10
175.25
 20
169.5
 30
0.0
 40
0.5
 50
90.0
 51
180.0
  0
LINE
  8
0
  6
CONTINUOUS
 62
     2
 10
174.75
 20
169.5
 30
0.0
 11
174.75
 21
130.5
 31
0.0
  0
ARC
  8
0
  6
CONTINUOUS
 62
     2
 10
206.25
 20
150.05
 30
0.0
 40
0.25
 50
270.0
 51
0.0
  0
ARC
  8
0
  6
CONTINUOUS
 62
     2
 10
206.25
 20
145.95
 30
0.0
 40
0.25
 50
0.0
 51
90.0
  0
ARC
  8
0
  6
CONTINUOUS
 62
     2
 10
206.25
 20
154.55
 30
0.0
 40
0.25
 50
270.0
 51
0.0
  0
ARC
  8
0
  6
CONTINUOUS
 62
     2
 10
206.25
 20
150.45
 30
0.0
 40
0.25
 50
0.0
 51
90.0
  0
ARC
  8
0
  6
CONTINUOUS
 62
     2
 10
206.25
 20
154.95
 30
0.0
 40
0.25
 50
0.0
 51
90.0
  0
ARC
  8
0
  6
CONTINUOUS
 62
     2
 10
206.25
 20
145.55
 30
0.0
 40
0.25
 50
270.0
 51
0.0
  0
ARC
  8
0
  6
CONTINUOUS
 62
     2
 10
206.25
 20
141.45
 30
0.0
 40
0.25
 50
0.0
 51
90.0
  0
ARC
  8
0
  6
CONTINUOUS
 62
     2
 10
206.25
 20
141.05
 30
0.0
 40
0.25
 50
270.0
 51
0.0
  0
ARC
  8
0
  6
CONTINUOUS
 62
     2
 10
206.25
 20
159.75
 30
0.0
 40
0.25
 50
270.0
 51
0.0
  0
ARC
  8
0
  6
CONTINUOUS
 62
     2
 10
206.25
 20
136.25
 30
0.0
 40
0.25
 50
0.0
 51
90.0
  0
ARC
  8
0
  6
CONTINUOUS
 62
     2
 10
191.75
 20
150.05
 30
0.0
 40
0.25
 50
180.0
 51
270.0
  0
ARC
  8
0
  6
CONTINUOUS
 62
     2
 10
191.75
 20
145.95
 30
0.0
 40
0.25
 50
90.0
 51
180.0
  0
ARC
  8
0
  6
CONTINUOUS
 62
     2
 10
191.75
 20
154.55
 30
0.0
 40
0.25
 50
180.0
 51
270.0
  0
ARC
  8
0
  6
CONTINUOUS
 62
     2
 10
191.75
 20
150.45
 30
0.0
 40
0.25
 50
90.0
 51
180.0
  0
ARC
  8
0
  6
CONTINUOUS
 62
     2
 10
191.75
 20
154.95
 30
0.0
 40
0.25
 50
90.0
 51
180.0
  0
ARC
  8
0
  6
CONTINUOUS
 62
     2
 10
191.75
 20
145.55
 30
0.0
 40
0.25
 50
180.0
 51
270.0
  0
ARC
  8
0
  6
CONTINUOUS
 62
     2
 10
191.75
 20
141.45
 30
0.0
 40
0.25
 50
90.0
 51
180.0
  0
ARC
  8
0
  6
CONTINUOUS
 62
     2
 10
191.75
 20
141.05
 30
0.0
 40
0.25
 50
180.0
 51
270.0
  0
ARC
  8
0
  6
CONTINUOUS
 62
     2
 10
191.75
 20
159.75
 30
0.0
 40
0.25
 50
180.0
 51
270.0
  0
ARC
  8
0
  6
CONTINUOUS
 62
     2
 10
191.75
 20
136.25
 30
0.0
 40
0.25
 50
90.0
 51
180.0
  0
LINE
  8
0
  6
CONTINUOUS
 62
     2
 10
192.5
 20
140.8
 30
0.0
 11
192.5
 21
137.2
 31
0.0
  0
LINE
  8
0
  6
CONTINUOUS
 62
     2
 10
192.5
 20
145.3
 30
0.0
 11
192.5
 21
141.7
 31
0.0
  0
LINE
  8
0
  6
CONTINUOUS
 62
     2
 10
192.5
 20
149.8
 30
0.0
 11
192.5
 21
146.2
 31
0.0
  0
LINE
  8
0
  6
CONTINUOUS
 62
     2
 10
192.5
 20
154.3
 30
0.0
 11
192.5
 21
150.7
 31
0.0
  0
LINE
  8
0
  6
CONTINUOUS
 62
     2
 10
192.5
 20
158.8
 30
0.0
 11
192.5
 21
155.2
 31
0.0
  0
LINE
  8
0
  6
CONTINUOUS
 62
     2
 10
191.5
 20
154.95
 30
0.0
 11
191.5
 21
154.55
 31
0.0
  0
LINE
  8
0
  6
CONTINUOUS
 62
     2
 10
191.5
 20
150.45
 30
0.0
 11
191.5
 21
150.05
 31
0.0
  0
LINE
  8
0
  6
CONTINUOUS
 62
     2
 10
191.5
 20
145.95
 30
0.0
 11
191.5
 21
145.55
 31
0.0
  0
LINE
  8
0
  6
CONTINUOUS
 62
     2
 10
191.5
 20
141.45
 30
0.0
 11
191.5
 21
141.05
 31
0.0
  0
LINE
  8
0
  6
CONTINUOUS
 62
     2
 10
206.5
 20
141.05
 30
0.0
 11
206.5
 21
141.45
 31
0.0
  0
LINE
  8
0
  6
CONTINUOUS
 62
     2
 10
206.5
 20
145.55
 30
0.0
 11
206.5
 21
145.95
 31
0.0
  0
LINE
  8
0
  6
CONTINUOUS
 62
     2
 10
206.5
 20
150.05
 30
0.0
 11
206.5
 21
150.45
 31
0.0
  0
LINE
  8
0
  6
CONTINUOUS
 62
     2
 10
206.5
 20
154.55
 30
0.0
 11
206.5
 21
154.95
 31
0.0
  0
LINE
  8
0
  6
CONTINUOUS
 62
     2
 10
191.75
 20
136.5
 30
0.0
 11
206.25
 21
136.5
 31
0.0
  0
LINE
  8
0
  6
CONTINUOUS
 62
     2
 10
205.5
 20
137.2
 30
0.0
 11
205.5
 21
140.8
 31
0.0
  0
LINE
  8
0
  6
CONTINUOUS
 62
     2
 10
205.5
 20
141.7
 30
0.0
 11
205.5
 21
145.3
 31
0.0
  0
LINE
  8
0
  6
CONTINUOUS
 62
     2
 10
205.5
 20
146.2
 30
0.0
 11
205.5
 21
149.8
 31
0.0
  0
LINE
  8
0
  6
CONTINUOUS
 62
     2
 10
205.5
 20
150.7
 30
0.0
 11
205.5
 21
154.3
 31
0.0
  0
LINE
  8
0
  6
CONTINUOUS
 62
     2
 10
205.5
 20
155.2
 30
0.0
 11
205.5
 21
158.8
 31
0.0
  0
LINE
  8
0
  6
CONTINUOUS
 62
     2
 10
191.75
 20
159.5
 30
0.0
 11
206.25
 21
159.5
 31
0.0
  0
ARC
  8
0
  6
CONTINUOUS
 62
     2
 10
191.95
 20
159.25
 30
0.0
 40
0.45
 50
180.0
 51
270.0
  0
ARC
  8
0
  6
CONTINUOUS
 62
     2
 10
206.05
 20
159.25
 30
0.0
 40
0.45
 50
270.0
 51
0.0
  0
ARC
  8
0
  6
CONTINUOUS
 62
     2
 10
191.95
 20
136.75
 30
0.0
 40
0.45
 50
90.0
 51
180.0
  0
ARC
  8
0
  6
CONTINUOUS
 62
     2
 10
206.05
 20
136.75
 30
0.0
 40
0.45
 50
360.0
 51
90.0
  0
LINE
  8
0
  6
CONTINUOUS
 62
     2
 10
191.95
 20
158.8
 30
0.0
 11
196.55
 21
158.8
 31
0.0
  0
ARC
  8
0
  6
CONTINUOUS
 62
     2
 10
196.55
 20
158.35
 30
0.0
 40
0.45
 50
360.0
 51
90.0
  0
LINE
  8
0
  6
CONTINUOUS
 62
     2
 10
196.55
 20
155.2
 30
0.0
 11
191.75
 21
155.2
 31
0.0
  0
LINE
  8
0
  6
CONTINUOUS
 62
     2
 10
197.0
 20
158.35
 30
0.0
 11
197.0
 21
155.65
 31
0.0
  0
ARC
  8
0
  6
CONTINUOUS
 62
     2
 10
196.55
 20
155.65
 30
0.0
 40
0.45
 50
270.0
 51
0.0
  0
LINE
  8
0
  6
CONTINUOUS
 62
     2
 10
191.75
 20
154.3
 30
0.0
 11
196.55
 21
154.3
 31
0.0
  0
ARC
  8
0
  6
CONTINUOUS
 62
     2
 10
196.55
 20
153.85
 30
0.0
 40
0.45
 50
0.0
 51
90.0
  0
LINE
  8
0
  6
CONTINUOUS
 62
     2
 10
197.0
 20
153.85
 30
0.0
 11
197.0
 21
151.15
 31
0.0
  0
LINE
  8
0
  6
CONTINUOUS
 62
     2
 10
196.55
 20
150.7
 30
0.0
 11
191.75
 21
150.7
 31
0.0
  0
ARC
  8
0
  6
CONTINUOUS
 62
     2
 10
196.55
 20
151.15
 30
0.0
 40
0.45
 50
270.0
 51
0.0
  0
LINE
  8
0
  6
CONTINUOUS
 62
     2
 10
191.75
 20
149.8
 30
0.0
 11
196.55
 21
149.8
 31
0.0
  0
ARC
  8
0
  6
CONTINUOUS
 62
     2
 10
196.55
 20
149.35
 30
0.0
 40
0.45
 50
0.0
 51
90.0
  0
LINE
  8
0
  6
CONTINUOUS
 62
     2
 10
196.55
 20
146.2
 30
0.0
 11
191.75
 21
146.2
 31
0.0
  0
LINE
  8
0
  6
CONTINUOUS
 62
     2
 10
197.0
 20
149.35
 30
0.0
 11
197.0
 21
146.65
 31
0.0
  0
ARC
  8
0
  6
CONTINUOUS
 62
     2
 10
196.55
 20
146.65
 30
0.0
 40
0.45
 50
270.0
 51
0.0
  0
LINE
  8
0
  6
CONTINUOUS
 62
     2
 10
191.75
 20
145.3
 30
0.0
 11
196.55
 21
145.3
 31
0.0
  0
ARC
  8
0
  6
CONTINUOUS
 62
     2
 10
196.55
 20
144.85
 30
0.0
 40
0.45
 50
0.0
 51
90.0
  0
LINE
  8
0
  6
CONTINUOUS
 62
     2
 10
196.55
 20
141.7
 30
0.0
 11
191.75
 21
141.7
 31
0.0
  0
LINE
  8
0
  6
CONTINUOUS
 62
     2
 10
197.0
 20
144.85
 30
0.0
 11
197.0
 21
142.15
 31
0.0
  0
ARC
  8
0
  6
CONTINUOUS
 62
     2
 10
196.55
 20
142.15
 30
0.0
 40
0.45
 50
270.0
 51
0.0
  0
LINE
  8
0
  6
CONTINUOUS
 62
     2
 10
191.75
 20
140.8
 30
0.0
 11
196.55
 21
140.8
 31
0.0
  0
ARC
  8
0
  6
CONTINUOUS
 62
     2
 10
196.55
 20
140.35
 30
0.0
 40
0.45
 50
0.0
 51
90.0
  0
LINE
  8
0
  6
CONTINUOUS
 62
     2
 10
196.55
 20
137.2
 30
0.0
 11
191.95
 21
137.2
 31
0.0
  0
LINE
  8
0
  6
CONTINUOUS
 62
     2
 10
197.0
 20
140.35
 30
0.0
 11
197.0
 21
137.65
 31
0.0
  0
ARC
  8
0
  6
CONTINUOUS
 62
     2
 10
196.55
 20
137.65
 30
0.0
 40
0.45
 50
270.0
 51
0.0
  0
LINE
  8
0
  6
CONTINUOUS
 62
     2
 10
201.45
 20
137.2
 30
0.0
 11
206.05
 21
137.2
 31
0.0
  0
ARC
  8
0
  6
CONTINUOUS
 62
     2
 10
201.45
 20
137.65
 30
0.0
 40
0.45
 50
180.0
 51
270.0
  0
LINE
  8
0
  6
CONTINUOUS
 62
     2
 10
206.25
 20
140.8
 30
0.0
 11
201.45
 21
140.8
 31
0.0
  0
LINE
  8
0
  6
CONTINUOUS
 62
     2
 10
201.0
 20
140.35
 30
0.0
 11
201.0
 21
137.65
 31
0.0
  0
ARC
  8
0
  6
CONTINUOUS
 62
     2
 10
201.45
 20
140.35
 30
0.0
 40
0.45
 50
90.0
 51
180.0
  0
LINE
  8
0
  6
CONTINUOUS
 62
     2
 10
201.45
 20
141.7
 30
0.0
 11
206.25
 21
141.7
 31
0.0
  0
ARC
  8
0
  6
CONTINUOUS
 62
     2
 10
201.45
 20
142.15
 30
0.0
 40
0.45
 50
180.0
 51
270.0
  0
LINE
  8
0
  6
CONTINUOUS
 62
     2
 10
206.25
 20
145.3
 30
0.0
 11
201.45
 21
145.3
 31
0.0
  0
LINE
  8
0
  6
CONTINUOUS
 62
     2
 10
201.0
 20
144.85
 30
0.0
 11
201.0
 21
142.15
 31
0.0
  0
ARC
  8
0
  6
CONTINUOUS
 62
     2
 10
201.45
 20
144.85
 30
0.0
 40
0.45
 50
90.0
 51
180.0
  0
LINE
  8
0
  6
CONTINUOUS
 62
     2
 10
201.45
 20
146.2
 30
0.0
 11
206.25
 21
146.2
 31
0.0
  0
ARC
  8
0
  6
CONTINUOUS
 62
     2
 10
201.45
 20
146.65
 30
0.0
 40
0.45
 50
180.0
 51
270.0
  0
LINE
  8
0
  6
CONTINUOUS
 62
     2
 10
201.0
 20
149.35
 30
0.0
 11
201.0
 21
146.65
 31
0.0
  0
LINE
  8
0
  6
CONTINUOUS
 62
     2
 10
206.25
 20
149.8
 30
0.0
 11
201.45
 21
149.8
 31
0.0
  0
ARC
  8
0
  6
CONTINUOUS
 62
     2
 10
201.45
 20
149.35
 30
0.0
 40
0.45
 50
90.0
 51
180.0
  0
LINE
  8
0
  6
CONTINUOUS
 62
     2
 10
201.45
 20
150.7
 30
0.0
 11
206.25
 21
150.7
 31
0.0
  0
ARC
  8
0
  6
CONTINUOUS
 62
     2
 10
201.45
 20
151.15
 30
0.0
 40
0.45
 50
180.0
 51
270.0
  0
LINE
  8
0
  6
CONTINUOUS
 62
     2
 10
201.0
 20
153.85
 30
0.0
 11
201.0
 21
151.15
 31
0.0
  0
LINE
  8
0
  6
CONTINUOUS
 62
     2
 10
206.25
 20
154.3
 30
0.0
 11
201.45
 21
154.3
 31
0.0
  0
ARC
  8
0
  6
CONTINUOUS
 62
     2
 10
201.45
 20
153.85
 30
0.0
 40
0.45
 50
90.0
 51
180.0
  0
LINE
  8
0
  6
CONTINUOUS
 62
     2
 10
201.45
 20
155.2
 30
0.0
 11
206.25
 21
155.2
 31
0.0
  0
ARC
  8
0
  6
CONTINUOUS
 62
     2
 10
201.45
 20
155.65
 30
0.0
 40
0.45
 50
180.0
 51
270.0
  0
LINE
  8
0
  6
CONTINUOUS
 62
     2
 10
201.0
 20
158.35
 30
0.0
 11
201.0
 21
155.65
 31
0.0
  0
LINE
  8
0
  6
CONTINUOUS
 62
     2
 10
206.05
 20
158.8
 30
0.0
 11
201.45
 21
158.8
 31
0.0
  0
ARC
  8
0
  6
CONTINUOUS
 62
     2
 10
201.45
 20
158.35
 30
0.0
 40
0.45
 50
90.0
 51
180.0
  0
LINE
  8
0
  6
CONTINUOUS
 62
     2
 10
191.5
 20
160.5
 30
0.0
 11
191.5
 21
159.25
 31
0.0
  0
ARC
  8
0
  6
CONTINUOUS
 62
     2
 10
192.0
 20
160.5
 30
0.0
 40
0.5
 50
90.0
 51
180.0
  0
LINE
  8
0
  6
CONTINUOUS
 62
     2
 10
206.0
 20
161.0
 30
0.0
 11
192.0
 21
161.0
 31
0.0
  0
LINE
  8
0
  6
CONTINUOUS
 62
     2
 10
206.5
 20
159.25
 30
0.0
 11
206.5
 21
160.5
 31
0.0
  0
ARC
  8
0
  6
CONTINUOUS
 62
     2
 10
206.0
 20
160.5
 30
0.0
 40
0.5
 50
0.0
 51
90.0
  0
LINE
  8
0
  6
CONTINUOUS
 62
     2
 10
191.5
 20
136.75
 30
0.0
 11
191.5
 21
135.5
 31
0.0
  0
ARC
  8
0
  6
CONTINUOUS
 62
     2
 10
192.0
 20
135.5
 30
0.0
 40
0.5
 50
180.0
 51
270.0
  0
LINE
  8
0
  6
CONTINUOUS
 62
     2
 10
206.5
 20
135.5
 30
0.0
 11
206.5
 21
136.75
 31
0.0
  0
LINE
  8
0
  6
CONTINUOUS
 62
     2
 10
192.0
 20
135.0
 30
0.0
 11
206.0
 21
135.0
 31
0.0
  0
ARC
  8
0
  6
CONTINUOUS
 62
     2
 10
206.0
 20
135.5
 30
0.0
 40
0.5
 50
270.0
 51
0.0
  0
TEXT
  8
0
  6
CONTINUOUS
 62
     2
 10
197.325
 20
156.25
 30
0.15
 40
1.5
  1
１
 50
0.0
 41
0.9
 51
0.0
  7
KANJI6
  0
TEXT
  8
0
  6
CONTINUOUS
 62
     2
 10
197.325
 20
151.75
 30
0.15
 40
1.5
  1
２
 50
0.0
 41
0.9
 51
0.0
  7
KANJI6
  0
TEXT
  8
0
  6
CONTINUOUS
 62
     2
 10
197.325
 20
147.25
 30
0.15
 40
1.5
  1
３
 50
0.0
 41
0.9
 51
0.0
  7
KANJI6
  0
TEXT
  8
0
  6
CONTINUOUS
 62
     2
 10
197.325
 20
142.75
 30
0.15
 40
1.5
  1
４
 50
0.0
 41
0.9
 51
0.0
  7
KANJI6
  0
TEXT
  8
0
  6
CONTINUOUS
 62
     2
 10
197.325
 20
138.25
 30
0.15
 40
1.5
  1
５
 50
0.0
 41
0.9
 51
0.0
  7
KANJI6
  0
TEXT
  8
0
  6
CONTINUOUS
 62
     2
 10
199.325
 20
156.25
 30
0.15
 40
1.5
  1
９
 50
0.0
 41
0.9
 51
0.0
  7
KANJI6
  0
TEXT
  8
0
  6
CONTINUOUS
 62
     2
 10
199.325
 20
151.75
 30
0.15
 40
1.5
  1
１０
 50
0.0
 41
0.45
 51
0.0
  7
KANJI7
  0
TEXT
  8
0
  6
CONTINUOUS
 62
     2
 10
199.325
 20
147.25
 30
0.15
 40
1.5
  1
６
 50
0.0
 41
0.9
 51
0.0
  7
KANJI6
  0
TEXT
  8
0
  6
CONTINUOUS
 62
     2
 10
199.325
 20
142.75
 30
0.15
 40
1.5
  1
７
 50
0.0
 41
0.9
 51
0.0
  7
KANJI6
  0
TEXT
  8
0
  6
CONTINUOUS
 62
     2
 10
199.325
 20
138.25
 30
0.15
 40
1.5
  1
８
 50
0.0
 41
0.9
 51
0.0
  7
KANJI6
  0
LINE
  8
0
  6
CONTINUOUS
 62
     2
 10
199.0
 20
159.0
 30
0.0
 11
199.0
 21
146.5
 31
0.0
  0
LINE
  8
0
  6
CONTINUOUS
 62
     2
 10
199.0
 20
145.0
 30
0.0
 11
199.0
 21
137.0
 31
0.0
  0
LINE
  8
0
  6
CONTINUOUS
 62
     2
 10
199.0
 20
146.5
 30
0.0
 11
199.0
 21
145.0
 31
0.0
  0
LINE
  8
0
  6
CONTINUOUS
 62
     2
 10
206.0
 20
136.75
 30
0.0
 11
206.0
 21
159.25
 31
0.0
  0
LINE
  8
0
  6
CONTINUOUS
 62
     2
 10
192.0
 20
159.25
 30
0.0
 11
192.0
 21
136.75
 31
0.0
  0
LINE
  8
0
  6
CONTINUOUS
 62
     2
 10
197.5
 20
159.25
 30
0.0
 11
192.0
 21
159.25
 31
0.0
  0
LINE
  8
0
  6
CONTINUOUS
 62
     2
 10
206.0
 20
159.25
 30
0.0
 11
200.5
 21
159.25
 31
0.0
  0
LINE
  8
0
  6
CONTINUOUS
 62
     2
 10
200.5
 20
136.75
 30
0.0
 11
206.0
 21
136.75
 31
0.0
  0
LINE
  8
0
  6
CONTINUOUS
 62
     2
 10
192.0
 20
136.75
 30
0.0
 11
197.5
 21
136.75
 31
0.0
  0
LINE
  8
0
  6
CONTINUOUS
 62
     2
 10
197.5
 20
159.25
 30
0.0
 11
197.5
 21
159.5
 31
0.0
  0
LINE
  8
0
  6
CONTINUOUS
 62
     2
 10
200.5
 20
159.25
 30
0.0
 11
200.5
 21
159.5
 31
0.0
  0
LINE
  8
0
  6
CONTINUOUS
 62
     2
 10
197.5
 20
136.75
 30
0.0
 11
197.5
 21
136.5
 31
0.0
  0
LINE
  8
0
  6
CONTINUOUS
 62
     2
 10
200.5
 20
136.75
 30
0.0
 11
200.5
 21
136.5
 31
0.0
  0
ARC
  8
0
  6
CONTINUOUS
 62
     1
 10
175.625
 20
169.125
 30
0.0
 40
1.625
 50
90.0
 51
180.0
  0
LINE
  8
0
  6
CONTINUOUS
 62
     1
 10
222.375
 20
170.75
 30
0.0
 11
175.625
 21
170.75
 31
0.0
  0
LINE
  8
0
  6
CONTINUOUS
 62
     1
 10
224.0
 20
130.875
 30
0.0
 11
224.0
 21
169.125
 31
0.0
  0
ARC
  8
0
  6
CONTINUOUS
 62
     1
 10
222.375
 20
130.875
 30
0.0
 40
1.625
 50
270.0
 51
0.0
  0
ARC
  8
0
  6
CONTINUOUS
 62
     1
 10
222.375
 20
169.125
 30
0.0
 40
1.625
 50
0.0
 51
90.0
  0
LINE
  8
0
  6
CONTINUOUS
 62
     1
 10
175.625
 20
129.25
 30
0.0
 11
222.375
 21
129.25
 31
0.0
  0
ARC
  8
0
  6
CONTINUOUS
 62
     1
 10
175.625
 20
130.875
 30
0.0
 40
1.625
 50
180.0
 51
270.0
  0
LINE
  8
0
  6
CONTINUOUS
 62
     1
 10
174.0
 20
169.125
 30
0.0
 11
174.0
 21
130.875
 31
0.0
  0
CIRCLE
  8
0
  6
CONTINUOUS
 62
     1
 10
199.0
 20
148.0
 30
0.0
 40
16.0
  0
LINE
  8
0
  6
CONTINUOUS
 62
     2
 10
170.0
 20
150.0
 30
0.0
 11
170.647047613
 21
152.414814566
 31
0.0
  0
LINE
  8
0
  6
CONTINUOUS
 62
     2
 10
170.0
 20
150.0
 30
0.0
 11
169.352952387
 21
152.414814566
 31
0.0
  0
LINE
  8
0
  6
CONTINUOUS
 62
     2
 10
170.0
 20
155.0
 30
0.0
 11
170.0
 21
143.0
 31
0.0
  0
LINE
  8
0
  6
CONTINUOUS
 62
     2
 10
170.0
 20
148.0
 30
0.0
 11
169.352952387
 21
145.585185434
 31
0.0
  0
LINE
  8
0
  6
CONTINUOUS
 62
     2
 10
170.0
 20
148.0
 30
0.0
 11
170.647047613
 21
145.585185434
 31
0.0
  0
TEXT
  8
0
  6
CONTINUOUS
 62
     2
 10
169.0
 20
148.1
 30
0.3
 40
3.0
  1
４
 50
90.0
 41
0.6
 51
0.0
  7
KANJI0
  0
CIRCLE
  8
0
  6
CONTINUOUS
 62
     2
 10
195.0
 20
90.0
 30
0.0
 40
16.75
  0
CIRCLE
  8
0
  6
CONTINUOUS
 62
     2
 10
179.0
 20
74.0
 30
0.0
 40
1.0
  0
CIRCLE
  8
0
  6
CONTINUOUS
 62
     2
 10
179.0
 20
106.0
 30
0.0
 40
1.0
  0
CIRCLE
  8
0
  6
CONTINUOUS
 62
     2
 10
211.0
 20
106.0
 30
0.0
 40
1.0
  0
CIRCLE
  8
0
  6
CONTINUOUS
 62
     2
 10
211.0
 20
74.0
 30
0.0
 40
1.0
  0
LINE
  8
0
  6
LTYPE2
 62
     2
 10
177.0
 20
106.0
 30
0.0
 11
181.0
 21
106.0
 31
0.0
  0
LINE
  8
0
  6
LTYPE2
 62
     2
 10
179.0
 20
108.0
 30
0.0
 11
179.0
 21
104.0
 31
0.0
  0
LINE
  8
0
  6
LTYPE2
 62
     2
 10
177.0
 20
74.0
 30
0.0
 11
181.0
 21
74.0
 31
0.0
  0
LINE
  8
0
  6
LTYPE2
 62
     2
 10
179.0
 20
76.0
 30
0.0
 11
179.0
 21
72.0
 31
0.0
  0
LINE
  8
0
  6
LTYPE2
 62
     2
 10
209.0
 20
74.0
 30
0.0
 11
213.0
 21
74.0
 31
0.0
  0
LINE
  8
0
  6
LTYPE2
 62
     2
 10
211.0
 20
76.0
 30
0.0
 11
211.0
 21
72.0
 31
0.0
  0
LINE
  8
0
  6
LTYPE2
 62
     2
 10
209.0
 20
106.0
 30
0.0
 11
213.0
 21
106.0
 31
0.0
  0
LINE
  8
0
  6
LTYPE2
 62
     2
 10
211.0
 20
108.0
 30
0.0
 11
211.0
 21
104.0
 31
0.0
  0
LINE
  8
0
  6
CONTINUOUS
 62
     2
 10
220.0
 20
90.0
 30
0.0
 11
223.0
 21
90.0
 31
0.0
  0
LINE
  8
0
  6
CONTINUOUS
 62
     2
 10
221.0
 20
90.0
 30
0.0
 11
220.352952387
 21
87.585185434
 31
0.0
  0
LINE
  8
0
  6
CONTINUOUS
 62
     2
 10
221.0
 20
90.0
 30
0.0
 11
221.647047613
 21
87.585185434
 31
0.0
  0
LINE
  8
0
  6
CONTINUOUS
 62
     2
 10
221.0
 20
90.0
 30
0.0
 11
221.0
 21
74.0
 31
0.0
  0
LINE
  8
0
  6
CONTINUOUS
 62
     2
 10
221.0
 20
74.0
 30
0.0
 11
221.647047613
 21
76.414814566
 31
0.0
  0
LINE
  8
0
  6
CONTINUOUS
 62
     2
 10
221.0
 20
74.0
 30
0.0
 11
220.352952387
 21
76.414814566
 31
0.0
  0
LINE
  8
0
  6
CONTINUOUS
 62
     2
 10
213.0
 20
74.0
 30
0.0
 11
223.0
 21
74.0
 31
0.0
  0
TEXT
  8
0
  6
CONTINUOUS
 62
     2
 10
220.0
 20
81.52
 30
0.18
 40
1.8
  1
±０．５
 50
90.0
 41
0.6
 51
0.0
  7
KANJI5
  0
TEXT
  8
0
  6
CONTINUOUS
 62
     2
 10
220.0
 20
77.62
 30
0.3
 40
3.0
  1
３２
 50
90.0
 41
0.6
 51
0.0
  7
KANJI0
  0
LINE
  8
0
  6
CONTINUOUS
 62
     2
 10
221.0
 20
90.0
 30
0.0
 11
221.647047613
 21
92.414814566
 31
0.0
  0
LINE
  8
0
  6
CONTINUOUS
 62
     2
 10
221.0
 20
90.0
 30
0.0
 11
220.352952387
 21
92.414814566
 31
0.0
  0
POLYLINE
  8
0
  6
CONTINUOUS
 62
     2
 66
     1
  0
VERTEX
  8
0
  6
CONTINUOUS
 62
     2
 10
221.0
 20
90.0
 30
0.0
  0
VERTEX
  8
0
  6
CONTINUOUS
 62
     2
 10
221.0
 20
106.0
 30
0.0
  0
VERTEX
  8
0
  6
CONTINUOUS
 62
     2
 10
220.352952387
 20
103.585185434
 30
0.0
  0
SEQEND
  0
LINE
  8
0
  6
CONTINUOUS
 62
     2
 10
221.0
 20
106.0
 30
0.0
 11
221.647047613
 21
103.585185434
 31
0.0
  0
LINE
  8
0
  6
CONTINUOUS
 62
     2
 10
213.0
 20
106.0
 30
0.0
 11
223.0
 21
106.0
 31
0.0
  0
TEXT
  8
0
  6
CONTINUOUS
 62
     2
 10
220.0
 20
97.52
 30
0.18
 40
1.8
  1
±０．５
 50
90.0
 41
0.6
 51
0.0
  7
KANJI5
  0
TEXT
  8
0
  6
CONTINUOUS
 62
     2
 10
220.0
 20
93.62
 30
0.3
 40
3.0
  1
３２
 50
90.0
 41
0.6
 51
0.0
  7
KANJI0
  0
LINE
  8
0
  6
CONTINUOUS
 62
     2
 10
179.0
 20
108.0
 30
0.0
 11
179.0
 21
118.0
 31
0.0
  0
LINE
  8
0
  6
CONTINUOUS
 62
     2
 10
179.0
 20
116.0
 30
0.0
 11
181.414814566
 21
115.352952387
 31
0.0
  0
LINE
  8
0
  6
CONTINUOUS
 62
     2
 10
179.0
 20
116.0
 30
0.0
 11
181.414814566
 21
116.647047613
 31
0.0
  0
LINE
  8
0
  6
CONTINUOUS
 62
     2
 10
179.0
 20
116.0
 30
0.0
 11
195.0
 21
116.0
 31
0.0
  0
LINE
  8
0
  6
CONTINUOUS
 62
     2
 10
195.0
 20
116.0
 30
0.0
 11
192.585185434
 21
116.647047613
 31
0.0
  0
LINE
  8
0
  6
CONTINUOUS
 62
     2
 10
195.0
 20
116.0
 30
0.0
 11
192.585185434
 21
115.352952387
 31
0.0
  0
LINE
  8
0
  6
CONTINUOUS
 62
     2
 10
195.0
 20
115.0
 30
0.0
 11
195.0
 21
118.0
 31
0.0
  0
TEXT
  8
0
  6
CONTINUOUS
 62
     2
 10
186.52
 20
117.0
 30
0.18
 40
1.8
  1
±０．５
 50
0.0
 41
0.6
 51
0.0
  7
KANJI5
  0
LINE
  8
0
  6
CONTINUOUS
 62
     2
 10
195.0
 20
116.0
 30
0.0
 11
197.414814566
 21
115.352952387
 31
0.0
  0
LINE
  8
0
  6
CONTINUOUS
 62
     2
 10
195.0
 20
116.0
 30
0.0
 11
197.414814566
 21
116.647047613
 31
0.0
  0
POLYLINE
  8
0
  6
CONTINUOUS
 62
     2
 66
     1
  0
VERTEX
  8
0
  6
CONTINUOUS
 62
     2
 10
195.0
 20
116.0
 30
0.0
  0
VERTEX
  8
0
  6
CONTINUOUS
 62
     2
 10
211.0
 20
116.0
 30
0.0
  0
VERTEX
  8
0
  6
CONTINUOUS
 62
     2
 10
208.585185434
 20
116.647047613
 30
0.0
  0
SEQEND
  0
LINE
  8
0
  6
CONTINUOUS
 62
     2
 10
211.0
 20
116.0
 30
0.0
 11
208.585185434
 21
115.352952387
 31
0.0
  0
LINE
  8
0
  6
CONTINUOUS
 62
     2
 10
211.0
 20
108.0
 30
0.0
 11
211.0
 21
118.0
 31
0.0
  0
TEXT
  8
0
  6
CONTINUOUS
 62
     2
 10
202.52
 20
117.0
 30
0.18
 40
1.8
  1
±０．５
 50
0.0
 41
0.6
 51
0.0
  7
KANJI5
  0
TEXT
  8
0
  6
CONTINUOUS
 62
     2
 10
182.62
 20
117.0
 30
0.3
 40
3.0
  1
３２
 50
0.0
 41
0.6
 51
0.0
  7
KANJI0
  0
TEXT
  8
0
  6
CONTINUOUS
 62
     2
 10
198.62
 20
117.0
 30
0.3
 40
3.0
  1
３２
 50
0.0
 41
0.6
 51
0.0
  7
KANJI0
  0
LINE
  8
0
  6
CONTINUOUS
 62
     2
 10
179.448015428
 20
83.779206171
 30
0.0
 11
181.930421915
 21
84.07527716
 31
0.0
  0
LINE
  8
0
  6
CONTINUOUS
 62
     2
 10
179.448015428
 20
83.779206171
 30
0.0
 11
181.449807014
 21
85.276814412
 31
0.0
  0
POLYLINE
  8
0
  6
CONTINUOUS
 62
     2
 66
     1
  0
VERTEX
  8
0
  6
CONTINUOUS
 62
     2
 10
179.448015428
 20
83.779206171
 30
0.0
  0
VERTEX
  8
0
  6
CONTINUOUS
 62
     2
 10
210.551984572
 20
96.220793829
 30
0.0
  0
VERTEX
  8
0
  6
CONTINUOUS
 62
     2
 10
208.069578085
 20
95.92472284
 30
0.0
  0
SEQEND
  0
LINE
  8
0
  6
CONTINUOUS
 62
     2
 10
210.551984572
 20
96.220793829
 30
0.0
 11
208.550192986
 21
94.723185588
 31
0.0
  0
TEXT
  8
0
  6
CONTINUOUS
 62
     2
 10
196.599071571
 20
91.71666159
 30
0.18
 40
1.8
  1
±１
 50
21.801409486
 41
0.6
 51
0.0
  7
KANJI5
  0
TEXT
  8
0
  6
CONTINUOUS
 62
     2
 10
190.878609324
 20
89.428476691
 30
0.3
 40
3.0
  1
φ６７
 50
21.801409486
 41
0.6
 51
0.0
  7
KANJI0
  0
TEXT
  8
0
  6
CONTINUOUS
 62
     2
 10
216.0
 20
70.0
 30
0.3
 40
3.0
  1
４－φ４穴
 50
0.0
 41
0.6
 51
0.0
  7
KANJI0
  0
TEXT
  8
0
  6
CONTINUOUS
 62
     2
 10
226.97
 20
69.5
 30
0.18
 40
1.8
  1
－０
 50
0.0
 41
0.6
 51
0.0
  7
KANJI5
  0
TEXT
  8
0
  6
CONTINUOUS
 62
     2
 10
226.97
 20
71.3
 30
0.18
 40
1.8
  1
＋０．５
 50
0.0
 41
0.6
 51
0.0
  7
KANJI5
  0
LINE
  8
0
  6
CONTINUOUS
 62
     2
 10
216.0
 20
69.0
 30
0.0
 11
232.2
 21
69.0
 31
0.0
  0
LINE
  8
0
  6
CONTINUOUS
 62
     2
 10
211.707106781
 20
73.292893219
 30
0.0
 11
212.957106781
 21
71.127829709
 31
0.0
  0
LINE
  8
0
  6
CONTINUOUS
 62
     2
 10
211.707106781
 20
73.292893219
 30
0.0
 11
213.872170291
 21
72.042893219
 31
0.0
  0
LINE
  8
0
  6
CONTINUOUS
 62
     2
 10
211.707106781
 20
73.292893219
 30
0.0
 11
216.0
 21
69.0
 31
0.0
  0
LINE
  8
0
  6
LTYPE1
 62
     2
 10
175.0
 20
90.0
 30
0.0
 11
220.0
 21
90.0
 31
0.0
  0
LINE
  8
0
  6
LTYPE1
 62
     2
 10
195.0
 20
115.0
 30
0.0
 11
195.0
 21
70.0
 31
0.0
  0
LINE
  8
0
  6
LTYPE1
 62
     2
 10
81.0
 20
150.0
 30
0.0
 11
147.0
 21
150.0
 31
0.0
  0
TEXT
  8
0
  6
CONTINUOUS
 62
     2
 10
99.0
 20
152.0
 30
0.3
 40
3.0
  1
φ６５
 50
90.0
 41
0.6
 51
0.0
  7
KANJI0
  0
ENDSEC
  0
EOF
