  0
SECTION
  2
HEADER
  9
$ACADVER
  1
AC1009
  9
$DWGCODEPAGE
  3
dos932
  9
$EXTMIN
 10
0.0
 20
0.0
 30
0.0
  9
$EXTMAX
 10
297.0
 20
210.0
 30
0.0
  9
$LIMMIN
 10
0.0
 20
0.0
  9
$LIMMAX
 10
297.0
 20
210.0
  9
$LTSCALE
 40
1.0
  9
$PDMODE
 70
     0
  0
ENDSEC
  0
SECTION
  2
TABLES
  0
TABLE
  2
VPORT
 70
     1
  0
VPORT
  2
*ACTIVE
 70
     0
 10
0.0
 20
0.0
 11
1.0
 21
1.0
 12
148.5
 22
105.0
 13
0.0
 23
0.0
 14
10.0
 24
10.0
 15
10.0
 25
10.0
 16
0.0
 26
0.0
 36
1.0
 17
0.0
 27
0.0
 37
0.0
 40
297.0
 41
1.414285714
 42
50.0
 43
0.0
 44
0.0
 50
0.0
 51
0.0
 71
     0
 72
  1000
 73
     1
 74
     3
 75
     0
 76
     0
 77
     0
 78
     0
  0
ENDTAB
  0
TABLE
  2
LTYPE
 70
     3
  0
LTYPE
  2
CONTINUOUS
 70
    64
  3
Solid line
 72
    65
 73
     0
 40
0.0
  0
LTYPE
  2
LTYPE1
 70
    64
  3
CENTER
 72
    65
 73
     4
 40
15.0
 49
10.5
 49
-1.5
 49
1.5
 49
-1.5
  0
LTYPE
  2
LTYPE2
 70
    64
  3
HIDDEN
 72
    65
 73
     2
 40
3.0
 49
1.8
 49
-1.2
  0
ENDTAB
  0
TABLE
  2
LAYER
 70
   128
  0
LAYER
  2
0
 70
     0
 62
     7
  6
CONTINUOUS
  0
LAYER
  2
2
 70
     0
 62
     7
  6
CONTINUOUS
  0
LAYER
  2
3
 70
     0
 62
     7
  6
CONTINUOUS
  0
LAYER
  2
4
 70
     0
 62
     7
  6
CONTINUOUS
  0
LAYER
  2
5
 70
     0
 62
     7
  6
CONTINUOUS
  0
LAYER
  2
6
 70
     0
 62
     7
  6
CONTINUOUS
  0
LAYER
  2
7
 70
     0
 62
     7
  6
CONTINUOUS
  0
LAYER
  2
8
 70
     0
 62
     7
  6
CONTINUOUS
  0
LAYER
  2
9
 70
     0
 62
     7
  6
CONTINUOUS
  0
LAYER
  2
10
 70
     0
 62
     7
  6
CONTINUOUS
  0
LAYER
  2
11
 70
     0
 62
     7
  6
CONTINUOUS
  0
LAYER
  2
12
 70
     0
 62
     7
  6
CONTINUOUS
  0
LAYER
  2
13
 70
     0
 62
     7
  6
CONTINUOUS
  0
LAYER
  2
14
 70
     0
 62
     7
  6
CONTINUOUS
  0
LAYER
  2
15
 70
     0
 62
     7
  6
CONTINUOUS
  0
LAYER
  2
16
 70
     0
 62
     7
  6
CONTINUOUS
  0
LAYER
  2
17
 70
     0
 62
     7
  6
CONTINUOUS
  0
LAYER
  2
18
 70
     0
 62
     7
  6
CONTINUOUS
  0
LAYER
  2
19
 70
     0
 62
     7
  6
CONTINUOUS
  0
LAYER
  2
20
 70
     0
 62
     7
  6
CONTINUOUS
  0
LAYER
  2
21
 70
     0
 62
     7
  6
CONTINUOUS
  0
LAYER
  2
22
 70
     0
 62
     7
  6
CONTINUOUS
  0
LAYER
  2
23
 70
     0
 62
     7
  6
CONTINUOUS
  0
LAYER
  2
24
 70
     0
 62
     7
  6
CONTINUOUS
  0
LAYER
  2
25
 70
     0
 62
     7
  6
CONTINUOUS
  0
LAYER
  2
26
 70
     0
 62
     7
  6
CONTINUOUS
  0
LAYER
  2
27
 70
     0
 62
     7
  6
CONTINUOUS
  0
LAYER
  2
28
 70
     0
 62
     7
  6
CONTINUOUS
  0
LAYER
  2
29
 70
     0
 62
     7
  6
CONTINUOUS
  0
LAYER
  2
30
 70
     0
 62
     7
  6
CONTINUOUS
  0
LAYER
  2
31
 70
     0
 62
     7
  6
CONTINUOUS
  0
LAYER
  2
32
 70
     0
 62
     7
  6
CONTINUOUS
  0
LAYER
  2
33
 70
     0
 62
     7
  6
CONTINUOUS
  0
LAYER
  2
34
 70
     0
 62
     7
  6
CONTINUOUS
  0
LAYER
  2
35
 70
     0
 62
     7
  6
CONTINUOUS
  0
LAYER
  2
36
 70
     0
 62
     7
  6
CONTINUOUS
  0
LAYER
  2
37
 70
     0
 62
     7
  6
CONTINUOUS
  0
LAYER
  2
38
 70
     0
 62
     7
  6
CONTINUOUS
  0
LAYER
  2
39
 70
     0
 62
     7
  6
CONTINUOUS
  0
LAYER
  2
40
 70
     0
 62
     7
  6
CONTINUOUS
  0
LAYER
  2
41
 70
     0
 62
     7
  6
CONTINUOUS
  0
LAYER
  2
42
 70
     0
 62
     7
  6
CONTINUOUS
  0
LAYER
  2
43
 70
     0
 62
     7
  6
CONTINUOUS
  0
LAYER
  2
44
 70
     0
 62
     7
  6
CONTINUOUS
  0
LAYER
  2
45
 70
     0
 62
     7
  6
CONTINUOUS
  0
LAYER
  2
46
 70
     0
 62
     7
  6
CONTINUOUS
  0
LAYER
  2
47
 70
     0
 62
     7
  6
CONTINUOUS
  0
LAYER
  2
48
 70
     0
 62
     7
  6
CONTINUOUS
  0
LAYER
  2
49
 70
     0
 62
     7
  6
CONTINUOUS
  0
LAYER
  2
50
 70
     0
 62
     7
  6
CONTINUOUS
  0
LAYER
  2
51
 70
     0
 62
     7
  6
CONTINUOUS
  0
LAYER
  2
52
 70
     0
 62
     7
  6
CONTINUOUS
  0
LAYER
  2
53
 70
     0
 62
     7
  6
CONTINUOUS
  0
LAYER
  2
54
 70
     0
 62
     7
  6
CONTINUOUS
  0
LAYER
  2
55
 70
     0
 62
     7
  6
CONTINUOUS
  0
LAYER
  2
56
 70
     0
 62
     7
  6
CONTINUOUS
  0
LAYER
  2
57
 70
     0
 62
     7
  6
CONTINUOUS
  0
LAYER
  2
58
 70
     0
 62
     7
  6
CONTINUOUS
  0
LAYER
  2
59
 70
     0
 62
     7
  6
CONTINUOUS
  0
LAYER
  2
60
 70
     0
 62
     7
  6
CONTINUOUS
  0
LAYER
  2
61
 70
     0
 62
     7
  6
CONTINUOUS
  0
LAYER
  2
62
 70
     0
 62
     7
  6
CONTINUOUS
  0
LAYER
  2
63
 70
     0
 62
     7
  6
CONTINUOUS
  0
LAYER
  2
64
 70
     0
 62
     7
  6
CONTINUOUS
  0
LAYER
  2
65
 70
     0
 62
     7
  6
CONTINUOUS
  0
LAYER
  2
66
 70
     0
 62
     7
  6
CONTINUOUS
  0
LAYER
  2
67
 70
     0
 62
     7
  6
CONTINUOUS
  0
LAYER
  2
68
 70
     0
 62
     7
  6
CONTINUOUS
  0
LAYER
  2
69
 70
     0
 62
     7
  6
CONTINUOUS
  0
LAYER
  2
70
 70
     0
 62
     7
  6
CONTINUOUS
  0
LAYER
  2
71
 70
     0
 62
     7
  6
CONTINUOUS
  0
LAYER
  2
72
 70
     0
 62
     7
  6
CONTINUOUS
  0
LAYER
  2
73
 70
     0
 62
     7
  6
CONTINUOUS
  0
LAYER
  2
74
 70
     0
 62
     7
  6
CONTINUOUS
  0
LAYER
  2
75
 70
     0
 62
     7
  6
CONTINUOUS
  0
LAYER
  2
76
 70
     0
 62
     7
  6
CONTINUOUS
  0
LAYER
  2
77
 70
     0
 62
     7
  6
CONTINUOUS
  0
LAYER
  2
78
 70
     0
 62
     7
  6
CONTINUOUS
  0
LAYER
  2
79
 70
     0
 62
     7
  6
CONTINUOUS
  0
LAYER
  2
80
 70
     0
 62
     7
  6
CONTINUOUS
  0
LAYER
  2
81
 70
     0
 62
     7
  6
CONTINUOUS
  0
LAYER
  2
82
 70
     0
 62
     7
  6
CONTINUOUS
  0
LAYER
  2
83
 70
     0
 62
     7
  6
CONTINUOUS
  0
LAYER
  2
84
 70
     0
 62
     7
  6
CONTINUOUS
  0
LAYER
  2
85
 70
     0
 62
     7
  6
CONTINUOUS
  0
LAYER
  2
86
 70
     0
 62
     7
  6
CONTINUOUS
  0
LAYER
  2
87
 70
     0
 62
     7
  6
CONTINUOUS
  0
LAYER
  2
88
 70
     0
 62
     7
  6
CONTINUOUS
  0
LAYER
  2
89
 70
     0
 62
     7
  6
CONTINUOUS
  0
LAYER
  2
90
 70
     0
 62
     7
  6
CONTINUOUS
  0
LAYER
  2
91
 70
     0
 62
     7
  6
CONTINUOUS
  0
LAYER
  2
92
 70
     0
 62
     7
  6
CONTINUOUS
  0
LAYER
  2
93
 70
     0
 62
     7
  6
CONTINUOUS
  0
LAYER
  2
94
 70
     0
 62
     7
  6
CONTINUOUS
  0
LAYER
  2
95
 70
     0
 62
     7
  6
CONTINUOUS
  0
LAYER
  2
96
 70
     0
 62
     7
  6
CONTINUOUS
  0
LAYER
  2
97
 70
     0
 62
     7
  6
CONTINUOUS
  0
LAYER
  2
98
 70
     0
 62
     7
  6
CONTINUOUS
  0
LAYER
  2
99
 70
     0
 62
     7
  6
CONTINUOUS
  0
LAYER
  2
100
 70
     0
 62
     7
  6
CONTINUOUS
  0
LAYER
  2
101
 70
     0
 62
     7
  6
CONTINUOUS
  0
LAYER
  2
102
 70
     0
 62
     7
  6
CONTINUOUS
  0
LAYER
  2
103
 70
     0
 62
     7
  6
CONTINUOUS
  0
LAYER
  2
104
 70
     0
 62
     7
  6
CONTINUOUS
  0
LAYER
  2
105
 70
     0
 62
     7
  6
CONTINUOUS
  0
LAYER
  2
106
 70
     0
 62
     7
  6
CONTINUOUS
  0
LAYER
  2
107
 70
     0
 62
     7
  6
CONTINUOUS
  0
LAYER
  2
108
 70
     0
 62
     7
  6
CONTINUOUS
  0
LAYER
  2
109
 70
     0
 62
     7
  6
CONTINUOUS
  0
LAYER
  2
110
 70
     0
 62
     7
  6
CONTINUOUS
  0
LAYER
  2
111
 70
     0
 62
     7
  6
CONTINUOUS
  0
LAYER
  2
112
 70
     0
 62
     7
  6
CONTINUOUS
  0
LAYER
  2
113
 70
     0
 62
     7
  6
CONTINUOUS
  0
LAYER
  2
114
 70
     0
 62
     7
  6
CONTINUOUS
  0
LAYER
  2
115
 70
     0
 62
     7
  6
CONTINUOUS
  0
LAYER
  2
116
 70
     0
 62
     7
  6
CONTINUOUS
  0
LAYER
  2
117
 70
     0
 62
     7
  6
CONTINUOUS
  0
LAYER
  2
118
 70
     0
 62
     7
  6
CONTINUOUS
  0
LAYER
  2
119
 70
     0
 62
     7
  6
CONTINUOUS
  0
LAYER
  2
120
 70
     0
 62
     7
  6
CONTINUOUS
  0
LAYER
  2
121
 70
     0
 62
     7
  6
CONTINUOUS
  0
LAYER
  2
122
 70
     0
 62
     7
  6
CONTINUOUS
  0
LAYER
  2
123
 70
     0
 62
     7
  6
CONTINUOUS
  0
LAYER
  2
124
 70
     0
 62
     7
  6
CONTINUOUS
  0
LAYER
  2
125
 70
     0
 62
     7
  6
CONTINUOUS
  0
LAYER
  2
126
 70
     0
 62
     7
  6
CONTINUOUS
  0
LAYER
  2
127
 70
     0
 62
     7
  6
CONTINUOUS
  0
LAYER
  2
128
 70
     0
 62
     7
  6
CONTINUOUS
  0
ENDTAB
  0
TABLE
  2
STYLE
 70
    24
  0
STYLE
  2
STANDARD
 70
     0
 40
0.0
 41
1.0
 50
0.0
 71
     0
 42
0.2
  3
txt.shx
  4
extfont.shx
  0
STYLE
  2
KANJI0
 70
     0
 40
3.0
 41
0.9
 50
0.0
 71
     0
 42
3.0
  3
txt.shx
  4
extfont.shx
  0
STYLE
  2
KANJI1
 70
     0
 40
4.0
 41
0.75
 50
0.0
 71
     0
 42
4.0
  3
txt.shx
  4
extfont.shx
  0
STYLE
  2
KANJI2
 70
     0
 40
3.0
 41
0.6
 50
0.0
 71
     0
 42
3.0
  3
txt.shx
  4
extfont.shx
  0
STYLE
  2
KANJI3
 70
     0
 40
1.8
 41
0.6
 50
0.0
 71
     0
 42
1.8
  3
txt.shx
  4
extfont.shx
  0
STYLE
  2
KANJI4
 70
     0
 40
3.0
 41
0.6
 50
0.0
 71
     0
 42
3.0
  3
txt.shx
  4
extfont.shx
  0
STYLE
  2
KANJI5
 70
     0
 40
2.0
 41
0.9
 50
0.0
 71
     0
 42
2.0
  3
txt.shx
  4
extfont.shx
  0
STYLE
  2
KANJI6
 70
     0
 40
3.0
 41
0.9
 50
0.0
 71
     0
 42
3.0
  3
txt.shx
  4
extfont.shx
  0
STYLE
  2
KANJI7
 70
     0
 40
2.25
 41
0.666666667
 50
0.0
 71
     0
 42
2.25
  3
txt.shx
  4
extfont.shx
  0
STYLE
  2
KANJI8
 70
     0
 40
3.0
 41
0.833333333
 50
0.0
 71
     0
 42
3.0
  3
txt.shx
  4
extfont.shx
  0
STYLE
  2
KANJI9
 70
     0
 40
3.0
 41
0.666666667
 50
0.0
 71
     0
 42
3.0
  3
txt.shx
  4
extfont.shx
  0
STYLE
  2
KANJI10
 70
     0
 40
3.0
 41
0.666666667
 50
0.0
 71
     0
 42
3.0
  3
txt.shx
  4
extfont.shx
  0
STYLE
  2
KANJI11
 70
     0
 40
2.5
 41
1.0
 50
0.0
 71
     0
 42
2.5
  3
txt.shx
  4
extfont.shx
  0
STYLE
  2
KANJI12
 70
     0
 40
3.0
 41
0.833333333
 50
0.0
 71
     0
 42
3.0
  3
txt.shx
  4
extfont.shx
  0
STYLE
  2
KANJI13
 70
     0
 40
3.0
 41
0.666666667
 50
0.0
 71
     0
 42
3.0
  3
txt.shx
  4
extfont.shx
  0
STYLE
  2
KANJI14
 70
     0
 40
3.5
 41
0.666666667
 50
0.0
 71
     0
 42
3.5
  3
txt.shx
  4
extfont.shx
  0
STYLE
  2
KANJI15
 70
     0
 40
6.0
 41
0.9
 50
0.0
 71
     0
 42
6.0
  3
txt.shx
  4
extfont.shx
  0
STYLE
  2
KANJI16
 70
     0
 40
5.0
 41
0.9
 50
0.0
 71
     0
 42
5.0
  3
txt.shx
  4
extfont.shx
  0
STYLE
  2
KANJI17
 70
     0
 40
5.0
 41
0.9
 50
0.0
 71
     0
 42
5.0
  3
txt.shx
  4
extfont.shx
  0
STYLE
  2
KANJI18
 70
     0
 40
1.6
 41
0.9
 50
0.0
 71
     0
 42
1.6
  3
txt.shx
  4
extfont.shx
  0
STYLE
  2
KANJI19
 70
     0
 40
1.5
 41
0.666666667
 50
0.0
 71
     0
 42
1.5
  3
txt.shx
  4
extfont.shx
  0
STYLE
  2
KANJI20
 70
     0
 40
3.0
 41
0.666666667
 50
0.0
 71
     0
 42
3.0
  3
txt.shx
  4
extfont.shx
  0
STYLE
  2
KANJI21
 70
     0
 40
3.0
 41
0.8
 50
0.0
 71
     0
 42
3.0
  3
txt.shx
  4
extfont.shx
  0
STYLE
  2
KANJI22
 70
     0
 40
3.0
 41
0.8
 50
0.0
 71
     0
 42
3.0
  3
txt.shx
  4
extfont.shx
  0
ENDTAB
  0
TABLE
  2
VIEW
 70
     0
  0
ENDTAB
  0
ENDSEC
  0
SECTION
  2
BLOCKS
  0
ENDSEC
  0
SECTION
  2
ENTITIES
  0
ARC
  8
0
  6
CONTINUOUS
 62
     1
 10
78.9
 20
111.0
 30
0.0
 40
3.0
 50
270.0
 51
0.0
  0
LINE
  8
0
  6
CONTINUOUS
 62
     1
 10
81.9
 20
111.0
 30
0.0
 11
81.9
 21
160.0
 31
0.0
  0
ARC
  8
0
  6
CONTINUOUS
 62
     1
 10
78.9
 20
160.0
 30
0.0
 40
3.0
 50
0.0
 51
90.0
  0
LINE
  8
0
  6
CONTINUOUS
 62
     1
 10
78.9
 20
163.0
 30
0.0
 11
29.9
 21
163.0
 31
0.0
  0
ARC
  8
0
  6
CONTINUOUS
 62
     1
 10
29.9
 20
160.0
 30
0.0
 40
3.0
 50
90.0
 51
180.0
  0
LINE
  8
0
  6
CONTINUOUS
 62
     1
 10
29.9
 20
108.0
 30
0.0
 11
78.9
 21
108.0
 31
0.0
  0
LINE
  8
0
  6
CONTINUOUS
 62
     1
 10
26.9
 20
160.0
 30
0.0
 11
26.9
 21
111.0
 31
0.0
  0
ARC
  8
0
  6
CONTINUOUS
 62
     1
 10
29.9
 20
111.0
 30
0.0
 40
3.0
 50
180.0
 51
270.0
  0
CIRCLE
  8
0
  6
CONTINUOUS
 62
     1
 10
54.4
 20
135.5
 30
0.0
 40
25.5
  0
CIRCLE
  8
0
  6
CONTINUOUS
 62
     1
 10
54.4
 20
135.5
 30
0.0
 40
3.05
  0
ARC
  8
0
  6
CONTINUOUS
 62
     1
 10
48.9
 20
116.0
 30
0.0
 40
3.0
 50
90.0
 51
154.290046219
  0
ARC
  8
0
  6
CONTINUOUS
 62
     1
 10
46.3
 20
114.3
 30
0.0
 40
1.5
 50
153.434948823
 51
250.665191462
  0
ARC
  8
0
  6
CONTINUOUS
 62
     1
 10
48.9
 20
116.0
 30
0.0
 40
3.0
 50
154.290046219
 51
158.996777289
  0
LINE
  8
0
  6
CONTINUOUS
 62
     1
 10
46.174742268
 20
117.175
 30
0.0
 11
44.95
 21
114.975
 31
0.0
  0
LINE
  8
0
  6
CONTINUOUS
 62
     1
 10
62.6125
 20
117.225
 30
0.0
 11
63.8625
 21
114.925
 31
0.0
  0
ARC
  8
0
  6
CONTINUOUS
 62
     1
 10
62.5
 20
114.3
 30
0.0
 40
1.5
 50
0.0
 51
24.641662
  0
ARC
  8
0
  6
CONTINUOUS
 62
     1
 10
59.9
 20
116.0
 30
0.0
 40
3.0
 50
22.15811012
 51
90.000025556
  0
ARC
  8
0
  6
CONTINUOUS
 62
     1
 10
62.5
 20
114.3
 30
0.0
 40
1.5
 50
290.106234798
 51
0.0
  0
ARC
  8
0
  6
CONTINUOUS
 62
     1
 10
54.4
 20
135.5
 30
0.0
 40
24.25
 50
249.077122838
 51
290.861046791
  0
LINE
  8
0
  6
CONTINUOUS
 62
     1
 10
48.85
 20
118.95
 30
0.0
 11
59.8875
 21
119.0
 31
0.0
  0
CIRCLE
  8
0
  6
CONTINUOUS
 62
     1
 10
48.9
 20
116.0
 30
0.0
 40
1.5
  0
LINE
  8
0
  6
CONTINUOUS
 62
     1
 10
66.2
 20
156.051596989
 30
0.0
 11
65.2
 21
154.319546181
 31
0.0
  0
LINE
  8
0
  6
CONTINUOUS
 62
     1
 10
66.2
 20
156.051596989
 30
0.0
 11
67.932050808
 21
155.051596989
 31
0.0
  0
LINE
  8
0
  6
CONTINUOUS
 62
     1
 10
67.932050808
 20
155.051596989
 30
0.0
 11
67.682050808
 21
154.618584287
 31
0.0
  0
LINE
  8
0
  6
CONTINUOUS
 62
     1
 10
67.682050808
 20
154.618584287
 30
0.0
 11
65.416506351
 21
154.194546181
 31
0.0
  0
LINE
  8
0
  6
CONTINUOUS
 62
     1
 10
65.416506351
 20
154.194546181
 30
0.0
 11
65.2
 21
154.319546181
 31
0.0
  0
LINE
  8
0
  6
CONTINUOUS
 62
     1
 10
42.534529946
 20
156.051596989
 30
0.0
 11
43.534529946
 21
154.319546181
 31
0.0
  0
LINE
  8
0
  6
CONTINUOUS
 62
     1
 10
42.534529946
 20
156.051596989
 30
0.0
 11
40.802479139
 21
155.051596989
 31
0.0
  0
LINE
  8
0
  6
CONTINUOUS
 62
     1
 10
40.802479139
 20
155.051596989
 30
0.0
 11
41.052479139
 21
154.618584287
 31
0.0
  0
LINE
  8
0
  6
CONTINUOUS
 62
     1
 10
41.052479139
 20
154.618584287
 30
0.0
 11
43.318023595
 21
154.194546181
 31
0.0
  0
LINE
  8
0
  6
CONTINUOUS
 62
     1
 10
43.318023595
 20
154.194546181
 30
0.0
 11
43.534529946
 21
154.319546181
 31
0.0
  0
CIRCLE
  8
0
  6
CONTINUOUS
 62
     1
 10
48.9
 20
116.0
 30
0.0
 40
2.5
  0
CIRCLE
  8
0
  6
CONTINUOUS
 62
     1
 10
59.9
 20
116.0
 30
0.0
 40
1.5
  0
CIRCLE
  8
0
  6
CONTINUOUS
 62
     1
 10
59.9
 20
116.0
 30
0.0
 40
2.5
  0
TEXT
  8
0
  6
CONTINUOUS
 62
     1
 10
45.25
 20
20.65
 30
0.5
 40
3.0
  1
パネルカット
 50
0.0
 41
0.9
 51
0.0
  7
KANJI0
  0
LINE
  8
0
  6
CONTINUOUS
 62
     1
 10
44.0
 20
19.8
 30
0.0
 11
64.9
 21
19.8
 31
0.0
  0
CIRCLE
  8
0
  6
CONTINUOUS
 62
     1
 10
31.9
 20
32.4
 30
0.0
 40
1.5
  0
CIRCLE
  8
0
  6
CONTINUOUS
 62
     1
 10
76.9
 20
32.4
 30
0.0
 40
1.5
  0
CIRCLE
  8
0
  6
CONTINUOUS
 62
     1
 10
76.9
 20
77.4
 30
0.0
 40
1.5
  0
CIRCLE
  8
0
  6
CONTINUOUS
 62
     1
 10
31.9
 20
77.4
 30
0.0
 40
1.5
  0
CIRCLE
  8
0
  6
CONTINUOUS
 62
     1
 10
54.4
 20
54.9
 30
0.0
 40
25.25
  0
TEXT
  8
0
  6
CONTINUOUS
 62
     1
 10
160.3
 20
93.0
 30
0.3
 40
4.0
  1
端子構成図
 50
0.0
 41
0.75
 51
0.0
  7
KANJI1
  0
CIRCLE
  8
0
  6
CONTINUOUS
 62
     2
 10
76.9
 20
158.0
 30
0.0
 40
1.5
  0
LINE
  8
0
  6
CONTINUOUS
 62
     2
 10
76.025
 20
158.2
 30
0.0
 11
76.5
 21
158.2
 31
0.0
  0
ARC
  8
0
  6
CONTINUOUS
 62
     2
 10
76.5
 20
158.4
 30
0.0
 40
0.2
 50
270.0
 51
0.0
  0
LINE
  8
0
  6
CONTINUOUS
 62
     2
 10
76.7
 20
158.4
 30
0.0
 11
76.7
 21
158.875
 31
0.0
  0
LINE
  8
0
  6
CONTINUOUS
 62
     2
 10
76.7
 20
158.875
 30
0.0
 11
77.1
 21
158.875
 31
0.0
  0
LINE
  8
0
  6
CONTINUOUS
 62
     2
 10
77.1
 20
158.875
 30
0.0
 11
77.1
 21
158.4
 31
0.0
  0
ARC
  8
0
  6
CONTINUOUS
 62
     2
 10
77.3
 20
158.4
 30
0.0
 40
0.2
 50
180.0
 51
270.0
  0
LINE
  8
0
  6
CONTINUOUS
 62
     2
 10
77.3
 20
158.2
 30
0.0
 11
77.775
 21
158.2
 31
0.0
  0
LINE
  8
0
  6
CONTINUOUS
 62
     2
 10
77.775
 20
158.2
 30
0.0
 11
77.775
 21
157.8
 31
0.0
  0
LINE
  8
0
  6
CONTINUOUS
 62
     2
 10
77.775
 20
157.8
 30
0.0
 11
77.3
 21
157.8
 31
0.0
  0
ARC
  8
0
  6
CONTINUOUS
 62
     2
 10
77.3
 20
157.6
 30
0.0
 40
0.2
 50
90.0
 51
180.0
  0
LINE
  8
0
  6
CONTINUOUS
 62
     2
 10
77.1
 20
157.6
 30
0.0
 11
77.1
 21
157.125
 31
0.0
  0
LINE
  8
0
  6
CONTINUOUS
 62
     2
 10
77.1
 20
157.125
 30
0.0
 11
76.7
 21
157.125
 31
0.0
  0
LINE
  8
0
  6
CONTINUOUS
 62
     2
 10
76.7
 20
157.125
 30
0.0
 11
76.7
 21
157.6
 31
0.0
  0
ARC
  8
0
  6
CONTINUOUS
 62
     2
 10
76.5
 20
157.6
 30
0.0
 40
0.2
 50
0.0
 51
90.0
  0
LINE
  8
0
  6
CONTINUOUS
 62
     2
 10
76.5
 20
157.8
 30
0.0
 11
76.025
 21
157.8
 31
0.0
  0
LINE
  8
0
  6
CONTINUOUS
 62
     2
 10
76.025
 20
157.8
 30
0.0
 11
76.025
 21
158.2
 31
0.0
  0
LINE
  8
0
  6
LTYPE1
 62
     2
 10
74.9
 20
158.0
 30
0.0
 11
78.9
 21
158.0
 31
0.0
  0
LINE
  8
0
  6
LTYPE1
 62
     2
 10
76.9
 20
160.0
 30
0.0
 11
76.9
 21
156.0
 31
0.0
  0
CIRCLE
  8
0
  6
CONTINUOUS
 62
     2
 10
31.9
 20
158.0
 30
0.0
 40
1.5
  0
LINE
  8
0
  6
CONTINUOUS
 62
     2
 10
31.025
 20
158.2
 30
0.0
 11
31.5
 21
158.2
 31
0.0
  0
ARC
  8
0
  6
CONTINUOUS
 62
     2
 10
31.5
 20
158.4
 30
0.0
 40
0.2
 50
270.0
 51
0.0
  0
LINE
  8
0
  6
CONTINUOUS
 62
     2
 10
31.7
 20
158.4
 30
0.0
 11
31.7
 21
158.875
 31
0.0
  0
LINE
  8
0
  6
CONTINUOUS
 62
     2
 10
31.7
 20
158.875
 30
0.0
 11
32.1
 21
158.875
 31
0.0
  0
LINE
  8
0
  6
CONTINUOUS
 62
     2
 10
32.1
 20
158.875
 30
0.0
 11
32.1
 21
158.4
 31
0.0
  0
ARC
  8
0
  6
CONTINUOUS
 62
     2
 10
32.3
 20
158.4
 30
0.0
 40
0.2
 50
180.0
 51
270.0
  0
LINE
  8
0
  6
CONTINUOUS
 62
     2
 10
32.3
 20
158.2
 30
0.0
 11
32.775
 21
158.2
 31
0.0
  0
LINE
  8
0
  6
CONTINUOUS
 62
     2
 10
32.775
 20
158.2
 30
0.0
 11
32.775
 21
157.8
 31
0.0
  0
LINE
  8
0
  6
CONTINUOUS
 62
     2
 10
32.775
 20
157.8
 30
0.0
 11
32.3
 21
157.8
 31
0.0
  0
ARC
  8
0
  6
CONTINUOUS
 62
     2
 10
32.3
 20
157.6
 30
0.0
 40
0.2
 50
90.0
 51
180.0
  0
LINE
  8
0
  6
CONTINUOUS
 62
     2
 10
32.1
 20
157.6
 30
0.0
 11
32.1
 21
157.125
 31
0.0
  0
LINE
  8
0
  6
CONTINUOUS
 62
     2
 10
32.1
 20
157.125
 30
0.0
 11
31.7
 21
157.125
 31
0.0
  0
LINE
  8
0
  6
CONTINUOUS
 62
     2
 10
31.7
 20
157.125
 30
0.0
 11
31.7
 21
157.6
 31
0.0
  0
ARC
  8
0
  6
CONTINUOUS
 62
     2
 10
31.5
 20
157.6
 30
0.0
 40
0.2
 50
0.0
 51
90.0
  0
LINE
  8
0
  6
CONTINUOUS
 62
     2
 10
31.5
 20
157.8
 30
0.0
 11
31.025
 21
157.8
 31
0.0
  0
LINE
  8
0
  6
CONTINUOUS
 62
     2
 10
31.025
 20
157.8
 30
0.0
 11
31.025
 21
158.2
 31
0.0
  0
LINE
  8
0
  6
LTYPE1
 62
     2
 10
29.9
 20
158.0
 30
0.0
 11
33.9
 21
158.0
 31
0.0
  0
LINE
  8
0
  6
LTYPE1
 62
     2
 10
31.9
 20
160.0
 30
0.0
 11
31.9
 21
156.0
 31
0.0
  0
CIRCLE
  8
0
  6
CONTINUOUS
 62
     2
 10
31.9
 20
113.0
 30
0.0
 40
1.5
  0
LINE
  8
0
  6
CONTINUOUS
 62
     2
 10
31.025
 20
113.2
 30
0.0
 11
31.5
 21
113.2
 31
0.0
  0
ARC
  8
0
  6
CONTINUOUS
 62
     2
 10
31.5
 20
113.4
 30
0.0
 40
0.2
 50
270.0
 51
0.0
  0
LINE
  8
0
  6
CONTINUOUS
 62
     2
 10
31.7
 20
113.4
 30
0.0
 11
31.7
 21
113.875
 31
0.0
  0
LINE
  8
0
  6
CONTINUOUS
 62
     2
 10
31.7
 20
113.875
 30
0.0
 11
32.1
 21
113.875
 31
0.0
  0
LINE
  8
0
  6
CONTINUOUS
 62
     2
 10
32.1
 20
113.875
 30
0.0
 11
32.1
 21
113.4
 31
0.0
  0
ARC
  8
0
  6
CONTINUOUS
 62
     2
 10
32.3
 20
113.4
 30
0.0
 40
0.2
 50
180.0
 51
270.0
  0
LINE
  8
0
  6
CONTINUOUS
 62
     2
 10
32.3
 20
113.2
 30
0.0
 11
32.775
 21
113.2
 31
0.0
  0
LINE
  8
0
  6
CONTINUOUS
 62
     2
 10
32.775
 20
113.2
 30
0.0
 11
32.775
 21
112.8
 31
0.0
  0
LINE
  8
0
  6
CONTINUOUS
 62
     2
 10
32.775
 20
112.8
 30
0.0
 11
32.3
 21
112.8
 31
0.0
  0
ARC
  8
0
  6
CONTINUOUS
 62
     2
 10
32.3
 20
112.6
 30
0.0
 40
0.2
 50
90.0
 51
180.0
  0
LINE
  8
0
  6
CONTINUOUS
 62
     2
 10
32.1
 20
112.6
 30
0.0
 11
32.1
 21
112.125
 31
0.0
  0
LINE
  8
0
  6
CONTINUOUS
 62
     2
 10
32.1
 20
112.125
 30
0.0
 11
31.7
 21
112.125
 31
0.0
  0
LINE
  8
0
  6
CONTINUOUS
 62
     2
 10
31.7
 20
112.125
 30
0.0
 11
31.7
 21
112.6
 31
0.0
  0
ARC
  8
0
  6
CONTINUOUS
 62
     2
 10
31.5
 20
112.6
 30
0.0
 40
0.2
 50
0.0
 51
90.0
  0
LINE
  8
0
  6
CONTINUOUS
 62
     2
 10
31.5
 20
112.8
 30
0.0
 11
31.025
 21
112.8
 31
0.0
  0
LINE
  8
0
  6
CONTINUOUS
 62
     2
 10
31.025
 20
112.8
 30
0.0
 11
31.025
 21
113.2
 31
0.0
  0
LINE
  8
0
  6
LTYPE1
 62
     2
 10
29.9
 20
113.0
 30
0.0
 11
33.9
 21
113.0
 31
0.0
  0
LINE
  8
0
  6
LTYPE1
 62
     2
 10
31.9
 20
115.0
 30
0.0
 11
31.9
 21
111.0
 31
0.0
  0
CIRCLE
  8
0
  6
CONTINUOUS
 62
     2
 10
76.9
 20
113.0
 30
0.0
 40
1.5
  0
LINE
  8
0
  6
CONTINUOUS
 62
     2
 10
76.025
 20
113.2
 30
0.0
 11
76.5
 21
113.2
 31
0.0
  0
ARC
  8
0
  6
CONTINUOUS
 62
     2
 10
76.5
 20
113.4
 30
0.0
 40
0.2
 50
270.0
 51
0.0
  0
LINE
  8
0
  6
CONTINUOUS
 62
     2
 10
76.7
 20
113.4
 30
0.0
 11
76.7
 21
113.875
 31
0.0
  0
LINE
  8
0
  6
CONTINUOUS
 62
     2
 10
76.7
 20
113.875
 30
0.0
 11
77.1
 21
113.875
 31
0.0
  0
LINE
  8
0
  6
CONTINUOUS
 62
     2
 10
77.1
 20
113.875
 30
0.0
 11
77.1
 21
113.4
 31
0.0
  0
ARC
  8
0
  6
CONTINUOUS
 62
     2
 10
77.3
 20
113.4
 30
0.0
 40
0.2
 50
180.0
 51
270.0
  0
LINE
  8
0
  6
CONTINUOUS
 62
     2
 10
77.3
 20
113.2
 30
0.0
 11
77.775
 21
113.2
 31
0.0
  0
LINE
  8
0
  6
CONTINUOUS
 62
     2
 10
77.775
 20
113.2
 30
0.0
 11
77.775
 21
112.8
 31
0.0
  0
LINE
  8
0
  6
CONTINUOUS
 62
     2
 10
77.775
 20
112.8
 30
0.0
 11
77.3
 21
112.8
 31
0.0
  0
ARC
  8
0
  6
CONTINUOUS
 62
     2
 10
77.3
 20
112.6
 30
0.0
 40
0.2
 50
90.0
 51
180.0
  0
LINE
  8
0
  6
CONTINUOUS
 62
     2
 10
77.1
 20
112.6
 30
0.0
 11
77.1
 21
112.125
 31
0.0
  0
LINE
  8
0
  6
CONTINUOUS
 62
     2
 10
77.1
 20
112.125
 30
0.0
 11
76.7
 21
112.125
 31
0.0
  0
LINE
  8
0
  6
CONTINUOUS
 62
     2
 10
76.7
 20
112.125
 30
0.0
 11
76.7
 21
112.6
 31
0.0
  0
ARC
  8
0
  6
CONTINUOUS
 62
     2
 10
76.5
 20
112.6
 30
0.0
 40
0.2
 50
0.0
 51
90.0
  0
LINE
  8
0
  6
CONTINUOUS
 62
     2
 10
76.5
 20
112.8
 30
0.0
 11
76.025
 21
112.8
 31
0.0
  0
LINE
  8
0
  6
CONTINUOUS
 62
     2
 10
76.025
 20
112.8
 30
0.0
 11
76.025
 21
113.2
 31
0.0
  0
LINE
  8
0
  6
LTYPE1
 62
     2
 10
74.9
 20
113.0
 30
0.0
 11
78.9
 21
113.0
 31
0.0
  0
LINE
  8
0
  6
LTYPE1
 62
     2
 10
76.9
 20
115.0
 30
0.0
 11
76.9
 21
111.0
 31
0.0
  0
LINE
  8
0
  6
CONTINUOUS
 62
     2
 10
54.85
 20
132.483379374
 30
0.0
 11
54.85
 21
138.516620626
 31
0.0
  0
LINE
  8
0
  6
CONTINUOUS
 62
     2
 10
53.95
 20
138.516620626
 30
0.0
 11
53.95
 21
132.483379374
 31
0.0
  0
CIRCLE
  8
0
  6
CONTINUOUS
 62
     2
 10
54.4
 20
135.5
 30
0.0
 40
8.5
  0
CIRCLE
  8
0
  6
CONTINUOUS
 62
     2
 10
54.4
 20
135.5
 30
0.0
 40
7.8
  0
CIRCLE
  8
0
  6
CONTINUOUS
 62
     2
 10
54.4
 20
135.5
 30
0.0
 40
7.1
  0
CIRCLE
  8
0
  6
CONTINUOUS
 62
     2
 10
54.4
 20
135.5
 30
0.0
 40
6.4
  0
CIRCLE
  8
0
  6
CONTINUOUS
 62
     2
 10
54.4
 20
135.5
 30
0.0
 40
5.7
  0
CIRCLE
  8
0
  6
CONTINUOUS
 62
     2
 10
54.4
 20
135.5
 30
0.0
 40
5.0
  0
CIRCLE
  8
0
  6
CONTINUOUS
 62
     2
 10
54.4
 20
135.5
 30
0.0
 40
4.3
  0
CIRCLE
  8
0
  6
CONTINUOUS
 62
     2
 10
54.4
 20
135.5
 30
0.0
 40
3.6
  0
LINE
  8
0
  6
CONTINUOUS
 62
     2
 10
39.102240015
 20
128.04741391
 30
0.0
 11
36.38424919
 21
125.718245415
 31
0.0
  0
LINE
  8
0
  6
CONTINUOUS
 62
     2
 10
36.38424919
 20
125.718245415
 30
0.0
 11
39.817978155
 21
126.729188241
 31
0.0
  0
LINE
  8
0
  6
CONTINUOUS
 62
     2
 10
39.817978155
 20
126.729188241
 30
0.0
 11
47.317058939
 21
130.800856895
 31
0.0
  0
LINE
  8
0
  6
CONTINUOUS
 62
     2
 10
38.581291972
 20
126.911142315
 30
0.0
 11
47.101656687
 21
131.142915552
 31
0.0
  0
LINE
  8
0
  6
CONTINUOUS
 62
     2
 10
46.770878852
 20
131.752132538
 30
0.0
 11
38.581291972
 21
126.911142315
 31
0.0
  0
LINE
  8
0
  6
CONTINUOUS
 62
     2
 10
46.601320798
 20
132.119082564
 30
0.0
 11
39.102240015
 21
128.04741391
 31
0.0
  0
LINE
  8
0
  6
CONTINUOUS
 62
     2
 10
26.913820798
 20
161.068245415
 30
0.0
 11
26.913820798
 21
182.718245415
 31
0.0
  0
LINE
  8
0
  6
CONTINUOUS
 62
     2
 10
26.913820798
 20
180.718245415
 30
0.0
 11
29.328635364
 21
180.071197802
 31
0.0
  0
LINE
  8
0
  6
CONTINUOUS
 62
     2
 10
26.913820798
 20
180.718245415
 30
0.0
 11
29.328635364
 21
181.365293027
 31
0.0
  0
LINE
  8
0
  6
CONTINUOUS
 62
     2
 10
26.913820798
 20
180.718245415
 30
0.0
 11
81.913820798
 21
180.718245415
 31
0.0
  0
LINE
  8
0
  6
CONTINUOUS
 62
     2
 10
81.913820798
 20
180.718245415
 30
0.0
 11
79.499006233
 21
181.365293027
 31
0.0
  0
LINE
  8
0
  6
CONTINUOUS
 62
     2
 10
81.913820798
 20
180.718245415
 30
0.0
 11
79.499006233
 21
180.071197802
 31
0.0
  0
LINE
  8
0
  6
CONTINUOUS
 62
     2
 10
81.913820798
 20
161.468245415
 30
0.0
 11
81.913820798
 21
182.718245415
 31
0.0
  0
TEXT
  8
0
  6
CONTINUOUS
 62
     2
 10
48.983820798
 20
181.718245415
 30
0.3
 40
3.0
  1
１１０
 50
0.0
 41
0.6
 51
0.0
  7
KANJI2
  0
TEXT
  8
0
  6
CONTINUOUS
 62
     2
 10
54.983820798
 20
181.718245415
 30
0.18
 40
1.8
  1
±１．５
 50
0.0
 41
0.6
 51
0.0
  7
KANJI3
  0
LINE
  8
0
  6
CONTINUOUS
 62
     2
 10
40.4
 20
127.1
 30
0.0
 11
39.36730914
 21
124.823258999
 31
0.0
  0
LINE
  8
0
  6
CONTINUOUS
 62
     2
 10
40.4
 20
127.1
 30
0.0
 11
40.644033981
 21
124.611939025
 31
0.0
  0
LINE
  8
0
  6
CONTINUOUS
 62
     2
 10
40.4
 20
127.1
 30
0.0
 11
35.6
 21
98.1
 31
0.0
  0
LINE
  8
0
  6
CONTINUOUS
 62
     2
 10
35.6
 20
98.1
 30
0.0
 11
31.5
 21
98.1
 31
0.0
  0
TEXT
  8
0
  6
CONTINUOUS
 62
     2
 10
31.5
 20
99.1
 30
0.5
 40
3.0
  1
指針
 50
0.0
 41
0.6
 51
0.0
  7
KANJI4
  0
ARC
  8
0
  6
CONTINUOUS
 62
     2
 10
54.4
 20
135.5
 30
0.0
 40
24.25
 50
0.0
 51
249.077122838
  0
ARC
  8
0
  6
CONTINUOUS
 62
     2
 10
54.4
 20
135.5
 30
0.0
 40
24.25
 50
290.861046791
 51
0.0
  0
ARC
  8
0
  6
CONTINUOUS
 62
     2
 10
54.4
 20
135.5
 30
0.0
 40
21.0
 50
0.0
 51
245.632270158
  0
ARC
  8
0
  6
CONTINUOUS
 62
     2
 10
54.4
 20
135.5
 30
0.0
 40
21.0
 50
294.39301515
 51
0.0
  0
ARC
  8
0
  6
CONTINUOUS
 62
     2
 10
54.4
 20
135.5
 30
0.0
 40
23.5
 50
294.050748074
 51
0.0
  0
TEXT
  8
0
  6
CONTINUOUS
 62
     2
 10
48.15
 20
115.15
 30
0.2
 40
2.0
  1
Ｌ
 50
0.0
 41
0.9
 51
0.0
  7
KANJI5
  0
ARC
  8
0
  6
CONTINUOUS
 62
     2
 10
54.4
 20
135.5
 30
0.0
 40
23.5
 50
124.882142332
 51
245.97248666
  0
ARC
  8
0
  6
CONTINUOUS
 62
     2
 10
54.4
 20
135.5
 30
0.0
 40
23.5
 50
60.138238344
 51
120.0
  0
ARC
  8
0
  6
CONTINUOUS
 62
     2
 10
54.4
 20
135.5
 30
0.0
 40
23.5
 50
0.0
 51
55.25658504
  0
LINE
  8
0
  6
CONTINUOUS
 62
     2
 10
47.9375
 20
114.510242401
 30
0.0
 11
46.471750327
 21
112.485007132
 31
0.0
  0
LINE
  8
0
  6
CONTINUOUS
 62
     2
 10
47.9375
 20
114.510242401
 30
0.0
 11
47.680741182
 21
112.023462373
 31
0.0
  0
LINE
  8
0
  6
CONTINUOUS
 62
     2
 10
47.9375
 20
114.510242401
 30
0.0
 11
38.9375
 21
90.935242401
 31
0.0
  0
LINE
  8
0
  6
CONTINUOUS
 62
     2
 10
38.9375
 20
90.935242401
 30
0.0
 11
25.2875
 21
90.935242401
 31
0.0
  0
TEXT
  8
0
  6
CONTINUOUS
 62
     2
 10
25.2875
 20
91.935242401
 30
0.3
 40
3.0
  1
Ｌ設定ツマミ
 50
0.0
 41
0.9
 51
0.0
  7
KANJI6
  0
LINE
  8
0
  6
CONTINUOUS
 62
     2
 10
60.5375
 20
114.435242401
 30
0.0
 11
60.764914602
 21
111.945607368
 31
0.0
  0
LINE
  8
0
  6
CONTINUOUS
 62
     2
 10
60.5375
 20
114.435242401
 30
0.0
 11
61.979264339
 21
112.392862517
 31
0.0
  0
LINE
  8
0
  6
CONTINUOUS
 62
     2
 10
60.5375
 20
114.435242401
 30
0.0
 11
69.1375
 21
91.085242401
 31
0.0
  0
LINE
  8
0
  6
CONTINUOUS
 62
     2
 10
69.1375
 20
91.085242401
 30
0.0
 11
82.7875
 21
91.085242401
 31
0.0
  0
TEXT
  8
0
  6
CONTINUOUS
 62
     2
 10
69.1375
 20
92.085242401
 30
0.3
 40
3.0
  1
Ｈ設定ツマミ
 50
0.0
 41
0.9
 51
0.0
  7
KANJI6
  0
LINE
  8
0
  6
CONTINUOUS
 62
     2
 10
42.163820798
 20
155.55
 30
0.0
 11
42.289482928
 21
158.046839808
 31
0.0
  0
LINE
  8
0
  6
CONTINUOUS
 62
     2
 10
42.163820798
 20
155.55
 30
0.0
 11
41.024227491
 21
157.775157768
 31
0.0
  0
LINE
  8
0
  6
CONTINUOUS
 62
     2
 10
66.6
 20
155.55
 30
0.0
 11
67.744650785
 21
157.772560366
 31
0.0
  0
LINE
  8
0
  6
CONTINUOUS
 62
     2
 10
66.6
 20
155.55
 30
0.0
 11
66.480016475
 21
158.047119131
 31
0.0
  0
LINE
  8
0
  6
CONTINUOUS
 62
     2
 10
56.1
 20
134.55
 30
0.0
 11
56.527035751
 21
132.0867419
 31
0.0
  0
LINE
  8
0
  6
CONTINUOUS
 62
     2
 10
56.1
 20
134.55
 30
0.0
 11
57.701452858
 21
132.630273784
 31
0.0
  0
LINE
  8
0
  6
CONTINUOUS
 62
     2
 10
56.1
 20
134.55
 30
0.0
 11
72.9
 21
98.25
 31
0.0
  0
LINE
  8
0
  6
CONTINUOUS
 62
     2
 10
72.9
 20
98.25
 30
0.0
 11
87.6
 21
98.25
 31
0.0
  0
TEXT
  8
0
  6
CONTINUOUS
 62
     2
 10
72.9
 20
99.25
 30
0.3
 40
3.0
  1
零位調整器
 50
0.0
 41
0.9
 51
0.0
  7
KANJI6
  0
CIRCLE
  8
0
  6
CONTINUOUS
 62
     2
 10
48.9
 20
116.0
 30
0.0
 40
1.75
  0
LINE
  8
0
  6
CONTINUOUS
 62
     2
 10
48.9
 20
114.25
 30
0.0
 11
48.9
 21
113.5
 31
0.0
  0
LINE
  8
0
  6
CONTINUOUS
 62
     2
 10
49.368911087
 20
114.35
 30
0.0
 11
49.547047613
 21
113.585185434
 31
0.0
  0
LINE
  8
0
  6
CONTINUOUS
 62
     2
 10
49.775
 20
114.484455543
 30
0.0
 11
50.15
 21
113.834936491
 31
0.0
  0
LINE
  8
0
  6
CONTINUOUS
 62
     2
 10
50.137436867
 20
114.762563133
 30
0.0
 11
50.637436867
 21
114.262563133
 31
0.0
  0
LINE
  8
0
  6
CONTINUOUS
 62
     2
 10
50.387436867
 20
115.162563133
 30
0.0
 11
51.037436867
 21
114.762563133
 31
0.0
  0
LINE
  8
0
  6
CONTINUOUS
 62
     2
 10
50.587436867
 20
115.562563133
 30
0.0
 11
51.287436867
 21
115.362563133
 31
0.0
  0
LINE
  8
0
  6
CONTINUOUS
 62
     2
 10
50.637436867
 20
116.012563133
 30
0.0
 11
51.387436867
 21
116.012563133
 31
0.0
  0
LINE
  8
0
  6
CONTINUOUS
 62
     2
 10
50.590370196
 20
116.452933329
 30
0.0
 11
51.290370196
 21
116.652933329
 31
0.0
  0
LINE
  8
0
  6
CONTINUOUS
 62
     2
 10
50.390370196
 20
116.852933329
 30
0.0
 11
51.065063509
 21
117.25
 31
0.0
  0
LINE
  8
0
  6
CONTINUOUS
 62
     2
 10
50.115063509
 20
117.25
 30
0.0
 11
50.667766953
 21
117.767766953
 31
0.0
  0
LINE
  8
0
  6
CONTINUOUS
 62
     2
 10
49.767766953
 20
117.517766953
 30
0.0
 11
50.1
 21
118.115063509
 31
0.0
  0
LINE
  8
0
  6
CONTINUOUS
 62
     2
 10
49.35
 20
117.665063509
 30
0.0
 11
49.547047613
 21
118.364814566
 31
0.0
  0
LINE
  8
0
  6
CONTINUOUS
 62
     2
 10
48.9
 20
117.75
 30
0.0
 11
48.9
 21
118.5
 31
0.0
  0
LINE
  8
0
  6
CONTINUOUS
 62
     2
 10
48.497066671
 20
117.690370196
 30
0.0
 11
48.302952387
 21
118.364814566
 31
0.0
  0
LINE
  8
0
  6
CONTINUOUS
 62
     2
 10
48.025
 20
117.515544457
 30
0.0
 11
47.7
 21
118.115063509
 31
0.0
  0
LINE
  8
0
  6
CONTINUOUS
 62
     2
 10
47.65
 20
117.265063509
 30
0.0
 11
47.132233047
 21
117.767766953
 31
0.0
  0
LINE
  8
0
  6
CONTINUOUS
 62
     2
 10
47.384455543
 20
116.875
 30
0.0
 11
46.784455543
 21
117.225
 31
0.0
  0
LINE
  8
0
  6
CONTINUOUS
 62
     2
 10
47.209629804
 20
116.452933329
 30
0.0
 11
46.485185434
 21
116.647047613
 31
0.0
  0
LINE
  8
0
  6
CONTINUOUS
 62
     2
 10
47.15
 20
116.0
 30
0.0
 11
46.4
 21
116.0
 31
0.0
  0
LINE
  8
0
  6
CONTINUOUS
 62
     2
 10
47.209629804
 20
115.547066671
 30
0.0
 11
46.485185434
 21
115.352952387
 31
0.0
  0
LINE
  8
0
  6
CONTINUOUS
 62
     2
 10
47.384455543
 20
115.125
 30
0.0
 11
46.734936491
 21
114.75
 31
0.0
  0
LINE
  8
0
  6
CONTINUOUS
 62
     2
 10
47.662563133
 20
114.762563133
 30
0.0
 11
47.162563133
 21
114.262563133
 31
0.0
  0
LINE
  8
0
  6
CONTINUOUS
 62
     2
 10
48.447066671
 20
114.309629804
 30
0.0
 11
48.202952387
 21
113.585185434
 31
0.0
  0
LINE
  8
0
  6
CONTINUOUS
 62
     2
 10
48.0375
 20
114.510242401
 30
0.0
 11
47.6875
 21
113.860242401
 31
0.0
  0
CIRCLE
  8
0
  6
CONTINUOUS
 62
     2
 10
59.9
 20
116.0
 30
0.0
 40
1.75
  0
LINE
  8
0
  6
CONTINUOUS
 62
     2
 10
59.9
 20
114.25
 30
0.0
 11
59.9
 21
113.5
 31
0.0
  0
LINE
  8
0
  6
CONTINUOUS
 62
     2
 10
59.431088913
 20
114.35
 30
0.0
 11
59.252952387
 21
113.585185434
 31
0.0
  0
LINE
  8
0
  6
CONTINUOUS
 62
     2
 10
59.025
 20
114.484455543
 30
0.0
 11
58.65
 21
113.834936491
 31
0.0
  0
LINE
  8
0
  6
CONTINUOUS
 62
     2
 10
58.662563133
 20
114.762563133
 30
0.0
 11
58.162563133
 21
114.262563133
 31
0.0
  0
LINE
  8
0
  6
CONTINUOUS
 62
     2
 10
58.412563133
 20
115.162563133
 30
0.0
 11
57.762563133
 21
114.762563133
 31
0.0
  0
LINE
  8
0
  6
CONTINUOUS
 62
     2
 10
58.212563133
 20
115.562563133
 30
0.0
 11
57.512563133
 21
115.362563133
 31
0.0
  0
LINE
  8
0
  6
CONTINUOUS
 62
     2
 10
58.162563133
 20
116.012563133
 30
0.0
 11
57.412563133
 21
116.012563133
 31
0.0
  0
LINE
  8
0
  6
CONTINUOUS
 62
     2
 10
58.209629804
 20
116.452933329
 30
0.0
 11
57.509629804
 21
116.652933329
 31
0.0
  0
LINE
  8
0
  6
CONTINUOUS
 62
     2
 10
58.409629804
 20
116.852933329
 30
0.0
 11
57.734936491
 21
117.25
 31
0.0
  0
LINE
  8
0
  6
CONTINUOUS
 62
     2
 10
58.684936491
 20
117.25
 30
0.0
 11
58.132233047
 21
117.767766953
 31
0.0
  0
LINE
  8
0
  6
CONTINUOUS
 62
     2
 10
59.032233047
 20
117.517766953
 30
0.0
 11
58.7
 21
118.115063509
 31
0.0
  0
LINE
  8
0
  6
CONTINUOUS
 62
     2
 10
59.45
 20
117.665063509
 30
0.0
 11
59.252952387
 21
118.364814566
 31
0.0
  0
LINE
  8
0
  6
CONTINUOUS
 62
     2
 10
59.9
 20
117.75
 30
0.0
 11
59.9
 21
118.5
 31
0.0
  0
LINE
  8
0
  6
CONTINUOUS
 62
     2
 10
60.302933329
 20
117.690370196
 30
0.0
 11
60.497047613
 21
118.364814566
 31
0.0
  0
LINE
  8
0
  6
CONTINUOUS
 62
     2
 10
60.775
 20
117.515544457
 30
0.0
 11
61.1
 21
118.115063509
 31
0.0
  0
LINE
  8
0
  6
CONTINUOUS
 62
     2
 10
61.15
 20
117.265063509
 30
0.0
 11
61.667766953
 21
117.767766953
 31
0.0
  0
LINE
  8
0
  6
CONTINUOUS
 62
     2
 10
61.415544457
 20
116.875
 30
0.0
 11
62.015544457
 21
117.225
 31
0.0
  0
LINE
  8
0
  6
CONTINUOUS
 62
     2
 10
61.590370196
 20
116.452933329
 30
0.0
 11
62.314814566
 21
116.647047613
 31
0.0
  0
LINE
  8
0
  6
CONTINUOUS
 62
     2
 10
61.65
 20
116.0
 30
0.0
 11
62.4
 21
116.0
 31
0.0
  0
LINE
  8
0
  6
CONTINUOUS
 62
     2
 10
61.590370196
 20
115.547066671
 30
0.0
 11
62.314814566
 21
115.352952387
 31
0.0
  0
LINE
  8
0
  6
CONTINUOUS
 62
     2
 10
61.415544457
 20
115.125
 30
0.0
 11
62.065063509
 21
114.75
 31
0.0
  0
LINE
  8
0
  6
CONTINUOUS
 62
     2
 10
61.137436867
 20
114.762563133
 30
0.0
 11
61.637436867
 21
114.262563133
 31
0.0
  0
LINE
  8
0
  6
CONTINUOUS
 62
     2
 10
60.352933329
 20
114.309629804
 30
0.0
 11
60.597047613
 21
113.585185434
 31
0.0
  0
LINE
  8
0
  6
CONTINUOUS
 62
     2
 10
60.7625
 20
114.510242401
 30
0.0
 11
61.1125
 21
113.860242401
 31
0.0
  0
TEXT
  8
0
  6
CONTINUOUS
 62
     2
 10
59.05
 20
115.0
 30
0.2
 40
2.0
  1
Ｈ
 50
0.0
 41
0.9
 51
0.0
  7
KANJI5
  0
LINE
  8
0
  6
LTYPE1
 62
     2
 10
27.8
 20
32.4
 30
0.0
 11
34.95
 21
32.4
 31
0.0
  0
LINE
  8
0
  6
LTYPE1
 62
     2
 10
72.5
 20
32.4
 30
0.0
 11
81.8
 21
32.4
 31
0.0
  0
LINE
  8
0
  6
LTYPE1
 62
     2
 10
76.9
 20
28.05
 30
0.0
 11
76.9
 21
37.4
 31
0.0
  0
LINE
  8
0
  6
LTYPE1
 62
     2
 10
31.9
 20
83.75
 30
0.0
 11
31.9
 21
73.0
 31
0.0
  0
LINE
  8
0
  6
LTYPE1
 62
     2
 10
31.9
 20
37.6
 30
0.0
 11
31.9
 21
27.3
 31
0.0
  0
LINE
  8
0
  6
LTYPE1
 62
     2
 10
27.85
 20
77.4
 30
0.0
 11
38.5
 21
77.4
 31
0.0
  0
LINE
  8
0
  6
LTYPE1
 62
     2
 10
71.1
 20
77.4
 30
0.0
 11
84.15
 21
77.4
 31
0.0
  0
LINE
  8
0
  6
CONTINUOUS
 62
     2
 10
81.95
 20
32.4
 30
0.0
 11
90.4
 21
32.4
 31
0.0
  0
LINE
  8
0
  6
CONTINUOUS
 62
     2
 10
88.4
 20
32.4
 30
0.0
 11
89.047047613
 21
34.814814566
 31
0.0
  0
LINE
  8
0
  6
CONTINUOUS
 62
     2
 10
88.4
 20
32.4
 30
0.0
 11
87.752952387
 21
34.814814566
 31
0.0
  0
LINE
  8
0
  6
CONTINUOUS
 62
     2
 10
88.4
 20
54.9
 30
0.0
 11
87.752952387
 21
52.485185434
 31
0.0
  0
LINE
  8
0
  6
CONTINUOUS
 62
     2
 10
88.4
 20
54.9
 30
0.0
 11
89.047047613
 21
52.485185434
 31
0.0
  0
LINE
  8
0
  6
CONTINUOUS
 62
     2
 10
83.8
 20
54.9
 30
0.0
 11
90.4
 21
54.9
 31
0.0
  0
LINE
  8
0
  6
CONTINUOUS
 62
     2
 10
88.4
 20
54.9
 30
0.0
 11
89.047047613
 21
57.314814566
 31
0.0
  0
LINE
  8
0
  6
CONTINUOUS
 62
     2
 10
88.4
 20
54.9
 30
0.0
 11
87.752952387
 21
57.314814566
 31
0.0
  0
LINE
  8
0
  6
CONTINUOUS
 62
     2
 10
88.4
 20
54.9
 30
0.0
 11
88.4
 21
77.4
 31
0.0
  0
LINE
  8
0
  6
CONTINUOUS
 62
     2
 10
88.4
 20
77.4
 30
0.0
 11
87.752952387
 21
74.985185434
 31
0.0
  0
LINE
  8
0
  6
CONTINUOUS
 62
     2
 10
88.4
 20
77.4
 30
0.0
 11
89.047047613
 21
74.985185434
 31
0.0
  0
LINE
  8
0
  6
CONTINUOUS
 62
     2
 10
84.15
 20
77.4
 30
0.0
 11
90.4
 21
77.4
 31
0.0
  0
TEXT
  8
0
  6
CONTINUOUS
 62
     2
 10
87.4
 20
61.77
 30
0.3
 40
3.0
  1
４５
 50
90.0
 41
0.6
 51
0.0
  7
KANJI2
  0
LINE
  8
0
  6
CONTINUOUS
 62
     2
 10
88.4
 20
32.4
 30
0.0
 11
88.4
 21
54.9
 31
0.0
  0
TEXT
  8
0
  6
CONTINUOUS
 62
     2
 10
87.4
 20
39.27
 30
0.3
 40
3.0
  1
４５
 50
90.0
 41
0.6
 51
0.0
  7
KANJI2
  0
LINE
  8
0
  6
CONTINUOUS
 62
     2
 10
31.9
 20
83.75
 30
0.0
 11
31.9
 21
86.4
 31
0.0
  0
LINE
  8
0
  6
CONTINUOUS
 62
     2
 10
31.9
 20
84.4
 30
0.0
 11
34.314814566
 21
83.752952387
 31
0.0
  0
LINE
  8
0
  6
CONTINUOUS
 62
     2
 10
31.9
 20
84.4
 30
0.0
 11
34.314814566
 21
85.047047613
 31
0.0
  0
LINE
  8
0
  6
CONTINUOUS
 62
     2
 10
31.9
 20
84.4
 30
0.0
 11
54.4
 21
84.4
 31
0.0
  0
LINE
  8
0
  6
CONTINUOUS
 62
     2
 10
54.4
 20
84.4
 30
0.0
 11
51.985185434
 21
85.047047613
 31
0.0
  0
LINE
  8
0
  6
CONTINUOUS
 62
     2
 10
54.4
 20
84.4
 30
0.0
 11
51.985185434
 21
83.752952387
 31
0.0
  0
LINE
  8
0
  6
CONTINUOUS
 62
     2
 10
54.4
 20
83.75
 30
0.0
 11
54.4
 21
86.4
 31
0.0
  0
TEXT
  8
0
  6
CONTINUOUS
 62
     2
 10
38.77
 20
85.4
 30
0.3
 40
3.0
  1
４５
 50
0.0
 41
0.6
 51
0.0
  7
KANJI2
  0
LINE
  8
0
  6
CONTINUOUS
 62
     2
 10
54.4
 20
84.4
 30
0.0
 11
56.814814566
 21
83.752952387
 31
0.0
  0
LINE
  8
0
  6
CONTINUOUS
 62
     2
 10
54.4
 20
84.4
 30
0.0
 11
56.814814566
 21
85.047047613
 31
0.0
  0
LINE
  8
0
  6
CONTINUOUS
 62
     2
 10
54.4
 20
84.4
 30
0.0
 11
76.9
 21
84.4
 31
0.0
  0
LINE
  8
0
  6
CONTINUOUS
 62
     2
 10
76.9
 20
84.4
 30
0.0
 11
74.485185434
 21
85.047047613
 31
0.0
  0
LINE
  8
0
  6
CONTINUOUS
 62
     2
 10
76.9
 20
84.4
 30
0.0
 11
74.485185434
 21
83.752952387
 31
0.0
  0
TEXT
  8
0
  6
CONTINUOUS
 62
     2
 10
61.27
 20
85.4
 30
0.3
 40
3.0
  1
４５
 50
0.0
 41
0.6
 51
0.0
  7
KANJI2
  0
LINE
  8
0
  6
CONTINUOUS
 62
     2
 10
31.0
 20
30.85
 30
0.0
 11
29.552635312
 21
28.811585062
 31
0.0
  0
LINE
  8
0
  6
CONTINUOUS
 62
     2
 10
31.0
 20
30.85
 30
0.0
 11
30.765752881
 21
28.360998536
 31
0.0
  0
LINE
  8
0
  6
CONTINUOUS
 62
     2
 10
31.0
 20
30.85
 30
0.0
 11
27.75
 21
22.1
 31
0.0
  0
LINE
  8
0
  6
CONTINUOUS
 62
     2
 10
27.75
 20
22.1
 30
0.0
 11
19.05
 21
22.1
 31
0.0
  0
LINE
  8
0
  6
CONTINUOUS
 62
     2
 10
36.970094052
 20
36.630876358
 30
0.0
 11
39.105182511
 21
37.931413659
 31
0.0
  0
LINE
  8
0
  6
CONTINUOUS
 62
     2
 10
36.970094052
 20
36.630876358
 30
0.0
 11
38.168866247
 21
38.824718929
 31
0.0
  0
LINE
  8
0
  6
CONTINUOUS
 62
     2
 10
36.970094052
 20
36.630876358
 30
0.0
 11
71.829905948
 21
73.169123642
 31
0.0
  0
LINE
  8
0
  6
CONTINUOUS
 62
     2
 10
71.829905948
 20
73.169123642
 30
0.0
 11
70.61462817
 21
70.669123642
 31
0.0
  0
LINE
  8
0
  6
CONTINUOUS
 62
     2
 10
71.829905948
 20
73.169123642
 30
0.0
 11
69.379905948
 21
71.769123642
 31
0.0
  0
LINE
  8
0
  6
LTYPE1
 62
     2
 10
76.9
 20
72.0
 30
0.0
 11
76.9
 21
85.919123642
 31
0.0
  0
TEXT
  8
0
  6
CONTINUOUS
 62
     2
 10
19.05
 20
23.1
 30
0.5
 40
3.0
  1
４－φ７
 50
0.0
 41
0.6
 51
0.0
  7
KANJI4
  0
TEXT
  8
0
  6
CONTINUOUS
 62
     2
 10
40.176470351
 20
41.440293305
 30
0.3
 40
3.0
  1
φ１０２
 50
46.346669025
 41
0.6
 51
0.0
  7
KANJI2
  0
TEXT
  8
0
  6
CONTINUOUS
 62
     2
 10
42.67
 20
85.4
 30
0.18
 40
1.8
  1
±０．５
 50
0.0
 41
0.6
 51
0.0
  7
KANJI3
  0
TEXT
  8
0
  6
CONTINUOUS
 62
     2
 10
65.17
 20
85.4
 30
0.18
 40
1.8
  1
±０．５
 50
0.0
 41
0.6
 51
0.0
  7
KANJI3
  0
TEXT
  8
0
  6
CONTINUOUS
 62
     2
 10
87.4
 20
65.67
 30
0.18
 40
1.8
  1
±０．５
 50
90.0
 41
0.6
 51
0.0
  7
KANJI3
  0
TEXT
  8
0
  6
CONTINUOUS
 62
     2
 10
87.4
 20
43.17
 30
0.18
 40
1.8
  1
±０．５
 50
90.0
 41
0.6
 51
0.0
  7
KANJI3
  0
CIRCLE
  8
0
  6
CONTINUOUS
 62
     2
 10
189.8
 20
84.8
 30
0.0
 40
2.25
  0
CIRCLE
  8
0
  6
CONTINUOUS
 62
     2
 10
189.8
 20
84.8
 30
0.0
 40
2.25
  0
TEXT
  8
0
  6
CONTINUOUS
 62
     2
 10
189.05
 20
83.75
 30
0.15
 40
2.25
  1
１
 50
0.0
 41
0.666666667
 51
0.0
  7
KANJI7
  0
TEXT
  8
0
  6
CONTINUOUS
 62
     2
 10
189.05
 20
83.75
 30
0.15
 40
2.25
  1
１
 50
0.0
 41
0.666666667
 51
0.0
  7
KANJI7
  0
CIRCLE
  8
0
  6
CONTINUOUS
 62
     2
 10
195.8
 20
84.8
 30
0.0
 40
2.25
  0
CIRCLE
  8
0
  6
CONTINUOUS
 62
     2
 10
195.8
 20
84.8
 30
0.0
 40
2.25
  0
TEXT
  8
0
  6
CONTINUOUS
 62
     2
 10
195.2
 20
83.75
 30
0.15
 40
2.25
  1
２
 50
0.0
 41
0.666666667
 51
0.0
  7
KANJI7
  0
TEXT
  8
0
  6
CONTINUOUS
 62
     2
 10
195.2
 20
83.75
 30
0.15
 40
2.25
  1
２
 50
0.0
 41
0.666666667
 51
0.0
  7
KANJI7
  0
CIRCLE
  8
0
  6
CONTINUOUS
 62
     2
 10
201.8
 20
84.8
 30
0.0
 40
2.25
  0
CIRCLE
  8
0
  6
CONTINUOUS
 62
     2
 10
201.8
 20
84.8
 30
0.0
 40
2.25
  0
TEXT
  8
0
  6
CONTINUOUS
 62
     2
 10
201.05
 20
83.75
 30
0.15
 40
2.25
  1
３
 50
0.0
 41
0.666666667
 51
0.0
  7
KANJI7
  0
TEXT
  8
0
  6
CONTINUOUS
 62
     2
 10
201.05
 20
83.75
 30
0.15
 40
2.25
  1
３
 50
0.0
 41
0.666666667
 51
0.0
  7
KANJI7
  0
CIRCLE
  8
0
  6
CONTINUOUS
 62
     2
 10
207.8
 20
84.8
 30
0.0
 40
2.25
  0
CIRCLE
  8
0
  6
CONTINUOUS
 62
     2
 10
207.8
 20
84.8
 30
0.0
 40
2.25
  0
TEXT
  8
0
  6
CONTINUOUS
 62
     2
 10
207.2
 20
83.75
 30
0.15
 40
2.25
  1
４
 50
0.0
 41
0.666666667
 51
0.0
  7
KANJI7
  0
TEXT
  8
0
  6
CONTINUOUS
 62
     2
 10
207.2
 20
83.75
 30
0.15
 40
2.25
  1
４
 50
0.0
 41
0.666666667
 51
0.0
  7
KANJI7
  0
CIRCLE
  8
0
  6
CONTINUOUS
 62
     2
 10
213.8
 20
84.8
 30
0.0
 40
2.25
  0
CIRCLE
  8
0
  6
CONTINUOUS
 62
     2
 10
213.8
 20
84.8
 30
0.0
 40
2.25
  0
TEXT
  8
0
  6
CONTINUOUS
 62
     2
 10
213.2
 20
83.825
 30
0.15
 40
2.25
  1
５
 50
0.0
 41
0.666666667
 51
0.0
  7
KANJI7
  0
TEXT
  8
0
  6
CONTINUOUS
 62
     2
 10
213.2
 20
83.825
 30
0.15
 40
2.25
  1
５
 50
0.0
 41
0.666666667
 51
0.0
  7
KANJI7
  0
CIRCLE
  8
0
  6
CONTINUOUS
 62
     2
 10
183.8
 20
64.5
 30
0.0
 40
2.25
  0
CIRCLE
  8
0
  6
CONTINUOUS
 62
     2
 10
183.8
 20
64.5
 30
0.0
 40
2.25
  0
TEXT
  8
0
  6
CONTINUOUS
 62
     2
 10
183.05
 20
63.525
 30
0.15
 40
2.25
  1
９
 50
0.0
 41
0.666666667
 51
0.0
  7
KANJI7
  0
TEXT
  8
0
  6
CONTINUOUS
 62
     2
 10
183.05
 20
63.525
 30
0.15
 40
2.25
  1
９
 50
0.0
 41
0.666666667
 51
0.0
  7
KANJI7
  0
CIRCLE
  8
0
  6
CONTINUOUS
 62
     2
 10
189.8
 20
64.5
 30
0.0
 40
2.25
  0
CIRCLE
  8
0
  6
CONTINUOUS
 62
     2
 10
189.8
 20
64.5
 30
0.0
 40
2.25
  0
TEXT
  8
0
  6
CONTINUOUS
 62
     2
 10
188.375
 20
63.45
 30
0.15
 40
2.25
  1
１０
 50
0.0
 41
0.666666667
 51
0.0
  7
KANJI7
  0
TEXT
  8
0
  6
CONTINUOUS
 62
     2
 10
188.375
 20
63.45
 30
0.15
 40
2.25
  1
１０
 50
0.0
 41
0.666666667
 51
0.0
  7
KANJI7
  0
CIRCLE
  8
0
  6
CONTINUOUS
 62
     2
 10
195.8
 20
64.5
 30
0.0
 40
2.25
  0
CIRCLE
  8
0
  6
CONTINUOUS
 62
     2
 10
195.8
 20
64.5
 30
0.0
 40
2.25
  0
TEXT
  8
0
  6
CONTINUOUS
 62
     2
 10
194.3375
 20
63.525
 30
0.15
 40
2.25
  1
１１
 50
0.0
 41
0.666666667
 51
0.0
  7
KANJI7
  0
TEXT
  8
0
  6
CONTINUOUS
 62
     2
 10
194.3375
 20
63.525
 30
0.15
 40
2.25
  1
１１
 50
0.0
 41
0.666666667
 51
0.0
  7
KANJI7
  0
CIRCLE
  8
0
  6
CONTINUOUS
 62
     2
 10
201.8
 20
64.5
 30
0.0
 40
2.25
  0
CIRCLE
  8
0
  6
CONTINUOUS
 62
     2
 10
201.8
 20
64.5
 30
0.0
 40
2.25
  0
TEXT
  8
0
  6
CONTINUOUS
 62
     2
 10
201.2
 20
63.525
 30
0.15
 40
2.25
  1
６
 50
0.0
 41
0.666666667
 51
0.0
  7
KANJI7
  0
TEXT
  8
0
  6
CONTINUOUS
 62
     2
 10
201.2
 20
63.525
 30
0.15
 40
2.25
  1
６
 50
0.0
 41
0.666666667
 51
0.0
  7
KANJI7
  0
CIRCLE
  8
0
  6
CONTINUOUS
 62
     2
 10
207.8
 20
64.5
 30
0.0
 40
2.25
  0
CIRCLE
  8
0
  6
CONTINUOUS
 62
     2
 10
207.8
 20
64.5
 30
0.0
 40
2.25
  0
TEXT
  8
0
  6
CONTINUOUS
 62
     2
 10
207.2
 20
63.375
 30
0.15
 40
2.25
  1
７
 50
0.0
 41
0.666666667
 51
0.0
  7
KANJI7
  0
TEXT
  8
0
  6
CONTINUOUS
 62
     2
 10
207.2
 20
63.375
 30
0.15
 40
2.25
  1
７
 50
0.0
 41
0.666666667
 51
0.0
  7
KANJI7
  0
CIRCLE
  8
0
  6
CONTINUOUS
 62
     2
 10
213.8
 20
64.5
 30
0.0
 40
2.25
  0
CIRCLE
  8
0
  6
CONTINUOUS
 62
     2
 10
213.8
 20
64.5
 30
0.0
 40
2.25
  0
TEXT
  8
0
  6
CONTINUOUS
 62
     2
 10
213.05
 20
63.375
 30
0.15
 40
2.25
  1
８
 50
0.0
 41
0.666666667
 51
0.0
  7
KANJI7
  0
TEXT
  8
0
  6
CONTINUOUS
 62
     2
 10
213.05
 20
63.375
 30
0.15
 40
2.25
  1
８
 50
0.0
 41
0.666666667
 51
0.0
  7
KANJI7
  0
LINE
  8
0
  6
CONTINUOUS
 62
     2
 10
201.8
 20
75.55
 30
0.0
 11
201.8
 21
82.55
 31
0.0
  0
LINE
  8
0
  6
CONTINUOUS
 62
     2
 10
213.8
 20
75.55
 30
0.0
 11
213.8
 21
82.55
 31
0.0
  0
LINE
  8
0
  6
CONTINUOUS
 62
     2
 10
201.8
 20
66.75
 30
0.0
 11
201.8
 21
73.75
 31
0.0
  0
LINE
  8
0
  6
CONTINUOUS
 62
     2
 10
213.8
 20
66.75
 30
0.0
 11
213.8
 21
73.75
 31
0.0
  0
LINE
  8
0
  6
CONTINUOUS
 62
     2
 10
201.8
 20
77.55
 30
0.0
 11
204.8
 21
76.55
 31
0.0
  0
LINE
  8
0
  6
CONTINUOUS
 62
     2
 10
204.8
 20
76.55
 30
0.0
 11
201.8
 21
75.55
 31
0.0
  0
LINE
  8
0
  6
CONTINUOUS
 62
     2
 10
213.8
 20
77.55
 30
0.0
 11
210.8
 21
76.55
 31
0.0
  0
LINE
  8
0
  6
CONTINUOUS
 62
     2
 10
210.8
 20
76.55
 30
0.0
 11
213.8
 21
75.55
 31
0.0
  0
LINE
  8
0
  6
CONTINUOUS
 62
     2
 10
213.8
 20
73.75
 30
0.0
 11
210.8
 21
72.75
 31
0.0
  0
LINE
  8
0
  6
CONTINUOUS
 62
     2
 10
210.8
 20
72.75
 30
0.0
 11
213.8
 21
71.75
 31
0.0
  0
LINE
  8
0
  6
CONTINUOUS
 62
     2
 10
201.8
 20
73.75
 30
0.0
 11
204.8
 21
72.75
 31
0.0
  0
LINE
  8
0
  6
CONTINUOUS
 62
     2
 10
204.8
 20
72.75
 30
0.0
 11
201.8
 21
71.75
 31
0.0
  0
LINE
  8
0
  6
CONTINUOUS
 62
     2
 10
207.8
 20
66.75
 30
0.0
 11
211.0
 21
73.25
 31
0.0
  0
LINE
  8
0
  6
CONTINUOUS
 62
     2
 10
207.8
 20
82.55
 30
0.0
 11
211.0
 21
76.05
 31
0.0
  0
LINE
  8
0
  6
CONTINUOUS
 62
     2
 10
189.8
 20
88.05
 30
0.0
 11
190.447047613
 21
90.464814566
 31
0.0
  0
LINE
  8
0
  6
CONTINUOUS
 62
     2
 10
189.8
 20
88.05
 30
0.0
 11
189.152952387
 21
90.464814566
 31
0.0
  0
LINE
  8
0
  6
CONTINUOUS
 62
     2
 10
189.8
 20
88.05
 30
0.0
 11
189.8
 21
92.05
 31
0.0
  0
LINE
  8
0
  6
CONTINUOUS
 62
     2
 10
195.8
 20
88.05
 30
0.0
 11
196.447047613
 21
90.464814566
 31
0.0
  0
LINE
  8
0
  6
CONTINUOUS
 62
     2
 10
195.8
 20
88.05
 30
0.0
 11
195.152952387
 21
90.464814566
 31
0.0
  0
LINE
  8
0
  6
CONTINUOUS
 62
     2
 10
195.8
 20
88.05
 30
0.0
 11
195.8
 21
92.05
 31
0.0
  0
LINE
  8
0
  6
CONTINUOUS
 62
     2
 10
201.826794919
 20
92.15
 30
0.0
 11
201.179747306
 21
89.735185434
 31
0.0
  0
LINE
  8
0
  6
CONTINUOUS
 62
     2
 10
201.826794919
 20
92.15
 30
0.0
 11
202.473842532
 21
89.735185434
 31
0.0
  0
LINE
  8
0
  6
CONTINUOUS
 62
     2
 10
201.826794919
 20
92.15
 30
0.0
 11
201.826794919
 21
88.15
 31
0.0
  0
LINE
  8
0
  6
CONTINUOUS
 62
     2
 10
207.826794919
 20
92.15
 30
0.0
 11
207.179747306
 21
89.735185434
 31
0.0
  0
LINE
  8
0
  6
CONTINUOUS
 62
     2
 10
207.826794919
 20
92.15
 30
0.0
 11
208.473842532
 21
89.735185434
 31
0.0
  0
LINE
  8
0
  6
CONTINUOUS
 62
     2
 10
207.826794919
 20
92.15
 30
0.0
 11
207.826794919
 21
88.15
 31
0.0
  0
LINE
  8
0
  6
CONTINUOUS
 62
     2
 10
213.826794919
 20
92.15
 30
0.0
 11
213.179747306
 21
89.735185434
 31
0.0
  0
LINE
  8
0
  6
CONTINUOUS
 62
     2
 10
213.826794919
 20
92.15
 30
0.0
 11
214.473842532
 21
89.735185434
 31
0.0
  0
LINE
  8
0
  6
CONTINUOUS
 62
     2
 10
213.826794919
 20
92.15
 30
0.0
 11
213.826794919
 21
88.15
 31
0.0
  0
LINE
  8
0
  6
CONTINUOUS
 62
     2
 10
201.8
 20
57.25
 30
0.0
 11
202.447047613
 21
59.664814566
 31
0.0
  0
LINE
  8
0
  6
CONTINUOUS
 62
     2
 10
201.8
 20
57.25
 30
0.0
 11
201.152952387
 21
59.664814566
 31
0.0
  0
LINE
  8
0
  6
CONTINUOUS
 62
     2
 10
201.8
 20
57.25
 30
0.0
 11
201.8
 21
61.25
 31
0.0
  0
LINE
  8
0
  6
CONTINUOUS
 62
     2
 10
207.8
 20
57.25
 30
0.0
 11
208.447047613
 21
59.664814566
 31
0.0
  0
LINE
  8
0
  6
CONTINUOUS
 62
     2
 10
207.8
 20
57.25
 30
0.0
 11
207.152952387
 21
59.664814566
 31
0.0
  0
LINE
  8
0
  6
CONTINUOUS
 62
     2
 10
207.8
 20
57.25
 30
0.0
 11
207.8
 21
61.25
 31
0.0
  0
LINE
  8
0
  6
CONTINUOUS
 62
     2
 10
213.8
 20
57.25
 30
0.0
 11
214.447047613
 21
59.664814566
 31
0.0
  0
LINE
  8
0
  6
CONTINUOUS
 62
     2
 10
213.8
 20
57.25
 30
0.0
 11
213.152952387
 21
59.664814566
 31
0.0
  0
LINE
  8
0
  6
CONTINUOUS
 62
     2
 10
213.8
 20
57.25
 30
0.0
 11
213.8
 21
61.25
 31
0.0
  0
LINE
  8
0
  6
CONTINUOUS
 62
     2
 10
183.853589838
 20
61.45
 30
0.0
 11
183.206542226
 21
59.035185434
 31
0.0
  0
LINE
  8
0
  6
CONTINUOUS
 62
     2
 10
183.853589838
 20
61.45
 30
0.0
 11
184.500637451
 21
59.035185434
 31
0.0
  0
LINE
  8
0
  6
CONTINUOUS
 62
     2
 10
189.853589838
 20
61.45
 30
0.0
 11
189.206542226
 21
59.035185434
 31
0.0
  0
LINE
  8
0
  6
CONTINUOUS
 62
     2
 10
189.853589838
 20
61.45
 30
0.0
 11
190.500637451
 21
59.035185434
 31
0.0
  0
LINE
  8
0
  6
CONTINUOUS
 62
     2
 10
195.826794919
 20
61.35
 30
0.0
 11
195.179747306
 21
58.935185434
 31
0.0
  0
LINE
  8
0
  6
CONTINUOUS
 62
     2
 10
195.826794919
 20
61.35
 30
0.0
 11
196.473842532
 21
58.935185434
 31
0.0
  0
LINE
  8
0
  6
CONTINUOUS
 62
     2
 10
195.826794919
 20
61.35
 30
0.0
 11
195.826794919
 21
57.25
 31
0.0
  0
LINE
  8
0
  6
CONTINUOUS
 62
     2
 10
189.853589838
 20
61.45
 30
0.0
 11
189.853589838
 21
57.25
 31
0.0
  0
LINE
  8
0
  6
CONTINUOUS
 62
     2
 10
183.853589838
 20
61.45
 30
0.0
 11
183.853589838
 21
57.25
 31
0.0
  0
TEXT
  8
0
  6
CONTINUOUS
 62
     2
 10
187.2
 20
93.05
 30
0.3
 40
3.0
  1
駆動入力
 50
0.0
 41
0.833333333
 51
0.0
  7
KANJI8
  0
TEXT
  8
0
  6
CONTINUOUS
 62
     2
 10
184.3
 20
96.55
 30
0.3
 40
3.0
  1
メータ
 50
0.0
 41
0.833333333
 51
0.0
  7
KANJI8
  0
TEXT
  8
0
  6
CONTINUOUS
 62
     2
 10
202.8
 20
96.65
 30
0.3
 40
3.0
  1
Ｈ側
 50
0.0
 41
0.833333333
 51
0.0
  7
KANJI8
  0
TEXT
  8
0
  6
CONTINUOUS
 62
     2
 10
202.7
 20
93.15
 30
0.3
 40
3.0
  1
負荷端子
 50
0.0
 41
0.833333333
 51
0.0
  7
KANJI8
  0
TEXT
  8
0
  6
CONTINUOUS
 62
     2
 10
202.7
 20
49.45
 30
0.3
 40
3.0
  1
負荷端子
 50
0.0
 41
0.833333333
 51
0.0
  7
KANJI8
  0
TEXT
  8
0
  6
CONTINUOUS
 62
     2
 10
202.8
 20
52.95
 30
0.3
 40
3.0
  1
Ｌ側
 50
0.0
 41
0.833333333
 51
0.0
  7
KANJI8
  0
TEXT
  8
0
  6
CONTINUOUS
 62
     2
 10
181.8
 20
52.55
 30
0.3
 40
3.0
  1
制御電源端子
 50
0.0
 41
0.833333333
 51
0.0
  7
KANJI8
  0
CIRCLE
  8
0
  6
CONTINUOUS
 62
     2
 10
167.8
 20
49.9
 30
0.0
 40
2.25
  0
CIRCLE
  8
0
  6
CONTINUOUS
 62
     2
 10
167.8
 20
49.9
 30
0.0
 40
2.25
  0
TEXT
  8
0
  6
CONTINUOUS
 62
     2
 10
167.05
 20
48.925
 30
0.15
 40
2.25
  1
９
 50
0.0
 41
0.666666667
 51
0.0
  7
KANJI7
  0
TEXT
  8
0
  6
CONTINUOUS
 62
     2
 10
167.05
 20
48.925
 30
0.15
 40
2.25
  1
９
 50
0.0
 41
0.666666667
 51
0.0
  7
KANJI7
  0
CIRCLE
  8
0
  6
CONTINUOUS
 62
     2
 10
173.8
 20
49.9
 30
0.0
 40
2.25
  0
CIRCLE
  8
0
  6
CONTINUOUS
 62
     2
 10
173.8
 20
49.9
 30
0.0
 40
2.25
  0
TEXT
  8
0
  6
CONTINUOUS
 62
     2
 10
172.375
 20
48.85
 30
0.15
 40
2.25
  1
１０
 50
0.0
 41
0.666666667
 51
0.0
  7
KANJI7
  0
TEXT
  8
0
  6
CONTINUOUS
 62
     2
 10
172.375
 20
48.85
 30
0.15
 40
2.25
  1
１０
 50
0.0
 41
0.666666667
 51
0.0
  7
KANJI7
  0
CIRCLE
  8
0
  6
CONTINUOUS
 62
     2
 10
167.8
 20
43.9
 30
0.0
 40
2.25
  0
CIRCLE
  8
0
  6
CONTINUOUS
 62
     2
 10
167.8
 20
43.9
 30
0.0
 40
2.25
  0
TEXT
  8
0
  6
CONTINUOUS
 62
     2
 10
167.05
 20
42.925
 30
0.15
 40
2.25
  1
９
 50
0.0
 41
0.666666667
 51
0.0
  7
KANJI7
  0
TEXT
  8
0
  6
CONTINUOUS
 62
     2
 10
167.05
 20
42.925
 30
0.15
 40
2.25
  1
９
 50
0.0
 41
0.666666667
 51
0.0
  7
KANJI7
  0
CIRCLE
  8
0
  6
CONTINUOUS
 62
     2
 10
173.8
 20
43.9
 30
0.0
 40
2.25
  0
CIRCLE
  8
0
  6
CONTINUOUS
 62
     2
 10
173.8
 20
43.9
 30
0.0
 40
2.25
  0
TEXT
  8
0
  6
CONTINUOUS
 62
     2
 10
172.375
 20
42.85
 30
0.15
 40
2.25
  1
１１
 50
0.0
 41
0.666666667
 51
0.0
  7
KANJI7
  0
LINE
  8
0
  6
CONTINUOUS
 62
     2
 10
170.05
 20
43.9
 30
0.0
 11
171.55
 21
43.9
 31
0.0
  0
LINE
  8
0
  6
CONTINUOUS
 62
     2
 10
170.05
 20
49.9
 30
0.0
 11
171.55
 21
49.9
 31
0.0
  0
TEXT
  8
0
  6
CONTINUOUS
 62
     2
 10
172.375
 20
42.85
 30
0.15
 40
2.25
  1
１１
 50
0.0
 41
0.666666667
 51
0.0
  7
KANJI7
  0
LINE
  8
0
  6
CONTINUOUS
 62
     2
 10
159.4
 20
92.2
 30
0.0
 11
177.4
 21
92.2
 31
0.0
  0
CIRCLE
  8
0
  6
CONTINUOUS
 62
     2
 10
167.8
 20
37.9
 30
0.0
 40
2.25
  0
CIRCLE
  8
0
  6
CONTINUOUS
 62
     2
 10
167.8
 20
37.9
 30
0.0
 40
2.25
  0
TEXT
  8
0
  6
CONTINUOUS
 62
     2
 10
167.05
 20
36.925
 30
0.15
 40
2.25
  1
９
 50
0.0
 41
0.666666667
 51
0.0
  7
KANJI7
  0
TEXT
  8
0
  6
CONTINUOUS
 62
     2
 10
167.05
 20
36.925
 30
0.15
 40
2.25
  1
９
 50
0.0
 41
0.666666667
 51
0.0
  7
KANJI7
  0
CIRCLE
  8
0
  6
CONTINUOUS
 62
     2
 10
173.8
 20
37.9
 30
0.0
 40
2.25
  0
CIRCLE
  8
0
  6
CONTINUOUS
 62
     2
 10
173.8
 20
37.9
 30
0.0
 40
2.25
  0
TEXT
  8
0
  6
CONTINUOUS
 62
     2
 10
172.375
 20
36.85
 30
0.15
 40
2.25
  1
１０
 50
0.0
 41
0.666666667
 51
0.0
  7
KANJI7
  0
TEXT
  8
0
  6
CONTINUOUS
 62
     2
 10
172.375
 20
36.85
 30
0.15
 40
2.25
  1
１０
 50
0.0
 41
0.666666667
 51
0.0
  7
KANJI7
  0
LINE
  8
0
  6
CONTINUOUS
 62
     2
 10
170.05
 20
37.9
 30
0.0
 11
171.55
 21
37.9
 31
0.0
  0
TEXT
  8
0
  6
CONTINUOUS
 62
     2
 10
176.8
 20
36.3
 30
0.1
 40
3.0
  1
ＤＣ　　　　Ｖ
 50
0.0
 41
0.666666667
 51
0.0
  7
KANJI9
  0
CIRCLE
  8
0
  6
CONTINUOUS
 62
     2
 10
183.6
 20
37.9
 30
0.0
 40
1.5
  0
CIRCLE
  8
0
  6
CONTINUOUS
 62
     2
 10
187.3
 20
37.7
 30
0.0
 40
1.5
  0
TEXT
  8
0
  6
CONTINUOUS
 62
     2
 10
176.7
 20
48.4
 30
0.1
 40
3.0
  1
ＡＣ１００Ｖ～１１５Ｖ
 50
0.0
 41
0.666666667
 51
0.0
  7
KANJI9
  0
TEXT
  8
0
  6
CONTINUOUS
 62
     2
 10
176.8
 20
42.3
 30
0.1
 40
3.0
  1
ＡＣ２００Ｖ～２３０Ｖ
 50
0.0
 41
0.666666667
 51
0.0
  7
KANJI9
  0
LINE
  8
0
  6
LTYPE2
 62
     2
 10
207.8
 20
82.55
 30
0.0
 11
204.6
 21
76.05
 31
0.0
  0
LINE
  8
0
  6
LTYPE2
 62
     2
 10
207.8
 20
66.75
 30
0.0
 11
204.6
 21
73.25
 31
0.0
  0
TEXT
  8
0
  6
CONTINUOUS
 62
     2
 10
187.025
 20
78.95
 30
0.0
 40
3.0
  1
（　）
 50
0.0
 41
0.666666667
 51
0.0
  7
KANJI10
  0
TEXT
  8
0
  6
CONTINUOUS
 62
     2
 10
191.225
 20
81.6
 30
0.0
 40
2.5
  1
＋
 50
180.0
 41
1.0
 51
0.0
  7
KANJI11
  0
TEXT
  8
0
  6
CONTINUOUS
 62
     2
 10
192.925
 20
78.95
 30
0.0
 40
3.0
  1
（　）
 50
0.0
 41
0.666666667
 51
0.0
  7
KANJI10
  0
TEXT
  8
0
  6
CONTINUOUS
 62
     2
 10
197.125
 20
81.6
 30
0.0
 40
2.5
  1
－
 50
180.0
 41
1.0
 51
0.0
  7
KANJI11
  0
TEXT
  8
0
  6
CONTINUOUS
 62
     2
 10
181.025
 20
67.55
 30
0.0
 40
3.0
  1
（　）
 50
0.0
 41
0.666666667
 51
0.0
  7
KANJI10
  0
TEXT
  8
0
  6
CONTINUOUS
 62
     2
 10
185.225
 20
70.2
 30
0.0
 40
2.5
  1
＋
 50
180.0
 41
1.0
 51
0.0
  7
KANJI11
  0
TEXT
  8
0
  6
CONTINUOUS
 62
     2
 10
186.925
 20
67.55
 30
0.0
 40
3.0
  1
（　）
 50
0.0
 41
0.666666667
 51
0.0
  7
KANJI10
  0
TEXT
  8
0
  6
CONTINUOUS
 62
     2
 10
191.125
 20
70.2
 30
0.0
 40
2.5
  1
－
 50
180.0
 41
1.0
 51
0.0
  7
KANJI11
  0
TEXT
  8
0
  6
CONTINUOUS
 62
     2
 10
99.6
 20
31.1
 30
0.2
 40
3.0
  1
注）１，※印は，感度調整抵抗器内臓形の抵抗器位置を示します。
 50
0.0
 41
0.833333333
 51
0.0
  7
KANJI12
  0
TEXT
  8
0
  6
CONTINUOUS
 62
     2
 10
105.4
 20
26.9
 30
0.3
 40
3.0
  1
２，（＋）（－）の極性は，ＡＣ入力の場合，関係ありません。
 50
0.0
 41
0.666666667
 51
0.0
  7
KANJI13
  0
TEXT
  8
0
  6
CONTINUOUS
 62
     2
 10
101.0
 20
78.5
 30
0.35
 40
3.5
  1
∴　本図は，Ｈ，Ｌ両設定付を示します。
 50
0.0
 41
0.666666667
 51
0.0
  7
KANJI14
  0
TEXT
  8
0
  6
CONTINUOUS
 62
     2
 10
101.0
 20
74.0
 30
0.35
 40
3.5
  1
　　Ｈ又は，Ｌの片設定付の場合は，他の
 50
0.0
 41
0.666666667
 51
0.0
  7
KANJI14
  0
TEXT
  8
0
  6
CONTINUOUS
 62
     2
 10
106.7
 20
69.5
 30
0.35
 40
3.5
  1
不要端子を取り除いています。
 50
0.0
 41
0.666666667
 51
0.0
  7
KANJI14
  0
CIRCLE
  8
0
  6
CONTINUOUS
 62
     2
 10
45.9
 20
120.008151291
 30
0.0
 40
1.5
  0
LINE
  8
0
  6
CONTINUOUS
 62
     2
 10
45.025
 20
120.208151291
 30
0.0
 11
45.5
 21
120.208151291
 31
0.0
  0
ARC
  8
0
  6
CONTINUOUS
 62
     2
 10
45.5
 20
120.408151291
 30
0.0
 40
0.2
 50
270.0
 51
0.0
  0
LINE
  8
0
  6
CONTINUOUS
 62
     2
 10
45.7
 20
120.408151291
 30
0.0
 11
45.7
 21
120.883151291
 31
0.0
  0
LINE
  8
0
  6
CONTINUOUS
 62
     2
 10
45.7
 20
120.883151291
 30
0.0
 11
46.1
 21
120.883151291
 31
0.0
  0
LINE
  8
0
  6
CONTINUOUS
 62
     2
 10
46.1
 20
120.883151291
 30
0.0
 11
46.1
 21
120.408151291
 31
0.0
  0
ARC
  8
0
  6
CONTINUOUS
 62
     2
 10
46.3
 20
120.408151291
 30
0.0
 40
0.2
 50
180.0
 51
270.0
  0
LINE
  8
0
  6
CONTINUOUS
 62
     2
 10
46.3
 20
120.208151291
 30
0.0
 11
46.775
 21
120.208151291
 31
0.0
  0
LINE
  8
0
  6
CONTINUOUS
 62
     2
 10
46.775
 20
120.208151291
 30
0.0
 11
46.775
 21
119.808151291
 31
0.0
  0
LINE
  8
0
  6
CONTINUOUS
 62
     2
 10
46.775
 20
119.808151291
 30
0.0
 11
46.3
 21
119.808151291
 31
0.0
  0
ARC
  8
0
  6
CONTINUOUS
 62
     2
 10
46.3
 20
119.608151291
 30
0.0
 40
0.2
 50
90.0
 51
180.0
  0
LINE
  8
0
  6
CONTINUOUS
 62
     2
 10
46.1
 20
119.608151291
 30
0.0
 11
46.1
 21
119.133151291
 31
0.0
  0
LINE
  8
0
  6
CONTINUOUS
 62
     2
 10
46.1
 20
119.133151291
 30
0.0
 11
45.7
 21
119.133151291
 31
0.0
  0
LINE
  8
0
  6
CONTINUOUS
 62
     2
 10
45.7
 20
119.133151291
 30
0.0
 11
45.7
 21
119.608151291
 31
0.0
  0
ARC
  8
0
  6
CONTINUOUS
 62
     2
 10
45.5
 20
119.608151291
 30
0.0
 40
0.2
 50
0.0
 51
90.0
  0
LINE
  8
0
  6
CONTINUOUS
 62
     2
 10
45.5
 20
119.808151291
 30
0.0
 11
45.025
 21
119.808151291
 31
0.0
  0
LINE
  8
0
  6
CONTINUOUS
 62
     2
 10
45.025
 20
119.808151291
 30
0.0
 11
45.025
 21
120.208151291
 31
0.0
  0
LINE
  8
0
  6
LTYPE1
 62
     2
 10
43.9
 20
120.008151291
 30
0.0
 11
47.9
 21
120.008151291
 31
0.0
  0
LINE
  8
0
  6
LTYPE1
 62
     2
 10
45.9
 20
122.008151291
 30
0.0
 11
45.9
 21
118.008151291
 31
0.0
  0
CIRCLE
  8
0
  6
CONTINUOUS
 62
     2
 10
62.9
 20
120.008151291
 30
0.0
 40
1.5
  0
LINE
  8
0
  6
CONTINUOUS
 62
     2
 10
62.025
 20
120.208151291
 30
0.0
 11
62.5
 21
120.208151291
 31
0.0
  0
ARC
  8
0
  6
CONTINUOUS
 62
     2
 10
62.5
 20
120.408151291
 30
0.0
 40
0.2
 50
270.0
 51
0.0
  0
LINE
  8
0
  6
CONTINUOUS
 62
     2
 10
62.7
 20
120.408151291
 30
0.0
 11
62.7
 21
120.883151291
 31
0.0
  0
LINE
  8
0
  6
CONTINUOUS
 62
     2
 10
62.7
 20
120.883151291
 30
0.0
 11
63.1
 21
120.883151291
 31
0.0
  0
LINE
  8
0
  6
CONTINUOUS
 62
     2
 10
63.1
 20
120.883151291
 30
0.0
 11
63.1
 21
120.408151291
 31
0.0
  0
ARC
  8
0
  6
CONTINUOUS
 62
     2
 10
63.3
 20
120.408151291
 30
0.0
 40
0.2
 50
180.0
 51
270.0
  0
LINE
  8
0
  6
CONTINUOUS
 62
     2
 10
63.3
 20
120.208151291
 30
0.0
 11
63.775
 21
120.208151291
 31
0.0
  0
LINE
  8
0
  6
CONTINUOUS
 62
     2
 10
63.775
 20
120.208151291
 30
0.0
 11
63.775
 21
119.808151291
 31
0.0
  0
LINE
  8
0
  6
CONTINUOUS
 62
     2
 10
63.775
 20
119.808151291
 30
0.0
 11
63.3
 21
119.808151291
 31
0.0
  0
ARC
  8
0
  6
CONTINUOUS
 62
     2
 10
63.3
 20
119.608151291
 30
0.0
 40
0.2
 50
90.0
 51
180.0
  0
LINE
  8
0
  6
CONTINUOUS
 62
     2
 10
63.1
 20
119.608151291
 30
0.0
 11
63.1
 21
119.133151291
 31
0.0
  0
LINE
  8
0
  6
CONTINUOUS
 62
     2
 10
63.1
 20
119.133151291
 30
0.0
 11
62.7
 21
119.133151291
 31
0.0
  0
LINE
  8
0
  6
CONTINUOUS
 62
     2
 10
62.7
 20
119.133151291
 30
0.0
 11
62.7
 21
119.608151291
 31
0.0
  0
ARC
  8
0
  6
CONTINUOUS
 62
     2
 10
62.5
 20
119.608151291
 30
0.0
 40
0.2
 50
0.0
 51
90.0
  0
LINE
  8
0
  6
CONTINUOUS
 62
     2
 10
62.5
 20
119.808151291
 30
0.0
 11
62.025
 21
119.808151291
 31
0.0
  0
LINE
  8
0
  6
CONTINUOUS
 62
     2
 10
62.025
 20
119.808151291
 30
0.0
 11
62.025
 21
120.208151291
 31
0.0
  0
LINE
  8
0
  6
LTYPE1
 62
     2
 10
60.9
 20
120.008151291
 30
0.0
 11
64.9
 21
120.008151291
 31
0.0
  0
LINE
  8
0
  6
LTYPE1
 62
     2
 10
62.9
 20
122.008151291
 30
0.0
 11
62.9
 21
118.008151291
 31
0.0
  0
LINE
  8
0
  6
CONTINUOUS
 62
     2
 10
47.3
 20
137.275
 30
0.0
 11
45.631292723
 21
139.136562791
 31
0.0
  0
LINE
  8
0
  6
CONTINUOUS
 62
     2
 10
47.3
 20
137.275
 30
0.0
 11
44.924075711
 21
138.052807029
 31
0.0
  0
TEXT
  8
0
  6
CONTINUOUS
 62
     2
 10
105.4
 20
22.9
 30
0.3
 40
3.0
  1
３，直射日光が当たる場所での使用は，出来るだけ避けて下さい。
 50
0.0
 41
0.666666667
 51
0.0
  7
KANJI13
  0
TEXT
  8
0
  6
CONTINUOUS
 62
     2
 10
181.4
 20
31.0
 30
0.0
 40
3.0
  1
（ＭＰＶ－１１Ｖ形で内臓形にかぎる。）
 50
0.0
 41
0.666666667
 51
0.0
  7
KANJI10
  0
TEXT
  8
0
  6
CONTINUOUS
 62
     3
 10
235.0
 20
17.0
 30
0.6
 40
6.0
  1
ＭＳ－１１８８９
 50
0.0
 41
0.9
 51
0.0
  7
KANJI15
  0
TEXT
  8
0
  6
CONTINUOUS
 62
     2
 10
200.05
 20
87.05
 30
0.15
 40
2.25
  1
ａ
 50
0.0
 41
0.666666667
 51
0.0
  7
KANJI7
  0
TEXT
  8
0
  6
CONTINUOUS
 62
     2
 10
206.2
 20
87.05
 30
0.15
 40
2.25
  1
ｃ
 50
0.0
 41
0.666666667
 51
0.0
  7
KANJI7
  0
TEXT
  8
0
  6
CONTINUOUS
 62
     2
 10
212.2
 20
87.125
 30
0.15
 40
2.25
  1
ｂ
 50
0.0
 41
0.666666667
 51
0.0
  7
KANJI7
  0
TEXT
  8
0
  6
CONTINUOUS
 62
     2
 10
199.95
 20
60.25
 30
0.15
 40
2.25
  1
ａ
 50
0.0
 41
0.666666667
 51
0.0
  7
KANJI7
  0
TEXT
  8
0
  6
CONTINUOUS
 62
     2
 10
206.1
 20
60.25
 30
0.15
 40
2.25
  1
ｃ
 50
0.0
 41
0.666666667
 51
0.0
  7
KANJI7
  0
TEXT
  8
0
  6
CONTINUOUS
 62
     2
 10
212.1
 20
60.325
 30
0.15
 40
2.25
  1
ｂ
 50
0.0
 41
0.666666667
 51
0.0
  7
KANJI7
  0
TEXT
  8
0
  6
CONTINUOUS
 62
     1
 10
233.7
 20
31.2
 30
0.5
 40
5.0
  1
光電式メータリレー　外形図
 50
0.0
 41
0.9
 51
0.0
  7
KANJI16
  0
TEXT
  8
0
  6
CONTINUOUS
 62
     1
 10
234.9
 20
40.725
 30
1.0
 40
5.0
  1
ＭＰＶ－１１
 50
0.0
 41
0.9
 51
0.0
  7
KANJI17
  0
LINE
  8
0
  6
LTYPE1
 62
     2
 10
54.4
 20
27.9
 30
0.0
 11
54.4
 21
88.8
 31
0.0
  0
LINE
  8
0
  6
LTYPE1
 62
     2
 10
27.7
 20
54.9
 30
0.0
 11
83.8
 21
54.9
 31
0.0
  0
LINE
  8
0
  6
LTYPE1
 62
     2
 10
54.4
 20
167.0
 30
0.0
 11
54.4
 21
104.6
 31
0.0
  0
LINE
  8
0
  6
LTYPE1
 62
     2
 10
23.1
 20
135.509790979
 30
0.0
 11
82.9
 21
135.506658285
 31
0.0
  0
LINE
  8
0
  6
CONTINUOUS
 62
     1
 10
108.5
 20
162.975
 30
0.0
 11
103.25
 21
162.975
 31
0.0
  0
ARC
  8
0
  6
CONTINUOUS
 62
     1
 10
103.25
 20
162.475
 30
0.0
 40
0.5
 50
90.0
 51
180.0
  0
LINE
  8
0
  6
CONTINUOUS
 62
     1
 10
102.75
 20
160.975
 30
0.0
 11
99.25
 21
160.975
 31
0.0
  0
ARC
  8
0
  6
CONTINUOUS
 62
     1
 10
99.25
 20
160.725
 30
0.0
 40
0.25
 50
90.0
 51
180.0
  0
LINE
  8
0
  6
CONTINUOUS
 62
     1
 10
98.0
 20
133.225
 30
0.0
 11
98.2
 21
133.225
 31
0.0
  0
LINE
  8
0
  6
CONTINUOUS
 62
     1
 10
108.5
 20
107.975
 30
0.0
 11
103.25
 21
107.975
 31
0.0
  0
ARC
  8
0
  6
CONTINUOUS
 62
     1
 10
103.25
 20
108.475
 30
0.0
 40
0.5
 50
180.0
 51
270.0
  0
LINE
  8
0
  6
CONTINUOUS
 62
     1
 10
102.75
 20
109.975
 30
0.0
 11
99.25
 21
109.975
 31
0.0
  0
ARC
  8
0
  6
CONTINUOUS
 62
     1
 10
99.25
 20
110.225
 30
0.0
 40
0.25
 50
180.0
 51
270.0
  0
LINE
  8
0
  6
CONTINUOUS
 62
     1
 10
98.2
 20
133.225
 30
0.0
 11
99.0
 21
110.225
 31
0.0
  0
LINE
  8
0
  6
CONTINUOUS
 62
     1
 10
102.75
 20
108.475
 30
0.0
 11
102.75
 21
135.475
 31
0.0
  0
LINE
  8
0
  6
CONTINUOUS
 62
     1
 10
98.177077922
 20
137.065990258
 30
0.0
 11
99.0
 21
160.725
 31
0.0
  0
LINE
  8
0
  6
CONTINUOUS
 62
     1
 10
102.75
 20
162.475
 30
0.0
 11
102.75
 21
161.125
 31
0.0
  0
LINE
  8
0
  6
CONTINUOUS
 62
     1
 10
108.5
 20
162.975
 30
0.0
 11
108.5
 21
162.325
 31
0.0
  0
LINE
  8
0
  6
CONTINUOUS
 62
     1
 10
102.75
 20
161.125
 30
0.0
 11
102.75
 21
160.975
 31
0.0
  0
POLYLINE
  8
0
  6
CONTINUOUS
 62
     1
 66
     1
  0
VERTEX
  8
0
  6
CONTINUOUS
 62
     1
 10
108.5
 20
162.325
 30
0.0
  0
VERTEX
  8
0
  6
CONTINUOUS
 62
     1
 10
108.5
 20
135.725
 30
0.0
  0
VERTEX
  8
0
  6
CONTINUOUS
 62
     1
 10
108.5
 20
107.975
 30
0.0
  0
SEQEND
  0
LINE
  8
0
  6
CONTINUOUS
 62
     1
 10
98.0
 20
137.065990258
 30
0.0
 11
98.0
 21
133.225
 31
0.0
  0
LINE
  8
0
  6
CONTINUOUS
 62
     1
 10
102.75
 20
135.5
 30
0.0
 11
102.75
 21
160.975
 31
0.0
  0
LINE
  8
0
  6
CONTINUOUS
 62
     1
 10
102.75
 20
153.475
 30
0.0
 11
102.75
 21
162.475001907
 31
0.0
  0
ARC
  8
0
  6
CONTINUOUS
 62
     1
 10
149.175
 20
111.25
 30
0.0
 40
0.5
 50
270.0
 51
0.0
  0
LINE
  8
0
  6
CONTINUOUS
 62
     1
 10
149.675
 20
159.75
 30
0.0
 11
149.675
 21
111.25
 31
0.0
  0
ARC
  8
0
  6
CONTINUOUS
 62
     1
 10
149.175
 20
159.75
 30
0.0
 40
0.5
 50
360.0
 51
90.0
  0
LINE
  8
0
  6
CONTINUOUS
 62
     1
 10
149.175
 20
160.25
 30
0.0
 11
146.25
 21
160.25
 31
0.0
  0
LINE
  8
0
  6
CONTINUOUS
 62
     1
 10
149.175
 20
110.75
 30
0.0
 11
146.25
 21
110.75
 31
0.0
  0
POLYLINE
  8
0
  6
CONTINUOUS
 62
     1
 66
     1
  0
VERTEX
  8
0
  6
CONTINUOUS
 62
     1
 10
93.899130435
 20
114.25
 30
0.0
  0
VERTEX
  8
0
  6
CONTINUOUS
 62
     1
 10
98.649130435
 20
113.5
 30
0.0
  0
VERTEX
  8
0
  6
CONTINUOUS
 62
     1
 10
98.649130435
 20
118.5
 30
0.0
  0
SEQEND
  0
LINE
  8
0
  6
CONTINUOUS
 62
     1
 10
98.712173913
 20
118.5
 30
0.0
 11
93.899130435
 21
117.75
 31
0.0
  0
LINE
  8
0
  6
CONTINUOUS
 62
     1
 10
111.84144602
 20
110.75
 30
0.0
 11
111.09144602
 21
110.75
 31
0.0
  0
LINE
  8
0
  6
CONTINUOUS
 62
     1
 10
110.24144602
 20
110.75
 30
0.0
 11
109.84144602
 21
110.75
 31
0.0
  0
LINE
  8
0
  6
CONTINUOUS
 62
     1
 10
108.94144602
 20
110.75
 30
0.0
 11
108.89144602
 21
110.75
 31
0.0
  0
LINE
  8
0
  6
CONTINUOUS
 62
     1
 10
111.79144602
 20
160.25
 30
0.0
 11
110.94144602
 21
160.25
 31
0.0
  0
LINE
  8
0
  6
CONTINUOUS
 62
     1
 10
109.79144602
 20
160.25
 30
0.0
 11
110.04144602
 21
160.25
 31
0.0
  0
LINE
  8
0
  6
CONTINUOUS
 62
     1
 10
108.8
 20
160.25
 30
0.0
 11
109.0
 21
160.25
 31
0.0
  0
POLYLINE
  8
0
  6
CONTINUOUS
 62
     1
 66
     1
  0
VERTEX
  8
0
  6
CONTINUOUS
 62
     1
 10
126.05
 20
160.3
 30
0.0
  0
VERTEX
  8
0
  6
CONTINUOUS
 62
     1
 10
125.75
 20
159.4
 30
0.0
  0
VERTEX
  8
0
  6
CONTINUOUS
 62
     1
 10
125.15
 20
158.7
 30
0.0
  0
VERTEX
  8
0
  6
CONTINUOUS
 62
     1
 10
123.95
 20
157.3
 30
0.0
  0
VERTEX
  8
0
  6
CONTINUOUS
 62
     1
 10
123.95
 20
156.1
 30
0.0
  0
VERTEX
  8
0
  6
CONTINUOUS
 62
     1
 10
124.15
 20
154.9
 30
0.0
  0
VERTEX
  8
0
  6
CONTINUOUS
 62
     1
 10
124.15
 20
153.8
 30
0.0
  0
VERTEX
  8
0
  6
CONTINUOUS
 62
     1
 10
124.15
 20
152.9
 30
0.0
  0
VERTEX
  8
0
  6
CONTINUOUS
 62
     1
 10
124.55
 20
151.2
 30
0.0
  0
VERTEX
  8
0
  6
CONTINUOUS
 62
     1
 10
124.95
 20
149.8
 30
0.0
  0
VERTEX
  8
0
  6
CONTINUOUS
 62
     1
 10
124.95
 20
148.3
 30
0.0
  0
VERTEX
  8
0
  6
CONTINUOUS
 62
     1
 10
124.65
 20
147.7
 30
0.0
  0
VERTEX
  8
0
  6
CONTINUOUS
 62
     1
 10
123.85
 20
146.7
 30
0.0
  0
VERTEX
  8
0
  6
CONTINUOUS
 62
     1
 10
123.65
 20
145.4
 30
0.0
  0
VERTEX
  8
0
  6
CONTINUOUS
 62
     1
 10
123.45
 20
143.6
 30
0.0
  0
VERTEX
  8
0
  6
CONTINUOUS
 62
     1
 10
123.65
 20
142.4
 30
0.0
  0
VERTEX
  8
0
  6
CONTINUOUS
 62
     1
 10
123.95
 20
140.8
 30
0.0
  0
VERTEX
  8
0
  6
CONTINUOUS
 62
     1
 10
123.95
 20
139.4
 30
0.0
  0
VERTEX
  8
0
  6
CONTINUOUS
 62
     1
 10
123.55
 20
137.8
 30
0.0
  0
VERTEX
  8
0
  6
CONTINUOUS
 62
     1
 10
123.35
 20
135.7
 30
0.0
  0
VERTEX
  8
0
  6
CONTINUOUS
 62
     1
 10
123.75
 20
133.9
 30
0.0
  0
VERTEX
  8
0
  6
CONTINUOUS
 62
     1
 10
123.85
 20
133.0
 30
0.0
  0
VERTEX
  8
0
  6
CONTINUOUS
 62
     1
 10
124.75
 20
131.9
 30
0.0
  0
VERTEX
  8
0
  6
CONTINUOUS
 62
     1
 10
125.05
 20
130.9
 30
0.0
  0
VERTEX
  8
0
  6
CONTINUOUS
 62
     1
 10
125.25
 20
129.7
 30
0.0
  0
VERTEX
  8
0
  6
CONTINUOUS
 62
     1
 10
126.25
 20
128.2
 30
0.0
  0
VERTEX
  8
0
  6
CONTINUOUS
 62
     1
 10
126.65
 20
127.2
 30
0.0
  0
VERTEX
  8
0
  6
CONTINUOUS
 62
     1
 10
126.65
 20
126.0
 30
0.0
  0
VERTEX
  8
0
  6
CONTINUOUS
 62
     1
 10
126.25
 20
125.1
 30
0.0
  0
VERTEX
  8
0
  6
CONTINUOUS
 62
     1
 10
125.55
 20
123.4
 30
0.0
  0
VERTEX
  8
0
  6
CONTINUOUS
 62
     1
 10
124.85
 20
122.0
 30
0.0
  0
VERTEX
  8
0
  6
CONTINUOUS
 62
     1
 10
124.45
 20
121.0
 30
0.0
  0
VERTEX
  8
0
  6
CONTINUOUS
 62
     1
 10
124.05
 20
120.2
 30
0.0
  0
VERTEX
  8
0
  6
CONTINUOUS
 62
     1
 10
124.05
 20
118.8
 30
0.0
  0
VERTEX
  8
0
  6
CONTINUOUS
 62
     1
 10
124.05
 20
117.8
 30
0.0
  0
VERTEX
  8
0
  6
CONTINUOUS
 62
     1
 10
124.15
 20
116.9
 30
0.0
  0
VERTEX
  8
0
  6
CONTINUOUS
 62
     1
 10
124.35
 20
116.0
 30
0.0
  0
VERTEX
  8
0
  6
CONTINUOUS
 62
     1
 10
124.05
 20
115.1
 30
0.0
  0
VERTEX
  8
0
  6
CONTINUOUS
 62
     1
 10
124.55
 20
114.2
 30
0.0
  0
VERTEX
  8
0
  6
CONTINUOUS
 62
     1
 10
124.85
 20
113.5
 30
0.0
  0
VERTEX
  8
0
  6
CONTINUOUS
 62
     1
 10
124.85
 20
112.6
 30
0.0
  0
VERTEX
  8
0
  6
CONTINUOUS
 62
     1
 10
124.85
 20
112.0
 30
0.0
  0
VERTEX
  8
0
  6
CONTINUOUS
 62
     1
 10
125.15
 20
111.2
 30
0.0
  0
VERTEX
  8
0
  6
CONTINUOUS
 62
     1
 10
125.35
 20
110.8
 30
0.0
  0
SEQEND
  0
LINE
  8
0
  6
CONTINUOUS
 62
     1
 10
127.05
 20
160.3
 30
0.0
 11
126.75
 21
159.4
 31
0.0
  0
POLYLINE
  8
0
  6
CONTINUOUS
 62
     1
 66
     1
  0
VERTEX
  8
0
  6
CONTINUOUS
 62
     1
 10
126.75
 20
159.4
 30
0.0
  0
VERTEX
  8
0
  6
CONTINUOUS
 62
     1
 10
126.15
 20
158.7
 30
0.0
  0
VERTEX
  8
0
  6
CONTINUOUS
 62
     1
 10
124.95
 20
157.3
 30
0.0
  0
VERTEX
  8
0
  6
CONTINUOUS
 62
     1
 10
124.95
 20
156.1
 30
0.0
  0
VERTEX
  8
0
  6
CONTINUOUS
 62
     1
 10
125.15
 20
154.9
 30
0.0
  0
VERTEX
  8
0
  6
CONTINUOUS
 62
     1
 10
125.15
 20
153.8
 30
0.0
  0
VERTEX
  8
0
  6
CONTINUOUS
 62
     1
 10
125.15
 20
152.9
 30
0.0
  0
VERTEX
  8
0
  6
CONTINUOUS
 62
     1
 10
125.55
 20
151.2
 30
0.0
  0
VERTEX
  8
0
  6
CONTINUOUS
 62
     1
 10
125.95
 20
149.8
 30
0.0
  0
VERTEX
  8
0
  6
CONTINUOUS
 62
     1
 10
125.95
 20
148.3
 30
0.0
  0
VERTEX
  8
0
  6
CONTINUOUS
 62
     1
 10
125.65
 20
147.7
 30
0.0
  0
VERTEX
  8
0
  6
CONTINUOUS
 62
     1
 10
124.85
 20
146.7
 30
0.0
  0
VERTEX
  8
0
  6
CONTINUOUS
 62
     1
 10
124.65
 20
145.4
 30
0.0
  0
VERTEX
  8
0
  6
CONTINUOUS
 62
     1
 10
124.45
 20
143.6
 30
0.0
  0
VERTEX
  8
0
  6
CONTINUOUS
 62
     1
 10
124.65
 20
142.4
 30
0.0
  0
VERTEX
  8
0
  6
CONTINUOUS
 62
     1
 10
124.95
 20
140.8
 30
0.0
  0
VERTEX
  8
0
  6
CONTINUOUS
 62
     1
 10
124.95
 20
139.4
 30
0.0
  0
VERTEX
  8
0
  6
CONTINUOUS
 62
     1
 10
124.55
 20
137.8
 30
0.0
  0
VERTEX
  8
0
  6
CONTINUOUS
 62
     1
 10
124.35
 20
135.7
 30
0.0
  0
VERTEX
  8
0
  6
CONTINUOUS
 62
     1
 10
124.75
 20
133.9
 30
0.0
  0
VERTEX
  8
0
  6
CONTINUOUS
 62
     1
 10
124.85
 20
133.0
 30
0.0
  0
VERTEX
  8
0
  6
CONTINUOUS
 62
     1
 10
125.75
 20
131.9
 30
0.0
  0
VERTEX
  8
0
  6
CONTINUOUS
 62
     1
 10
126.05
 20
130.9
 30
0.0
  0
VERTEX
  8
0
  6
CONTINUOUS
 62
     1
 10
126.25
 20
129.7
 30
0.0
  0
VERTEX
  8
0
  6
CONTINUOUS
 62
     1
 10
127.25
 20
128.2
 30
0.0
  0
VERTEX
  8
0
  6
CONTINUOUS
 62
     1
 10
127.65
 20
127.2
 30
0.0
  0
VERTEX
  8
0
  6
CONTINUOUS
 62
     1
 10
127.65
 20
126.0
 30
0.0
  0
VERTEX
  8
0
  6
CONTINUOUS
 62
     1
 10
127.25
 20
125.1
 30
0.0
  0
VERTEX
  8
0
  6
CONTINUOUS
 62
     1
 10
126.55
 20
123.4
 30
0.0
  0
VERTEX
  8
0
  6
CONTINUOUS
 62
     1
 10
125.85
 20
122.0
 30
0.0
  0
VERTEX
  8
0
  6
CONTINUOUS
 62
     1
 10
125.45
 20
121.0
 30
0.0
  0
VERTEX
  8
0
  6
CONTINUOUS
 62
     1
 10
125.05
 20
120.2
 30
0.0
  0
VERTEX
  8
0
  6
CONTINUOUS
 62
     1
 10
125.05
 20
118.8
 30
0.0
  0
VERTEX
  8
0
  6
CONTINUOUS
 62
     1
 10
125.05
 20
117.8
 30
0.0
  0
VERTEX
  8
0
  6
CONTINUOUS
 62
     1
 10
125.15
 20
116.9
 30
0.0
  0
VERTEX
  8
0
  6
CONTINUOUS
 62
     1
 10
125.35
 20
116.0
 30
0.0
  0
VERTEX
  8
0
  6
CONTINUOUS
 62
     1
 10
125.05
 20
115.1
 30
0.0
  0
VERTEX
  8
0
  6
CONTINUOUS
 62
     1
 10
125.55
 20
114.2
 30
0.0
  0
VERTEX
  8
0
  6
CONTINUOUS
 62
     1
 10
125.85
 20
113.5
 30
0.0
  0
VERTEX
  8
0
  6
CONTINUOUS
 62
     1
 10
125.85
 20
112.6
 30
0.0
  0
VERTEX
  8
0
  6
CONTINUOUS
 62
     1
 10
125.85
 20
112.0
 30
0.0
  0
VERTEX
  8
0
  6
CONTINUOUS
 62
     1
 10
126.15
 20
111.2
 30
0.0
  0
VERTEX
  8
0
  6
CONTINUOUS
 62
     1
 10
126.35
 20
110.8
 30
0.0
  0
SEQEND
  0
LINE
  8
0
  6
CONTINUOUS
 62
     1
 10
126.033333333
 20
160.25
 30
0.0
 11
114.29144602
 21
160.25
 31
0.0
  0
LINE
  8
0
  6
CONTINUOUS
 62
     1
 10
146.25
 20
160.25
 30
0.0
 11
127.033333333
 21
160.25
 31
0.0
  0
LINE
  8
0
  6
CONTINUOUS
 62
     1
 10
125.375
 20
110.75
 30
0.0
 11
114.29144602
 21
110.75
 31
0.0
  0
LINE
  8
0
  6
CONTINUOUS
 62
     1
 10
146.25
 20
110.75
 30
0.0
 11
126.375
 21
110.75
 31
0.0
  0
LINE
  8
0
  6
CONTINUOUS
 62
     1
 10
147.175
 20
160.25
 30
0.0
 11
147.175
 21
110.75
 31
0.0
  0
LINE
  8
0
  6
CONTINUOUS
 62
     1
 10
149.675
 20
143.0
 30
0.0
 11
152.925
 21
143.0
 31
0.0
  0
ARC
  8
0
  6
CONTINUOUS
 62
     1
 10
152.925
 20
142.25
 30
0.0
 40
0.75
 50
0.0
 51
90.0
  0
LINE
  8
0
  6
CONTINUOUS
 62
     1
 10
152.925
 20
128.0
 30
0.0
 11
149.675
 21
128.0
 31
0.0
  0
LINE
  8
0
  6
CONTINUOUS
 62
     1
 10
153.675
 20
142.25
 30
0.0
 11
153.675
 21
128.75
 31
0.0
  0
ARC
  8
0
  6
CONTINUOUS
 62
     1
 10
152.925
 20
128.75
 30
0.0
 40
0.75
 50
270.0
 51
0.0
  0
ARC
  8
0
  6
CONTINUOUS
 62
     1
 10
216.8
 20
111.0
 30
0.0
 40
3.0
 50
270.0
 51
0.0
  0
LINE
  8
0
  6
CONTINUOUS
 62
     1
 10
167.8
 20
108.0
 30
0.0
 11
216.8
 21
108.0
 31
0.0
  0
ARC
  8
0
  6
CONTINUOUS
 62
     1
 10
167.8
 20
111.0
 30
0.0
 40
3.0
 50
180.0
 51
270.0
  0
LINE
  8
0
  6
CONTINUOUS
 62
     1
 10
164.8
 20
160.0
 30
0.0
 11
164.8
 21
111.0
 31
0.0
  0
ARC
  8
0
  6
CONTINUOUS
 62
     1
 10
167.8
 20
160.0
 30
0.0
 40
3.0
 50
90.0
 51
180.0
  0
LINE
  8
0
  6
CONTINUOUS
 62
     1
 10
219.8
 20
111.0
 30
0.0
 11
219.8
 21
160.0
 31
0.0
  0
LINE
  8
0
  6
CONTINUOUS
 62
     1
 10
216.8
 20
163.0
 30
0.0
 11
167.8
 21
163.0
 31
0.0
  0
ARC
  8
0
  6
CONTINUOUS
 62
     1
 10
216.8
 20
160.0
 30
0.0
 40
3.0
 50
360.0
 51
90.0
  0
ARC
  8
0
  6
CONTINUOUS
 62
     1
 10
192.3
 20
135.5
 30
0.0
 40
24.75
 50
0.0
 51
324.036955888
  0
ARC
  8
0
  6
CONTINUOUS
 62
     1
 10
211.835794063
 20
121.337879064
 30
0.0
 40
0.625
 50
316.636577042
 51
0.0
  0
ARC
  8
0
  6
CONTINUOUS
 62
     1
 10
192.3
 20
135.5
 30
0.0
 40
24.75
 50
335.92324158
 51
0.0
  0
ARC
  8
0
  6
CONTINUOUS
 62
     1
 10
192.3
 20
135.5
 30
0.0
 40
24.75
 50
324.036955888
 51
335.92324158
  0
CIRCLE
  8
0
  6
CONTINUOUS
 62
     1
 10
177.3
 20
140.0
 30
0.0
 40
1.85
  0
ARC
  8
0
  6
CONTINUOUS
 62
     1
 10
183.3
 20
140.0
 30
0.0
 40
2.25
 50
180.0
 51
0.0
  0
ARC
  8
0
  6
CONTINUOUS
 62
     1
 10
189.3
 20
140.0
 30
0.0
 40
2.25
 50
180.0
 51
0.0
  0
ARC
  8
0
  6
CONTINUOUS
 62
     1
 10
195.3
 20
140.0
 30
0.0
 40
2.25
 50
180.0
 51
0.0
  0
ARC
  8
0
  6
CONTINUOUS
 62
     1
 10
201.3
 20
140.0
 30
0.0
 40
2.25
 50
180.0
 51
0.0
  0
ARC
  8
0
  6
CONTINUOUS
 62
     1
 10
207.3
 20
140.0
 30
0.0
 40
2.25
 50
180.0
 51
0.0
  0
ARC
  8
0
  6
CONTINUOUS
 62
     1
 10
180.3
 20
142.25
 30
0.0
 40
0.75
 50
0.0
 51
90.0
  0
ARC
  8
0
  6
CONTINUOUS
 62
     1
 10
186.3
 20
142.25
 30
0.0
 40
0.75
 50
0.0
 51
180.0
  0
ARC
  8
0
  6
CONTINUOUS
 62
     1
 10
192.3
 20
142.25
 30
0.0
 40
0.75
 50
0.0
 51
180.0
  0
ARC
  8
0
  6
CONTINUOUS
 62
     1
 10
198.3
 20
142.25
 30
0.0
 40
0.75
 50
0.0
 51
180.0
  0
ARC
  8
0
  6
CONTINUOUS
 62
     1
 10
204.3
 20
142.25
 30
0.0
 40
0.75
 50
0.0
 51
180.0
  0
ARC
  8
0
  6
CONTINUOUS
 62
     1
 10
210.3
 20
142.25
 30
0.0
 40
0.75
 50
90.0
 51
180.0
  0
LINE
  8
0
  6
CONTINUOUS
 62
     1
 10
181.05
 20
142.25
 30
0.0
 11
181.05
 21
140.0
 31
0.0
  0
LINE
  8
0
  6
CONTINUOUS
 62
     1
 10
185.55
 20
142.25
 30
0.0
 11
185.55
 21
140.0
 31
0.0
  0
LINE
  8
0
  6
CONTINUOUS
 62
     1
 10
187.05
 20
140.0
 30
0.0
 11
187.05
 21
142.25
 31
0.0
  0
LINE
  8
0
  6
CONTINUOUS
 62
     1
 10
191.55
 20
142.25
 30
0.0
 11
191.55
 21
140.0
 31
0.0
  0
LINE
  8
0
  6
CONTINUOUS
 62
     1
 10
193.05
 20
140.0
 30
0.0
 11
193.05
 21
142.25
 31
0.0
  0
LINE
  8
0
  6
CONTINUOUS
 62
     1
 10
197.55
 20
140.0
 30
0.0
 11
197.55
 21
142.25
 31
0.0
  0
LINE
  8
0
  6
CONTINUOUS
 62
     1
 10
199.05
 20
140.0
 30
0.0
 11
199.05
 21
142.25
 31
0.0
  0
LINE
  8
0
  6
CONTINUOUS
 62
     1
 10
203.55
 20
142.25
 30
0.0
 11
203.55
 21
140.0
 31
0.0
  0
LINE
  8
0
  6
CONTINUOUS
 62
     1
 10
205.05
 20
140.0
 30
0.0
 11
205.05
 21
142.25
 31
0.0
  0
LINE
  8
0
  6
CONTINUOUS
 62
     1
 10
209.55
 20
142.25
 30
0.0
 11
209.55
 21
140.0
 31
0.0
  0
ARC
  8
0
  6
CONTINUOUS
 62
     1
 10
211.3
 20
142.25
 30
0.0
 40
0.75
 50
360.0
 51
90.0
  0
LINE
  8
0
  6
CONTINUOUS
 62
     1
 10
212.05
 20
128.75
 30
0.0
 11
212.05
 21
142.25
 31
0.0
  0
ARC
  8
0
  6
CONTINUOUS
 62
     1
 10
211.3
 20
128.75
 30
0.0
 40
0.75
 50
270.0
 51
0.0
  0
LINE
  8
0
  6
CONTINUOUS
 62
     1
 10
211.3
 20
143.0
 30
0.0
 11
173.3
 21
143.0
 31
0.0
  0
ARC
  8
0
  6
CONTINUOUS
 62
     1
 10
173.3
 20
142.25
 30
0.0
 40
0.75
 50
90.0
 51
180.0
  0
ARC
  8
0
  6
CONTINUOUS
 62
     1
 10
174.3
 20
128.75
 30
0.0
 40
0.75
 50
0.0
 51
0.0
  0
ARC
  8
0
  6
CONTINUOUS
 62
     1
 10
174.3
 20
128.75
 30
0.0
 40
0.75
 50
269.999794035
 51
0.0
  0
LINE
  8
0
  6
CONTINUOUS
 62
     1
 10
173.3
 20
128.0
 30
0.0
 11
211.3
 21
128.0
 31
0.0
  0
LINE
  8
0
  6
CONTINUOUS
 62
     1
 10
172.55
 20
142.25
 30
0.0
 11
172.55
 21
128.75
 31
0.0
  0
ARC
  8
0
  6
CONTINUOUS
 62
     1
 10
173.3
 20
128.75
 30
0.0
 40
0.75
 50
180.0
 51
270.0
  0
ARC
  8
0
  6
CONTINUOUS
 62
     1
 10
177.3
 20
131.0
 30
0.0
 40
2.25
 50
0.0
 51
180.0
  0
ARC
  8
0
  6
CONTINUOUS
 62
     1
 10
183.3
 20
131.0
 30
0.0
 40
2.25
 50
0.0
 51
180.0
  0
ARC
  8
0
  6
CONTINUOUS
 62
     1
 10
189.3
 20
131.0
 30
0.0
 40
2.25
 50
0.0
 51
180.0
  0
ARC
  8
0
  6
CONTINUOUS
 62
     1
 10
195.3
 20
131.0
 30
0.0
 40
2.25
 50
0.0
 51
180.0
  0
ARC
  8
0
  6
CONTINUOUS
 62
     1
 10
201.3
 20
131.0
 30
0.0
 40
2.25
 50
0.0
 51
180.0
  0
ARC
  8
0
  6
CONTINUOUS
 62
     1
 10
207.3
 20
131.0
 30
0.0
 40
2.25
 50
0.0
 51
180.0
  0
ARC
  8
0
  6
CONTINUOUS
 62
     1
 10
210.3
 20
128.75
 30
0.0
 40
0.75
 50
180.0
 51
269.999794035
  0
ARC
  8
0
  6
CONTINUOUS
 62
     1
 10
204.3
 20
128.75
 30
0.0
 40
0.75
 50
180.0
 51
0.0
  0
ARC
  8
0
  6
CONTINUOUS
 62
     1
 10
198.3
 20
128.75
 30
0.0
 40
0.75
 50
180.0
 51
0.0
  0
ARC
  8
0
  6
CONTINUOUS
 62
     1
 10
192.3
 20
128.75
 30
0.0
 40
0.75
 50
180.0
 51
0.0
  0
ARC
  8
0
  6
CONTINUOUS
 62
     1
 10
186.3
 20
128.75
 30
0.0
 40
0.75
 50
180.0
 51
0.0
  0
ARC
  8
0
  6
CONTINUOUS
 62
     1
 10
180.3
 20
128.75
 30
0.0
 40
0.75
 50
180.0
 51
0.0
  0
LINE
  8
0
  6
CONTINUOUS
 62
     1
 10
209.55
 20
128.75
 30
0.0
 11
209.55
 21
131.0
 31
0.0
  0
LINE
  8
0
  6
CONTINUOUS
 62
     1
 10
205.05
 20
131.0
 30
0.0
 11
205.05
 21
128.75
 31
0.0
  0
LINE
  8
0
  6
CONTINUOUS
 62
     1
 10
203.55
 20
128.75
 30
0.0
 11
203.55
 21
131.0
 31
0.0
  0
LINE
  8
0
  6
CONTINUOUS
 62
     1
 10
199.05
 20
131.0
 30
0.0
 11
199.05
 21
128.75
 31
0.0
  0
LINE
  8
0
  6
CONTINUOUS
 62
     1
 10
197.55
 20
128.75
 30
0.0
 11
197.55
 21
131.0
 31
0.0
  0
LINE
  8
0
  6
CONTINUOUS
 62
     1
 10
193.05
 20
131.0
 30
0.0
 11
193.05
 21
128.75
 31
0.0
  0
LINE
  8
0
  6
CONTINUOUS
 62
     1
 10
191.55
 20
128.75
 30
0.0
 11
191.55
 21
131.0
 31
0.0
  0
LINE
  8
0
  6
CONTINUOUS
 62
     1
 10
187.05
 20
131.0
 30
0.0
 11
187.05
 21
128.75
 31
0.0
  0
LINE
  8
0
  6
CONTINUOUS
 62
     1
 10
185.55
 20
128.75
 30
0.0
 11
185.55
 21
131.0
 31
0.0
  0
LINE
  8
0
  6
CONTINUOUS
 62
     1
 10
181.05
 20
131.0
 30
0.0
 11
181.05
 21
128.75
 31
0.0
  0
LINE
  8
0
  6
CONTINUOUS
 62
     1
 10
179.55
 20
128.75
 30
0.0
 11
179.55
 21
131.0
 31
0.0
  0
LINE
  8
0
  6
CONTINUOUS
 62
     1
 10
175.05
 20
131.0
 30
0.0
 11
175.05
 21
128.75
 31
0.0
  0
CIRCLE
  8
0
  6
CONTINUOUS
 62
     1
 10
177.3
 20
140.0
 30
0.0
 40
1.85
  0
ARC
  8
0
  6
CONTINUOUS
 62
     1
 10
183.3
 20
140.0
 30
0.0
 40
2.25
 50
180.0
 51
0.0
  0
ARC
  8
0
  6
CONTINUOUS
 62
     1
 10
189.3
 20
140.0
 30
0.0
 40
2.25
 50
180.0
 51
0.0
  0
ARC
  8
0
  6
CONTINUOUS
 62
     1
 10
195.3
 20
140.0
 30
0.0
 40
2.25
 50
180.0
 51
0.0
  0
ARC
  8
0
  6
CONTINUOUS
 62
     1
 10
201.3
 20
140.0
 30
0.0
 40
2.25
 50
180.0
 51
0.0
  0
ARC
  8
0
  6
CONTINUOUS
 62
     1
 10
207.3
 20
140.0
 30
0.0
 40
2.25
 50
180.0
 51
0.0
  0
ARC
  8
0
  6
CONTINUOUS
 62
     1
 10
180.3
 20
142.25
 30
0.0
 40
0.75
 50
0.0
 51
90.0
  0
ARC
  8
0
  6
CONTINUOUS
 62
     1
 10
186.3
 20
142.25
 30
0.0
 40
0.75
 50
0.0
 51
180.0
  0
ARC
  8
0
  6
CONTINUOUS
 62
     1
 10
192.3
 20
142.25
 30
0.0
 40
0.75
 50
0.0
 51
180.0
  0
ARC
  8
0
  6
CONTINUOUS
 62
     1
 10
198.3
 20
142.25
 30
0.0
 40
0.75
 50
0.0
 51
180.0
  0
ARC
  8
0
  6
CONTINUOUS
 62
     1
 10
204.3
 20
142.25
 30
0.0
 40
0.75
 50
0.0
 51
180.0
  0
ARC
  8
0
  6
CONTINUOUS
 62
     1
 10
210.3
 20
142.25
 30
0.0
 40
0.75
 50
90.0
 51
180.0
  0
LINE
  8
0
  6
CONTINUOUS
 62
     1
 10
181.05
 20
142.25
 30
0.0
 11
181.05
 21
140.0
 31
0.0
  0
LINE
  8
0
  6
CONTINUOUS
 62
     1
 10
185.55
 20
142.25
 30
0.0
 11
185.55
 21
140.0
 31
0.0
  0
LINE
  8
0
  6
CONTINUOUS
 62
     1
 10
187.05
 20
140.0
 30
0.0
 11
187.05
 21
142.25
 31
0.0
  0
LINE
  8
0
  6
CONTINUOUS
 62
     1
 10
191.55
 20
142.25
 30
0.0
 11
191.55
 21
140.0
 31
0.0
  0
LINE
  8
0
  6
CONTINUOUS
 62
     1
 10
193.05
 20
140.0
 30
0.0
 11
193.05
 21
142.25
 31
0.0
  0
LINE
  8
0
  6
CONTINUOUS
 62
     1
 10
197.55
 20
140.0
 30
0.0
 11
197.55
 21
142.25
 31
0.0
  0
LINE
  8
0
  6
CONTINUOUS
 62
     1
 10
199.05
 20
140.0
 30
0.0
 11
199.05
 21
142.25
 31
0.0
  0
LINE
  8
0
  6
CONTINUOUS
 62
     1
 10
203.55
 20
142.25
 30
0.0
 11
203.55
 21
140.0
 31
0.0
  0
LINE
  8
0
  6
CONTINUOUS
 62
     1
 10
205.05
 20
140.0
 30
0.0
 11
205.05
 21
142.25
 31
0.0
  0
LINE
  8
0
  6
CONTINUOUS
 62
     1
 10
209.55
 20
142.25
 30
0.0
 11
209.55
 21
140.0
 31
0.0
  0
ARC
  8
0
  6
CONTINUOUS
 62
     1
 10
211.3
 20
142.25
 30
0.0
 40
0.75
 50
360.0
 51
90.0
  0
LINE
  8
0
  6
CONTINUOUS
 62
     1
 10
212.05
 20
128.75
 30
0.0
 11
212.05
 21
142.25
 31
0.0
  0
ARC
  8
0
  6
CONTINUOUS
 62
     1
 10
211.3
 20
128.75
 30
0.0
 40
0.75
 50
270.0
 51
0.0
  0
LINE
  8
0
  6
CONTINUOUS
 62
     1
 10
211.3
 20
143.0
 30
0.0
 11
173.3
 21
143.0
 31
0.0
  0
ARC
  8
0
  6
CONTINUOUS
 62
     1
 10
173.3
 20
142.25
 30
0.0
 40
0.75
 50
90.0
 51
180.0
  0
ARC
  8
0
  6
CONTINUOUS
 62
     1
 10
174.3
 20
128.75
 30
0.0
 40
0.75
 50
0.0
 51
0.0
  0
ARC
  8
0
  6
CONTINUOUS
 62
     1
 10
174.3
 20
128.75
 30
0.0
 40
0.75
 50
269.999794035
 51
0.0
  0
LINE
  8
0
  6
CONTINUOUS
 62
     1
 10
173.3
 20
128.0
 30
0.0
 11
211.3
 21
128.0
 31
0.0
  0
LINE
  8
0
  6
CONTINUOUS
 62
     1
 10
172.55
 20
142.25
 30
0.0
 11
172.55
 21
128.75
 31
0.0
  0
ARC
  8
0
  6
CONTINUOUS
 62
     1
 10
173.3
 20
128.75
 30
0.0
 40
0.75
 50
180.0
 51
270.0
  0
ARC
  8
0
  6
CONTINUOUS
 62
     1
 10
177.3
 20
131.0
 30
0.0
 40
2.25
 50
0.0
 51
180.0
  0
ARC
  8
0
  6
CONTINUOUS
 62
     1
 10
183.3
 20
131.0
 30
0.0
 40
2.25
 50
0.0
 51
180.0
  0
ARC
  8
0
  6
CONTINUOUS
 62
     1
 10
189.3
 20
131.0
 30
0.0
 40
2.25
 50
0.0
 51
180.0
  0
ARC
  8
0
  6
CONTINUOUS
 62
     1
 10
195.3
 20
131.0
 30
0.0
 40
2.25
 50
0.0
 51
180.0
  0
ARC
  8
0
  6
CONTINUOUS
 62
     1
 10
201.3
 20
131.0
 30
0.0
 40
2.25
 50
0.0
 51
180.0
  0
ARC
  8
0
  6
CONTINUOUS
 62
     1
 10
207.3
 20
131.0
 30
0.0
 40
2.25
 50
0.0
 51
180.0
  0
ARC
  8
0
  6
CONTINUOUS
 62
     1
 10
210.3
 20
128.75
 30
0.0
 40
0.75
 50
180.0
 51
269.999794035
  0
ARC
  8
0
  6
CONTINUOUS
 62
     1
 10
204.3
 20
128.75
 30
0.0
 40
0.75
 50
180.0
 51
0.0
  0
ARC
  8
0
  6
CONTINUOUS
 62
     1
 10
198.3
 20
128.75
 30
0.0
 40
0.75
 50
180.0
 51
0.0
  0
ARC
  8
0
  6
CONTINUOUS
 62
     1
 10
192.3
 20
128.75
 30
0.0
 40
0.75
 50
180.0
 51
0.0
  0
ARC
  8
0
  6
CONTINUOUS
 62
     1
 10
186.3
 20
128.75
 30
0.0
 40
0.75
 50
180.0
 51
0.0
  0
ARC
  8
0
  6
CONTINUOUS
 62
     1
 10
180.3
 20
128.75
 30
0.0
 40
0.75
 50
180.0
 51
0.0
  0
LINE
  8
0
  6
CONTINUOUS
 62
     1
 10
209.55
 20
128.75
 30
0.0
 11
209.55
 21
131.0
 31
0.0
  0
LINE
  8
0
  6
CONTINUOUS
 62
     1
 10
205.05
 20
131.0
 30
0.0
 11
205.05
 21
128.75
 31
0.0
  0
LINE
  8
0
  6
CONTINUOUS
 62
     1
 10
203.55
 20
128.75
 30
0.0
 11
203.55
 21
131.0
 31
0.0
  0
LINE
  8
0
  6
CONTINUOUS
 62
     1
 10
199.05
 20
131.0
 30
0.0
 11
199.05
 21
128.75
 31
0.0
  0
LINE
  8
0
  6
CONTINUOUS
 62
     1
 10
197.55
 20
128.75
 30
0.0
 11
197.55
 21
131.0
 31
0.0
  0
LINE
  8
0
  6
CONTINUOUS
 62
     1
 10
193.05
 20
131.0
 30
0.0
 11
193.05
 21
128.75
 31
0.0
  0
LINE
  8
0
  6
CONTINUOUS
 62
     1
 10
191.55
 20
128.75
 30
0.0
 11
191.55
 21
131.0
 31
0.0
  0
LINE
  8
0
  6
CONTINUOUS
 62
     1
 10
187.05
 20
131.0
 30
0.0
 11
187.05
 21
128.75
 31
0.0
  0
LINE
  8
0
  6
CONTINUOUS
 62
     1
 10
185.55
 20
128.75
 30
0.0
 11
185.55
 21
131.0
 31
0.0
  0
LINE
  8
0
  6
CONTINUOUS
 62
     1
 10
181.05
 20
131.0
 30
0.0
 11
181.05
 21
128.75
 31
0.0
  0
LINE
  8
0
  6
CONTINUOUS
 62
     1
 10
179.55
 20
128.75
 30
0.0
 11
179.55
 21
131.0
 31
0.0
  0
LINE
  8
0
  6
CONTINUOUS
 62
     1
 10
175.05
 20
131.0
 30
0.0
 11
175.05
 21
128.75
 31
0.0
  0
LINE
  8
0
  6
CONTINUOUS
 62
     1
 10
153.675
 20
142.251093562
 30
0.0
 11
153.675
 21
128.751093562
 31
0.0
  0
LINE
  8
0
  6
CONTINUOUS
 62
     1
 10
173.05
 20
142.958200343
 30
0.0
 11
173.05
 21
127.993986781
 31
0.0
  0
LINE
  8
0
  6
CONTINUOUS
 62
     1
 10
211.55
 20
143.004279952
 30
0.0
 11
211.55
 21
128.043986781
 31
0.0
  0
LINE
  8
0
  6
CONTINUOUS
 62
     1
 10
153.675
 20
142.251095469
 30
0.0
 11
153.675
 21
143.004279952
 31
0.0
  0
LINE
  8
0
  6
CONTINUOUS
 62
     1
 10
153.675
 20
143.004279952
 30
0.0
 11
154.425
 21
143.004279952
 31
0.0
  0
LINE
  8
0
  6
CONTINUOUS
 62
     1
 10
154.425
 20
143.004279952
 30
0.0
 11
154.425
 21
128.004279952
 31
0.0
  0
LINE
  8
0
  6
CONTINUOUS
 62
     1
 10
154.425
 20
128.004279952
 30
0.0
 11
153.675
 21
128.004279952
 31
0.0
  0
LINE
  8
0
  6
CONTINUOUS
 62
     1
 10
153.675
 20
128.004279952
 30
0.0
 11
153.675
 21
128.751093562
 31
0.0
  0
LINE
  8
0
  6
CONTINUOUS
 62
     2
 10
102.75
 20
114.225
 30
0.0
 11
102.65
 21
114.225
 31
0.0
  0
LINE
  8
0
  6
CONTINUOUS
 62
     2
 10
102.65
 20
114.225
 30
0.0
 11
102.65
 21
111.725
 31
0.0
  0
LINE
  8
0
  6
CONTINUOUS
 62
     2
 10
102.65
 20
111.725
 30
0.0
 11
102.75
 21
111.725
 31
0.0
  0
LINE
  8
0
  6
CONTINUOUS
 62
     2
 10
102.65
 20
114.5
 30
0.0
 11
102.65
 21
111.5
 31
0.0
  0
LINE
  8
0
  6
CONTINUOUS
 62
     2
 10
102.3
 20
111.5
 30
0.0
 11
102.65
 21
111.5
 31
0.0
  0
ARC
  8
0
  6
CONTINUOUS
 62
     2
 10
102.3
 20
111.9
 30
0.0
 40
0.4
 50
180.0
 51
270.0
  0
LINE
  8
0
  6
CONTINUOUS
 62
     2
 10
102.3
 20
114.5
 30
0.0
 11
102.75
 21
114.5
 31
0.0
  0
LINE
  8
0
  6
CONTINUOUS
 62
     2
 10
101.9
 20
111.9
 30
0.0
 11
101.9
 21
114.1
 31
0.0
  0
ARC
  8
0
  6
CONTINUOUS
 62
     2
 10
102.3
 20
114.1
 30
0.0
 40
0.4
 50
90.0
 51
180.0
  0
POLYLINE
  8
0
  6
CONTINUOUS
 62
     2
 66
     1
  0
VERTEX
  8
0
  6
CONTINUOUS
 62
     2
 10
101.9
 20
113.1
 30
0.0
  0
VERTEX
  8
0
  6
CONTINUOUS
 62
     2
 10
102.0
 20
113.1
 30
0.0
  0
VERTEX
  8
0
  6
CONTINUOUS
 62
     2
 10
102.0
 20
112.9
 30
0.0
  0
VERTEX
  8
0
  6
CONTINUOUS
 62
     2
 10
101.9
 20
112.9
 30
0.0
  0
SEQEND
  0
LINE
  8
0
  6
CONTINUOUS
 62
     2
 10
102.75
 20
159.225
 30
0.0
 11
102.65
 21
159.225
 31
0.0
  0
POLYLINE
  8
0
  6
CONTINUOUS
 62
     2
 66
     1
  0
VERTEX
  8
0
  6
CONTINUOUS
 62
     2
 10
102.65
 20
159.225
 30
0.0
  0
VERTEX
  8
0
  6
CONTINUOUS
 62
     2
 10
102.65
 20
156.725
 30
0.0
  0
VERTEX
  8
0
  6
CONTINUOUS
 62
     2
 10
102.75
 20
156.725
 30
0.0
  0
SEQEND
  0
LINE
  8
0
  6
CONTINUOUS
 62
     2
 10
102.65
 20
159.5
 30
0.0
 11
102.65
 21
156.5
 31
0.0
  0
LINE
  8
0
  6
CONTINUOUS
 62
     2
 10
102.3
 20
156.5
 30
0.0
 11
102.65
 21
156.5
 31
0.0
  0
ARC
  8
0
  6
CONTINUOUS
 62
     2
 10
102.3
 20
156.9
 30
0.0
 40
0.4
 50
180.0
 51
270.0
  0
LINE
  8
0
  6
CONTINUOUS
 62
     2
 10
102.3
 20
159.5
 30
0.0
 11
102.75
 21
159.5
 31
0.0
  0
LINE
  8
0
  6
CONTINUOUS
 62
     2
 10
101.9
 20
156.9
 30
0.0
 11
101.9
 21
159.1
 31
0.0
  0
ARC
  8
0
  6
CONTINUOUS
 62
     2
 10
102.3
 20
159.1
 30
0.0
 40
0.4
 50
90.0
 51
180.0
  0
POLYLINE
  8
0
  6
CONTINUOUS
 62
     2
 66
     1
  0
VERTEX
  8
0
  6
CONTINUOUS
 62
     2
 10
101.9
 20
158.1
 30
0.0
  0
VERTEX
  8
0
  6
CONTINUOUS
 62
     2
 10
102.0
 20
158.1
 30
0.0
  0
VERTEX
  8
0
  6
CONTINUOUS
 62
     2
 10
102.0
 20
157.9
 30
0.0
  0
VERTEX
  8
0
  6
CONTINUOUS
 62
     2
 10
101.9
 20
157.9
 30
0.0
  0
SEQEND
  0
LINE
  8
0
  6
CONTINUOUS
 62
     2
 10
98.0
 20
138.65
 30
0.0
 11
98.0
 21
132.75
 31
0.0
  0
LINE
  8
0
  6
CONTINUOUS
 62
     2
 10
98.0
 20
138.65
 30
0.0
 11
98.0
 21
138.65
 31
0.0
  0
ARC
  8
0
  6
CONTINUOUS
 62
     2
 10
98.0
 20
137.15
 30
0.0
 40
1.5
 50
90.0
 51
180.0
  0
LINE
  8
0
  6
CONTINUOUS
 62
     2
 10
98.0
 20
132.75
 30
0.0
 11
97.9
 21
132.75
 31
0.0
  0
LINE
  8
0
  6
CONTINUOUS
 62
     2
 10
96.5
 20
134.15
 30
0.0
 11
96.5
 21
137.15
 31
0.0
  0
ARC
  8
0
  6
CONTINUOUS
 62
     2
 10
97.9
 20
134.15
 30
0.0
 40
1.4
 50
180.0
 51
270.0
  0
LINE
  8
0
  6
CONTINUOUS
 62
     2
 10
99.05
 20
109.975
 30
0.0
 11
91.625
 21
109.975
 31
0.0
  0
LINE
  8
0
  6
CONTINUOUS
 62
     2
 10
99.05
 20
160.975
 30
0.0
 11
91.625
 21
160.975
 31
0.0
  0
LINE
  8
0
  6
CONTINUOUS
 62
     2
 10
96.5
 20
137.6
 30
0.0
 11
96.5
 21
182.925001907
 31
0.0
  0
LINE
  8
0
  6
CONTINUOUS
 62
     2
 10
108.75
 20
171.375001907
 30
0.0
 11
111.164814566
 21
170.727954295
 31
0.0
  0
LINE
  8
0
  6
CONTINUOUS
 62
     2
 10
108.75
 20
171.375001907
 30
0.0
 11
111.164814566
 21
172.02204952
 31
0.0
  0
LINE
  8
0
  6
CONTINUOUS
 62
     2
 10
108.75
 20
171.375001907
 30
0.0
 11
116.25
 21
171.375001907
 31
0.0
  0
LINE
  8
0
  6
CONTINUOUS
 62
     2
 10
116.25
 20
171.375001907
 30
0.0
 11
113.835185434
 21
172.02204952
 31
0.0
  0
LINE
  8
0
  6
CONTINUOUS
 62
     2
 10
116.25
 20
171.375001907
 30
0.0
 11
113.835185434
 21
170.727954295
 31
0.0
  0
LINE
  8
0
  6
CONTINUOUS
 62
     2
 10
108.5
 20
171.375001907
 30
0.0
 11
106.085185434
 21
172.02204952
 31
0.0
  0
LINE
  8
0
  6
CONTINUOUS
 62
     2
 10
108.5
 20
171.375001907
 30
0.0
 11
106.085185434
 21
170.727954295
 31
0.0
  0
LINE
  8
0
  6
CONTINUOUS
 62
     2
 10
97.5
 20
171.375001907
 30
0.0
 11
113.75
 21
171.375001907
 31
0.0
  0
LINE
  8
0
  6
CONTINUOUS
 62
     2
 10
108.75
 20
171.375001907
 30
0.0
 11
111.164814566
 21
170.727954295
 31
0.0
  0
LINE
  8
0
  6
CONTINUOUS
 62
     2
 10
108.75
 20
171.375001907
 30
0.0
 11
111.164814566
 21
172.02204952
 31
0.0
  0
TEXT
  8
0
  6
CONTINUOUS
 62
     2
 10
98.65
 20
172.375001907
 30
0.3
 40
3.0
  1
０．５
 50
0.0
 41
0.6
 51
0.0
  7
KANJI2
  0
LINE
  8
0
  6
LTYPE1
 62
     2
 10
107.04235
 20
113.0
 30
0.0
 11
116.9134
 21
113.0
 31
0.0
  0
LINE
  8
0
  6
CONTINUOUS
 62
     2
 10
140.0
 20
110.75
 30
0.0
 11
140.647047613
 21
113.164814566
 31
0.0
  0
LINE
  8
0
  6
CONTINUOUS
 62
     2
 10
140.0
 20
110.75
 30
0.0
 11
139.352952387
 21
113.164814566
 31
0.0
  0
LINE
  8
0
  6
CONTINUOUS
 62
     2
 10
140.0
 20
110.75
 30
0.0
 11
140.0
 21
160.3
 31
0.0
  0
LINE
  8
0
  6
CONTINUOUS
 62
     2
 10
140.0
 20
160.3
 30
0.0
 11
139.352952387
 21
157.885185434
 31
0.0
  0
LINE
  8
0
  6
CONTINUOUS
 62
     2
 10
140.0
 20
160.3
 30
0.0
 11
140.647047613
 21
157.885185434
 31
0.0
  0
LINE
  8
0
  6
CONTINUOUS
 62
     2
 10
108.5
 20
163.2
 30
0.0
 11
108.5
 21
173.4
 31
0.0
  0
LINE
  8
0
  6
CONTINUOUS
 62
     2
 10
108.75
 20
181.025001907
 30
0.0
 11
111.164814566
 21
180.377954295
 31
0.0
  0
LINE
  8
0
  6
CONTINUOUS
 62
     2
 10
108.75
 20
181.025001907
 30
0.0
 11
111.164814566
 21
181.67204952
 31
0.0
  0
LINE
  8
0
  6
CONTINUOUS
 62
     2
 10
108.75
 20
181.025001907
 30
0.0
 11
106.335185434
 21
181.67204952
 31
0.0
  0
LINE
  8
0
  6
CONTINUOUS
 62
     2
 10
108.75
 20
181.025001907
 30
0.0
 11
106.335185434
 21
180.377954295
 31
0.0
  0
LINE
  8
0
  6
CONTINUOUS
 62
     2
 10
108.75
 20
181.025001907
 30
0.0
 11
96.5
 21
181.025001907
 31
0.0
  0
LINE
  8
0
  6
CONTINUOUS
 62
     2
 10
96.5
 20
181.025001907
 30
0.0
 11
98.914814566
 21
180.377954295
 31
0.0
  0
LINE
  8
0
  6
CONTINUOUS
 62
     2
 10
96.5
 20
181.025001907
 30
0.0
 11
98.914814566
 21
181.67204952
 31
0.0
  0
LINE
  8
0
  6
CONTINUOUS
 62
     2
 10
149.690986669
 20
181.025001907
 30
0.0
 11
108.75
 21
181.025001907
 31
0.0
  0
LINE
  8
0
  6
CONTINUOUS
 62
     2
 10
149.690986669
 20
181.025001907
 30
0.0
 11
147.276172103
 21
181.67204952
 31
0.0
  0
LINE
  8
0
  6
CONTINUOUS
 62
     2
 10
149.690986669
 20
181.025001907
 30
0.0
 11
147.276172103
 21
180.377954295
 31
0.0
  0
LINE
  8
0
  6
CONTINUOUS
 62
     2
 10
149.690986669
 20
160.100001907
 30
0.0
 11
149.690986669
 21
183.375001907
 31
0.0
  0
TEXT
  8
0
  6
CONTINUOUS
 62
     2
 10
99.25
 20
181.925001907
 30
0.3
 40
3.0
  1
２４
 50
0.0
 41
0.6
 51
0.0
  7
KANJI2
  0
TEXT
  8
0
  6
CONTINUOUS
 62
     2
 10
110.55
 20
172.375001907
 30
0.3
 40
3.0
  1
１４．５　
 50
0.0
 41
0.6
 51
0.0
  7
KANJI2
  0
LINE
  8
0
  6
CONTINUOUS
 62
     2
 10
116.25
 20
172.05
 30
0.0
 11
116.25
 21
159.4005
 31
0.0
  0
LINE
  8
0
  6
CONTINUOUS
 62
     2
 10
93.899130435
 20
116.0
 30
0.0
 11
98.599130435
 21
116.0
 31
0.0
  0
LINE
  8
0
  6
CONTINUOUS
 62
     2
 10
93.899130435
 20
116.452933329
 30
0.0
 11
98.776624431
 21
116.647047613
 31
0.0
  0
LINE
  8
0
  6
CONTINUOUS
 62
     2
 10
93.899130435
 20
116.875
 30
0.0
 11
98.65581771
 21
117.24524085
 31
0.0
  0
LINE
  8
0
  6
CONTINUOUS
 62
     2
 10
93.899130435
 20
117.24524085
 30
0.0
 11
98.649130435
 21
117.74524085
 31
0.0
  0
LINE
  8
0
  6
CONTINUOUS
 62
     2
 10
93.899130435
 20
117.49524085
 30
0.0
 11
98.599130435
 21
118.14524085
 31
0.0
  0
LINE
  8
0
  6
CONTINUOUS
 62
     2
 10
93.899130435
 20
115.547066671
 30
0.0
 11
98.599130435
 21
115.347066671
 31
0.0
  0
LINE
  8
0
  6
CONTINUOUS
 62
     2
 10
93.949130435
 20
115.147066671
 30
0.0
 11
98.599130435
 21
114.797066671
 31
0.0
  0
LINE
  8
0
  6
CONTINUOUS
 62
     2
 10
93.949130435
 20
114.747066671
 30
0.0
 11
98.649130435
 21
114.247066671
 31
0.0
  0
LINE
  8
0
  6
CONTINUOUS
 62
     2
 10
93.899130435
 20
114.5
 30
0.0
 11
98.599130435
 21
113.85
 31
0.0
  0
LINE
  8
0
  6
CONTINUOUS
 62
     2
 10
108.8
 20
109.4
 30
0.0
 11
108.8
 21
116.6
 31
0.0
  0
ARC
  8
0
  6
CONTINUOUS
 62
     2
 10
109.2998
 20
113.0
 30
0.0
 40
4.998
 50
343.5
 51
16.5
  0
ARC
  8
0
  6
CONTINUOUS
 62
     2
 10
116.7968
 20
113.0
 30
0.0
 40
4.998
 50
163.5
 51
196.3
  0
ARC
  8
0
  6
CONTINUOUS
 62
     2
 10
113.0483
 20
115.12415
 30
0.0
 40
1.2495
 50
325.0
 51
35.0
  0
ARC
  8
0
  6
CONTINUOUS
 62
     2
 10
113.0483
 20
115.12415
 30
0.0
 40
1.2495
 50
145.0
 51
215.0
  0
ARC
  8
0
  6
CONTINUOUS
 62
     2
 10
113.0483
 20
110.87585
 30
0.0
 40
1.2495
 50
145.0
 51
215.0
  0
ARC
  8
0
  6
CONTINUOUS
 62
     2
 10
113.0483
 20
110.87585
 30
0.0
 40
1.2495
 50
325.0
 51
35.0
  0
LINE
  8
0
  6
CONTINUOUS
 62
     2
 10
111.999693151
 20
111.597227789
 30
0.0
 11
114.073863151
 21
111.597227789
 31
0.0
  0
LINE
  8
0
  6
CONTINUOUS
 62
     2
 10
114.091981035
 20
114.419508693
 30
0.0
 11
112.004618965
 21
114.419508693
 31
0.0
  0
LINE
  8
0
  6
CONTINUOUS
 62
     2
 10
114.078788965
 20
115.84886
 30
0.0
 11
111.7988
 21
115.84886
 31
0.0
  0
LINE
  8
0
  6
CONTINUOUS
 62
     2
 10
114.2978
 20
110.87585
 30
0.0
 11
114.2978
 21
115.12415
 31
0.0
  0
LINE
  8
0
  6
CONTINUOUS
 62
     2
 10
112.02371
 20
110.15114
 30
0.0
 11
114.07289
 21
110.15114
 31
0.0
  0
LINE
  8
0
  6
CONTINUOUS
 62
     2
 10
111.7988
 20
115.84886
 30
0.0
 11
111.7988
 21
110.87585
 31
0.0
  0
LINE
  8
0
  6
CONTINUOUS
 62
     2
 10
110.14946
 20
110.0012
 30
0.0
 11
110.94914
 21
110.0012
 31
0.0
  0
LINE
  8
0
  6
CONTINUOUS
 62
     2
 10
109.7996
 20
113.04998
 30
0.0
 11
110.59928
 21
113.04998
 31
0.0
  0
POLYLINE
  8
0
  6
CONTINUOUS
 62
     2
 66
     1
  0
VERTEX
  8
0
  6
CONTINUOUS
 62
     2
 10
110.59928
 20
113.04998
 30
0.0
  0
VERTEX
  8
0
  6
CONTINUOUS
 62
     2
 10
110.94914
 20
115.9988
 30
0.0
  0
VERTEX
  8
0
  6
CONTINUOUS
 62
     2
 10
110.14946
 20
115.9988
 30
0.0
  0
VERTEX
  8
0
  6
CONTINUOUS
 62
     2
 10
109.7996
 20
113.04998
 30
0.0
  0
SEQEND
  0
LINE
  8
0
  6
CONTINUOUS
 62
     2
 10
111.299
 20
112.95002
 30
0.0
 11
110.49932
 21
112.95002
 31
0.0
  0
LINE
  8
0
  6
CONTINUOUS
 62
     2
 10
110.49932
 20
112.95002
 30
0.0
 11
110.14946
 21
110.0012
 31
0.0
  0
LINE
  8
0
  6
CONTINUOUS
 62
     2
 10
110.94914
 20
110.0012
 30
0.0
 11
111.299
 21
112.95002
 31
0.0
  0
POLYLINE
  8
0
  6
CONTINUOUS
 62
     2
 66
     1
  0
VERTEX
  8
0
  6
CONTINUOUS
 62
     2
 10
108.99992
 20
116.04878
 30
0.0
  0
VERTEX
  8
0
  6
CONTINUOUS
 62
     2
 10
109.7996
 20
116.04878
 30
0.0
  0
VERTEX
  8
0
  6
CONTINUOUS
 62
     2
 10
109.7996
 20
109.948721
 30
0.0
  0
VERTEX
  8
0
  6
CONTINUOUS
 62
     2
 10
109.004918
 20
109.948721
 30
0.0
  0
VERTEX
  8
0
  6
CONTINUOUS
 62
     2
 10
109.004918
 20
116.04878
 30
0.0
  0
SEQEND
  0
LINE
  8
0
  6
CONTINUOUS
 62
     2
 10
111.793802
 20
114.4994
 30
0.0
 11
110.779208
 21
114.4994
 31
0.0
  0
LINE
  8
0
  6
CONTINUOUS
 62
     2
 10
109.984526
 20
114.4994
 30
0.0
 11
109.809596
 21
114.4994
 31
0.0
  0
LINE
  8
0
  6
CONTINUOUS
 62
     2
 10
108.99992
 20
114.4994
 30
0.0
 11
108.809996
 21
114.4994
 31
0.0
  0
LINE
  8
0
  6
CONTINUOUS
 62
     2
 10
108.809996
 20
111.505598
 30
0.0
 11
108.989924
 21
111.505598
 31
0.0
  0
LINE
  8
0
  6
CONTINUOUS
 62
     2
 10
109.7996
 20
111.505598
 30
0.0
 11
110.319392
 21
111.505598
 31
0.0
  0
LINE
  8
0
  6
CONTINUOUS
 62
     2
 10
111.119072
 20
111.505598
 30
0.0
 11
111.788804
 21
111.505598
 31
0.0
  0
LINE
  8
0
  6
CONTINUOUS
 62
     2
 10
111.7988
 20
111.62555
 30
0.0
 11
111.144062
 21
111.62555
 31
0.0
  0
LINE
  8
0
  6
CONTINUOUS
 62
     2
 10
110.34938
 20
111.62555
 30
0.0
 11
109.814594
 21
111.62555
 31
0.0
  0
LINE
  8
0
  6
CONTINUOUS
 62
     2
 10
111.7988
 20
114.384446
 30
0.0
 11
110.764214
 21
114.384446
 31
0.0
  0
LINE
  8
0
  6
CONTINUOUS
 62
     2
 10
109.964534
 20
114.384446
 30
0.0
 11
109.804598
 21
114.384446
 31
0.0
  0
LINE
  8
0
  6
CONTINUOUS
 62
     2
 10
116.0
 20
111.5006
 30
0.0
 11
114.2978
 21
111.5006
 31
0.0
  0
LINE
  8
0
  6
CONTINUOUS
 62
     2
 10
114.302798
 20
111.62555
 30
0.0
 11
116.0
 21
111.62555
 31
0.0
  0
LINE
  8
0
  6
CONTINUOUS
 62
     2
 10
116.0
 20
114.384446
 30
0.0
 11
114.307796
 21
114.384446
 31
0.0
  0
LINE
  8
0
  6
CONTINUOUS
 62
     2
 10
114.2978
 20
114.4994
 30
0.0
 11
116.0
 21
114.4994
 31
0.0
  0
LINE
  8
0
  6
CONTINUOUS
 62
     2
 10
116.0
 20
114.5
 30
0.0
 11
116.0
 21
111.5
 31
0.0
  0
LINE
  8
0
  6
CONTINUOUS
 62
     2
 10
108.79144602
 20
109.4
 30
0.0
 11
108.49144602
 21
109.4
 31
0.0
  0
LINE
  8
0
  6
CONTINUOUS
 62
     2
 10
108.79144602
 20
116.65
 30
0.0
 11
108.54144602
 21
116.65
 31
0.0
  0
LINE
  8
0
  6
CONTINUOUS
 62
     2
 10
108.5
 20
154.4
 30
0.0
 11
108.8
 21
154.4
 31
0.0
  0
LINE
  8
0
  6
CONTINUOUS
 62
     2
 10
108.8
 20
154.4
 30
0.0
 11
108.8
 21
161.6
 31
0.0
  0
LINE
  8
0
  6
CONTINUOUS
 62
     2
 10
108.8
 20
161.6
 30
0.0
 11
108.5
 21
161.6
 31
0.0
  0
ARC
  8
0
  6
CONTINUOUS
 62
     2
 10
109.2998
 20
158.0
 30
0.0
 40
4.998
 50
343.5
 51
16.5
  0
ARC
  8
0
  6
CONTINUOUS
 62
     2
 10
116.7968
 20
158.0
 30
0.0
 40
4.998
 50
163.5
 51
196.3
  0
ARC
  8
0
  6
CONTINUOUS
 62
     2
 10
113.0483
 20
160.12415
 30
0.0
 40
1.2495
 50
325.0
 51
35.0
  0
ARC
  8
0
  6
CONTINUOUS
 62
     2
 10
113.0483
 20
160.12415
 30
0.0
 40
1.2495
 50
145.0
 51
215.0
  0
ARC
  8
0
  6
CONTINUOUS
 62
     2
 10
113.0483
 20
155.87585
 30
0.0
 40
1.2495
 50
145.0
 51
215.0
  0
ARC
  8
0
  6
CONTINUOUS
 62
     2
 10
113.0483
 20
155.87585
 30
0.0
 40
1.2495
 50
325.0
 51
35.0
  0
LINE
  8
0
  6
CONTINUOUS
 62
     2
 10
111.999693151
 20
156.597227789
 30
0.0
 11
114.073863151
 21
156.597227789
 31
0.0
  0
LINE
  8
0
  6
CONTINUOUS
 62
     2
 10
114.091981035
 20
159.419508693
 30
0.0
 11
112.004618965
 21
159.419508693
 31
0.0
  0
LINE
  8
0
  6
CONTINUOUS
 62
     2
 10
114.078788965
 20
160.84886
 30
0.0
 11
111.7988
 21
160.84886
 31
0.0
  0
LINE
  8
0
  6
CONTINUOUS
 62
     2
 10
114.2978
 20
155.87585
 30
0.0
 11
114.2978
 21
160.12415
 31
0.0
  0
LINE
  8
0
  6
CONTINUOUS
 62
     2
 10
112.02371
 20
155.15114
 30
0.0
 11
114.07289
 21
155.15114
 31
0.0
  0
LINE
  8
0
  6
CONTINUOUS
 62
     2
 10
111.7988
 20
160.84886
 30
0.0
 11
111.7988
 21
155.87585
 31
0.0
  0
LINE
  8
0
  6
CONTINUOUS
 62
     2
 10
110.14946
 20
155.0012
 30
0.0
 11
110.94914
 21
155.0012
 31
0.0
  0
LINE
  8
0
  6
CONTINUOUS
 62
     2
 10
109.7996
 20
158.04998
 30
0.0
 11
110.59928
 21
158.04998
 31
0.0
  0
POLYLINE
  8
0
  6
CONTINUOUS
 62
     2
 66
     1
  0
VERTEX
  8
0
  6
CONTINUOUS
 62
     2
 10
110.59928
 20
158.04998
 30
0.0
  0
VERTEX
  8
0
  6
CONTINUOUS
 62
     2
 10
110.94914
 20
160.9988
 30
0.0
  0
VERTEX
  8
0
  6
CONTINUOUS
 62
     2
 10
110.14946
 20
160.9988
 30
0.0
  0
VERTEX
  8
0
  6
CONTINUOUS
 62
     2
 10
109.7996
 20
158.04998
 30
0.0
  0
SEQEND
  0
LINE
  8
0
  6
CONTINUOUS
 62
     2
 10
111.299
 20
157.95002
 30
0.0
 11
110.49932
 21
157.95002
 31
0.0
  0
LINE
  8
0
  6
CONTINUOUS
 62
     2
 10
110.49932
 20
157.95002
 30
0.0
 11
110.14946
 21
155.0012
 31
0.0
  0
LINE
  8
0
  6
CONTINUOUS
 62
     2
 10
110.94914
 20
155.0012
 30
0.0
 11
111.299
 21
157.95002
 31
0.0
  0
POLYLINE
  8
0
  6
CONTINUOUS
 62
     2
 66
     1
  0
VERTEX
  8
0
  6
CONTINUOUS
 62
     2
 10
108.99992
 20
161.04878
 30
0.0
  0
VERTEX
  8
0
  6
CONTINUOUS
 62
     2
 10
109.7996
 20
161.04878
 30
0.0
  0
VERTEX
  8
0
  6
CONTINUOUS
 62
     2
 10
109.7996
 20
154.948721
 30
0.0
  0
VERTEX
  8
0
  6
CONTINUOUS
 62
     2
 10
109.004918
 20
154.948721
 30
0.0
  0
VERTEX
  8
0
  6
CONTINUOUS
 62
     2
 10
109.004918
 20
161.04878
 30
0.0
  0
SEQEND
  0
LINE
  8
0
  6
CONTINUOUS
 62
     2
 10
111.793802
 20
159.4994
 30
0.0
 11
110.779208
 21
159.4994
 31
0.0
  0
LINE
  8
0
  6
CONTINUOUS
 62
     2
 10
109.984526
 20
159.4994
 30
0.0
 11
109.809596
 21
159.4994
 31
0.0
  0
LINE
  8
0
  6
CONTINUOUS
 62
     2
 10
108.99992
 20
159.4994
 30
0.0
 11
108.809996
 21
159.4994
 31
0.0
  0
LINE
  8
0
  6
CONTINUOUS
 62
     2
 10
108.809996
 20
156.505598
 30
0.0
 11
108.989924
 21
156.505598
 31
0.0
  0
LINE
  8
0
  6
CONTINUOUS
 62
     2
 10
109.7996
 20
156.505598
 30
0.0
 11
110.319392
 21
156.505598
 31
0.0
  0
LINE
  8
0
  6
CONTINUOUS
 62
     2
 10
111.119072
 20
156.505598
 30
0.0
 11
111.788804
 21
156.505598
 31
0.0
  0
LINE
  8
0
  6
CONTINUOUS
 62
     2
 10
111.7988
 20
156.62555
 30
0.0
 11
111.144062
 21
156.62555
 31
0.0
  0
LINE
  8
0
  6
CONTINUOUS
 62
     2
 10
110.34938
 20
156.62555
 30
0.0
 11
109.814594
 21
156.62555
 31
0.0
  0
LINE
  8
0
  6
CONTINUOUS
 62
     2
 10
111.7988
 20
159.384446
 30
0.0
 11
110.764214
 21
159.384446
 31
0.0
  0
LINE
  8
0
  6
CONTINUOUS
 62
     2
 10
109.964534
 20
159.384446
 30
0.0
 11
109.804598
 21
159.384446
 31
0.0
  0
LINE
  8
0
  6
CONTINUOUS
 62
     2
 10
114.2978
 20
159.4994
 30
0.0
 11
116.25394602
 21
159.4994
 31
0.0
  0
LINE
  8
0
  6
CONTINUOUS
 62
     2
 10
116.25394602
 20
159.384446
 30
0.0
 11
114.307796
 21
159.384446
 31
0.0
  0
LINE
  8
0
  6
CONTINUOUS
 62
     2
 10
116.25394602
 20
156.5006
 30
0.0
 11
114.2978
 21
156.5006
 31
0.0
  0
LINE
  8
0
  6
CONTINUOUS
 62
     2
 10
114.302798
 20
156.62555
 30
0.0
 11
116.25394602
 21
156.62555
 31
0.0
  0
LINE
  8
0
  6
CONTINUOUS
 62
     2
 10
116.25394602
 20
159.5
 30
0.0
 11
116.25394602
 21
156.55
 31
0.0
  0
LINE
  8
0
  6
CONTINUOUS
 62
     2
 10
108.8
 20
161.25
 30
0.0
 11
108.8
 21
183.075001907
 31
0.0
  0
TEXT
  8
0
  6
CONTINUOUS
 62
     2
 10
129.274499685
 20
182.025001907
 30
0.3
 40
3.0
  1
１３０
 50
0.0
 41
0.6
 51
0.0
  7
KANJI2
  0
LINE
  8
0
  6
CONTINUOUS
 62
     2
 10
115.175
 20
112.5
 30
0.0
 11
115.486313313
 21
110.019458926
 31
0.0
  0
LINE
  8
0
  6
CONTINUOUS
 62
     2
 10
115.175
 20
112.5
 30
0.0
 11
116.684875774
 21
110.507445071
 31
0.0
  0
LINE
  8
0
  6
CONTINUOUS
 62
     2
 10
115.175
 20
112.5
 30
0.0
 11
120.875
 21
98.5
 31
0.0
  0
TEXT
  8
0
  6
CONTINUOUS
 62
     2
 10
120.875
 20
99.5
 30
0.3
 40
3.0
  1
４－Ｍ６取付ボルト
 50
0.0
 41
0.9
 51
0.0
  7
KANJI6
  0
LINE
  8
0
  6
CONTINUOUS
 62
     2
 10
93.649130435
 20
103.270718292
 30
0.0
 11
96.063945001
 21
102.62367068
 31
0.0
  0
LINE
  8
0
  6
CONTINUOUS
 62
     2
 10
93.649130435
 20
103.270718292
 30
0.0
 11
96.063945001
 21
103.917765905
 31
0.0
  0
POLYLINE
  8
0
  6
CONTINUOUS
 62
     2
 66
     1
  0
VERTEX
  8
0
  6
CONTINUOUS
 62
     2
 10
93.649130435
 20
103.270718292
 30
0.0
  0
VERTEX
  8
0
  6
CONTINUOUS
 62
     2
 10
108.5
 20
103.270718292
 30
0.0
  0
VERTEX
  8
0
  6
CONTINUOUS
 62
     2
 10
106.085185434
 20
103.917765905
 30
0.0
  0
SEQEND
  0
LINE
  8
0
  6
CONTINUOUS
 62
     2
 10
108.5
 20
103.270718292
 30
0.0
 11
106.085185434
 21
102.62367068
 31
0.0
  0
LINE
  8
0
  6
CONTINUOUS
 62
     2
 10
108.5
 20
107.475
 30
0.0
 11
108.5
 21
101.270718292
 31
0.0
  0
TEXT
  8
0
  6
CONTINUOUS
 62
     2
 10
99.124565217
 20
104.270718292
 30
0.3
 40
3.0
  1
３３
 50
0.0
 41
0.6
 51
0.0
  7
KANJI2
  0
TEXT
  8
0
  6
CONTINUOUS
 62
     2
 10
103.26
 20
103.510718292
 30
0.16
 40
1.6
  1
以下
 50
0.0
 41
0.9
 51
0.0
  7
KANJI18
  0
POINT
  8
0
  6
LTYPE1
 62
     2
 10
192.3
 20
166.5
 30
0.0
  0
ARC
  8
0
  6
CONTINUOUS
 62
     2
 10
167.55
 20
110.75
 30
0.0
 40
1.5
 50
180.0
 51
270.0
  0
LINE
  8
0
  6
CONTINUOUS
 62
     2
 10
166.05
 20
160.25
 30
0.0
 11
166.05
 21
110.75
 31
0.0
  0
ARC
  8
0
  6
CONTINUOUS
 62
     2
 10
167.55
 20
160.25
 30
0.0
 40
1.5
 50
90.0
 51
180.0
  0
LINE
  8
0
  6
CONTINUOUS
 62
     2
 10
217.05
 20
161.75
 30
0.0
 11
167.55
 21
161.75
 31
0.0
  0
ARC
  8
0
  6
CONTINUOUS
 62
     2
 10
217.05
 20
160.25
 30
0.0
 40
1.5
 50
0.0
 51
90.0
  0
LINE
  8
0
  6
CONTINUOUS
 62
     2
 10
167.55
 20
109.25
 30
0.0
 11
217.05
 21
109.25
 31
0.0
  0
LINE
  8
0
  6
CONTINUOUS
 62
     2
 10
218.55
 20
110.75
 30
0.0
 11
218.55
 21
160.25
 31
0.0
  0
ARC
  8
0
  6
CONTINUOUS
 62
     2
 10
217.05
 20
110.75
 30
0.0
 40
1.5
 50
270.0
 51
360.0
  0
LINE
  8
0
  6
CONTINUOUS
 62
     2
 10
169.8
 20
162.1
 30
0.0
 11
169.8
 21
182.85
 31
0.0
  0
LINE
  8
0
  6
CONTINUOUS
 62
     2
 10
169.8
 20
180.85
 30
0.0
 11
172.214814566
 21
180.202952387
 31
0.0
  0
LINE
  8
0
  6
CONTINUOUS
 62
     2
 10
169.8
 20
180.85
 30
0.0
 11
172.214814566
 21
181.497047613
 31
0.0
  0
LINE
  8
0
  6
CONTINUOUS
 62
     2
 10
169.8
 20
180.85
 30
0.0
 11
192.3
 21
180.85
 31
0.0
  0
LINE
  8
0
  6
CONTINUOUS
 62
     2
 10
192.3
 20
180.85
 30
0.0
 11
189.885185434
 21
181.497047613
 31
0.0
  0
LINE
  8
0
  6
CONTINUOUS
 62
     2
 10
192.3
 20
180.85
 30
0.0
 11
189.885185434
 21
180.202952387
 31
0.0
  0
LINE
  8
0
  6
CONTINUOUS
 62
     2
 10
192.3
 20
166.7
 30
0.0
 11
192.3
 21
182.85
 31
0.0
  0
TEXT
  8
0
  6
CONTINUOUS
 62
     2
 10
176.67
 20
181.85
 30
0.3
 40
3.0
  1
４５
 50
0.0
 41
0.6
 51
0.0
  7
KANJI2
  0
LINE
  8
0
  6
CONTINUOUS
 62
     2
 10
192.3
 20
180.85
 30
0.0
 11
194.714814566
 21
180.202952387
 31
0.0
  0
LINE
  8
0
  6
CONTINUOUS
 62
     2
 10
192.3
 20
180.85
 30
0.0
 11
194.714814566
 21
181.497047613
 31
0.0
  0
POLYLINE
  8
0
  6
CONTINUOUS
 62
     2
 66
     1
  0
VERTEX
  8
0
  6
CONTINUOUS
 62
     2
 10
192.3
 20
180.85
 30
0.0
  0
VERTEX
  8
0
  6
CONTINUOUS
 62
     2
 10
214.8
 20
180.85
 30
0.0
  0
VERTEX
  8
0
  6
CONTINUOUS
 62
     2
 10
212.385185434
 20
181.497047613
 30
0.0
  0
SEQEND
  0
LINE
  8
0
  6
CONTINUOUS
 62
     2
 10
214.8
 20
180.85
 30
0.0
 11
212.385185434
 21
180.202952387
 31
0.0
  0
LINE
  8
0
  6
CONTINUOUS
 62
     2
 10
214.8
 20
162.0
 30
0.0
 11
214.8
 21
182.85
 31
0.0
  0
TEXT
  8
0
  6
CONTINUOUS
 62
     2
 10
199.17
 20
181.85
 30
0.3
 40
3.0
  1
４５
 50
0.0
 41
0.6
 51
0.0
  7
KANJI2
  0
LINE
  8
0
  6
CONTINUOUS
 62
     2
 10
219.05
 20
113.0
 30
0.0
 11
228.9
 21
113.0
 31
0.0
  0
LINE
  8
0
  6
CONTINUOUS
 62
     2
 10
226.9
 20
113.0
 30
0.0
 11
227.547047613
 21
115.414814566
 31
0.0
  0
LINE
  8
0
  6
CONTINUOUS
 62
     2
 10
226.9
 20
113.0
 30
0.0
 11
226.252952387
 21
115.414814566
 31
0.0
  0
LINE
  8
0
  6
CONTINUOUS
 62
     2
 10
226.9
 20
113.0
 30
0.0
 11
226.9
 21
135.5
 31
0.0
  0
LINE
  8
0
  6
CONTINUOUS
 62
     2
 10
226.9
 20
135.5
 30
0.0
 11
226.252952387
 21
133.085185434
 31
0.0
  0
LINE
  8
0
  6
CONTINUOUS
 62
     2
 10
226.9
 20
135.5
 30
0.0
 11
227.547047613
 21
133.085185434
 31
0.0
  0
LINE
  8
0
  6
CONTINUOUS
 62
     2
 10
214.5
 20
135.5
 30
0.0
 11
228.9
 21
135.5
 31
0.0
  0
TEXT
  8
0
  6
CONTINUOUS
 62
     2
 10
225.9
 20
119.87
 30
0.3
 40
3.0
  1
４５
 50
90.0
 41
0.6
 51
0.0
  7
KANJI2
  0
LINE
  8
0
  6
CONTINUOUS
 62
     2
 10
226.9
 20
135.5
 30
0.0
 11
227.547047613
 21
137.914814566
 31
0.0
  0
LINE
  8
0
  6
CONTINUOUS
 62
     2
 10
226.9
 20
135.5
 30
0.0
 11
226.252952387
 21
137.914814566
 31
0.0
  0
POLYLINE
  8
0
  6
CONTINUOUS
 62
     2
 66
     1
  0
VERTEX
  8
0
  6
CONTINUOUS
 62
     2
 10
226.9
 20
135.5
 30
0.0
  0
VERTEX
  8
0
  6
CONTINUOUS
 62
     2
 10
226.9
 20
158.0
 30
0.0
  0
VERTEX
  8
0
  6
CONTINUOUS
 62
     2
 10
226.252952387
 20
155.585185434
 30
0.0
  0
SEQEND
  0
LINE
  8
0
  6
CONTINUOUS
 62
     2
 10
226.9
 20
158.0
 30
0.0
 11
227.547047613
 21
155.585185434
 31
0.0
  0
LINE
  8
0
  6
CONTINUOUS
 62
     2
 10
219.0
 20
158.0
 30
0.0
 11
228.9
 21
158.0
 31
0.0
  0
TEXT
  8
0
  6
CONTINUOUS
 62
     2
 10
225.9
 20
142.37
 30
0.3
 40
3.0
  1
４５
 50
90.0
 41
0.6
 51
0.0
  7
KANJI2
  0
LINE
  8
0
  6
CONTINUOUS
 62
     2
 10
171.812643038
 20
114.162
 30
0.0
 11
169.8
 21
115.324
 31
0.0
  0
LINE
  8
0
  6
CONTINUOUS
 62
     2
 10
169.8
 20
115.324
 30
0.0
 11
167.787356962
 21
114.162
 31
0.0
  0
LINE
  8
0
  6
CONTINUOUS
 62
     2
 10
167.787356962
 20
114.162
 30
0.0
 11
167.787356962
 21
111.838
 31
0.0
  0
LINE
  8
0
  6
CONTINUOUS
 62
     2
 10
167.787356962
 20
111.838
 30
0.0
 11
169.8
 21
110.676
 31
0.0
  0
LINE
  8
0
  6
CONTINUOUS
 62
     2
 10
169.8
 20
110.676
 30
0.0
 11
171.812643038
 21
111.838
 31
0.0
  0
LINE
  8
0
  6
CONTINUOUS
 62
     2
 10
171.812643038
 20
111.838
 30
0.0
 11
171.812643038
 21
114.162
 31
0.0
  0
CIRCLE
  8
0
  6
CONTINUOUS
 62
     2
 10
169.8
 20
113.0
 30
0.0
 40
1.245
  0
CIRCLE
  8
0
  6
CONTINUOUS
 62
     2
 10
169.8
 20
113.0
 30
0.0
 40
1.162
  0
CIRCLE
  8
0
  6
CONTINUOUS
 62
     2
 10
169.8
 20
113.0
 30
0.0
 40
2.49
  0
CIRCLE
  8
0
  6
CONTINUOUS
 62
     2
 10
169.8
 20
113.0
 30
0.0
 40
2.075
  0
LINE
  8
0
  6
LTYPE1
 62
     2
 10
166.58375
 20
113.0
 30
0.0
 11
173.203
 21
113.0
 31
0.0
  0
LINE
  8
0
  6
LTYPE1
 62
     2
 10
169.8
 20
116.237
 30
0.0
 11
169.8
 21
109.82525
 31
0.0
  0
LINE
  8
0
  6
CONTINUOUS
 62
     2
 10
171.812643038
 20
159.162
 30
0.0
 11
169.8
 21
160.324
 31
0.0
  0
LINE
  8
0
  6
CONTINUOUS
 62
     2
 10
169.8
 20
160.324
 30
0.0
 11
167.787356962
 21
159.162
 31
0.0
  0
LINE
  8
0
  6
CONTINUOUS
 62
     2
 10
167.787356962
 20
159.162
 30
0.0
 11
167.787356962
 21
156.838
 31
0.0
  0
LINE
  8
0
  6
CONTINUOUS
 62
     2
 10
167.787356962
 20
156.838
 30
0.0
 11
169.8
 21
155.676
 31
0.0
  0
LINE
  8
0
  6
CONTINUOUS
 62
     2
 10
169.8
 20
155.676
 30
0.0
 11
171.812643038
 21
156.838
 31
0.0
  0
LINE
  8
0
  6
CONTINUOUS
 62
     2
 10
171.812643038
 20
156.838
 30
0.0
 11
171.812643038
 21
159.162
 31
0.0
  0
CIRCLE
  8
0
  6
CONTINUOUS
 62
     2
 10
169.8
 20
158.0
 30
0.0
 40
1.245
  0
CIRCLE
  8
0
  6
CONTINUOUS
 62
     2
 10
169.8
 20
158.0
 30
0.0
 40
1.162
  0
CIRCLE
  8
0
  6
CONTINUOUS
 62
     2
 10
169.8
 20
158.0
 30
0.0
 40
2.49
  0
CIRCLE
  8
0
  6
CONTINUOUS
 62
     2
 10
169.8
 20
158.0
 30
0.0
 40
2.075
  0
LINE
  8
0
  6
LTYPE1
 62
     2
 10
166.58375
 20
158.0
 30
0.0
 11
173.203
 21
158.0
 31
0.0
  0
LINE
  8
0
  6
LTYPE1
 62
     2
 10
169.8
 20
161.237
 30
0.0
 11
169.8
 21
154.82525
 31
0.0
  0
LINE
  8
0
  6
CONTINUOUS
 62
     2
 10
216.812643038
 20
159.162
 30
0.0
 11
214.8
 21
160.324
 31
0.0
  0
LINE
  8
0
  6
CONTINUOUS
 62
     2
 10
214.8
 20
160.324
 30
0.0
 11
212.787356962
 21
159.162
 31
0.0
  0
LINE
  8
0
  6
CONTINUOUS
 62
     2
 10
212.787356962
 20
159.162
 30
0.0
 11
212.787356962
 21
156.838
 31
0.0
  0
LINE
  8
0
  6
CONTINUOUS
 62
     2
 10
212.787356962
 20
156.838
 30
0.0
 11
214.8
 21
155.676
 31
0.0
  0
LINE
  8
0
  6
CONTINUOUS
 62
     2
 10
214.8
 20
155.676
 30
0.0
 11
216.812643038
 21
156.838
 31
0.0
  0
LINE
  8
0
  6
CONTINUOUS
 62
     2
 10
216.812643038
 20
156.838
 30
0.0
 11
216.812643038
 21
159.162
 31
0.0
  0
CIRCLE
  8
0
  6
CONTINUOUS
 62
     2
 10
214.8
 20
158.0
 30
0.0
 40
1.245
  0
CIRCLE
  8
0
  6
CONTINUOUS
 62
     2
 10
214.8
 20
158.0
 30
0.0
 40
1.162
  0
CIRCLE
  8
0
  6
CONTINUOUS
 62
     2
 10
214.8
 20
158.0
 30
0.0
 40
2.49
  0
CIRCLE
  8
0
  6
CONTINUOUS
 62
     2
 10
214.8
 20
158.0
 30
0.0
 40
2.075
  0
LINE
  8
0
  6
LTYPE1
 62
     2
 10
211.58375
 20
158.0
 30
0.0
 11
218.203
 21
158.0
 31
0.0
  0
LINE
  8
0
  6
LTYPE1
 62
     2
 10
214.8
 20
161.237
 30
0.0
 11
214.8
 21
154.82525
 31
0.0
  0
LINE
  8
0
  6
CONTINUOUS
 62
     2
 10
216.812643038
 20
114.162
 30
0.0
 11
214.8
 21
115.324
 31
0.0
  0
LINE
  8
0
  6
CONTINUOUS
 62
     2
 10
214.8
 20
115.324
 30
0.0
 11
212.787356962
 21
114.162
 31
0.0
  0
LINE
  8
0
  6
CONTINUOUS
 62
     2
 10
212.787356962
 20
114.162
 30
0.0
 11
212.787356962
 21
111.838
 31
0.0
  0
LINE
  8
0
  6
CONTINUOUS
 62
     2
 10
212.787356962
 20
111.838
 30
0.0
 11
214.8
 21
110.676
 31
0.0
  0
LINE
  8
0
  6
CONTINUOUS
 62
     2
 10
214.8
 20
110.676
 30
0.0
 11
216.812643038
 21
111.838
 31
0.0
  0
LINE
  8
0
  6
CONTINUOUS
 62
     2
 10
216.812643038
 20
111.838
 30
0.0
 11
216.812643038
 21
114.162
 31
0.0
  0
CIRCLE
  8
0
  6
CONTINUOUS
 62
     2
 10
214.8
 20
113.0
 30
0.0
 40
1.245
  0
CIRCLE
  8
0
  6
CONTINUOUS
 62
     2
 10
214.8
 20
113.0
 30
0.0
 40
1.162
  0
CIRCLE
  8
0
  6
CONTINUOUS
 62
     2
 10
214.8
 20
113.0
 30
0.0
 40
2.49
  0
CIRCLE
  8
0
  6
CONTINUOUS
 62
     2
 10
214.8
 20
113.0
 30
0.0
 40
2.075
  0
LINE
  8
0
  6
LTYPE1
 62
     2
 10
211.58375
 20
113.0
 30
0.0
 11
218.203
 21
113.0
 31
0.0
  0
LINE
  8
0
  6
LTYPE1
 62
     2
 10
214.8
 20
116.237
 30
0.0
 11
214.8
 21
109.82525
 31
0.0
  0
CIRCLE
  8
0
  6
CONTINUOUS
 62
     2
 10
192.304392537
 20
157.5
 30
0.0
 40
1.572025
  0
CIRCLE
  8
0
  6
CONTINUOUS
 62
     2
 10
192.304392537
 20
157.5
 30
0.0
 40
1.34745
  0
LINE
  8
0
  6
CONTINUOUS
 62
     2
 10
191.518380037
 20
157.67966
 30
0.0
 11
191.945072537
 21
157.67966
 31
0.0
  0
ARC
  8
0
  6
CONTINUOUS
 62
     2
 10
191.945072537
 20
157.85932
 30
0.0
 40
0.17966
 50
270.0
 51
0.0
  0
LINE
  8
0
  6
CONTINUOUS
 62
     2
 10
192.124732537
 20
157.85932
 30
0.0
 11
192.124732537
 21
158.2860125
 31
0.0
  0
LINE
  8
0
  6
CONTINUOUS
 62
     2
 10
192.124732537
 20
158.2860125
 30
0.0
 11
192.484052537
 21
158.2860125
 31
0.0
  0
LINE
  8
0
  6
CONTINUOUS
 62
     2
 10
192.484052537
 20
158.2860125
 30
0.0
 11
192.484052537
 21
157.85932
 31
0.0
  0
ARC
  8
0
  6
CONTINUOUS
 62
     2
 10
192.663712537
 20
157.85932
 30
0.0
 40
0.17966
 50
180.0
 51
270.0
  0
LINE
  8
0
  6
CONTINUOUS
 62
     2
 10
192.663712537
 20
157.67966
 30
0.0
 11
193.090405037
 21
157.67966
 31
0.0
  0
LINE
  8
0
  6
CONTINUOUS
 62
     2
 10
193.090405037
 20
157.67966
 30
0.0
 11
193.090405037
 21
157.32034
 31
0.0
  0
LINE
  8
0
  6
CONTINUOUS
 62
     2
 10
193.090405037
 20
157.32034
 30
0.0
 11
192.663712537
 21
157.32034
 31
0.0
  0
ARC
  8
0
  6
CONTINUOUS
 62
     2
 10
192.663712537
 20
157.14068
 30
0.0
 40
0.17966
 50
90.0
 51
180.0
  0
LINE
  8
0
  6
CONTINUOUS
 62
     2
 10
192.484052537
 20
157.14068
 30
0.0
 11
192.484052537
 21
156.7139875
 31
0.0
  0
LINE
  8
0
  6
CONTINUOUS
 62
     2
 10
192.484052537
 20
156.7139875
 30
0.0
 11
192.124732537
 21
156.7139875
 31
0.0
  0
LINE
  8
0
  6
CONTINUOUS
 62
     2
 10
192.124732537
 20
156.7139875
 30
0.0
 11
192.124732537
 21
157.14068
 31
0.0
  0
ARC
  8
0
  6
CONTINUOUS
 62
     2
 10
191.945072537
 20
157.14068
 30
0.0
 40
0.17966
 50
0.0
 51
90.0
  0
LINE
  8
0
  6
CONTINUOUS
 62
     2
 10
191.945072537
 20
157.32034
 30
0.0
 11
191.518380037
 21
157.32034
 31
0.0
  0
LINE
  8
0
  6
CONTINUOUS
 62
     2
 10
191.518380037
 20
157.32034
 30
0.0
 11
191.518380037
 21
157.67966
 31
0.0
  0
LINE
  8
0
  6
LTYPE1
 62
     2
 10
190.507792537
 20
157.5
 30
0.0
 11
194.100992537
 21
157.5
 31
0.0
  0
LINE
  8
0
  6
LTYPE1
 62
     2
 10
192.3
 20
159.475001907
 30
0.0
 11
192.3
 21
155.475001907
 31
0.0
  0
CIRCLE
  8
0
  6
CONTINUOUS
 62
     2
 10
211.352558883
 20
124.5
 30
0.0
 40
1.572025
  0
CIRCLE
  8
0
  6
CONTINUOUS
 62
     2
 10
211.352558883
 20
124.5
 30
0.0
 40
1.34745
  0
LINE
  8
0
  6
CONTINUOUS
 62
     2
 10
210.566546383
 20
124.67966
 30
0.0
 11
210.993238883
 21
124.67966
 31
0.0
  0
ARC
  8
0
  6
CONTINUOUS
 62
     2
 10
210.993238883
 20
124.85932
 30
0.0
 40
0.17966
 50
270.0
 51
0.0
  0
LINE
  8
0
  6
CONTINUOUS
 62
     2
 10
211.172898883
 20
124.85932
 30
0.0
 11
211.172898883
 21
125.2860125
 31
0.0
  0
LINE
  8
0
  6
CONTINUOUS
 62
     2
 10
211.172898883
 20
125.2860125
 30
0.0
 11
211.532218883
 21
125.2860125
 31
0.0
  0
LINE
  8
0
  6
CONTINUOUS
 62
     2
 10
211.532218883
 20
125.2860125
 30
0.0
 11
211.532218883
 21
124.85932
 31
0.0
  0
ARC
  8
0
  6
CONTINUOUS
 62
     2
 10
211.711878883
 20
124.85932
 30
0.0
 40
0.17966
 50
180.0
 51
270.0
  0
LINE
  8
0
  6
CONTINUOUS
 62
     2
 10
211.711878883
 20
124.67966
 30
0.0
 11
212.138571383
 21
124.67966
 31
0.0
  0
LINE
  8
0
  6
CONTINUOUS
 62
     2
 10
212.138571383
 20
124.67966
 30
0.0
 11
212.138571383
 21
124.32034
 31
0.0
  0
LINE
  8
0
  6
CONTINUOUS
 62
     2
 10
212.138571383
 20
124.32034
 30
0.0
 11
211.711878883
 21
124.32034
 31
0.0
  0
ARC
  8
0
  6
CONTINUOUS
 62
     2
 10
211.711878883
 20
124.14068
 30
0.0
 40
0.17966
 50
90.0
 51
180.0
  0
LINE
  8
0
  6
CONTINUOUS
 62
     2
 10
211.532218883
 20
124.14068
 30
0.0
 11
211.532218883
 21
123.7139875
 31
0.0
  0
LINE
  8
0
  6
CONTINUOUS
 62
     2
 10
211.532218883
 20
123.7139875
 30
0.0
 11
211.172898883
 21
123.7139875
 31
0.0
  0
LINE
  8
0
  6
CONTINUOUS
 62
     2
 10
211.172898883
 20
123.7139875
 30
0.0
 11
211.172898883
 21
124.14068
 31
0.0
  0
ARC
  8
0
  6
CONTINUOUS
 62
     2
 10
210.993238883
 20
124.14068
 30
0.0
 40
0.17966
 50
0.0
 51
90.0
  0
LINE
  8
0
  6
CONTINUOUS
 62
     2
 10
210.993238883
 20
124.32034
 30
0.0
 11
210.566546383
 21
124.32034
 31
0.0
  0
LINE
  8
0
  6
CONTINUOUS
 62
     2
 10
210.566546383
 20
124.32034
 30
0.0
 11
210.566546383
 21
124.67966
 31
0.0
  0
LINE
  8
0
  6
LTYPE1
 62
     2
 10
209.555958883
 20
124.5
 30
0.0
 11
213.149158883
 21
124.5
 31
0.0
  0
LINE
  8
0
  6
LTYPE1
 62
     2
 10
211.352558883
 20
126.2966
 30
0.0
 11
211.352558883
 21
122.7034
 31
0.0
  0
CIRCLE
  8
0
  6
CONTINUOUS
 62
     2
 10
173.247441117
 20
124.5
 30
0.0
 40
1.572025
  0
CIRCLE
  8
0
  6
CONTINUOUS
 62
     2
 10
173.247441117
 20
124.5
 30
0.0
 40
1.34745
  0
LINE
  8
0
  6
CONTINUOUS
 62
     2
 10
172.461428617
 20
124.67966
 30
0.0
 11
172.888121117
 21
124.67966
 31
0.0
  0
ARC
  8
0
  6
CONTINUOUS
 62
     2
 10
172.888121117
 20
124.85932
 30
0.0
 40
0.17966
 50
270.0
 51
0.0
  0
LINE
  8
0
  6
CONTINUOUS
 62
     2
 10
173.067781117
 20
124.85932
 30
0.0
 11
173.067781117
 21
125.2860125
 31
0.0
  0
LINE
  8
0
  6
CONTINUOUS
 62
     2
 10
173.067781117
 20
125.2860125
 30
0.0
 11
173.427101117
 21
125.2860125
 31
0.0
  0
LINE
  8
0
  6
CONTINUOUS
 62
     2
 10
173.427101117
 20
125.2860125
 30
0.0
 11
173.427101117
 21
124.85932
 31
0.0
  0
ARC
  8
0
  6
CONTINUOUS
 62
     2
 10
173.606761117
 20
124.85932
 30
0.0
 40
0.17966
 50
180.0
 51
270.0
  0
LINE
  8
0
  6
CONTINUOUS
 62
     2
 10
173.606761117
 20
124.67966
 30
0.0
 11
174.033453617
 21
124.67966
 31
0.0
  0
LINE
  8
0
  6
CONTINUOUS
 62
     2
 10
174.033453617
 20
124.67966
 30
0.0
 11
174.033453617
 21
124.32034
 31
0.0
  0
LINE
  8
0
  6
CONTINUOUS
 62
     2
 10
174.033453617
 20
124.32034
 30
0.0
 11
173.606761117
 21
124.32034
 31
0.0
  0
ARC
  8
0
  6
CONTINUOUS
 62
     2
 10
173.606761117
 20
124.14068
 30
0.0
 40
0.17966
 50
90.0
 51
180.0
  0
LINE
  8
0
  6
CONTINUOUS
 62
     2
 10
173.427101117
 20
124.14068
 30
0.0
 11
173.427101117
 21
123.7139875
 31
0.0
  0
LINE
  8
0
  6
CONTINUOUS
 62
     2
 10
173.427101117
 20
123.7139875
 30
0.0
 11
173.067781117
 21
123.7139875
 31
0.0
  0
LINE
  8
0
  6
CONTINUOUS
 62
     2
 10
173.067781117
 20
123.7139875
 30
0.0
 11
173.067781117
 21
124.14068
 31
0.0
  0
ARC
  8
0
  6
CONTINUOUS
 62
     2
 10
172.888121117
 20
124.14068
 30
0.0
 40
0.17966
 50
0.0
 51
90.0
  0
LINE
  8
0
  6
CONTINUOUS
 62
     2
 10
172.888121117
 20
124.32034
 30
0.0
 11
172.461428617
 21
124.32034
 31
0.0
  0
LINE
  8
0
  6
CONTINUOUS
 62
     2
 10
172.461428617
 20
124.32034
 30
0.0
 11
172.461428617
 21
124.67966
 31
0.0
  0
LINE
  8
0
  6
LTYPE1
 62
     2
 10
171.450841117
 20
124.5
 30
0.0
 11
175.044041117
 21
124.5
 31
0.0
  0
LINE
  8
0
  6
LTYPE1
 62
     2
 10
173.247441117
 20
126.2966
 30
0.0
 11
173.247441117
 21
122.7034
 31
0.0
  0
CIRCLE
  8
0
  6
CONTINUOUS
 62
     2
 10
177.3
 20
131.0
 30
0.0
 40
1.5
  0
LINE
  8
0
  6
CONTINUOUS
 62
     2
 10
176.425
 20
131.2
 30
0.0
 11
176.9
 21
131.2
 31
0.0
  0
ARC
  8
0
  6
CONTINUOUS
 62
     2
 10
176.9
 20
131.4
 30
0.0
 40
0.2
 50
270.0
 51
0.0
  0
LINE
  8
0
  6
CONTINUOUS
 62
     2
 10
177.1
 20
131.4
 30
0.0
 11
177.1
 21
131.875
 31
0.0
  0
LINE
  8
0
  6
CONTINUOUS
 62
     2
 10
177.1
 20
131.875
 30
0.0
 11
177.5
 21
131.875
 31
0.0
  0
LINE
  8
0
  6
CONTINUOUS
 62
     2
 10
177.5
 20
131.875
 30
0.0
 11
177.5
 21
131.4
 31
0.0
  0
ARC
  8
0
  6
CONTINUOUS
 62
     2
 10
177.7
 20
131.4
 30
0.0
 40
0.2
 50
180.0
 51
270.0
  0
LINE
  8
0
  6
CONTINUOUS
 62
     2
 10
177.7
 20
131.2
 30
0.0
 11
178.175
 21
131.2
 31
0.0
  0
LINE
  8
0
  6
CONTINUOUS
 62
     2
 10
178.175
 20
131.2
 30
0.0
 11
178.175
 21
130.8
 31
0.0
  0
LINE
  8
0
  6
CONTINUOUS
 62
     2
 10
178.175
 20
130.8
 30
0.0
 11
177.7
 21
130.8
 31
0.0
  0
ARC
  8
0
  6
CONTINUOUS
 62
     2
 10
177.7
 20
130.6
 30
0.0
 40
0.2
 50
90.0
 51
180.0
  0
LINE
  8
0
  6
CONTINUOUS
 62
     2
 10
177.5
 20
130.6
 30
0.0
 11
177.5
 21
130.125
 31
0.0
  0
LINE
  8
0
  6
CONTINUOUS
 62
     2
 10
177.5
 20
130.125
 30
0.0
 11
177.1
 21
130.125
 31
0.0
  0
LINE
  8
0
  6
CONTINUOUS
 62
     2
 10
177.1
 20
130.125
 30
0.0
 11
177.1
 21
130.6
 31
0.0
  0
ARC
  8
0
  6
CONTINUOUS
 62
     2
 10
176.9
 20
130.6
 30
0.0
 40
0.2
 50
0.0
 51
90.0
  0
LINE
  8
0
  6
CONTINUOUS
 62
     2
 10
176.9
 20
130.8
 30
0.0
 11
176.425
 21
130.8
 31
0.0
  0
LINE
  8
0
  6
CONTINUOUS
 62
     2
 10
176.425
 20
130.8
 30
0.0
 11
176.425
 21
131.2
 31
0.0
  0
LINE
  8
0
  6
LTYPE1
 62
     2
 10
175.3
 20
131.0
 30
0.0
 11
179.3
 21
131.0
 31
0.0
  0
LINE
  8
0
  6
LTYPE1
 62
     2
 10
177.3
 20
133.0
 30
0.0
 11
177.3
 21
129.0
 31
0.0
  0
CIRCLE
  8
0
  6
CONTINUOUS
 62
     2
 10
183.3
 20
131.0
 30
0.0
 40
1.5
  0
LINE
  8
0
  6
CONTINUOUS
 62
     2
 10
182.425
 20
131.2
 30
0.0
 11
182.9
 21
131.2
 31
0.0
  0
ARC
  8
0
  6
CONTINUOUS
 62
     2
 10
182.9
 20
131.4
 30
0.0
 40
0.2
 50
270.0
 51
0.0
  0
LINE
  8
0
  6
CONTINUOUS
 62
     2
 10
183.1
 20
131.4
 30
0.0
 11
183.1
 21
131.875
 31
0.0
  0
LINE
  8
0
  6
CONTINUOUS
 62
     2
 10
183.1
 20
131.875
 30
0.0
 11
183.5
 21
131.875
 31
0.0
  0
LINE
  8
0
  6
CONTINUOUS
 62
     2
 10
183.5
 20
131.875
 30
0.0
 11
183.5
 21
131.4
 31
0.0
  0
ARC
  8
0
  6
CONTINUOUS
 62
     2
 10
183.7
 20
131.4
 30
0.0
 40
0.2
 50
180.0
 51
270.0
  0
LINE
  8
0
  6
CONTINUOUS
 62
     2
 10
183.7
 20
131.2
 30
0.0
 11
184.175
 21
131.2
 31
0.0
  0
LINE
  8
0
  6
CONTINUOUS
 62
     2
 10
184.175
 20
131.2
 30
0.0
 11
184.175
 21
130.8
 31
0.0
  0
LINE
  8
0
  6
CONTINUOUS
 62
     2
 10
184.175
 20
130.8
 30
0.0
 11
183.7
 21
130.8
 31
0.0
  0
ARC
  8
0
  6
CONTINUOUS
 62
     2
 10
183.7
 20
130.6
 30
0.0
 40
0.2
 50
90.0
 51
180.0
  0
LINE
  8
0
  6
CONTINUOUS
 62
     2
 10
183.5
 20
130.6
 30
0.0
 11
183.5
 21
130.125
 31
0.0
  0
LINE
  8
0
  6
CONTINUOUS
 62
     2
 10
183.5
 20
130.125
 30
0.0
 11
183.1
 21
130.125
 31
0.0
  0
LINE
  8
0
  6
CONTINUOUS
 62
     2
 10
183.1
 20
130.125
 30
0.0
 11
183.1
 21
130.6
 31
0.0
  0
ARC
  8
0
  6
CONTINUOUS
 62
     2
 10
182.9
 20
130.6
 30
0.0
 40
0.2
 50
0.0
 51
90.0
  0
LINE
  8
0
  6
CONTINUOUS
 62
     2
 10
182.9
 20
130.8
 30
0.0
 11
182.425
 21
130.8
 31
0.0
  0
LINE
  8
0
  6
CONTINUOUS
 62
     2
 10
182.425
 20
130.8
 30
0.0
 11
182.425
 21
131.2
 31
0.0
  0
LINE
  8
0
  6
LTYPE1
 62
     2
 10
181.3
 20
131.0
 30
0.0
 11
185.3
 21
131.0
 31
0.0
  0
LINE
  8
0
  6
LTYPE1
 62
     2
 10
183.3
 20
133.0
 30
0.0
 11
183.3
 21
129.0
 31
0.0
  0
CIRCLE
  8
0
  6
CONTINUOUS
 62
     2
 10
189.3
 20
131.0
 30
0.0
 40
1.5
  0
LINE
  8
0
  6
CONTINUOUS
 62
     2
 10
188.425
 20
131.2
 30
0.0
 11
188.9
 21
131.2
 31
0.0
  0
ARC
  8
0
  6
CONTINUOUS
 62
     2
 10
188.9
 20
131.4
 30
0.0
 40
0.2
 50
270.0
 51
0.0
  0
LINE
  8
0
  6
CONTINUOUS
 62
     2
 10
189.1
 20
131.4
 30
0.0
 11
189.1
 21
131.875
 31
0.0
  0
LINE
  8
0
  6
CONTINUOUS
 62
     2
 10
189.1
 20
131.875
 30
0.0
 11
189.5
 21
131.875
 31
0.0
  0
LINE
  8
0
  6
CONTINUOUS
 62
     2
 10
189.5
 20
131.875
 30
0.0
 11
189.5
 21
131.4
 31
0.0
  0
ARC
  8
0
  6
CONTINUOUS
 62
     2
 10
189.7
 20
131.4
 30
0.0
 40
0.2
 50
180.0
 51
270.0
  0
LINE
  8
0
  6
CONTINUOUS
 62
     2
 10
189.7
 20
131.2
 30
0.0
 11
190.175
 21
131.2
 31
0.0
  0
LINE
  8
0
  6
CONTINUOUS
 62
     2
 10
190.175
 20
131.2
 30
0.0
 11
190.175
 21
130.8
 31
0.0
  0
LINE
  8
0
  6
CONTINUOUS
 62
     2
 10
190.175
 20
130.8
 30
0.0
 11
189.7
 21
130.8
 31
0.0
  0
ARC
  8
0
  6
CONTINUOUS
 62
     2
 10
189.7
 20
130.6
 30
0.0
 40
0.2
 50
90.0
 51
180.0
  0
LINE
  8
0
  6
CONTINUOUS
 62
     2
 10
189.5
 20
130.6
 30
0.0
 11
189.5
 21
130.125
 31
0.0
  0
LINE
  8
0
  6
CONTINUOUS
 62
     2
 10
189.5
 20
130.125
 30
0.0
 11
189.1
 21
130.125
 31
0.0
  0
LINE
  8
0
  6
CONTINUOUS
 62
     2
 10
189.1
 20
130.125
 30
0.0
 11
189.1
 21
130.6
 31
0.0
  0
ARC
  8
0
  6
CONTINUOUS
 62
     2
 10
188.9
 20
130.6
 30
0.0
 40
0.2
 50
0.0
 51
90.0
  0
LINE
  8
0
  6
CONTINUOUS
 62
     2
 10
188.9
 20
130.8
 30
0.0
 11
188.425
 21
130.8
 31
0.0
  0
LINE
  8
0
  6
CONTINUOUS
 62
     2
 10
188.425
 20
130.8
 30
0.0
 11
188.425
 21
131.2
 31
0.0
  0
LINE
  8
0
  6
LTYPE1
 62
     2
 10
187.3
 20
131.0
 30
0.0
 11
191.3
 21
131.0
 31
0.0
  0
LINE
  8
0
  6
LTYPE1
 62
     2
 10
189.3
 20
133.0
 30
0.0
 11
189.3
 21
129.0
 31
0.0
  0
CIRCLE
  8
0
  6
CONTINUOUS
 62
     2
 10
183.3
 20
140.0
 30
0.0
 40
1.5
  0
LINE
  8
0
  6
CONTINUOUS
 62
     2
 10
182.425
 20
140.2
 30
0.0
 11
182.9
 21
140.2
 31
0.0
  0
ARC
  8
0
  6
CONTINUOUS
 62
     2
 10
182.9
 20
140.4
 30
0.0
 40
0.2
 50
270.0
 51
0.0
  0
LINE
  8
0
  6
CONTINUOUS
 62
     2
 10
183.1
 20
140.4
 30
0.0
 11
183.1
 21
140.875
 31
0.0
  0
LINE
  8
0
  6
CONTINUOUS
 62
     2
 10
183.1
 20
140.875
 30
0.0
 11
183.5
 21
140.875
 31
0.0
  0
LINE
  8
0
  6
CONTINUOUS
 62
     2
 10
183.5
 20
140.875
 30
0.0
 11
183.5
 21
140.4
 31
0.0
  0
ARC
  8
0
  6
CONTINUOUS
 62
     2
 10
183.7
 20
140.4
 30
0.0
 40
0.2
 50
180.0
 51
270.0
  0
LINE
  8
0
  6
CONTINUOUS
 62
     2
 10
183.7
 20
140.2
 30
0.0
 11
184.175
 21
140.2
 31
0.0
  0
LINE
  8
0
  6
CONTINUOUS
 62
     2
 10
184.175
 20
140.2
 30
0.0
 11
184.175
 21
139.8
 31
0.0
  0
LINE
  8
0
  6
CONTINUOUS
 62
     2
 10
184.175
 20
139.8
 30
0.0
 11
183.7
 21
139.8
 31
0.0
  0
ARC
  8
0
  6
CONTINUOUS
 62
     2
 10
183.7
 20
139.6
 30
0.0
 40
0.2
 50
90.0
 51
180.0
  0
LINE
  8
0
  6
CONTINUOUS
 62
     2
 10
183.5
 20
139.6
 30
0.0
 11
183.5
 21
139.125
 31
0.0
  0
LINE
  8
0
  6
CONTINUOUS
 62
     2
 10
183.5
 20
139.125
 30
0.0
 11
183.1
 21
139.125
 31
0.0
  0
LINE
  8
0
  6
CONTINUOUS
 62
     2
 10
183.1
 20
139.125
 30
0.0
 11
183.1
 21
139.6
 31
0.0
  0
ARC
  8
0
  6
CONTINUOUS
 62
     2
 10
182.9
 20
139.6
 30
0.0
 40
0.2
 50
0.0
 51
90.0
  0
LINE
  8
0
  6
CONTINUOUS
 62
     2
 10
182.9
 20
139.8
 30
0.0
 11
182.425
 21
139.8
 31
0.0
  0
LINE
  8
0
  6
CONTINUOUS
 62
     2
 10
182.425
 20
139.8
 30
0.0
 11
182.425
 21
140.2
 31
0.0
  0
LINE
  8
0
  6
LTYPE1
 62
     2
 10
181.3
 20
140.0
 30
0.0
 11
185.3
 21
140.0
 31
0.0
  0
LINE
  8
0
  6
LTYPE1
 62
     2
 10
183.3
 20
142.0
 30
0.0
 11
183.3
 21
138.0
 31
0.0
  0
CIRCLE
  8
0
  6
CONTINUOUS
 62
     2
 10
189.3
 20
140.0
 30
0.0
 40
1.5
  0
LINE
  8
0
  6
CONTINUOUS
 62
     2
 10
188.425
 20
140.2
 30
0.0
 11
188.9
 21
140.2
 31
0.0
  0
ARC
  8
0
  6
CONTINUOUS
 62
     2
 10
188.9
 20
140.4
 30
0.0
 40
0.2
 50
270.0
 51
0.0
  0
LINE
  8
0
  6
CONTINUOUS
 62
     2
 10
189.1
 20
140.4
 30
0.0
 11
189.1
 21
140.875
 31
0.0
  0
LINE
  8
0
  6
CONTINUOUS
 62
     2
 10
189.1
 20
140.875
 30
0.0
 11
189.5
 21
140.875
 31
0.0
  0
LINE
  8
0
  6
CONTINUOUS
 62
     2
 10
189.5
 20
140.875
 30
0.0
 11
189.5
 21
140.4
 31
0.0
  0
ARC
  8
0
  6
CONTINUOUS
 62
     2
 10
189.7
 20
140.4
 30
0.0
 40
0.2
 50
180.0
 51
270.0
  0
LINE
  8
0
  6
CONTINUOUS
 62
     2
 10
189.7
 20
140.2
 30
0.0
 11
190.175
 21
140.2
 31
0.0
  0
LINE
  8
0
  6
CONTINUOUS
 62
     2
 10
190.175
 20
140.2
 30
0.0
 11
190.175
 21
139.8
 31
0.0
  0
LINE
  8
0
  6
CONTINUOUS
 62
     2
 10
190.175
 20
139.8
 30
0.0
 11
189.7
 21
139.8
 31
0.0
  0
ARC
  8
0
  6
CONTINUOUS
 62
     2
 10
189.7
 20
139.6
 30
0.0
 40
0.2
 50
90.0
 51
180.0
  0
LINE
  8
0
  6
CONTINUOUS
 62
     2
 10
189.5
 20
139.6
 30
0.0
 11
189.5
 21
139.125
 31
0.0
  0
LINE
  8
0
  6
CONTINUOUS
 62
     2
 10
189.5
 20
139.125
 30
0.0
 11
189.1
 21
139.125
 31
0.0
  0
LINE
  8
0
  6
CONTINUOUS
 62
     2
 10
189.1
 20
139.125
 30
0.0
 11
189.1
 21
139.6
 31
0.0
  0
ARC
  8
0
  6
CONTINUOUS
 62
     2
 10
188.9
 20
139.6
 30
0.0
 40
0.2
 50
0.0
 51
90.0
  0
LINE
  8
0
  6
CONTINUOUS
 62
     2
 10
188.9
 20
139.8
 30
0.0
 11
188.425
 21
139.8
 31
0.0
  0
LINE
  8
0
  6
CONTINUOUS
 62
     2
 10
188.425
 20
139.8
 30
0.0
 11
188.425
 21
140.2
 31
0.0
  0
LINE
  8
0
  6
LTYPE1
 62
     2
 10
187.3
 20
140.0
 30
0.0
 11
191.3
 21
140.0
 31
0.0
  0
LINE
  8
0
  6
LTYPE1
 62
     2
 10
189.3
 20
142.0
 30
0.0
 11
189.3
 21
138.0
 31
0.0
  0
CIRCLE
  8
0
  6
CONTINUOUS
 62
     2
 10
195.3
 20
140.0
 30
0.0
 40
1.5
  0
LINE
  8
0
  6
CONTINUOUS
 62
     2
 10
194.425
 20
140.2
 30
0.0
 11
194.9
 21
140.2
 31
0.0
  0
ARC
  8
0
  6
CONTINUOUS
 62
     2
 10
194.9
 20
140.4
 30
0.0
 40
0.2
 50
270.0
 51
0.0
  0
LINE
  8
0
  6
CONTINUOUS
 62
     2
 10
195.1
 20
140.4
 30
0.0
 11
195.1
 21
140.875
 31
0.0
  0
LINE
  8
0
  6
CONTINUOUS
 62
     2
 10
195.1
 20
140.875
 30
0.0
 11
195.5
 21
140.875
 31
0.0
  0
LINE
  8
0
  6
CONTINUOUS
 62
     2
 10
195.5
 20
140.875
 30
0.0
 11
195.5
 21
140.4
 31
0.0
  0
ARC
  8
0
  6
CONTINUOUS
 62
     2
 10
195.7
 20
140.4
 30
0.0
 40
0.2
 50
180.0
 51
270.0
  0
LINE
  8
0
  6
CONTINUOUS
 62
     2
 10
195.7
 20
140.2
 30
0.0
 11
196.175
 21
140.2
 31
0.0
  0
LINE
  8
0
  6
CONTINUOUS
 62
     2
 10
196.175
 20
140.2
 30
0.0
 11
196.175
 21
139.8
 31
0.0
  0
LINE
  8
0
  6
CONTINUOUS
 62
     2
 10
196.175
 20
139.8
 30
0.0
 11
195.7
 21
139.8
 31
0.0
  0
ARC
  8
0
  6
CONTINUOUS
 62
     2
 10
195.7
 20
139.6
 30
0.0
 40
0.2
 50
90.0
 51
180.0
  0
LINE
  8
0
  6
CONTINUOUS
 62
     2
 10
195.5
 20
139.6
 30
0.0
 11
195.5
 21
139.125
 31
0.0
  0
LINE
  8
0
  6
CONTINUOUS
 62
     2
 10
195.5
 20
139.125
 30
0.0
 11
195.1
 21
139.125
 31
0.0
  0
LINE
  8
0
  6
CONTINUOUS
 62
     2
 10
195.1
 20
139.125
 30
0.0
 11
195.1
 21
139.6
 31
0.0
  0
ARC
  8
0
  6
CONTINUOUS
 62
     2
 10
194.9
 20
139.6
 30
0.0
 40
0.2
 50
0.0
 51
90.0
  0
LINE
  8
0
  6
CONTINUOUS
 62
     2
 10
194.9
 20
139.8
 30
0.0
 11
194.425
 21
139.8
 31
0.0
  0
LINE
  8
0
  6
CONTINUOUS
 62
     2
 10
194.425
 20
139.8
 30
0.0
 11
194.425
 21
140.2
 31
0.0
  0
LINE
  8
0
  6
LTYPE1
 62
     2
 10
193.3
 20
140.0
 30
0.0
 11
197.3
 21
140.0
 31
0.0
  0
LINE
  8
0
  6
LTYPE1
 62
     2
 10
195.3
 20
142.0
 30
0.0
 11
195.3
 21
138.0
 31
0.0
  0
CIRCLE
  8
0
  6
CONTINUOUS
 62
     2
 10
201.3
 20
140.0
 30
0.0
 40
1.5
  0
LINE
  8
0
  6
CONTINUOUS
 62
     2
 10
200.425
 20
140.2
 30
0.0
 11
200.9
 21
140.2
 31
0.0
  0
ARC
  8
0
  6
CONTINUOUS
 62
     2
 10
200.9
 20
140.4
 30
0.0
 40
0.2
 50
270.0
 51
0.0
  0
LINE
  8
0
  6
CONTINUOUS
 62
     2
 10
201.1
 20
140.4
 30
0.0
 11
201.1
 21
140.875
 31
0.0
  0
LINE
  8
0
  6
CONTINUOUS
 62
     2
 10
201.1
 20
140.875
 30
0.0
 11
201.5
 21
140.875
 31
0.0
  0
LINE
  8
0
  6
CONTINUOUS
 62
     2
 10
201.5
 20
140.875
 30
0.0
 11
201.5
 21
140.4
 31
0.0
  0
ARC
  8
0
  6
CONTINUOUS
 62
     2
 10
201.7
 20
140.4
 30
0.0
 40
0.2
 50
180.0
 51
270.0
  0
LINE
  8
0
  6
CONTINUOUS
 62
     2
 10
201.7
 20
140.2
 30
0.0
 11
202.175
 21
140.2
 31
0.0
  0
LINE
  8
0
  6
CONTINUOUS
 62
     2
 10
202.175
 20
140.2
 30
0.0
 11
202.175
 21
139.8
 31
0.0
  0
LINE
  8
0
  6
CONTINUOUS
 62
     2
 10
202.175
 20
139.8
 30
0.0
 11
201.7
 21
139.8
 31
0.0
  0
ARC
  8
0
  6
CONTINUOUS
 62
     2
 10
201.7
 20
139.6
 30
0.0
 40
0.2
 50
90.0
 51
180.0
  0
LINE
  8
0
  6
CONTINUOUS
 62
     2
 10
201.5
 20
139.6
 30
0.0
 11
201.5
 21
139.125
 31
0.0
  0
LINE
  8
0
  6
CONTINUOUS
 62
     2
 10
201.5
 20
139.125
 30
0.0
 11
201.1
 21
139.125
 31
0.0
  0
LINE
  8
0
  6
CONTINUOUS
 62
     2
 10
201.1
 20
139.125
 30
0.0
 11
201.1
 21
139.6
 31
0.0
  0
ARC
  8
0
  6
CONTINUOUS
 62
     2
 10
200.9
 20
139.6
 30
0.0
 40
0.2
 50
0.0
 51
90.0
  0
LINE
  8
0
  6
CONTINUOUS
 62
     2
 10
200.9
 20
139.8
 30
0.0
 11
200.425
 21
139.8
 31
0.0
  0
LINE
  8
0
  6
CONTINUOUS
 62
     2
 10
200.425
 20
139.8
 30
0.0
 11
200.425
 21
140.2
 31
0.0
  0
LINE
  8
0
  6
LTYPE1
 62
     2
 10
199.3
 20
140.0
 30
0.0
 11
203.3
 21
140.0
 31
0.0
  0
LINE
  8
0
  6
LTYPE1
 62
     2
 10
201.3
 20
142.0
 30
0.0
 11
201.3
 21
138.0
 31
0.0
  0
CIRCLE
  8
0
  6
CONTINUOUS
 62
     2
 10
207.3
 20
140.0
 30
0.0
 40
1.5
  0
LINE
  8
0
  6
CONTINUOUS
 62
     2
 10
206.425
 20
140.2
 30
0.0
 11
206.9
 21
140.2
 31
0.0
  0
ARC
  8
0
  6
CONTINUOUS
 62
     2
 10
206.9
 20
140.4
 30
0.0
 40
0.2
 50
270.0
 51
0.0
  0
LINE
  8
0
  6
CONTINUOUS
 62
     2
 10
207.1
 20
140.4
 30
0.0
 11
207.1
 21
140.875
 31
0.0
  0
LINE
  8
0
  6
CONTINUOUS
 62
     2
 10
207.1
 20
140.875
 30
0.0
 11
207.5
 21
140.875
 31
0.0
  0
LINE
  8
0
  6
CONTINUOUS
 62
     2
 10
207.5
 20
140.875
 30
0.0
 11
207.5
 21
140.4
 31
0.0
  0
ARC
  8
0
  6
CONTINUOUS
 62
     2
 10
207.7
 20
140.4
 30
0.0
 40
0.2
 50
180.0
 51
270.0
  0
LINE
  8
0
  6
CONTINUOUS
 62
     2
 10
207.7
 20
140.2
 30
0.0
 11
208.175
 21
140.2
 31
0.0
  0
LINE
  8
0
  6
CONTINUOUS
 62
     2
 10
208.175
 20
140.2
 30
0.0
 11
208.175
 21
139.8
 31
0.0
  0
LINE
  8
0
  6
CONTINUOUS
 62
     2
 10
208.175
 20
139.8
 30
0.0
 11
207.7
 21
139.8
 31
0.0
  0
ARC
  8
0
  6
CONTINUOUS
 62
     2
 10
207.7
 20
139.6
 30
0.0
 40
0.2
 50
90.0
 51
180.0
  0
LINE
  8
0
  6
CONTINUOUS
 62
     2
 10
207.5
 20
139.6
 30
0.0
 11
207.5
 21
139.125
 31
0.0
  0
LINE
  8
0
  6
CONTINUOUS
 62
     2
 10
207.5
 20
139.125
 30
0.0
 11
207.1
 21
139.125
 31
0.0
  0
LINE
  8
0
  6
CONTINUOUS
 62
     2
 10
207.1
 20
139.125
 30
0.0
 11
207.1
 21
139.6
 31
0.0
  0
ARC
  8
0
  6
CONTINUOUS
 62
     2
 10
206.9
 20
139.6
 30
0.0
 40
0.2
 50
0.0
 51
90.0
  0
LINE
  8
0
  6
CONTINUOUS
 62
     2
 10
206.9
 20
139.8
 30
0.0
 11
206.425
 21
139.8
 31
0.0
  0
LINE
  8
0
  6
CONTINUOUS
 62
     2
 10
206.425
 20
139.8
 30
0.0
 11
206.425
 21
140.2
 31
0.0
  0
LINE
  8
0
  6
LTYPE1
 62
     2
 10
205.3
 20
140.0
 30
0.0
 11
209.3
 21
140.0
 31
0.0
  0
LINE
  8
0
  6
LTYPE1
 62
     2
 10
207.3
 20
142.0
 30
0.0
 11
207.3
 21
138.0
 31
0.0
  0
CIRCLE
  8
0
  6
CONTINUOUS
 62
     2
 10
207.3
 20
131.0
 30
0.0
 40
1.5
  0
LINE
  8
0
  6
CONTINUOUS
 62
     2
 10
206.425
 20
131.2
 30
0.0
 11
206.9
 21
131.2
 31
0.0
  0
ARC
  8
0
  6
CONTINUOUS
 62
     2
 10
206.9
 20
131.4
 30
0.0
 40
0.2
 50
270.0
 51
0.0
  0
LINE
  8
0
  6
CONTINUOUS
 62
     2
 10
207.1
 20
131.4
 30
0.0
 11
207.1
 21
131.875
 31
0.0
  0
LINE
  8
0
  6
CONTINUOUS
 62
     2
 10
207.1
 20
131.875
 30
0.0
 11
207.5
 21
131.875
 31
0.0
  0
LINE
  8
0
  6
CONTINUOUS
 62
     2
 10
207.5
 20
131.875
 30
0.0
 11
207.5
 21
131.4
 31
0.0
  0
ARC
  8
0
  6
CONTINUOUS
 62
     2
 10
207.7
 20
131.4
 30
0.0
 40
0.2
 50
180.0
 51
270.0
  0
LINE
  8
0
  6
CONTINUOUS
 62
     2
 10
207.7
 20
131.2
 30
0.0
 11
208.175
 21
131.2
 31
0.0
  0
LINE
  8
0
  6
CONTINUOUS
 62
     2
 10
208.175
 20
131.2
 30
0.0
 11
208.175
 21
130.8
 31
0.0
  0
LINE
  8
0
  6
CONTINUOUS
 62
     2
 10
208.175
 20
130.8
 30
0.0
 11
207.7
 21
130.8
 31
0.0
  0
ARC
  8
0
  6
CONTINUOUS
 62
     2
 10
207.7
 20
130.6
 30
0.0
 40
0.2
 50
90.0
 51
180.0
  0
LINE
  8
0
  6
CONTINUOUS
 62
     2
 10
207.5
 20
130.6
 30
0.0
 11
207.5
 21
130.125
 31
0.0
  0
LINE
  8
0
  6
CONTINUOUS
 62
     2
 10
207.5
 20
130.125
 30
0.0
 11
207.1
 21
130.125
 31
0.0
  0
LINE
  8
0
  6
CONTINUOUS
 62
     2
 10
207.1
 20
130.125
 30
0.0
 11
207.1
 21
130.6
 31
0.0
  0
ARC
  8
0
  6
CONTINUOUS
 62
     2
 10
206.9
 20
130.6
 30
0.0
 40
0.2
 50
0.0
 51
90.0
  0
LINE
  8
0
  6
CONTINUOUS
 62
     2
 10
206.9
 20
130.8
 30
0.0
 11
206.425
 21
130.8
 31
0.0
  0
LINE
  8
0
  6
CONTINUOUS
 62
     2
 10
206.425
 20
130.8
 30
0.0
 11
206.425
 21
131.2
 31
0.0
  0
LINE
  8
0
  6
LTYPE1
 62
     2
 10
205.3
 20
131.0
 30
0.0
 11
209.3
 21
131.0
 31
0.0
  0
LINE
  8
0
  6
LTYPE1
 62
     2
 10
207.3
 20
133.0
 30
0.0
 11
207.3
 21
129.0
 31
0.0
  0
CIRCLE
  8
0
  6
CONTINUOUS
 62
     2
 10
201.3
 20
131.0
 30
0.0
 40
1.5
  0
LINE
  8
0
  6
CONTINUOUS
 62
     2
 10
200.425
 20
131.2
 30
0.0
 11
200.9
 21
131.2
 31
0.0
  0
ARC
  8
0
  6
CONTINUOUS
 62
     2
 10
200.9
 20
131.4
 30
0.0
 40
0.2
 50
270.0
 51
0.0
  0
LINE
  8
0
  6
CONTINUOUS
 62
     2
 10
201.1
 20
131.4
 30
0.0
 11
201.1
 21
131.875
 31
0.0
  0
LINE
  8
0
  6
CONTINUOUS
 62
     2
 10
201.1
 20
131.875
 30
0.0
 11
201.5
 21
131.875
 31
0.0
  0
LINE
  8
0
  6
CONTINUOUS
 62
     2
 10
201.5
 20
131.875
 30
0.0
 11
201.5
 21
131.4
 31
0.0
  0
ARC
  8
0
  6
CONTINUOUS
 62
     2
 10
201.7
 20
131.4
 30
0.0
 40
0.2
 50
180.0
 51
270.0
  0
LINE
  8
0
  6
CONTINUOUS
 62
     2
 10
201.7
 20
131.2
 30
0.0
 11
202.175
 21
131.2
 31
0.0
  0
LINE
  8
0
  6
CONTINUOUS
 62
     2
 10
202.175
 20
131.2
 30
0.0
 11
202.175
 21
130.8
 31
0.0
  0
LINE
  8
0
  6
CONTINUOUS
 62
     2
 10
202.175
 20
130.8
 30
0.0
 11
201.7
 21
130.8
 31
0.0
  0
ARC
  8
0
  6
CONTINUOUS
 62
     2
 10
201.7
 20
130.6
 30
0.0
 40
0.2
 50
90.0
 51
180.0
  0
LINE
  8
0
  6
CONTINUOUS
 62
     2
 10
201.5
 20
130.6
 30
0.0
 11
201.5
 21
130.125
 31
0.0
  0
LINE
  8
0
  6
CONTINUOUS
 62
     2
 10
201.5
 20
130.125
 30
0.0
 11
201.1
 21
130.125
 31
0.0
  0
LINE
  8
0
  6
CONTINUOUS
 62
     2
 10
201.1
 20
130.125
 30
0.0
 11
201.1
 21
130.6
 31
0.0
  0
ARC
  8
0
  6
CONTINUOUS
 62
     2
 10
200.9
 20
130.6
 30
0.0
 40
0.2
 50
0.0
 51
90.0
  0
LINE
  8
0
  6
CONTINUOUS
 62
     2
 10
200.9
 20
130.8
 30
0.0
 11
200.425
 21
130.8
 31
0.0
  0
LINE
  8
0
  6
CONTINUOUS
 62
     2
 10
200.425
 20
130.8
 30
0.0
 11
200.425
 21
131.2
 31
0.0
  0
LINE
  8
0
  6
LTYPE1
 62
     2
 10
199.3
 20
131.0
 30
0.0
 11
203.3
 21
131.0
 31
0.0
  0
LINE
  8
0
  6
LTYPE1
 62
     2
 10
201.3
 20
133.0
 30
0.0
 11
201.3
 21
129.0
 31
0.0
  0
CIRCLE
  8
0
  6
CONTINUOUS
 62
     2
 10
195.3
 20
131.0
 30
0.0
 40
1.5
  0
LINE
  8
0
  6
CONTINUOUS
 62
     2
 10
194.425
 20
131.2
 30
0.0
 11
194.9
 21
131.2
 31
0.0
  0
ARC
  8
0
  6
CONTINUOUS
 62
     2
 10
194.9
 20
131.4
 30
0.0
 40
0.2
 50
270.0
 51
0.0
  0
LINE
  8
0
  6
CONTINUOUS
 62
     2
 10
195.1
 20
131.4
 30
0.0
 11
195.1
 21
131.875
 31
0.0
  0
LINE
  8
0
  6
CONTINUOUS
 62
     2
 10
195.1
 20
131.875
 30
0.0
 11
195.5
 21
131.875
 31
0.0
  0
LINE
  8
0
  6
CONTINUOUS
 62
     2
 10
195.5
 20
131.875
 30
0.0
 11
195.5
 21
131.4
 31
0.0
  0
ARC
  8
0
  6
CONTINUOUS
 62
     2
 10
195.7
 20
131.4
 30
0.0
 40
0.2
 50
180.0
 51
270.0
  0
LINE
  8
0
  6
CONTINUOUS
 62
     2
 10
195.7
 20
131.2
 30
0.0
 11
196.175
 21
131.2
 31
0.0
  0
LINE
  8
0
  6
CONTINUOUS
 62
     2
 10
196.175
 20
131.2
 30
0.0
 11
196.175
 21
130.8
 31
0.0
  0
LINE
  8
0
  6
CONTINUOUS
 62
     2
 10
196.175
 20
130.8
 30
0.0
 11
195.7
 21
130.8
 31
0.0
  0
ARC
  8
0
  6
CONTINUOUS
 62
     2
 10
195.7
 20
130.6
 30
0.0
 40
0.2
 50
90.0
 51
180.0
  0
LINE
  8
0
  6
CONTINUOUS
 62
     2
 10
195.5
 20
130.6
 30
0.0
 11
195.5
 21
130.125
 31
0.0
  0
LINE
  8
0
  6
CONTINUOUS
 62
     2
 10
195.5
 20
130.125
 30
0.0
 11
195.1
 21
130.125
 31
0.0
  0
LINE
  8
0
  6
CONTINUOUS
 62
     2
 10
195.1
 20
130.125
 30
0.0
 11
195.1
 21
130.6
 31
0.0
  0
ARC
  8
0
  6
CONTINUOUS
 62
     2
 10
194.9
 20
130.6
 30
0.0
 40
0.2
 50
0.0
 51
90.0
  0
LINE
  8
0
  6
CONTINUOUS
 62
     2
 10
194.9
 20
130.8
 30
0.0
 11
194.425
 21
130.8
 31
0.0
  0
LINE
  8
0
  6
CONTINUOUS
 62
     2
 10
194.425
 20
130.8
 30
0.0
 11
194.425
 21
131.2
 31
0.0
  0
LINE
  8
0
  6
LTYPE1
 62
     2
 10
193.3
 20
131.0
 30
0.0
 11
197.3
 21
131.0
 31
0.0
  0
LINE
  8
0
  6
LTYPE1
 62
     2
 10
195.3
 20
133.0
 30
0.0
 11
195.3
 21
129.0
 31
0.0
  0
TEXT
  8
0
  6
CONTINUOUS
 62
     2
 10
188.9
 20
136.0
 30
0.1
 40
1.5
  1
２
 50
0.0
 41
0.666666667
 51
0.0
  7
KANJI19
  0
TEXT
  8
0
  6
CONTINUOUS
 62
     2
 10
194.9
 20
136.0
 30
0.1
 40
1.5
  1
３
 50
0.0
 41
0.666666667
 51
0.0
  7
KANJI19
  0
TEXT
  8
0
  6
CONTINUOUS
 62
     2
 10
200.9
 20
136.0
 30
0.1
 40
1.5
  1
４
 50
0.0
 41
0.666666667
 51
0.0
  7
KANJI19
  0
TEXT
  8
0
  6
CONTINUOUS
 62
     2
 10
206.9
 20
136.0
 30
0.1
 40
1.5
  1
５
 50
0.0
 41
0.666666667
 51
0.0
  7
KANJI19
  0
TEXT
  8
0
  6
CONTINUOUS
 62
     2
 10
182.9
 20
136.0
 30
0.1
 40
1.5
  1
１
 50
0.0
 41
0.666666667
 51
0.0
  7
KANJI19
  0
TEXT
  8
0
  6
CONTINUOUS
 62
     2
 10
176.8
 20
133.65
 30
0.1
 40
1.5
  1
９
 50
0.0
 41
0.666666667
 51
0.0
  7
KANJI19
  0
TEXT
  8
0
  6
CONTINUOUS
 62
     2
 10
188.3
 20
133.65
 30
0.1
 40
1.5
  1
１１
 50
0.0
 41
0.666666667
 51
0.0
  7
KANJI19
  0
TEXT
  8
0
  6
CONTINUOUS
 62
     2
 10
182.3
 20
133.65
 30
0.1
 40
1.5
  1
１０
 50
0.0
 41
0.666666667
 51
0.0
  7
KANJI19
  0
TEXT
  8
0
  6
CONTINUOUS
 62
     2
 10
194.9
 20
133.65
 30
0.1
 40
1.5
  1
６
 50
0.0
 41
0.666666667
 51
0.0
  7
KANJI19
  0
TEXT
  8
0
  6
CONTINUOUS
 62
     2
 10
200.9
 20
133.65
 30
0.1
 40
1.5
  1
７
 50
0.0
 41
0.666666667
 51
0.0
  7
KANJI19
  0
TEXT
  8
0
  6
CONTINUOUS
 62
     2
 10
206.9
 20
133.65
 30
0.1
 40
1.5
  1
８
 50
0.0
 41
0.666666667
 51
0.0
  7
KANJI19
  0
TEXT
  8
0
  6
CONTINUOUS
 62
     2
 10
139.0
 20
140.425
 30
0.3
 40
3.0
  1
φ１００
 50
90.0
 41
0.6
 51
0.0
  7
KANJI2
  0
CIRCLE
  8
0
  6
CONTINUOUS
 62
     2
 10
177.3
 20
131.0
 30
0.0
 40
1.5
  0
LINE
  8
0
  6
CONTINUOUS
 62
     2
 10
176.425
 20
131.2
 30
0.0
 11
176.9
 21
131.2
 31
0.0
  0
ARC
  8
0
  6
CONTINUOUS
 62
     2
 10
176.9
 20
131.4
 30
0.0
 40
0.2
 50
270.0
 51
0.0
  0
LINE
  8
0
  6
CONTINUOUS
 62
     2
 10
177.1
 20
131.4
 30
0.0
 11
177.1
 21
131.875
 31
0.0
  0
LINE
  8
0
  6
CONTINUOUS
 62
     2
 10
177.1
 20
131.875
 30
0.0
 11
177.5
 21
131.875
 31
0.0
  0
LINE
  8
0
  6
CONTINUOUS
 62
     2
 10
177.5
 20
131.875
 30
0.0
 11
177.5
 21
131.4
 31
0.0
  0
ARC
  8
0
  6
CONTINUOUS
 62
     2
 10
177.7
 20
131.4
 30
0.0
 40
0.2
 50
180.0
 51
270.0
  0
LINE
  8
0
  6
CONTINUOUS
 62
     2
 10
177.7
 20
131.2
 30
0.0
 11
178.175
 21
131.2
 31
0.0
  0
LINE
  8
0
  6
CONTINUOUS
 62
     2
 10
178.175
 20
131.2
 30
0.0
 11
178.175
 21
130.8
 31
0.0
  0
LINE
  8
0
  6
CONTINUOUS
 62
     2
 10
178.175
 20
130.8
 30
0.0
 11
177.7
 21
130.8
 31
0.0
  0
ARC
  8
0
  6
CONTINUOUS
 62
     2
 10
177.7
 20
130.6
 30
0.0
 40
0.2
 50
90.0
 51
180.0
  0
LINE
  8
0
  6
CONTINUOUS
 62
     2
 10
177.5
 20
130.6
 30
0.0
 11
177.5
 21
130.125
 31
0.0
  0
LINE
  8
0
  6
CONTINUOUS
 62
     2
 10
177.5
 20
130.125
 30
0.0
 11
177.1
 21
130.125
 31
0.0
  0
LINE
  8
0
  6
CONTINUOUS
 62
     2
 10
177.1
 20
130.125
 30
0.0
 11
177.1
 21
130.6
 31
0.0
  0
ARC
  8
0
  6
CONTINUOUS
 62
     2
 10
176.9
 20
130.6
 30
0.0
 40
0.2
 50
0.0
 51
90.0
  0
LINE
  8
0
  6
CONTINUOUS
 62
     2
 10
176.9
 20
130.8
 30
0.0
 11
176.425
 21
130.8
 31
0.0
  0
LINE
  8
0
  6
CONTINUOUS
 62
     2
 10
176.425
 20
130.8
 30
0.0
 11
176.425
 21
131.2
 31
0.0
  0
LINE
  8
0
  6
LTYPE1
 62
     2
 10
175.3
 20
131.0
 30
0.0
 11
179.3
 21
131.0
 31
0.0
  0
LINE
  8
0
  6
LTYPE1
 62
     2
 10
177.3
 20
133.0
 30
0.0
 11
177.3
 21
129.0
 31
0.0
  0
CIRCLE
  8
0
  6
CONTINUOUS
 62
     2
 10
183.3
 20
131.0
 30
0.0
 40
1.5
  0
LINE
  8
0
  6
CONTINUOUS
 62
     2
 10
182.425
 20
131.2
 30
0.0
 11
182.9
 21
131.2
 31
0.0
  0
ARC
  8
0
  6
CONTINUOUS
 62
     2
 10
182.9
 20
131.4
 30
0.0
 40
0.2
 50
270.0
 51
0.0
  0
LINE
  8
0
  6
CONTINUOUS
 62
     2
 10
183.1
 20
131.4
 30
0.0
 11
183.1
 21
131.875
 31
0.0
  0
LINE
  8
0
  6
CONTINUOUS
 62
     2
 10
183.1
 20
131.875
 30
0.0
 11
183.5
 21
131.875
 31
0.0
  0
LINE
  8
0
  6
CONTINUOUS
 62
     2
 10
183.5
 20
131.875
 30
0.0
 11
183.5
 21
131.4
 31
0.0
  0
ARC
  8
0
  6
CONTINUOUS
 62
     2
 10
183.7
 20
131.4
 30
0.0
 40
0.2
 50
180.0
 51
270.0
  0
LINE
  8
0
  6
CONTINUOUS
 62
     2
 10
183.7
 20
131.2
 30
0.0
 11
184.175
 21
131.2
 31
0.0
  0
LINE
  8
0
  6
CONTINUOUS
 62
     2
 10
184.175
 20
131.2
 30
0.0
 11
184.175
 21
130.8
 31
0.0
  0
LINE
  8
0
  6
CONTINUOUS
 62
     2
 10
184.175
 20
130.8
 30
0.0
 11
183.7
 21
130.8
 31
0.0
  0
ARC
  8
0
  6
CONTINUOUS
 62
     2
 10
183.7
 20
130.6
 30
0.0
 40
0.2
 50
90.0
 51
180.0
  0
LINE
  8
0
  6
CONTINUOUS
 62
     2
 10
183.5
 20
130.6
 30
0.0
 11
183.5
 21
130.125
 31
0.0
  0
LINE
  8
0
  6
CONTINUOUS
 62
     2
 10
183.5
 20
130.125
 30
0.0
 11
183.1
 21
130.125
 31
0.0
  0
LINE
  8
0
  6
CONTINUOUS
 62
     2
 10
183.1
 20
130.125
 30
0.0
 11
183.1
 21
130.6
 31
0.0
  0
ARC
  8
0
  6
CONTINUOUS
 62
     2
 10
182.9
 20
130.6
 30
0.0
 40
0.2
 50
0.0
 51
90.0
  0
LINE
  8
0
  6
CONTINUOUS
 62
     2
 10
182.9
 20
130.8
 30
0.0
 11
182.425
 21
130.8
 31
0.0
  0
LINE
  8
0
  6
CONTINUOUS
 62
     2
 10
182.425
 20
130.8
 30
0.0
 11
182.425
 21
131.2
 31
0.0
  0
LINE
  8
0
  6
LTYPE1
 62
     2
 10
181.3
 20
131.0
 30
0.0
 11
185.3
 21
131.0
 31
0.0
  0
LINE
  8
0
  6
LTYPE1
 62
     2
 10
183.3
 20
133.0
 30
0.0
 11
183.3
 21
129.0
 31
0.0
  0
CIRCLE
  8
0
  6
CONTINUOUS
 62
     2
 10
189.3
 20
131.0
 30
0.0
 40
1.5
  0
LINE
  8
0
  6
CONTINUOUS
 62
     2
 10
188.425
 20
131.2
 30
0.0
 11
188.9
 21
131.2
 31
0.0
  0
ARC
  8
0
  6
CONTINUOUS
 62
     2
 10
188.9
 20
131.4
 30
0.0
 40
0.2
 50
270.0
 51
0.0
  0
LINE
  8
0
  6
CONTINUOUS
 62
     2
 10
189.1
 20
131.4
 30
0.0
 11
189.1
 21
131.875
 31
0.0
  0
LINE
  8
0
  6
CONTINUOUS
 62
     2
 10
189.1
 20
131.875
 30
0.0
 11
189.5
 21
131.875
 31
0.0
  0
LINE
  8
0
  6
CONTINUOUS
 62
     2
 10
189.5
 20
131.875
 30
0.0
 11
189.5
 21
131.4
 31
0.0
  0
ARC
  8
0
  6
CONTINUOUS
 62
     2
 10
189.7
 20
131.4
 30
0.0
 40
0.2
 50
180.0
 51
270.0
  0
LINE
  8
0
  6
CONTINUOUS
 62
     2
 10
189.7
 20
131.2
 30
0.0
 11
190.175
 21
131.2
 31
0.0
  0
LINE
  8
0
  6
CONTINUOUS
 62
     2
 10
190.175
 20
131.2
 30
0.0
 11
190.175
 21
130.8
 31
0.0
  0
LINE
  8
0
  6
CONTINUOUS
 62
     2
 10
190.175
 20
130.8
 30
0.0
 11
189.7
 21
130.8
 31
0.0
  0
ARC
  8
0
  6
CONTINUOUS
 62
     2
 10
189.7
 20
130.6
 30
0.0
 40
0.2
 50
90.0
 51
180.0
  0
LINE
  8
0
  6
CONTINUOUS
 62
     2
 10
189.5
 20
130.6
 30
0.0
 11
189.5
 21
130.125
 31
0.0
  0
LINE
  8
0
  6
CONTINUOUS
 62
     2
 10
189.5
 20
130.125
 30
0.0
 11
189.1
 21
130.125
 31
0.0
  0
LINE
  8
0
  6
CONTINUOUS
 62
     2
 10
189.1
 20
130.125
 30
0.0
 11
189.1
 21
130.6
 31
0.0
  0
ARC
  8
0
  6
CONTINUOUS
 62
     2
 10
188.9
 20
130.6
 30
0.0
 40
0.2
 50
0.0
 51
90.0
  0
LINE
  8
0
  6
CONTINUOUS
 62
     2
 10
188.9
 20
130.8
 30
0.0
 11
188.425
 21
130.8
 31
0.0
  0
LINE
  8
0
  6
CONTINUOUS
 62
     2
 10
188.425
 20
130.8
 30
0.0
 11
188.425
 21
131.2
 31
0.0
  0
LINE
  8
0
  6
LTYPE1
 62
     2
 10
187.3
 20
131.0
 30
0.0
 11
191.3
 21
131.0
 31
0.0
  0
LINE
  8
0
  6
LTYPE1
 62
     2
 10
189.3
 20
133.0
 30
0.0
 11
189.3
 21
129.0
 31
0.0
  0
CIRCLE
  8
0
  6
CONTINUOUS
 62
     2
 10
183.3
 20
140.0
 30
0.0
 40
1.5
  0
LINE
  8
0
  6
CONTINUOUS
 62
     2
 10
182.425
 20
140.2
 30
0.0
 11
182.9
 21
140.2
 31
0.0
  0
ARC
  8
0
  6
CONTINUOUS
 62
     2
 10
182.9
 20
140.4
 30
0.0
 40
0.2
 50
270.0
 51
0.0
  0
LINE
  8
0
  6
CONTINUOUS
 62
     2
 10
183.1
 20
140.4
 30
0.0
 11
183.1
 21
140.875
 31
0.0
  0
LINE
  8
0
  6
CONTINUOUS
 62
     2
 10
183.1
 20
140.875
 30
0.0
 11
183.5
 21
140.875
 31
0.0
  0
LINE
  8
0
  6
CONTINUOUS
 62
     2
 10
183.5
 20
140.875
 30
0.0
 11
183.5
 21
140.4
 31
0.0
  0
ARC
  8
0
  6
CONTINUOUS
 62
     2
 10
183.7
 20
140.4
 30
0.0
 40
0.2
 50
180.0
 51
270.0
  0
LINE
  8
0
  6
CONTINUOUS
 62
     2
 10
183.7
 20
140.2
 30
0.0
 11
184.175
 21
140.2
 31
0.0
  0
LINE
  8
0
  6
CONTINUOUS
 62
     2
 10
184.175
 20
140.2
 30
0.0
 11
184.175
 21
139.8
 31
0.0
  0
LINE
  8
0
  6
CONTINUOUS
 62
     2
 10
184.175
 20
139.8
 30
0.0
 11
183.7
 21
139.8
 31
0.0
  0
ARC
  8
0
  6
CONTINUOUS
 62
     2
 10
183.7
 20
139.6
 30
0.0
 40
0.2
 50
90.0
 51
180.0
  0
LINE
  8
0
  6
CONTINUOUS
 62
     2
 10
183.5
 20
139.6
 30
0.0
 11
183.5
 21
139.125
 31
0.0
  0
LINE
  8
0
  6
CONTINUOUS
 62
     2
 10
183.5
 20
139.125
 30
0.0
 11
183.1
 21
139.125
 31
0.0
  0
LINE
  8
0
  6
CONTINUOUS
 62
     2
 10
183.1
 20
139.125
 30
0.0
 11
183.1
 21
139.6
 31
0.0
  0
ARC
  8
0
  6
CONTINUOUS
 62
     2
 10
182.9
 20
139.6
 30
0.0
 40
0.2
 50
0.0
 51
90.0
  0
LINE
  8
0
  6
CONTINUOUS
 62
     2
 10
182.9
 20
139.8
 30
0.0
 11
182.425
 21
139.8
 31
0.0
  0
LINE
  8
0
  6
CONTINUOUS
 62
     2
 10
182.425
 20
139.8
 30
0.0
 11
182.425
 21
140.2
 31
0.0
  0
LINE
  8
0
  6
LTYPE1
 62
     2
 10
181.3
 20
140.0
 30
0.0
 11
185.3
 21
140.0
 31
0.0
  0
LINE
  8
0
  6
LTYPE1
 62
     2
 10
183.3
 20
142.0
 30
0.0
 11
183.3
 21
138.0
 31
0.0
  0
CIRCLE
  8
0
  6
CONTINUOUS
 62
     2
 10
189.3
 20
140.0
 30
0.0
 40
1.5
  0
LINE
  8
0
  6
CONTINUOUS
 62
     2
 10
188.425
 20
140.2
 30
0.0
 11
188.9
 21
140.2
 31
0.0
  0
ARC
  8
0
  6
CONTINUOUS
 62
     2
 10
188.9
 20
140.4
 30
0.0
 40
0.2
 50
270.0
 51
0.0
  0
LINE
  8
0
  6
CONTINUOUS
 62
     2
 10
189.1
 20
140.4
 30
0.0
 11
189.1
 21
140.875
 31
0.0
  0
LINE
  8
0
  6
CONTINUOUS
 62
     2
 10
189.1
 20
140.875
 30
0.0
 11
189.5
 21
140.875
 31
0.0
  0
LINE
  8
0
  6
CONTINUOUS
 62
     2
 10
189.5
 20
140.875
 30
0.0
 11
189.5
 21
140.4
 31
0.0
  0
ARC
  8
0
  6
CONTINUOUS
 62
     2
 10
189.7
 20
140.4
 30
0.0
 40
0.2
 50
180.0
 51
270.0
  0
LINE
  8
0
  6
CONTINUOUS
 62
     2
 10
189.7
 20
140.2
 30
0.0
 11
190.175
 21
140.2
 31
0.0
  0
LINE
  8
0
  6
CONTINUOUS
 62
     2
 10
190.175
 20
140.2
 30
0.0
 11
190.175
 21
139.8
 31
0.0
  0
LINE
  8
0
  6
CONTINUOUS
 62
     2
 10
190.175
 20
139.8
 30
0.0
 11
189.7
 21
139.8
 31
0.0
  0
ARC
  8
0
  6
CONTINUOUS
 62
     2
 10
189.7
 20
139.6
 30
0.0
 40
0.2
 50
90.0
 51
180.0
  0
LINE
  8
0
  6
CONTINUOUS
 62
     2
 10
189.5
 20
139.6
 30
0.0
 11
189.5
 21
139.125
 31
0.0
  0
LINE
  8
0
  6
CONTINUOUS
 62
     2
 10
189.5
 20
139.125
 30
0.0
 11
189.1
 21
139.125
 31
0.0
  0
LINE
  8
0
  6
CONTINUOUS
 62
     2
 10
189.1
 20
139.125
 30
0.0
 11
189.1
 21
139.6
 31
0.0
  0
ARC
  8
0
  6
CONTINUOUS
 62
     2
 10
188.9
 20
139.6
 30
0.0
 40
0.2
 50
0.0
 51
90.0
  0
LINE
  8
0
  6
CONTINUOUS
 62
     2
 10
188.9
 20
139.8
 30
0.0
 11
188.425
 21
139.8
 31
0.0
  0
LINE
  8
0
  6
CONTINUOUS
 62
     2
 10
188.425
 20
139.8
 30
0.0
 11
188.425
 21
140.2
 31
0.0
  0
LINE
  8
0
  6
LTYPE1
 62
     2
 10
187.3
 20
140.0
 30
0.0
 11
191.3
 21
140.0
 31
0.0
  0
LINE
  8
0
  6
LTYPE1
 62
     2
 10
189.3
 20
142.0
 30
0.0
 11
189.3
 21
138.0
 31
0.0
  0
CIRCLE
  8
0
  6
CONTINUOUS
 62
     2
 10
195.3
 20
140.0
 30
0.0
 40
1.5
  0
LINE
  8
0
  6
CONTINUOUS
 62
     2
 10
194.425
 20
140.2
 30
0.0
 11
194.9
 21
140.2
 31
0.0
  0
ARC
  8
0
  6
CONTINUOUS
 62
     2
 10
194.9
 20
140.4
 30
0.0
 40
0.2
 50
270.0
 51
0.0
  0
LINE
  8
0
  6
CONTINUOUS
 62
     2
 10
195.1
 20
140.4
 30
0.0
 11
195.1
 21
140.875
 31
0.0
  0
LINE
  8
0
  6
CONTINUOUS
 62
     2
 10
195.1
 20
140.875
 30
0.0
 11
195.5
 21
140.875
 31
0.0
  0
LINE
  8
0
  6
CONTINUOUS
 62
     2
 10
195.5
 20
140.875
 30
0.0
 11
195.5
 21
140.4
 31
0.0
  0
ARC
  8
0
  6
CONTINUOUS
 62
     2
 10
195.7
 20
140.4
 30
0.0
 40
0.2
 50
180.0
 51
270.0
  0
LINE
  8
0
  6
CONTINUOUS
 62
     2
 10
195.7
 20
140.2
 30
0.0
 11
196.175
 21
140.2
 31
0.0
  0
LINE
  8
0
  6
CONTINUOUS
 62
     2
 10
196.175
 20
140.2
 30
0.0
 11
196.175
 21
139.8
 31
0.0
  0
LINE
  8
0
  6
CONTINUOUS
 62
     2
 10
196.175
 20
139.8
 30
0.0
 11
195.7
 21
139.8
 31
0.0
  0
ARC
  8
0
  6
CONTINUOUS
 62
     2
 10
195.7
 20
139.6
 30
0.0
 40
0.2
 50
90.0
 51
180.0
  0
LINE
  8
0
  6
CONTINUOUS
 62
     2
 10
195.5
 20
139.6
 30
0.0
 11
195.5
 21
139.125
 31
0.0
  0
LINE
  8
0
  6
CONTINUOUS
 62
     2
 10
195.5
 20
139.125
 30
0.0
 11
195.1
 21
139.125
 31
0.0
  0
LINE
  8
0
  6
CONTINUOUS
 62
     2
 10
195.1
 20
139.125
 30
0.0
 11
195.1
 21
139.6
 31
0.0
  0
ARC
  8
0
  6
CONTINUOUS
 62
     2
 10
194.9
 20
139.6
 30
0.0
 40
0.2
 50
0.0
 51
90.0
  0
LINE
  8
0
  6
CONTINUOUS
 62
     2
 10
194.9
 20
139.8
 30
0.0
 11
194.425
 21
139.8
 31
0.0
  0
LINE
  8
0
  6
CONTINUOUS
 62
     2
 10
194.425
 20
139.8
 30
0.0
 11
194.425
 21
140.2
 31
0.0
  0
LINE
  8
0
  6
LTYPE1
 62
     2
 10
193.3
 20
140.0
 30
0.0
 11
197.3
 21
140.0
 31
0.0
  0
LINE
  8
0
  6
LTYPE1
 62
     2
 10
195.3
 20
142.0
 30
0.0
 11
195.3
 21
138.0
 31
0.0
  0
CIRCLE
  8
0
  6
CONTINUOUS
 62
     2
 10
201.3
 20
140.0
 30
0.0
 40
1.5
  0
LINE
  8
0
  6
CONTINUOUS
 62
     2
 10
200.425
 20
140.2
 30
0.0
 11
200.9
 21
140.2
 31
0.0
  0
ARC
  8
0
  6
CONTINUOUS
 62
     2
 10
200.9
 20
140.4
 30
0.0
 40
0.2
 50
270.0
 51
0.0
  0
LINE
  8
0
  6
CONTINUOUS
 62
     2
 10
201.1
 20
140.4
 30
0.0
 11
201.1
 21
140.875
 31
0.0
  0
LINE
  8
0
  6
CONTINUOUS
 62
     2
 10
201.1
 20
140.875
 30
0.0
 11
201.5
 21
140.875
 31
0.0
  0
LINE
  8
0
  6
CONTINUOUS
 62
     2
 10
201.5
 20
140.875
 30
0.0
 11
201.5
 21
140.4
 31
0.0
  0
ARC
  8
0
  6
CONTINUOUS
 62
     2
 10
201.7
 20
140.4
 30
0.0
 40
0.2
 50
180.0
 51
270.0
  0
LINE
  8
0
  6
CONTINUOUS
 62
     2
 10
201.7
 20
140.2
 30
0.0
 11
202.175
 21
140.2
 31
0.0
  0
LINE
  8
0
  6
CONTINUOUS
 62
     2
 10
202.175
 20
140.2
 30
0.0
 11
202.175
 21
139.8
 31
0.0
  0
LINE
  8
0
  6
CONTINUOUS
 62
     2
 10
202.175
 20
139.8
 30
0.0
 11
201.7
 21
139.8
 31
0.0
  0
ARC
  8
0
  6
CONTINUOUS
 62
     2
 10
201.7
 20
139.6
 30
0.0
 40
0.2
 50
90.0
 51
180.0
  0
LINE
  8
0
  6
CONTINUOUS
 62
     2
 10
201.5
 20
139.6
 30
0.0
 11
201.5
 21
139.125
 31
0.0
  0
LINE
  8
0
  6
CONTINUOUS
 62
     2
 10
201.5
 20
139.125
 30
0.0
 11
201.1
 21
139.125
 31
0.0
  0
LINE
  8
0
  6
CONTINUOUS
 62
     2
 10
201.1
 20
139.125
 30
0.0
 11
201.1
 21
139.6
 31
0.0
  0
ARC
  8
0
  6
CONTINUOUS
 62
     2
 10
200.9
 20
139.6
 30
0.0
 40
0.2
 50
0.0
 51
90.0
  0
LINE
  8
0
  6
CONTINUOUS
 62
     2
 10
200.9
 20
139.8
 30
0.0
 11
200.425
 21
139.8
 31
0.0
  0
LINE
  8
0
  6
CONTINUOUS
 62
     2
 10
200.425
 20
139.8
 30
0.0
 11
200.425
 21
140.2
 31
0.0
  0
LINE
  8
0
  6
LTYPE1
 62
     2
 10
199.3
 20
140.0
 30
0.0
 11
203.3
 21
140.0
 31
0.0
  0
LINE
  8
0
  6
LTYPE1
 62
     2
 10
201.3
 20
142.0
 30
0.0
 11
201.3
 21
138.0
 31
0.0
  0
CIRCLE
  8
0
  6
CONTINUOUS
 62
     2
 10
207.3
 20
140.0
 30
0.0
 40
1.5
  0
LINE
  8
0
  6
CONTINUOUS
 62
     2
 10
206.425
 20
140.2
 30
0.0
 11
206.9
 21
140.2
 31
0.0
  0
ARC
  8
0
  6
CONTINUOUS
 62
     2
 10
206.9
 20
140.4
 30
0.0
 40
0.2
 50
270.0
 51
0.0
  0
LINE
  8
0
  6
CONTINUOUS
 62
     2
 10
207.1
 20
140.4
 30
0.0
 11
207.1
 21
140.875
 31
0.0
  0
LINE
  8
0
  6
CONTINUOUS
 62
     2
 10
207.1
 20
140.875
 30
0.0
 11
207.5
 21
140.875
 31
0.0
  0
LINE
  8
0
  6
CONTINUOUS
 62
     2
 10
207.5
 20
140.875
 30
0.0
 11
207.5
 21
140.4
 31
0.0
  0
ARC
  8
0
  6
CONTINUOUS
 62
     2
 10
207.7
 20
140.4
 30
0.0
 40
0.2
 50
180.0
 51
270.0
  0
LINE
  8
0
  6
CONTINUOUS
 62
     2
 10
207.7
 20
140.2
 30
0.0
 11
208.175
 21
140.2
 31
0.0
  0
LINE
  8
0
  6
CONTINUOUS
 62
     2
 10
208.175
 20
140.2
 30
0.0
 11
208.175
 21
139.8
 31
0.0
  0
LINE
  8
0
  6
CONTINUOUS
 62
     2
 10
208.175
 20
139.8
 30
0.0
 11
207.7
 21
139.8
 31
0.0
  0
ARC
  8
0
  6
CONTINUOUS
 62
     2
 10
207.7
 20
139.6
 30
0.0
 40
0.2
 50
90.0
 51
180.0
  0
LINE
  8
0
  6
CONTINUOUS
 62
     2
 10
207.5
 20
139.6
 30
0.0
 11
207.5
 21
139.125
 31
0.0
  0
LINE
  8
0
  6
CONTINUOUS
 62
     2
 10
207.5
 20
139.125
 30
0.0
 11
207.1
 21
139.125
 31
0.0
  0
LINE
  8
0
  6
CONTINUOUS
 62
     2
 10
207.1
 20
139.125
 30
0.0
 11
207.1
 21
139.6
 31
0.0
  0
ARC
  8
0
  6
CONTINUOUS
 62
     2
 10
206.9
 20
139.6
 30
0.0
 40
0.2
 50
0.0
 51
90.0
  0
LINE
  8
0
  6
CONTINUOUS
 62
     2
 10
206.9
 20
139.8
 30
0.0
 11
206.425
 21
139.8
 31
0.0
  0
LINE
  8
0
  6
CONTINUOUS
 62
     2
 10
206.425
 20
139.8
 30
0.0
 11
206.425
 21
140.2
 31
0.0
  0
LINE
  8
0
  6
LTYPE1
 62
     2
 10
205.3
 20
140.0
 30
0.0
 11
209.3
 21
140.0
 31
0.0
  0
LINE
  8
0
  6
LTYPE1
 62
     2
 10
207.3
 20
142.0
 30
0.0
 11
207.3
 21
138.0
 31
0.0
  0
CIRCLE
  8
0
  6
CONTINUOUS
 62
     2
 10
207.3
 20
131.0
 30
0.0
 40
1.5
  0
LINE
  8
0
  6
CONTINUOUS
 62
     2
 10
206.425
 20
131.2
 30
0.0
 11
206.9
 21
131.2
 31
0.0
  0
ARC
  8
0
  6
CONTINUOUS
 62
     2
 10
206.9
 20
131.4
 30
0.0
 40
0.2
 50
270.0
 51
0.0
  0
LINE
  8
0
  6
CONTINUOUS
 62
     2
 10
207.1
 20
131.4
 30
0.0
 11
207.1
 21
131.875
 31
0.0
  0
LINE
  8
0
  6
CONTINUOUS
 62
     2
 10
207.1
 20
131.875
 30
0.0
 11
207.5
 21
131.875
 31
0.0
  0
LINE
  8
0
  6
CONTINUOUS
 62
     2
 10
207.5
 20
131.875
 30
0.0
 11
207.5
 21
131.4
 31
0.0
  0
ARC
  8
0
  6
CONTINUOUS
 62
     2
 10
207.7
 20
131.4
 30
0.0
 40
0.2
 50
180.0
 51
270.0
  0
LINE
  8
0
  6
CONTINUOUS
 62
     2
 10
207.7
 20
131.2
 30
0.0
 11
208.175
 21
131.2
 31
0.0
  0
LINE
  8
0
  6
CONTINUOUS
 62
     2
 10
208.175
 20
131.2
 30
0.0
 11
208.175
 21
130.8
 31
0.0
  0
LINE
  8
0
  6
CONTINUOUS
 62
     2
 10
208.175
 20
130.8
 30
0.0
 11
207.7
 21
130.8
 31
0.0
  0
ARC
  8
0
  6
CONTINUOUS
 62
     2
 10
207.7
 20
130.6
 30
0.0
 40
0.2
 50
90.0
 51
180.0
  0
LINE
  8
0
  6
CONTINUOUS
 62
     2
 10
207.5
 20
130.6
 30
0.0
 11
207.5
 21
130.125
 31
0.0
  0
LINE
  8
0
  6
CONTINUOUS
 62
     2
 10
207.5
 20
130.125
 30
0.0
 11
207.1
 21
130.125
 31
0.0
  0
LINE
  8
0
  6
CONTINUOUS
 62
     2
 10
207.1
 20
130.125
 30
0.0
 11
207.1
 21
130.6
 31
0.0
  0
ARC
  8
0
  6
CONTINUOUS
 62
     2
 10
206.9
 20
130.6
 30
0.0
 40
0.2
 50
0.0
 51
90.0
  0
LINE
  8
0
  6
CONTINUOUS
 62
     2
 10
206.9
 20
130.8
 30
0.0
 11
206.425
 21
130.8
 31
0.0
  0
LINE
  8
0
  6
CONTINUOUS
 62
     2
 10
206.425
 20
130.8
 30
0.0
 11
206.425
 21
131.2
 31
0.0
  0
LINE
  8
0
  6
LTYPE1
 62
     2
 10
205.3
 20
131.0
 30
0.0
 11
209.3
 21
131.0
 31
0.0
  0
LINE
  8
0
  6
LTYPE1
 62
     2
 10
207.3
 20
133.0
 30
0.0
 11
207.3
 21
129.0
 31
0.0
  0
CIRCLE
  8
0
  6
CONTINUOUS
 62
     2
 10
201.3
 20
131.0
 30
0.0
 40
1.5
  0
LINE
  8
0
  6
CONTINUOUS
 62
     2
 10
200.425
 20
131.2
 30
0.0
 11
200.9
 21
131.2
 31
0.0
  0
ARC
  8
0
  6
CONTINUOUS
 62
     2
 10
200.9
 20
131.4
 30
0.0
 40
0.2
 50
270.0
 51
0.0
  0
LINE
  8
0
  6
CONTINUOUS
 62
     2
 10
201.1
 20
131.4
 30
0.0
 11
201.1
 21
131.875
 31
0.0
  0
LINE
  8
0
  6
CONTINUOUS
 62
     2
 10
201.1
 20
131.875
 30
0.0
 11
201.5
 21
131.875
 31
0.0
  0
LINE
  8
0
  6
CONTINUOUS
 62
     2
 10
201.5
 20
131.875
 30
0.0
 11
201.5
 21
131.4
 31
0.0
  0
ARC
  8
0
  6
CONTINUOUS
 62
     2
 10
201.7
 20
131.4
 30
0.0
 40
0.2
 50
180.0
 51
270.0
  0
LINE
  8
0
  6
CONTINUOUS
 62
     2
 10
201.7
 20
131.2
 30
0.0
 11
202.175
 21
131.2
 31
0.0
  0
LINE
  8
0
  6
CONTINUOUS
 62
     2
 10
202.175
 20
131.2
 30
0.0
 11
202.175
 21
130.8
 31
0.0
  0
LINE
  8
0
  6
CONTINUOUS
 62
     2
 10
202.175
 20
130.8
 30
0.0
 11
201.7
 21
130.8
 31
0.0
  0
ARC
  8
0
  6
CONTINUOUS
 62
     2
 10
201.7
 20
130.6
 30
0.0
 40
0.2
 50
90.0
 51
180.0
  0
LINE
  8
0
  6
CONTINUOUS
 62
     2
 10
201.5
 20
130.6
 30
0.0
 11
201.5
 21
130.125
 31
0.0
  0
LINE
  8
0
  6
CONTINUOUS
 62
     2
 10
201.5
 20
130.125
 30
0.0
 11
201.1
 21
130.125
 31
0.0
  0
LINE
  8
0
  6
CONTINUOUS
 62
     2
 10
201.1
 20
130.125
 30
0.0
 11
201.1
 21
130.6
 31
0.0
  0
ARC
  8
0
  6
CONTINUOUS
 62
     2
 10
200.9
 20
130.6
 30
0.0
 40
0.2
 50
0.0
 51
90.0
  0
LINE
  8
0
  6
CONTINUOUS
 62
     2
 10
200.9
 20
130.8
 30
0.0
 11
200.425
 21
130.8
 31
0.0
  0
LINE
  8
0
  6
CONTINUOUS
 62
     2
 10
200.425
 20
130.8
 30
0.0
 11
200.425
 21
131.2
 31
0.0
  0
LINE
  8
0
  6
LTYPE1
 62
     2
 10
199.3
 20
131.0
 30
0.0
 11
203.3
 21
131.0
 31
0.0
  0
LINE
  8
0
  6
LTYPE1
 62
     2
 10
201.3
 20
133.0
 30
0.0
 11
201.3
 21
129.0
 31
0.0
  0
CIRCLE
  8
0
  6
CONTINUOUS
 62
     2
 10
195.3
 20
131.0
 30
0.0
 40
1.5
  0
LINE
  8
0
  6
CONTINUOUS
 62
     2
 10
194.425
 20
131.2
 30
0.0
 11
194.9
 21
131.2
 31
0.0
  0
ARC
  8
0
  6
CONTINUOUS
 62
     2
 10
194.9
 20
131.4
 30
0.0
 40
0.2
 50
270.0
 51
0.0
  0
LINE
  8
0
  6
CONTINUOUS
 62
     2
 10
195.1
 20
131.4
 30
0.0
 11
195.1
 21
131.875
 31
0.0
  0
LINE
  8
0
  6
CONTINUOUS
 62
     2
 10
195.1
 20
131.875
 30
0.0
 11
195.5
 21
131.875
 31
0.0
  0
LINE
  8
0
  6
CONTINUOUS
 62
     2
 10
195.5
 20
131.875
 30
0.0
 11
195.5
 21
131.4
 31
0.0
  0
ARC
  8
0
  6
CONTINUOUS
 62
     2
 10
195.7
 20
131.4
 30
0.0
 40
0.2
 50
180.0
 51
270.0
  0
LINE
  8
0
  6
CONTINUOUS
 62
     2
 10
195.7
 20
131.2
 30
0.0
 11
196.175
 21
131.2
 31
0.0
  0
LINE
  8
0
  6
CONTINUOUS
 62
     2
 10
196.175
 20
131.2
 30
0.0
 11
196.175
 21
130.8
 31
0.0
  0
LINE
  8
0
  6
CONTINUOUS
 62
     2
 10
196.175
 20
130.8
 30
0.0
 11
195.7
 21
130.8
 31
0.0
  0
ARC
  8
0
  6
CONTINUOUS
 62
     2
 10
195.7
 20
130.6
 30
0.0
 40
0.2
 50
90.0
 51
180.0
  0
LINE
  8
0
  6
CONTINUOUS
 62
     2
 10
195.5
 20
130.6
 30
0.0
 11
195.5
 21
130.125
 31
0.0
  0
LINE
  8
0
  6
CONTINUOUS
 62
     2
 10
195.5
 20
130.125
 30
0.0
 11
195.1
 21
130.125
 31
0.0
  0
LINE
  8
0
  6
CONTINUOUS
 62
     2
 10
195.1
 20
130.125
 30
0.0
 11
195.1
 21
130.6
 31
0.0
  0
ARC
  8
0
  6
CONTINUOUS
 62
     2
 10
194.9
 20
130.6
 30
0.0
 40
0.2
 50
0.0
 51
90.0
  0
LINE
  8
0
  6
CONTINUOUS
 62
     2
 10
194.9
 20
130.8
 30
0.0
 11
194.425
 21
130.8
 31
0.0
  0
LINE
  8
0
  6
CONTINUOUS
 62
     2
 10
194.425
 20
130.8
 30
0.0
 11
194.425
 21
131.2
 31
0.0
  0
LINE
  8
0
  6
LTYPE1
 62
     2
 10
193.3
 20
131.0
 30
0.0
 11
197.3
 21
131.0
 31
0.0
  0
LINE
  8
0
  6
LTYPE1
 62
     2
 10
195.3
 20
133.0
 30
0.0
 11
195.3
 21
129.0
 31
0.0
  0
TEXT
  8
0
  6
CONTINUOUS
 62
     2
 10
188.9
 20
136.0
 30
0.1
 40
1.5
  1
２
 50
0.0
 41
0.666666667
 51
0.0
  7
KANJI19
  0
TEXT
  8
0
  6
CONTINUOUS
 62
     2
 10
194.9
 20
136.0
 30
0.1
 40
1.5
  1
３
 50
0.0
 41
0.666666667
 51
0.0
  7
KANJI19
  0
TEXT
  8
0
  6
CONTINUOUS
 62
     2
 10
200.9
 20
136.0
 30
0.1
 40
1.5
  1
４
 50
0.0
 41
0.666666667
 51
0.0
  7
KANJI19
  0
TEXT
  8
0
  6
CONTINUOUS
 62
     2
 10
206.9
 20
136.0
 30
0.1
 40
1.5
  1
５
 50
0.0
 41
0.666666667
 51
0.0
  7
KANJI19
  0
TEXT
  8
0
  6
CONTINUOUS
 62
     2
 10
182.9
 20
136.0
 30
0.1
 40
1.5
  1
１
 50
0.0
 41
0.666666667
 51
0.0
  7
KANJI19
  0
TEXT
  8
0
  6
CONTINUOUS
 62
     2
 10
176.8
 20
133.65
 30
0.1
 40
1.5
  1
９
 50
0.0
 41
0.666666667
 51
0.0
  7
KANJI19
  0
TEXT
  8
0
  6
CONTINUOUS
 62
     2
 10
188.3
 20
133.65
 30
0.1
 40
1.5
  1
１１
 50
0.0
 41
0.666666667
 51
0.0
  7
KANJI19
  0
TEXT
  8
0
  6
CONTINUOUS
 62
     2
 10
182.3
 20
133.65
 30
0.1
 40
1.5
  1
１０
 50
0.0
 41
0.666666667
 51
0.0
  7
KANJI19
  0
TEXT
  8
0
  6
CONTINUOUS
 62
     2
 10
194.9
 20
133.65
 30
0.1
 40
1.5
  1
６
 50
0.0
 41
0.666666667
 51
0.0
  7
KANJI19
  0
TEXT
  8
0
  6
CONTINUOUS
 62
     2
 10
200.9
 20
133.65
 30
0.1
 40
1.5
  1
７
 50
0.0
 41
0.666666667
 51
0.0
  7
KANJI19
  0
TEXT
  8
0
  6
CONTINUOUS
 62
     2
 10
206.9
 20
133.65
 30
0.1
 40
1.5
  1
８
 50
0.0
 41
0.666666667
 51
0.0
  7
KANJI19
  0
LINE
  8
0
  6
CONTINUOUS
 62
     2
 10
177.3
 20
140.0
 30
0.0
 11
178.442763008
 21
142.223531585
 31
0.0
  0
LINE
  8
0
  6
CONTINUOUS
 62
     2
 10
177.3
 20
140.0
 30
0.0
 11
177.177896003
 21
142.497016342
 31
0.0
  0
LINE
  8
0
  6
CONTINUOUS
 62
     2
 10
177.3
 20
140.0
 30
0.0
 11
183.7
 21
169.6
 31
0.0
  0
LINE
  8
0
  6
CONTINUOUS
 62
     2
 10
183.7
 20
169.6
 30
0.0
 11
186.4
 21
169.6
 31
0.0
  0
TEXT
  8
0
  6
CONTINUOUS
 62
     2
 10
183.7
 20
170.6
 30
0.3
 40
3.0
  1
※
 50
0.0
 41
0.9
 51
0.0
  7
KANJI6
  0
LINE
  8
0
  6
CONTINUOUS
 62
     2
 10
177.3
 20
129.5
 30
0.0
 11
177.549409051
 21
127.012472086
 31
0.0
  0
LINE
  8
0
  6
CONTINUOUS
 62
     2
 10
177.3
 20
129.5
 30
0.0
 11
178.759758532
 21
127.470442159
 31
0.0
  0
LINE
  8
0
  6
CONTINUOUS
 62
     2
 10
177.3
 20
129.5
 30
0.0
 11
187.8
 21
101.75
 31
0.0
  0
LINE
  8
0
  6
CONTINUOUS
 62
     2
 10
187.8
 20
101.75
 30
0.0
 11
214.0
 21
101.75
 31
0.0
  0
TEXT
  8
0
  6
CONTINUOUS
 62
     2
 10
187.8
 20
102.75
 30
0.2
 40
3.0
  1
１１－Ｍ３ターミナルネジ
 50
0.0
 41
0.666666667
 51
0.0
  7
KANJI20
  0
TEXT
  8
0
  6
CONTINUOUS
 62
     2
 10
225.9
 20
123.77
 30
0.18
 40
1.8
  1
±０．５
 50
90.0
 41
0.6
 51
0.0
  7
KANJI3
  0
TEXT
  8
0
  6
CONTINUOUS
 62
     2
 10
225.9
 20
146.27
 30
0.18
 40
1.8
  1
±０．５
 50
90.0
 41
0.6
 51
0.0
  7
KANJI3
  0
TEXT
  8
0
  6
CONTINUOUS
 62
     2
 10
203.07
 20
181.85
 30
0.18
 40
1.8
  1
±０．５
 50
0.0
 41
0.6
 51
0.0
  7
KANJI3
  0
TEXT
  8
0
  6
CONTINUOUS
 62
     2
 10
180.57
 20
181.85
 30
0.18
 40
1.8
  1
±０．５
 50
0.0
 41
0.6
 51
0.0
  7
KANJI3
  0
LINE
  8
0
  6
LTYPE1
 62
     2
 10
192.3
 20
106.15
 30
0.0
 11
192.3
 21
165.5847
 31
0.0
  0
LINE
  8
0
  6
LTYPE1
 62
     2
 10
106.125
 20
158.0
 30
0.0
 11
118.125
 21
158.0
 31
0.0
  0
POLYLINE
  8
0
  6
CONTINUOUS
 62
     2
 66
     1
  0
VERTEX
  8
0
  6
CONTINUOUS
 62
     2
 10
102.75
 20
111.225
 30
0.0
  0
VERTEX
  8
0
  6
CONTINUOUS
 62
     2
 10
100.25
 20
111.225
 30
0.0
  0
VERTEX
  8
0
  6
CONTINUOUS
 62
     2
 10
100.25
 20
159.725
 30
0.0
  0
VERTEX
  8
0
  6
CONTINUOUS
 62
     2
 10
102.75
 20
159.725
 30
0.0
  0
SEQEND
  0
LINE
  8
0
  6
CONTINUOUS
 62
     2
 10
101.55
 20
122.275
 30
0.0
 11
103.991609696
 21
122.812161143
 31
0.0
  0
LINE
  8
0
  6
CONTINUOUS
 62
     2
 10
101.55
 20
122.275
 30
0.0
 11
103.395915451
 21
123.961000044
 31
0.0
  0
LINE
  8
0
  6
CONTINUOUS
 62
     2
 10
101.55
 20
122.275
 30
0.0
 11
111.0
 21
127.175
 31
0.0
  0
LINE
  8
0
  6
CONTINUOUS
 62
     2
 10
111.0
 20
127.175
 30
0.0
 11
129.0
 21
127.175
 31
0.0
  0
TEXT
  8
0
  6
CONTINUOUS
 62
     2
 10
111.0
 20
128.175
 30
0.2
 40
3.0
  1
黒色遮光フード
 50
0.0
 41
0.8
 51
0.0
  7
KANJI21
  0
LINE
  8
0
  6
CONTINUOUS
 62
     2
 10
149.690986669
 20
160.101095469
 30
0.0
 11
149.690986669
 21
183.376095469
 31
0.0
  0
CIRCLE
  8
0
  6
CONTINUOUS
 62
     2
 10
210.05
 20
135.50132668
 30
0.0
 40
1.29
  0
LINE
  8
0
  6
CONTINUOUS
 62
     2
 10
209.2975
 20
135.67332668
 30
0.0
 11
209.706
 21
135.67332668
 31
0.0
  0
ARC
  8
0
  6
CONTINUOUS
 62
     2
 10
209.706
 20
135.84532668
 30
0.0
 40
0.172
 50
270.0
 51
0.0
  0
LINE
  8
0
  6
CONTINUOUS
 62
     2
 10
209.878
 20
135.84532668
 30
0.0
 11
209.878
 21
136.25382668
 31
0.0
  0
LINE
  8
0
  6
CONTINUOUS
 62
     2
 10
209.878
 20
136.25382668
 30
0.0
 11
210.222
 21
136.25382668
 31
0.0
  0
LINE
  8
0
  6
CONTINUOUS
 62
     2
 10
210.222
 20
136.25382668
 30
0.0
 11
210.222
 21
135.84532668
 31
0.0
  0
ARC
  8
0
  6
CONTINUOUS
 62
     2
 10
210.394
 20
135.84532668
 30
0.0
 40
0.172
 50
180.0
 51
270.0
  0
LINE
  8
0
  6
CONTINUOUS
 62
     2
 10
210.394
 20
135.67332668
 30
0.0
 11
210.8025
 21
135.67332668
 31
0.0
  0
LINE
  8
0
  6
CONTINUOUS
 62
     2
 10
210.8025
 20
135.67332668
 30
0.0
 11
210.8025
 21
135.32932668
 31
0.0
  0
LINE
  8
0
  6
CONTINUOUS
 62
     2
 10
210.8025
 20
135.32932668
 30
0.0
 11
210.394
 21
135.32932668
 31
0.0
  0
ARC
  8
0
  6
CONTINUOUS
 62
     2
 10
210.394
 20
135.15732668
 30
0.0
 40
0.172
 50
90.0
 51
180.0
  0
LINE
  8
0
  6
CONTINUOUS
 62
     2
 10
210.222
 20
135.15732668
 30
0.0
 11
210.222
 21
134.74882668
 31
0.0
  0
LINE
  8
0
  6
CONTINUOUS
 62
     2
 10
210.222
 20
134.74882668
 30
0.0
 11
209.878
 21
134.74882668
 31
0.0
  0
LINE
  8
0
  6
CONTINUOUS
 62
     2
 10
209.878
 20
134.74882668
 30
0.0
 11
209.878
 21
135.15732668
 31
0.0
  0
ARC
  8
0
  6
CONTINUOUS
 62
     2
 10
209.706
 20
135.15732668
 30
0.0
 40
0.172
 50
0.0
 51
90.0
  0
LINE
  8
0
  6
CONTINUOUS
 62
     2
 10
209.706
 20
135.32932668
 30
0.0
 11
209.2975
 21
135.32932668
 31
0.0
  0
LINE
  8
0
  6
CONTINUOUS
 62
     2
 10
209.2975
 20
135.32932668
 30
0.0
 11
209.2975
 21
135.67332668
 31
0.0
  0
LINE
  8
0
  6
LTYPE1
 62
     2
 10
208.33
 20
135.50132668
 30
0.0
 11
211.77
 21
135.50132668
 31
0.0
  0
LINE
  8
0
  6
LTYPE1
 62
     2
 10
210.05
 20
137.22132668
 30
0.0
 11
210.05
 21
133.78132668
 31
0.0
  0
CIRCLE
  8
0
  6
CONTINUOUS
 62
     2
 10
174.55
 20
135.50318639
 30
0.0
 40
1.29
  0
LINE
  8
0
  6
CONTINUOUS
 62
     2
 10
173.7975
 20
135.67518639
 30
0.0
 11
174.206
 21
135.67518639
 31
0.0
  0
ARC
  8
0
  6
CONTINUOUS
 62
     2
 10
174.206
 20
135.84718639
 30
0.0
 40
0.172
 50
270.0
 51
0.0
  0
LINE
  8
0
  6
CONTINUOUS
 62
     2
 10
174.378
 20
135.84718639
 30
0.0
 11
174.378
 21
136.25568639
 31
0.0
  0
LINE
  8
0
  6
CONTINUOUS
 62
     2
 10
174.378
 20
136.25568639
 30
0.0
 11
174.722
 21
136.25568639
 31
0.0
  0
LINE
  8
0
  6
CONTINUOUS
 62
     2
 10
174.722
 20
136.25568639
 30
0.0
 11
174.722
 21
135.84718639
 31
0.0
  0
ARC
  8
0
  6
CONTINUOUS
 62
     2
 10
174.894
 20
135.84718639
 30
0.0
 40
0.172
 50
180.0
 51
270.0
  0
LINE
  8
0
  6
CONTINUOUS
 62
     2
 10
174.894
 20
135.67518639
 30
0.0
 11
175.3025
 21
135.67518639
 31
0.0
  0
LINE
  8
0
  6
CONTINUOUS
 62
     2
 10
175.3025
 20
135.67518639
 30
0.0
 11
175.3025
 21
135.33118639
 31
0.0
  0
LINE
  8
0
  6
CONTINUOUS
 62
     2
 10
175.3025
 20
135.33118639
 30
0.0
 11
174.894
 21
135.33118639
 31
0.0
  0
ARC
  8
0
  6
CONTINUOUS
 62
     2
 10
174.894
 20
135.15918639
 30
0.0
 40
0.172
 50
90.0
 51
180.0
  0
LINE
  8
0
  6
CONTINUOUS
 62
     2
 10
174.722
 20
135.15918639
 30
0.0
 11
174.722
 21
134.75068639
 31
0.0
  0
LINE
  8
0
  6
CONTINUOUS
 62
     2
 10
174.722
 20
134.75068639
 30
0.0
 11
174.378
 21
134.75068639
 31
0.0
  0
LINE
  8
0
  6
CONTINUOUS
 62
     2
 10
174.378
 20
134.75068639
 30
0.0
 11
174.378
 21
135.15918639
 31
0.0
  0
ARC
  8
0
  6
CONTINUOUS
 62
     2
 10
174.206
 20
135.15918639
 30
0.0
 40
0.172
 50
0.0
 51
90.0
  0
LINE
  8
0
  6
CONTINUOUS
 62
     2
 10
174.206
 20
135.33118639
 30
0.0
 11
173.7975
 21
135.33118639
 31
0.0
  0
LINE
  8
0
  6
CONTINUOUS
 62
     2
 10
173.7975
 20
135.33118639
 30
0.0
 11
173.7975
 21
135.67518639
 31
0.0
  0
LINE
  8
0
  6
LTYPE1
 62
     2
 10
172.83
 20
135.50318639
 30
0.0
 11
176.27
 21
135.50318639
 31
0.0
  0
LINE
  8
0
  6
LTYPE1
 62
     2
 10
174.55
 20
137.22318639
 30
0.0
 11
174.55
 21
133.78318639
 31
0.0
  0
ARC
  8
0
  6
CONTINUOUS
 62
     2
 10
154.645
 20
134.984256378
 30
0.0
 40
0.78
 50
270.0
 51
0.0
  0
ARC
  8
0
  6
CONTINUOUS
 62
     2
 10
154.645
 20
136.024256378
 30
0.0
 40
0.78
 50
0.0
 51
90.0
  0
LINE
  8
0
  6
CONTINUOUS
 62
     2
 10
155.425
 20
135.341756378
 30
0.0
 11
155.425
 21
134.984256378
 31
0.0
  0
LINE
  8
0
  6
CONTINUOUS
 62
     2
 10
155.425
 20
136.024256378
 30
0.0
 11
155.425
 21
135.341756378
 31
0.0
  0
LINE
  8
0
  6
CONTINUOUS
 62
     2
 10
154.43
 20
136.804256378
 30
0.0
 11
154.645
 21
136.804256378
 31
0.0
  0
LINE
  8
0
  6
CONTINUOUS
 62
     2
 10
154.645
 20
134.204256378
 30
0.0
 11
154.425
 21
134.204256378
 31
0.0
  0
LINE
  8
0
  6
CONTINUOUS
 62
     2
 10
154.475
 20
134.21318639
 30
0.0
 11
154.475
 21
136.71318639
 31
0.0
  0
LINE
  8
0
  6
CONTINUOUS
 62
     2
 10
155.440986669
 20
181.026095469
 30
0.0
 11
157.855801235
 21
181.673143082
 31
0.0
  0
LINE
  8
0
  6
CONTINUOUS
 62
     2
 10
155.440986669
 20
181.026095469
 30
0.0
 11
157.855801235
 21
180.379047856
 31
0.0
  0
LINE
  8
0
  6
CONTINUOUS
 62
     2
 10
155.425
 20
181.021811854
 30
0.0
 11
160.425
 21
181.021811854
 31
0.0
  0
LINE
  8
0
  6
CONTINUOUS
 62
     2
 10
155.425
 20
137.024259075
 30
0.0
 11
155.425
 21
183.026095469
 31
0.0
  0
TEXT
  8
0
  6
CONTINUOUS
 62
     2
 10
148.932993334
 20
184.276095469
 30
0.3
 40
3.0
  1
１１．５
 50
0.0
 41
0.6
 51
0.0
  7
KANJI2
  0
LINE
  8
0
  6
CONTINUOUS
 62
     2
 10
149.690986669
 20
171.454188276
 30
0.0
 11
147.276172103
 21
172.101235889
 31
0.0
  0
LINE
  8
0
  6
CONTINUOUS
 62
     2
 10
149.690986669
 20
171.454188276
 30
0.0
 11
147.276172103
 21
170.807140663
 31
0.0
  0
LINE
  8
0
  6
CONTINUOUS
 62
     2
 10
144.690986669
 20
171.454188276
 30
0.0
 11
158.675
 21
171.454188276
 31
0.0
  0
LINE
  8
0
  6
CONTINUOUS
 62
     2
 10
153.675
 20
171.454188276
 30
0.0
 11
156.089814566
 21
170.807140663
 31
0.0
  0
LINE
  8
0
  6
CONTINUOUS
 62
     2
 10
153.675
 20
171.454188276
 30
0.0
 11
156.089814566
 21
172.101235889
 31
0.0
  0
TEXT
  8
0
  6
CONTINUOUS
 62
     2
 10
150.782993334
 20
172.454188276
 30
0.3
 40
3.0
  1
８
 50
0.0
 41
0.6
 51
0.0
  7
KANJI2
  0
LINE
  8
0
  6
CONTINUOUS
 62
     2
 10
153.675
 20
172.454188276
 30
0.0
 11
153.675
 21
143.454188276
 31
0.0
  0
LINE
  8
0
  6
CONTINUOUS
 62
     2
 10
154.1375
 20
127.651093562
 30
0.0
 11
153.951504886
 21
125.158021999
 31
0.0
  0
LINE
  8
0
  6
CONTINUOUS
 62
     2
 10
154.1375
 20
127.651093562
 30
0.0
 11
155.222959288
 21
125.399032698
 31
0.0
  0
LINE
  8
0
  6
CONTINUOUS
 62
     2
 10
154.1375
 20
127.651093562
 30
0.0
 11
159.0375
 21
101.801093562
 31
0.0
  0
LINE
  8
0
  6
CONTINUOUS
 62
     2
 10
159.0375
 20
101.801093562
 30
0.0
 11
172.2375
 21
101.801093562
 31
0.0
  0
TEXT
  8
0
  6
CONTINUOUS
 62
     2
 10
160.0375
 20
102.801093562
 30
0.3
 40
3.0
  1
端子カバー
 50
0.0
 41
0.8
 51
0.0
  7
KANJI22
  0
LINE
  8
0
  6
LTYPE1
 62
     2
 10
94.3
 20
135.50629682
 30
0.0
 11
214.5
 21
135.5
 31
0.0
  0
LINE
  8
0
  6
CONTINUOUS
 62
     2
 10
120.875
 20
98.5
 30
0.0
 11
146.875
 21
98.5
 31
0.0
  0
POLYLINE
  8
0
  6
CONTINUOUS
 62
     1
 66
     1
  0
VERTEX
  8
0
  6
CONTINUOUS
 62
     1
 10
93.649130435
 20
117.5
 30
0.0
  0
VERTEX
  8
0
  6
CONTINUOUS
 62
     1
 10
93.649130435
 20
114.5
 30
0.0
  0
VERTEX
  8
0
  6
CONTINUOUS
 62
     1
 10
93.899130435
 20
114.5
 30
0.0
  0
VERTEX
  8
0
  6
CONTINUOUS
 62
     1
 10
93.899130435
 20
114.25
 30
0.0
  0
SEQEND
  0
LINE
  8
0
  6
CONTINUOUS
 62
     1
 10
93.899130435
 20
117.75
 30
0.0
 11
93.899130435
 21
114.5
 31
0.0
  0
LINE
  8
0
  6
CONTINUOUS
 62
     1
 10
93.649130435
 20
117.5
 30
0.0
 11
93.899130435
 21
117.5
 31
0.0
  0
LINE
  8
0
  6
CONTINUOUS
 62
     2
 10
93.649130435
 20
114.0
 30
0.0
 11
93.649130435
 21
101.270718292
 31
0.0
  0
LINE
  8
0
  6
CONTINUOUS
 62
     2
 10
92.075
 20
109.925
 30
0.0
 11
92.075
 21
160.925
 31
0.0
  0
LINE
  8
0
  6
CONTINUOUS
 62
     2
 10
92.075
 20
109.975
 30
0.0
 11
92.722047613
 21
112.389814566
 31
0.0
  0
LINE
  8
0
  6
CONTINUOUS
 62
     2
 10
92.075
 20
109.975
 30
0.0
 11
91.427952387
 21
112.389814566
 31
0.0
  0
TEXT
  8
0
  6
CONTINUOUS
 62
     2
 10
91.525
 20
131.525
 30
0.3
 40
3.0
  1
φ１０２
 50
90.0
 41
0.6
 51
0.0
  7
KANJI2
  0
LINE
  8
0
  6
CONTINUOUS
 62
     2
 10
92.075
 20
160.975
 30
0.0
 11
91.427952387
 21
158.560185434
 31
0.0
  0
LINE
  8
0
  6
CONTINUOUS
 62
     2
 10
92.075
 20
160.975
 30
0.0
 11
92.722047613
 21
158.560185434
 31
0.0
  0
TEXT
  8
0
  6
CONTINUOUS
 62
     2
 10
51.5
 20
176.95
 30
0.3
 40
3.0
  1
Ｈ設定（赤色）
 50
0.0
 41
0.9
 51
0.0
  7
KANJI6
  0
TEXT
  8
0
  6
CONTINUOUS
 62
     2
 10
40.6
 20
171.45
 30
0.3
 40
3.0
  1
Ｌ設定（黄色）
 50
0.0
 41
0.9
 51
0.0
  7
KANJI6
  0
LINE
  8
0
  6
CONTINUOUS
 62
     2
 10
61.3
 20
170.45
 30
0.0
 11
38.964417516
 21
170.45
 31
0.0
  0
LINE
  8
0
  6
CONTINUOUS
 62
     2
 10
42.163820798
 20
155.55
 30
0.0
 11
38.964417516
 21
170.45
 31
0.0
  0
LINE
  8
0
  6
CONTINUOUS
 62
     2
 10
49.7
 20
175.75
 30
0.0
 11
70.985526316
 21
175.75
 31
0.0
  0
LINE
  8
0
  6
CONTINUOUS
 62
     2
 10
66.6
 20
155.55
 30
0.0
 11
70.985526316
 21
175.75
 31
0.0
  0
LINE
  8
0
  6
CONTINUOUS
 62
     2
 10
33.463820798
 20
163.018245415
 30
0.0
 11
18.563820798
 21
163.018245415
 31
0.0
  0
LINE
  8
0
  6
CONTINUOUS
 62
     2
 10
20.563820798
 20
163.018245415
 30
0.0
 11
19.916773186
 21
160.603430849
 31
0.0
  0
LINE
  8
0
  6
CONTINUOUS
 62
     2
 10
20.563820798
 20
163.018245415
 30
0.0
 11
21.210868411
 21
160.603430849
 31
0.0
  0
LINE
  8
0
  6
CONTINUOUS
 62
     2
 10
20.563820798
 20
163.018245415
 30
0.0
 11
20.563820798
 21
108.018245415
 31
0.0
  0
LINE
  8
0
  6
CONTINUOUS
 62
     2
 10
20.563820798
 20
108.018245415
 30
0.0
 11
21.210868411
 21
110.43305998
 31
0.0
  0
LINE
  8
0
  6
CONTINUOUS
 62
     2
 10
20.563820798
 20
108.018245415
 30
0.0
 11
19.916773186
 21
110.43305998
 31
0.0
  0
LINE
  8
0
  6
CONTINUOUS
 62
     2
 10
33.463820798
 20
108.018245415
 30
0.0
 11
18.563820798
 21
108.018245415
 31
0.0
  0
TEXT
  8
0
  6
CONTINUOUS
 62
     2
 10
19.563820798
 20
130.088245415
 30
0.3
 40
3.0
  1
１１０
 50
90.0
 41
0.6
 51
0.0
  7
KANJI2
  0
TEXT
  8
0
  6
CONTINUOUS
 62
     2
 10
19.563820798
 20
136.088245415
 30
0.18
 40
1.8
  1
±１．５
 50
90.0
 41
0.6
 51
0.0
  7
KANJI3
  0
TEXT
  8
0
  6
CONTINUOUS
 62
     2
 10
5.25
 20
157.325
 30
0.2
 40
3.0
  1
遮光フード
 50
0.0
 41
0.8
 51
0.0
  7
KANJI21
  0
LINE
  8
0
  6
CONTINUOUS
 62
     2
 10
18.107337884
 20
156.325
 30
0.0
 11
5.25
 21
156.325
 31
0.0
  0
LINE
  8
0
  6
CONTINUOUS
 62
     2
 10
47.3
 20
137.275
 30
0.0
 11
18.107337884
 21
156.325
 31
0.0
  0
LINE
  8
0
  6
CONTINUOUS
 62
     2
 10
149.690986669
 20
181.025001907
 30
0.0
 11
155.440986669
 21
181.026095469
 31
0.0
  0
ENDSEC
  0
EOF
