  0
SECTION
  2
HEADER
  9
$ACADVER
  1
AC1009
  9
$DWGCODEPAGE
  3
dos932
  9
$EXTMIN
 10
0.0
 20
0.0
 30
0.0
  9
$EXTMAX
 10
297.0
 20
210.0
 30
0.0
  9
$LIMMIN
 10
0.0
 20
0.0
  9
$LIMMAX
 10
297.0
 20
210.0
  9
$LTSCALE
 40
1.0
  9
$PDMODE
 70
     0
  0
ENDSEC
  0
SECTION
  2
TABLES
  0
TABLE
  2
VPORT
 70
     1
  0
VPORT
  2
*ACTIVE
 70
     0
 10
0.0
 20
0.0
 11
1.0
 21
1.0
 12
148.5
 22
105.0
 13
0.0
 23
0.0
 14
10.0
 24
10.0
 15
10.0
 25
10.0
 16
0.0
 26
0.0
 36
1.0
 17
0.0
 27
0.0
 37
0.0
 40
297.0
 41
1.414285714
 42
50.0
 43
0.0
 44
0.0
 50
0.0
 51
0.0
 71
     0
 72
  1000
 73
     1
 74
     3
 75
     0
 76
     0
 77
     0
 78
     0
  0
ENDTAB
  0
TABLE
  2
LTYPE
 70
     7
  0
LTYPE
  2
CONTINUOUS
 70
    64
  3
Solid line
 72
    65
 73
     0
 40
0.0
  0
LTYPE
  2
LTYPE1
 70
    64
  3
CENTER
 72
    65
 73
     4
 40
15.0
 49
10.5
 49
-1.5
 49
1.5
 49
-1.5
  0
LTYPE
  2
LTYPE2
 70
    64
  3
CENTER
 72
    65
 73
     4
 40
10.0
 49
7.0
 49
-1.0
 49
1.0
 49
-1.0
  0
LTYPE
  2
LTYPE3
 70
    64
  3
HIDDEN
 72
    65
 73
     2
 40
3.0
 49
1.8
 49
-1.2
  0
LTYPE
  2
LTYPE4
 70
    64
  3
CENTER
 72
    65
 73
     4
 40
3.0
 49
2.1
 49
-0.3
 49
0.3
 49
-0.3
  0
LTYPE
  2
LTYPE5
 70
    64
  3
CENTER
 72
    65
 73
     4
 40
5.0
 49
3.5
 49
-0.5
 49
0.5
 49
-0.5
  0
LTYPE
  2
LTYPE6
 70
    64
  3
HIDDEN
 72
    65
 73
     2
 40
1.0
 49
0.6
 49
-0.4
  0
ENDTAB
  0
TABLE
  2
LAYER
 70
   128
  0
LAYER
  2
0
 70
     0
 62
     7
  6
CONTINUOUS
  0
LAYER
  2
2
 70
     0
 62
     7
  6
CONTINUOUS
  0
LAYER
  2
3
 70
     0
 62
     7
  6
CONTINUOUS
  0
LAYER
  2
4
 70
     0
 62
     7
  6
CONTINUOUS
  0
LAYER
  2
5
 70
     0
 62
     7
  6
CONTINUOUS
  0
LAYER
  2
6
 70
     0
 62
     7
  6
CONTINUOUS
  0
LAYER
  2
7
 70
     0
 62
     7
  6
CONTINUOUS
  0
LAYER
  2
8
 70
     0
 62
     7
  6
CONTINUOUS
  0
LAYER
  2
9
 70
     0
 62
     7
  6
CONTINUOUS
  0
LAYER
  2
10
 70
     0
 62
     7
  6
CONTINUOUS
  0
LAYER
  2
11
 70
     0
 62
     7
  6
CONTINUOUS
  0
LAYER
  2
12
 70
     0
 62
     7
  6
CONTINUOUS
  0
LAYER
  2
13
 70
     0
 62
     7
  6
CONTINUOUS
  0
LAYER
  2
14
 70
     0
 62
     7
  6
CONTINUOUS
  0
LAYER
  2
15
 70
     0
 62
     7
  6
CONTINUOUS
  0
LAYER
  2
16
 70
     0
 62
     7
  6
CONTINUOUS
  0
LAYER
  2
17
 70
     0
 62
     7
  6
CONTINUOUS
  0
LAYER
  2
18
 70
     0
 62
     7
  6
CONTINUOUS
  0
LAYER
  2
19
 70
     0
 62
     7
  6
CONTINUOUS
  0
LAYER
  2
20
 70
     0
 62
     7
  6
CONTINUOUS
  0
LAYER
  2
21
 70
     0
 62
     7
  6
CONTINUOUS
  0
LAYER
  2
22
 70
     0
 62
     7
  6
CONTINUOUS
  0
LAYER
  2
23
 70
     0
 62
     7
  6
CONTINUOUS
  0
LAYER
  2
24
 70
     0
 62
     7
  6
CONTINUOUS
  0
LAYER
  2
25
 70
     0
 62
     7
  6
CONTINUOUS
  0
LAYER
  2
26
 70
     0
 62
     7
  6
CONTINUOUS
  0
LAYER
  2
27
 70
     0
 62
     7
  6
CONTINUOUS
  0
LAYER
  2
28
 70
     0
 62
     7
  6
CONTINUOUS
  0
LAYER
  2
29
 70
     0
 62
     7
  6
CONTINUOUS
  0
LAYER
  2
30
 70
     0
 62
     7
  6
CONTINUOUS
  0
LAYER
  2
31
 70
     0
 62
     7
  6
CONTINUOUS
  0
LAYER
  2
32
 70
     0
 62
     7
  6
CONTINUOUS
  0
LAYER
  2
33
 70
     0
 62
     7
  6
CONTINUOUS
  0
LAYER
  2
34
 70
     0
 62
     7
  6
CONTINUOUS
  0
LAYER
  2
35
 70
     0
 62
     7
  6
CONTINUOUS
  0
LAYER
  2
36
 70
     0
 62
     7
  6
CONTINUOUS
  0
LAYER
  2
37
 70
     0
 62
     7
  6
CONTINUOUS
  0
LAYER
  2
38
 70
     0
 62
     7
  6
CONTINUOUS
  0
LAYER
  2
39
 70
     0
 62
     7
  6
CONTINUOUS
  0
LAYER
  2
40
 70
     0
 62
     7
  6
CONTINUOUS
  0
LAYER
  2
41
 70
     0
 62
     7
  6
CONTINUOUS
  0
LAYER
  2
42
 70
     0
 62
     7
  6
CONTINUOUS
  0
LAYER
  2
43
 70
     0
 62
     7
  6
CONTINUOUS
  0
LAYER
  2
44
 70
     0
 62
     7
  6
CONTINUOUS
  0
LAYER
  2
45
 70
     0
 62
     7
  6
CONTINUOUS
  0
LAYER
  2
46
 70
     0
 62
     7
  6
CONTINUOUS
  0
LAYER
  2
47
 70
     0
 62
     7
  6
CONTINUOUS
  0
LAYER
  2
48
 70
     0
 62
     7
  6
CONTINUOUS
  0
LAYER
  2
49
 70
     0
 62
     7
  6
CONTINUOUS
  0
LAYER
  2
50
 70
     0
 62
     7
  6
CONTINUOUS
  0
LAYER
  2
51
 70
     0
 62
     7
  6
CONTINUOUS
  0
LAYER
  2
52
 70
     0
 62
     7
  6
CONTINUOUS
  0
LAYER
  2
53
 70
     0
 62
     7
  6
CONTINUOUS
  0
LAYER
  2
54
 70
     0
 62
     7
  6
CONTINUOUS
  0
LAYER
  2
55
 70
     0
 62
     7
  6
CONTINUOUS
  0
LAYER
  2
56
 70
     0
 62
     7
  6
CONTINUOUS
  0
LAYER
  2
57
 70
     0
 62
     7
  6
CONTINUOUS
  0
LAYER
  2
58
 70
     0
 62
     7
  6
CONTINUOUS
  0
LAYER
  2
59
 70
     0
 62
     7
  6
CONTINUOUS
  0
LAYER
  2
60
 70
     0
 62
     7
  6
CONTINUOUS
  0
LAYER
  2
61
 70
     0
 62
     7
  6
CONTINUOUS
  0
LAYER
  2
62
 70
     0
 62
     7
  6
CONTINUOUS
  0
LAYER
  2
63
 70
     0
 62
     7
  6
CONTINUOUS
  0
LAYER
  2
64
 70
     0
 62
     7
  6
CONTINUOUS
  0
LAYER
  2
65
 70
     0
 62
     7
  6
CONTINUOUS
  0
LAYER
  2
66
 70
     0
 62
     7
  6
CONTINUOUS
  0
LAYER
  2
67
 70
     0
 62
     7
  6
CONTINUOUS
  0
LAYER
  2
68
 70
     0
 62
     7
  6
CONTINUOUS
  0
LAYER
  2
69
 70
     0
 62
     7
  6
CONTINUOUS
  0
LAYER
  2
70
 70
     0
 62
     7
  6
CONTINUOUS
  0
LAYER
  2
71
 70
     0
 62
     7
  6
CONTINUOUS
  0
LAYER
  2
72
 70
     0
 62
     7
  6
CONTINUOUS
  0
LAYER
  2
73
 70
     0
 62
     7
  6
CONTINUOUS
  0
LAYER
  2
74
 70
     0
 62
     7
  6
CONTINUOUS
  0
LAYER
  2
75
 70
     0
 62
     7
  6
CONTINUOUS
  0
LAYER
  2
76
 70
     0
 62
     7
  6
CONTINUOUS
  0
LAYER
  2
77
 70
     0
 62
     7
  6
CONTINUOUS
  0
LAYER
  2
78
 70
     0
 62
     7
  6
CONTINUOUS
  0
LAYER
  2
79
 70
     0
 62
     7
  6
CONTINUOUS
  0
LAYER
  2
80
 70
     0
 62
     7
  6
CONTINUOUS
  0
LAYER
  2
81
 70
     0
 62
     7
  6
CONTINUOUS
  0
LAYER
  2
82
 70
     0
 62
     7
  6
CONTINUOUS
  0
LAYER
  2
83
 70
     0
 62
     7
  6
CONTINUOUS
  0
LAYER
  2
84
 70
     0
 62
     7
  6
CONTINUOUS
  0
LAYER
  2
85
 70
     0
 62
     7
  6
CONTINUOUS
  0
LAYER
  2
86
 70
     0
 62
     7
  6
CONTINUOUS
  0
LAYER
  2
87
 70
     0
 62
     7
  6
CONTINUOUS
  0
LAYER
  2
88
 70
     0
 62
     7
  6
CONTINUOUS
  0
LAYER
  2
89
 70
     0
 62
     7
  6
CONTINUOUS
  0
LAYER
  2
90
 70
     0
 62
     7
  6
CONTINUOUS
  0
LAYER
  2
91
 70
     0
 62
     7
  6
CONTINUOUS
  0
LAYER
  2
92
 70
     0
 62
     7
  6
CONTINUOUS
  0
LAYER
  2
93
 70
     0
 62
     7
  6
CONTINUOUS
  0
LAYER
  2
94
 70
     0
 62
     7
  6
CONTINUOUS
  0
LAYER
  2
95
 70
     0
 62
     7
  6
CONTINUOUS
  0
LAYER
  2
96
 70
     0
 62
     7
  6
CONTINUOUS
  0
LAYER
  2
97
 70
     0
 62
     7
  6
CONTINUOUS
  0
LAYER
  2
98
 70
     0
 62
     7
  6
CONTINUOUS
  0
LAYER
  2
99
 70
     0
 62
     7
  6
CONTINUOUS
  0
LAYER
  2
100
 70
     0
 62
     7
  6
CONTINUOUS
  0
LAYER
  2
101
 70
     0
 62
     7
  6
CONTINUOUS
  0
LAYER
  2
102
 70
     0
 62
     7
  6
CONTINUOUS
  0
LAYER
  2
103
 70
     0
 62
     7
  6
CONTINUOUS
  0
LAYER
  2
104
 70
     0
 62
     7
  6
CONTINUOUS
  0
LAYER
  2
105
 70
     0
 62
     7
  6
CONTINUOUS
  0
LAYER
  2
106
 70
     0
 62
     7
  6
CONTINUOUS
  0
LAYER
  2
107
 70
     0
 62
     7
  6
CONTINUOUS
  0
LAYER
  2
108
 70
     0
 62
     7
  6
CONTINUOUS
  0
LAYER
  2
109
 70
     0
 62
     7
  6
CONTINUOUS
  0
LAYER
  2
110
 70
     0
 62
     7
  6
CONTINUOUS
  0
LAYER
  2
111
 70
     0
 62
     7
  6
CONTINUOUS
  0
LAYER
  2
112
 70
     0
 62
     7
  6
CONTINUOUS
  0
LAYER
  2
113
 70
     0
 62
     7
  6
CONTINUOUS
  0
LAYER
  2
114
 70
     0
 62
     7
  6
CONTINUOUS
  0
LAYER
  2
115
 70
     0
 62
     7
  6
CONTINUOUS
  0
LAYER
  2
116
 70
     0
 62
     7
  6
CONTINUOUS
  0
LAYER
  2
117
 70
     0
 62
     7
  6
CONTINUOUS
  0
LAYER
  2
118
 70
     0
 62
     7
  6
CONTINUOUS
  0
LAYER
  2
119
 70
     0
 62
     7
  6
CONTINUOUS
  0
LAYER
  2
120
 70
     0
 62
     7
  6
CONTINUOUS
  0
LAYER
  2
121
 70
     0
 62
     7
  6
CONTINUOUS
  0
LAYER
  2
122
 70
     0
 62
     7
  6
CONTINUOUS
  0
LAYER
  2
123
 70
     0
 62
     7
  6
CONTINUOUS
  0
LAYER
  2
124
 70
     0
 62
     7
  6
CONTINUOUS
  0
LAYER
  2
125
 70
     0
 62
     7
  6
CONTINUOUS
  0
LAYER
  2
126
 70
     0
 62
     7
  6
CONTINUOUS
  0
LAYER
  2
127
 70
     0
 62
     7
  6
CONTINUOUS
  0
LAYER
  2
128
 70
     0
 62
     7
  6
CONTINUOUS
  0
ENDTAB
  0
TABLE
  2
STYLE
 70
    11
  0
STYLE
  2
STANDARD
 70
     0
 40
0.0
 41
1.0
 50
0.0
 71
     0
 42
0.2
  3
txt.shx
  4
extfont.shx
  0
STYLE
  2
KANJI0
 70
     0
 40
3.0
 41
0.9
 50
0.0
 71
     0
 42
3.0
  3
txt.shx
  4
extfont.shx
  0
STYLE
  2
KANJI1
 70
     0
 40
1.0
 41
0.9
 50
0.0
 71
     0
 42
1.0
  3
txt.shx
  4
extfont.shx
  0
STYLE
  2
KANJI2
 70
     0
 40
2.0
 41
0.9
 50
0.0
 71
     0
 42
2.0
  3
txt.shx
  4
extfont.shx
  0
STYLE
  2
KANJI3
 70
     0
 40
3.0
 41
0.7
 50
0.0
 71
     0
 42
3.0
  3
txt.shx
  4
extfont.shx
  0
STYLE
  2
KANJI4
 70
     0
 40
1.5
 41
0.9
 50
0.0
 71
     0
 42
1.5
  3
txt.shx
  4
extfont.shx
  0
STYLE
  2
KANJI5
 70
     0
 40
1.5
 41
0.45
 50
0.0
 71
     0
 42
1.5
  3
txt.shx
  4
extfont.shx
  0
STYLE
  2
KANJI6
 70
     0
 40
3.0
 41
0.6
 50
0.0
 71
     0
 42
3.0
  3
txt.shx
  4
extfont.shx
  0
STYLE
  2
KANJI7
 70
     0
 40
6.0
 41
0.9
 50
0.0
 71
     0
 42
6.0
  3
txt.shx
  4
extfont.shx
  0
STYLE
  2
KANJI8
 70
     0
 40
4.0
 41
0.9
 50
0.0
 71
     0
 42
4.0
  3
txt.shx
  4
extfont.shx
  0
STYLE
  2
KANJI9
 70
     0
 40
1.8
 41
0.6
 50
0.0
 71
     0
 42
1.8
  3
txt.shx
  4
extfont.shx
  0
ENDTAB
  0
TABLE
  2
VIEW
 70
     0
  0
ENDTAB
  0
ENDSEC
  0
SECTION
  2
BLOCKS
  0
ENDSEC
  0
SECTION
  2
ENTITIES
  0
ARC
  8
0
  6
CONTINUOUS
 62
     1
 10
12.625
 20
126.625
 30
0.0
 40
1.625
 50
180.0
 51
270.0
  0
ARC
  8
0
  6
CONTINUOUS
 62
     1
 10
12.625
 20
173.375
 30
0.0
 40
1.625
 50
90.0
 51
180.0
  0
LINE
  8
0
  6
CONTINUOUS
 62
     1
 10
11.0
 20
173.375
 30
0.0
 11
11.0
 21
126.625
 31
0.0
  0
LINE
  8
0
  6
CONTINUOUS
 62
     1
 10
12.625
 20
125.0
 30
0.0
 11
56.0
 21
125.0
 31
0.0
  0
LINE
  8
0
  6
CONTINUOUS
 62
     1
 10
56.0
 20
175.0
 30
0.0
 11
12.625
 21
175.0
 31
0.0
  0
TEXT
  8
0
  6
CONTINUOUS
 62
     2
 10
176.2
 20
51.0
 30
0.3
 40
3.0
  1
パネルカット
 50
0.0
 41
0.9
 51
0.0
  7
KANJI0
  0
LINE
  8
0
  6
CONTINUOUS
 62
     2
 10
176.0
 20
50.0
 30
0.0
 11
194.0
 21
50.0
 31
0.0
  0
CIRCLE
  8
0
  6
CONTINUOUS
 62
     2
 10
141.0
 20
53.0
 30
0.0
 40
1.375
  0
CIRCLE
  8
0
  6
CONTINUOUS
 62
     2
 10
141.0
 20
57.5
 30
0.0
 40
1.375
  0
CIRCLE
  8
0
  6
CONTINUOUS
 62
     2
 10
141.0
 20
62.0
 30
0.0
 40
1.375
  0
CIRCLE
  8
0
  6
CONTINUOUS
 62
     2
 10
141.0
 20
48.5
 30
0.0
 40
1.375
  0
CIRCLE
  8
0
  6
CONTINUOUS
 62
     2
 10
141.0
 20
44.0
 30
0.0
 40
1.375
  0
CIRCLE
  8
0
  6
CONTINUOUS
 62
     2
 10
149.0
 20
53.0
 30
0.0
 40
1.375
  0
CIRCLE
  8
0
  6
CONTINUOUS
 62
     2
 10
149.0
 20
57.5
 30
0.0
 40
1.375
  0
CIRCLE
  8
0
  6
CONTINUOUS
 62
     2
 10
149.0
 20
62.0
 30
0.0
 40
1.375
  0
CIRCLE
  8
0
  6
CONTINUOUS
 62
     2
 10
149.0
 20
48.5
 30
0.0
 40
1.375
  0
CIRCLE
  8
0
  6
CONTINUOUS
 62
     2
 10
149.0
 20
44.0
 30
0.0
 40
1.375
  0
LINE
  8
0
  6
CONTINUOUS
 62
     2
 10
133.0
 20
62.0
 30
0.0
 11
135.414814566
 21
61.352952387
 31
0.0
  0
LINE
  8
0
  6
CONTINUOUS
 62
     2
 10
133.0
 20
62.0
 30
0.0
 11
135.414814566
 21
62.647047613
 31
0.0
  0
LINE
  8
0
  6
CONTINUOUS
 62
     2
 10
133.0
 20
57.5
 30
0.0
 11
135.414814566
 21
56.852952387
 31
0.0
  0
LINE
  8
0
  6
CONTINUOUS
 62
     2
 10
133.0
 20
57.5
 30
0.0
 11
135.414814566
 21
58.147047613
 31
0.0
  0
LINE
  8
0
  6
CONTINUOUS
 62
     2
 10
139.625
 20
57.5
 30
0.0
 11
133.0
 21
57.5
 31
0.0
  0
LINE
  8
0
  6
CONTINUOUS
 62
     2
 10
137.5
 20
62.0
 30
0.0
 11
133.0
 21
62.0
 31
0.0
  0
TEXT
  8
0
  6
CONTINUOUS
 62
     2
 10
137.0
 20
61.5
 30
0.1
 40
1.0
  1
（＋）
 50
0.0
 41
0.9
 51
0.0
  7
KANJI1
  0
LINE
  8
0
  6
CONTINUOUS
 62
     2
 10
150.375
 20
57.5
 30
0.0
 11
157.0
 21
57.5
 31
0.0
  0
LINE
  8
0
  6
CONTINUOUS
 62
     2
 10
152.5
 20
62.0
 30
0.0
 11
157.0
 21
62.0
 31
0.0
  0
TEXT
  8
0
  6
CONTINUOUS
 62
     2
 10
150.1
 20
61.5
 30
0.1
 40
1.0
  1
（＋）
 50
0.0
 41
0.9
 51
0.0
  7
KANJI1
  0
TEXT
  8
0
  6
CONTINUOUS
 62
     2
 10
153.9
 20
58.3
 30
0.3
 40
3.0
  1
制御電源
 50
0.0
 41
0.9
 51
0.0
  7
KANJI0
  0
TEXT
  8
0
  6
CONTINUOUS
 62
     2
 10
120.9
 20
58.3
 30
0.3
 40
3.0
  1
計器入力
 50
0.0
 41
0.9
 51
0.0
  7
KANJI0
  0
CIRCLE
  8
0
  6
CONTINUOUS
 62
     2
 10
153.0
 20
53.0
 30
0.0
 40
1.0
  0
LINE
  8
0
  6
CONTINUOUS
 62
     2
 10
160.352952387
 20
50.585185434
 30
0.0
 11
159.705904774
 21
53.0
 31
0.0
  0
LINE
  8
0
  6
CONTINUOUS
 62
     2
 10
160.352952387
 20
50.585185434
 30
0.0
 11
161.0
 21
53.0
 31
0.0
  0
LINE
  8
0
  6
CONTINUOUS
 62
     2
 10
160.352952387
 20
46.414814566
 30
0.0
 11
159.705904774
 21
44.0
 31
0.0
  0
LINE
  8
0
  6
CONTINUOUS
 62
     2
 10
160.352952387
 20
46.414814566
 30
0.0
 11
161.0
 21
44.0
 31
0.0
  0
LINE
  8
0
  6
CONTINUOUS
 62
     2
 10
160.352952387
 20
45.642073905
 30
0.0
 11
160.739354925
 21
44.2
 31
0.0
  0
LINE
  8
0
  6
CONTINUOUS
 62
     2
 10
160.352952387
 20
44.869333244
 30
0.0
 11
160.478709851
 21
44.4
 31
0.0
  0
LINE
  8
0
  6
CONTINUOUS
 62
     2
 10
160.352952387
 20
44.869333244
 30
0.0
 11
160.227194924
 21
44.4
 31
0.0
  0
LINE
  8
0
  6
CONTINUOUS
 62
     2
 10
160.227194924
 20
44.4
 30
0.0
 11
160.478709851
 21
44.4
 31
0.0
  0
LINE
  8
0
  6
CONTINUOUS
 62
     2
 10
160.352952387
 20
45.642073905
 30
0.0
 11
159.966549849
 21
44.2
 31
0.0
  0
LINE
  8
0
  6
CONTINUOUS
 62
     2
 10
160.739354925
 20
44.2
 30
0.0
 11
159.966549849
 21
44.2
 31
0.0
  0
CIRCLE
  8
0
  6
CONTINUOUS
 62
     2
 10
153.0
 20
48.5
 30
0.0
 40
1.0
  0
CIRCLE
  8
0
  6
CONTINUOUS
 62
     2
 10
153.0
 20
44.0
 30
0.0
 40
1.0
  0
LINE
  8
0
  6
CONTINUOUS
 62
     2
 10
154.0
 20
53.0
 30
0.0
 11
161.0
 21
53.0
 31
0.0
  0
LINE
  8
0
  6
CONTINUOUS
 62
     2
 10
153.962063251
 20
48.227173498
 30
0.0
 11
161.352952387
 21
46.131229779
 31
0.0
  0
LINE
  8
0
  6
CONTINUOUS
 62
     2
 10
154.0
 20
44.0
 30
0.0
 11
161.0
 21
44.0
 31
0.0
  0
TEXT
  8
0
  6
CONTINUOUS
 62
     2
 10
161.9
 20
50.3
 30
0.3
 40
3.0
  1
Ｌ側
 50
0.0
 41
0.9
 51
0.0
  7
KANJI0
  0
TEXT
  8
0
  6
CONTINUOUS
 62
     2
 10
161.9
 20
45.3
 30
0.3
 40
3.0
  1
負荷リレ－
 50
0.0
 41
0.9
 51
0.0
  7
KANJI0
  0
TEXT
  8
0
  6
CONTINUOUS
 62
     2
 10
150.275
 20
52.4
 30
0.2
 40
2.0
  1
ａ
 50
0.0
 41
0.9
 51
0.0
  7
KANJI2
  0
TEXT
  8
0
  6
CONTINUOUS
 62
     2
 10
150.275
 20
47.9
 30
0.2
 40
2.0
  1
ｃ
 50
0.0
 41
0.9
 51
0.0
  7
KANJI2
  0
TEXT
  8
0
  6
CONTINUOUS
 62
     2
 10
150.275
 20
43.4
 30
0.2
 40
2.0
  1
ｂ
 50
0.0
 41
0.9
 51
0.0
  7
KANJI2
  0
CIRCLE
  8
0
  6
CONTINUOUS
 62
     2
 10
93.0
 20
53.0
 30
0.0
 40
1.375
  0
CIRCLE
  8
0
  6
CONTINUOUS
 62
     2
 10
93.0
 20
57.5
 30
0.0
 40
1.375
  0
CIRCLE
  8
0
  6
CONTINUOUS
 62
     2
 10
93.0
 20
62.0
 30
0.0
 40
1.375
  0
CIRCLE
  8
0
  6
CONTINUOUS
 62
     2
 10
93.0
 20
48.5
 30
0.0
 40
1.375
  0
CIRCLE
  8
0
  6
CONTINUOUS
 62
     2
 10
93.0
 20
44.0
 30
0.0
 40
1.375
  0
CIRCLE
  8
0
  6
CONTINUOUS
 62
     2
 10
101.0
 20
53.0
 30
0.0
 40
1.375
  0
CIRCLE
  8
0
  6
CONTINUOUS
 62
     2
 10
101.0
 20
57.5
 30
0.0
 40
1.375
  0
CIRCLE
  8
0
  6
CONTINUOUS
 62
     2
 10
101.0
 20
62.0
 30
0.0
 40
1.375
  0
CIRCLE
  8
0
  6
CONTINUOUS
 62
     2
 10
101.0
 20
48.5
 30
0.0
 40
1.375
  0
CIRCLE
  8
0
  6
CONTINUOUS
 62
     2
 10
101.0
 20
44.0
 30
0.0
 40
1.375
  0
LINE
  8
0
  6
CONTINUOUS
 62
     2
 10
85.0
 20
62.0
 30
0.0
 11
87.414814566
 21
61.352952387
 31
0.0
  0
LINE
  8
0
  6
CONTINUOUS
 62
     2
 10
85.0
 20
62.0
 30
0.0
 11
87.414814566
 21
62.647047613
 31
0.0
  0
LINE
  8
0
  6
CONTINUOUS
 62
     2
 10
85.0
 20
57.5
 30
0.0
 11
87.414814566
 21
56.852952387
 31
0.0
  0
LINE
  8
0
  6
CONTINUOUS
 62
     2
 10
85.0
 20
57.5
 30
0.0
 11
87.414814566
 21
58.147047613
 31
0.0
  0
LINE
  8
0
  6
CONTINUOUS
 62
     2
 10
91.625
 20
57.5
 30
0.0
 11
85.0
 21
57.5
 31
0.0
  0
LINE
  8
0
  6
CONTINUOUS
 62
     2
 10
89.5
 20
62.0
 30
0.0
 11
85.0
 21
62.0
 31
0.0
  0
TEXT
  8
0
  6
CONTINUOUS
 62
     2
 10
89.0
 20
61.5
 30
0.1
 40
1.0
  1
（＋）
 50
0.0
 41
0.9
 51
0.0
  7
KANJI1
  0
LINE
  8
0
  6
CONTINUOUS
 62
     2
 10
102.375
 20
57.5
 30
0.0
 11
109.0
 21
57.5
 31
0.0
  0
LINE
  8
0
  6
CONTINUOUS
 62
     2
 10
104.5
 20
62.0
 30
0.0
 11
109.0
 21
62.0
 31
0.0
  0
TEXT
  8
0
  6
CONTINUOUS
 62
     2
 10
102.1
 20
61.5
 30
0.1
 40
1.0
  1
（＋）
 50
0.0
 41
0.9
 51
0.0
  7
KANJI1
  0
TEXT
  8
0
  6
CONTINUOUS
 62
     2
 10
105.9
 20
58.3
 30
0.3
 40
3.0
  1
制御電源
 50
0.0
 41
0.9
 51
0.0
  7
KANJI0
  0
TEXT
  8
0
  6
CONTINUOUS
 62
     2
 10
72.9
 20
58.3
 30
0.3
 40
3.0
  1
計器入力
 50
0.0
 41
0.9
 51
0.0
  7
KANJI0
  0
CIRCLE
  8
0
  6
CONTINUOUS
 62
     2
 10
89.0
 20
53.0
 30
0.0
 40
1.0
  0
LINE
  8
0
  6
CONTINUOUS
 62
     2
 10
81.647047613
 20
50.585185434
 30
0.0
 11
82.294095226
 21
53.0
 31
0.0
  0
LINE
  8
0
  6
CONTINUOUS
 62
     2
 10
81.647047613
 20
50.585185434
 30
0.0
 11
81.0
 21
53.0
 31
0.0
  0
LINE
  8
0
  6
CONTINUOUS
 62
     2
 10
81.647047613
 20
46.414814566
 30
0.0
 11
82.294095226
 21
44.0
 31
0.0
  0
LINE
  8
0
  6
CONTINUOUS
 62
     2
 10
81.647047613
 20
46.414814566
 30
0.0
 11
81.0
 21
44.0
 31
0.0
  0
LINE
  8
0
  6
CONTINUOUS
 62
     2
 10
81.647047613
 20
45.642073905
 30
0.0
 11
81.260645075
 21
44.2
 31
0.0
  0
LINE
  8
0
  6
CONTINUOUS
 62
     2
 10
81.647047613
 20
44.869333244
 30
0.0
 11
81.521290149
 21
44.4
 31
0.0
  0
LINE
  8
0
  6
CONTINUOUS
 62
     2
 10
81.647047613
 20
44.869333244
 30
0.0
 11
81.772805076
 21
44.4
 31
0.0
  0
LINE
  8
0
  6
CONTINUOUS
 62
     2
 10
81.772805076
 20
44.4
 30
0.0
 11
81.521290149
 21
44.4
 31
0.0
  0
LINE
  8
0
  6
CONTINUOUS
 62
     2
 10
81.647047613
 20
45.642073905
 30
0.0
 11
82.033450151
 21
44.2
 31
0.0
  0
LINE
  8
0
  6
CONTINUOUS
 62
     2
 10
81.260645075
 20
44.2
 30
0.0
 11
82.033450151
 21
44.2
 31
0.0
  0
CIRCLE
  8
0
  6
CONTINUOUS
 62
     2
 10
89.0
 20
48.5
 30
0.0
 40
1.0
  0
CIRCLE
  8
0
  6
CONTINUOUS
 62
     2
 10
89.0
 20
44.0
 30
0.0
 40
1.0
  0
LINE
  8
0
  6
CONTINUOUS
 62
     2
 10
88.0
 20
53.0
 30
0.0
 11
81.0
 21
53.0
 31
0.0
  0
LINE
  8
0
  6
CONTINUOUS
 62
     2
 10
88.037936749
 20
48.227173498
 30
0.0
 11
80.647047613
 21
46.131229779
 31
0.0
  0
LINE
  8
0
  6
CONTINUOUS
 62
     2
 10
88.0
 20
44.0
 30
0.0
 11
81.0
 21
44.0
 31
0.0
  0
TEXT
  8
0
  6
CONTINUOUS
 62
     2
 10
89.9
 20
52.4
 30
0.2
 40
2.0
  1
ａ
 50
0.0
 41
0.9
 51
0.0
  7
KANJI2
  0
TEXT
  8
0
  6
CONTINUOUS
 62
     2
 10
89.9
 20
47.9
 30
0.2
 40
2.0
  1
ｃ
 50
0.0
 41
0.9
 51
0.0
  7
KANJI2
  0
TEXT
  8
0
  6
CONTINUOUS
 62
     2
 10
89.9
 20
43.4
 30
0.2
 40
2.0
  1
ｂ
 50
0.0
 41
0.9
 51
0.0
  7
KANJI2
  0
TEXT
  8
0
  6
CONTINUOUS
 62
     2
 10
71.9
 20
50.3
 30
0.3
 40
3.0
  1
Ｈ側
 50
0.0
 41
0.9
 51
0.0
  7
KANJI0
  0
CIRCLE
  8
0
  6
CONTINUOUS
 62
     2
 10
36.0
 20
53.0
 30
0.0
 40
1.375
  0
CIRCLE
  8
0
  6
CONTINUOUS
 62
     2
 10
36.0
 20
57.5
 30
0.0
 40
1.375
  0
CIRCLE
  8
0
  6
CONTINUOUS
 62
     2
 10
36.0
 20
62.0
 30
0.0
 40
1.375
  0
CIRCLE
  8
0
  6
CONTINUOUS
 62
     2
 10
36.0
 20
48.5
 30
0.0
 40
1.375
  0
CIRCLE
  8
0
  6
CONTINUOUS
 62
     2
 10
36.0
 20
44.0
 30
0.0
 40
1.375
  0
CIRCLE
  8
0
  6
CONTINUOUS
 62
     2
 10
44.0
 20
53.0
 30
0.0
 40
1.375
  0
CIRCLE
  8
0
  6
CONTINUOUS
 62
     2
 10
44.0
 20
57.5
 30
0.0
 40
1.375
  0
CIRCLE
  8
0
  6
CONTINUOUS
 62
     2
 10
44.0
 20
62.0
 30
0.0
 40
1.375
  0
CIRCLE
  8
0
  6
CONTINUOUS
 62
     2
 10
44.0
 20
48.5
 30
0.0
 40
1.375
  0
CIRCLE
  8
0
  6
CONTINUOUS
 62
     2
 10
44.0
 20
44.0
 30
0.0
 40
1.375
  0
LINE
  8
0
  6
CONTINUOUS
 62
     2
 10
28.0
 20
62.0
 30
0.0
 11
30.414814566
 21
61.352952387
 31
0.0
  0
LINE
  8
0
  6
CONTINUOUS
 62
     2
 10
28.0
 20
62.0
 30
0.0
 11
30.414814566
 21
62.647047613
 31
0.0
  0
LINE
  8
0
  6
CONTINUOUS
 62
     2
 10
28.0
 20
57.5
 30
0.0
 11
30.414814566
 21
56.852952387
 31
0.0
  0
LINE
  8
0
  6
CONTINUOUS
 62
     2
 10
28.0
 20
57.5
 30
0.0
 11
30.414814566
 21
58.147047613
 31
0.0
  0
LINE
  8
0
  6
CONTINUOUS
 62
     2
 10
34.625
 20
57.5
 30
0.0
 11
28.0
 21
57.5
 31
0.0
  0
LINE
  8
0
  6
CONTINUOUS
 62
     2
 10
32.5
 20
62.0
 30
0.0
 11
28.0
 21
62.0
 31
0.0
  0
TEXT
  8
0
  6
CONTINUOUS
 62
     2
 10
32.0
 20
61.5
 30
0.1
 40
1.0
  1
（＋）
 50
0.0
 41
0.9
 51
0.0
  7
KANJI1
  0
LINE
  8
0
  6
CONTINUOUS
 62
     2
 10
45.375
 20
57.5
 30
0.0
 11
52.0
 21
57.5
 31
0.0
  0
LINE
  8
0
  6
CONTINUOUS
 62
     2
 10
47.5
 20
62.0
 30
0.0
 11
52.0
 21
62.0
 31
0.0
  0
TEXT
  8
0
  6
CONTINUOUS
 62
     2
 10
45.1
 20
61.5
 30
0.1
 40
1.0
  1
（＋）
 50
0.0
 41
0.9
 51
0.0
  7
KANJI1
  0
TEXT
  8
0
  6
CONTINUOUS
 62
     2
 10
48.9
 20
58.3
 30
0.3
 40
3.0
  1
制御電源
 50
0.0
 41
0.9
 51
0.0
  7
KANJI0
  0
TEXT
  8
0
  6
CONTINUOUS
 62
     2
 10
15.9
 20
58.3
 30
0.3
 40
3.0
  1
計器入力
 50
0.0
 41
0.9
 51
0.0
  7
KANJI0
  0
CIRCLE
  8
0
  6
CONTINUOUS
 62
     2
 10
32.0
 20
53.0
 30
0.0
 40
1.0
  0
LINE
  8
0
  6
CONTINUOUS
 62
     2
 10
24.647047613
 20
50.585185434
 30
0.0
 11
25.294095226
 21
53.0
 31
0.0
  0
LINE
  8
0
  6
CONTINUOUS
 62
     2
 10
24.647047613
 20
50.585185434
 30
0.0
 11
24.0
 21
53.0
 31
0.0
  0
LINE
  8
0
  6
CONTINUOUS
 62
     2
 10
24.647047613
 20
46.414814566
 30
0.0
 11
25.294095226
 21
44.0
 31
0.0
  0
LINE
  8
0
  6
CONTINUOUS
 62
     2
 10
24.647047613
 20
46.414814566
 30
0.0
 11
24.0
 21
44.0
 31
0.0
  0
LINE
  8
0
  6
CONTINUOUS
 62
     2
 10
24.647047613
 20
45.642073905
 30
0.0
 11
24.260645075
 21
44.2
 31
0.0
  0
LINE
  8
0
  6
CONTINUOUS
 62
     2
 10
24.647047613
 20
44.869333244
 30
0.0
 11
24.521290149
 21
44.4
 31
0.0
  0
LINE
  8
0
  6
CONTINUOUS
 62
     2
 10
24.647047613
 20
44.869333244
 30
0.0
 11
24.772805076
 21
44.4
 31
0.0
  0
LINE
  8
0
  6
CONTINUOUS
 62
     2
 10
24.772805076
 20
44.4
 30
0.0
 11
24.521290149
 21
44.4
 31
0.0
  0
LINE
  8
0
  6
CONTINUOUS
 62
     2
 10
24.647047613
 20
45.642073905
 30
0.0
 11
25.033450151
 21
44.2
 31
0.0
  0
LINE
  8
0
  6
CONTINUOUS
 62
     2
 10
24.260645075
 20
44.2
 30
0.0
 11
25.033450151
 21
44.2
 31
0.0
  0
CIRCLE
  8
0
  6
CONTINUOUS
 62
     2
 10
32.0
 20
48.5
 30
0.0
 40
1.0
  0
CIRCLE
  8
0
  6
CONTINUOUS
 62
     2
 10
32.0
 20
44.0
 30
0.0
 40
1.0
  0
LINE
  8
0
  6
CONTINUOUS
 62
     2
 10
31.0
 20
53.0
 30
0.0
 11
24.0
 21
53.0
 31
0.0
  0
LINE
  8
0
  6
CONTINUOUS
 62
     2
 10
31.037936749
 20
48.227173498
 30
0.0
 11
23.647047613
 21
46.131229779
 31
0.0
  0
LINE
  8
0
  6
CONTINUOUS
 62
     2
 10
31.0
 20
44.0
 30
0.0
 11
24.0
 21
44.0
 31
0.0
  0
TEXT
  8
0
  6
CONTINUOUS
 62
     2
 10
32.9
 20
52.4
 30
0.2
 40
2.0
  1
ａ
 50
0.0
 41
0.9
 51
0.0
  7
KANJI2
  0
TEXT
  8
0
  6
CONTINUOUS
 62
     2
 10
32.9
 20
47.9
 30
0.2
 40
2.0
  1
ｃ
 50
0.0
 41
0.9
 51
0.0
  7
KANJI2
  0
TEXT
  8
0
  6
CONTINUOUS
 62
     2
 10
32.9
 20
43.4
 30
0.2
 40
2.0
  1
ｂ
 50
0.0
 41
0.9
 51
0.0
  7
KANJI2
  0
CIRCLE
  8
0
  6
CONTINUOUS
 62
     2
 10
48.0
 20
53.0
 30
0.0
 40
1.0
  0
LINE
  8
0
  6
CONTINUOUS
 62
     2
 10
55.352952387
 20
50.585185434
 30
0.0
 11
54.705904774
 21
53.0
 31
0.0
  0
LINE
  8
0
  6
CONTINUOUS
 62
     2
 10
55.352952387
 20
50.585185434
 30
0.0
 11
56.0
 21
53.0
 31
0.0
  0
LINE
  8
0
  6
CONTINUOUS
 62
     2
 10
55.352952387
 20
46.414814566
 30
0.0
 11
54.705904774
 21
44.0
 31
0.0
  0
LINE
  8
0
  6
CONTINUOUS
 62
     2
 10
55.352952387
 20
46.414814566
 30
0.0
 11
56.0
 21
44.0
 31
0.0
  0
LINE
  8
0
  6
CONTINUOUS
 62
     2
 10
55.352952387
 20
45.642073905
 30
0.0
 11
55.739354925
 21
44.2
 31
0.0
  0
LINE
  8
0
  6
CONTINUOUS
 62
     2
 10
55.352952387
 20
44.869333244
 30
0.0
 11
55.478709851
 21
44.4
 31
0.0
  0
LINE
  8
0
  6
CONTINUOUS
 62
     2
 10
55.352952387
 20
44.869333244
 30
0.0
 11
55.227194924
 21
44.4
 31
0.0
  0
LINE
  8
0
  6
CONTINUOUS
 62
     2
 10
55.227194924
 20
44.4
 30
0.0
 11
55.478709851
 21
44.4
 31
0.0
  0
LINE
  8
0
  6
CONTINUOUS
 62
     2
 10
55.352952387
 20
45.642073905
 30
0.0
 11
54.966549849
 21
44.2
 31
0.0
  0
LINE
  8
0
  6
CONTINUOUS
 62
     2
 10
55.739354925
 20
44.2
 30
0.0
 11
54.966549849
 21
44.2
 31
0.0
  0
CIRCLE
  8
0
  6
CONTINUOUS
 62
     2
 10
48.0
 20
48.5
 30
0.0
 40
1.0
  0
CIRCLE
  8
0
  6
CONTINUOUS
 62
     2
 10
48.0
 20
44.0
 30
0.0
 40
1.0
  0
LINE
  8
0
  6
CONTINUOUS
 62
     2
 10
49.0
 20
53.0
 30
0.0
 11
56.0
 21
53.0
 31
0.0
  0
LINE
  8
0
  6
CONTINUOUS
 62
     2
 10
48.962063251
 20
48.227173498
 30
0.0
 11
56.352952387
 21
46.131229779
 31
0.0
  0
LINE
  8
0
  6
CONTINUOUS
 62
     2
 10
49.0
 20
44.0
 30
0.0
 11
56.0
 21
44.0
 31
0.0
  0
TEXT
  8
0
  6
CONTINUOUS
 62
     2
 10
56.9
 20
50.3
 30
0.3
 40
3.0
  1
Ｌ側
 50
0.0
 41
0.9
 51
0.0
  7
KANJI0
  0
TEXT
  8
0
  6
CONTINUOUS
 62
     2
 10
45.275
 20
52.4
 30
0.2
 40
2.0
  1
ａ
 50
0.0
 41
0.9
 51
0.0
  7
KANJI2
  0
TEXT
  8
0
  6
CONTINUOUS
 62
     2
 10
45.275
 20
47.9
 30
0.2
 40
2.0
  1
ｃ
 50
0.0
 41
0.9
 51
0.0
  7
KANJI2
  0
TEXT
  8
0
  6
CONTINUOUS
 62
     2
 10
45.275
 20
43.4
 30
0.2
 40
2.0
  1
ｂ
 50
0.0
 41
0.9
 51
0.0
  7
KANJI2
  0
TEXT
  8
0
  6
CONTINUOUS
 62
     2
 10
9.9
 20
45.3
 30
0.3
 40
3.0
  1
負荷リレ－
 50
0.0
 41
0.9
 51
0.0
  7
KANJI0
  0
TEXT
  8
0
  6
CONTINUOUS
 62
     2
 10
9.9
 20
50.3
 30
0.3
 40
3.0
  1
Ｈ側
 50
0.0
 41
0.9
 51
0.0
  7
KANJI0
  0
TEXT
  8
0
  6
CONTINUOUS
 62
     2
 10
56.9
 20
45.3
 30
0.2
 40
3.0
  1
負荷リレ－
 50
0.0
 41
0.7
 51
0.0
  7
KANJI3
  0
TEXT
  8
0
  6
CONTINUOUS
 62
     2
 10
69.9
 20
45.3
 30
0.2
 40
3.0
  1
負荷リレ－
 50
0.0
 41
0.7
 51
0.0
  7
KANJI3
  0
TEXT
  8
0
  6
CONTINUOUS
 62
     2
 10
19.0
 20
35.0
 30
0.3
 40
3.0
  1
Ｈ，Ｌ設定用端子構成及び設定部
 50
0.0
 41
0.9
 51
0.0
  7
KANJI0
  0
LINE
  8
0
  6
CONTINUOUS
 62
     2
 10
19.0
 20
34.0
 30
0.0
 11
62.0
 21
34.0
 31
0.0
  0
TEXT
  8
0
  6
CONTINUOUS
 62
     2
 10
78.5
 20
35.0
 30
0.3
 40
3.0
  1
Ｈ設定用端子構成及び設定部
 50
0.0
 41
0.9
 51
0.0
  7
KANJI0
  0
LINE
  8
0
  6
CONTINUOUS
 62
     2
 10
78.0
 20
34.0
 30
0.0
 11
117.0
 21
34.0
 31
0.0
  0
TEXT
  8
0
  6
CONTINUOUS
 62
     2
 10
126.5
 20
35.0
 30
0.3
 40
3.0
  1
Ｌ設定用端子構成及び設定部
 50
0.0
 41
0.9
 51
0.0
  7
KANJI0
  0
LINE
  8
0
  6
CONTINUOUS
 62
     2
 10
126.0
 20
34.0
 30
0.0
 11
165.0
 21
34.0
 31
0.0
  0
TEXT
  8
0
  6
CONTINUOUS
 62
     2
 10
37.9
 20
61.25
 30
0.15
 40
1.5
  1
１
 50
0.0
 41
0.9
 51
0.0
  7
KANJI4
  0
TEXT
  8
0
  6
CONTINUOUS
 62
     2
 10
37.9
 20
56.75
 30
0.15
 40
1.5
  1
２
 50
0.0
 41
0.9
 51
0.0
  7
KANJI4
  0
TEXT
  8
0
  6
CONTINUOUS
 62
     2
 10
37.9
 20
52.25
 30
0.15
 40
1.5
  1
３
 50
0.0
 41
0.9
 51
0.0
  7
KANJI4
  0
TEXT
  8
0
  6
CONTINUOUS
 62
     2
 10
37.9
 20
47.75
 30
0.15
 40
1.5
  1
４
 50
0.0
 41
0.9
 51
0.0
  7
KANJI4
  0
TEXT
  8
0
  6
CONTINUOUS
 62
     2
 10
37.9
 20
43.25
 30
0.15
 40
1.5
  1
５
 50
0.0
 41
0.9
 51
0.0
  7
KANJI4
  0
TEXT
  8
0
  6
CONTINUOUS
 62
     2
 10
40.9
 20
61.25
 30
0.15
 40
1.5
  1
９
 50
0.0
 41
0.9
 51
0.0
  7
KANJI4
  0
TEXT
  8
0
  6
CONTINUOUS
 62
     2
 10
40.9
 20
56.75
 30
0.15
 40
1.5
  1
１０
 50
0.0
 41
0.45
 51
0.0
  7
KANJI5
  0
TEXT
  8
0
  6
CONTINUOUS
 62
     2
 10
40.9
 20
52.25
 30
0.15
 40
1.5
  1
６
 50
0.0
 41
0.9
 51
0.0
  7
KANJI4
  0
TEXT
  8
0
  6
CONTINUOUS
 62
     2
 10
40.9
 20
47.75
 30
0.15
 40
1.5
  1
７
 50
0.0
 41
0.9
 51
0.0
  7
KANJI4
  0
TEXT
  8
0
  6
CONTINUOUS
 62
     2
 10
40.9
 20
43.25
 30
0.15
 40
1.5
  1
８
 50
0.0
 41
0.9
 51
0.0
  7
KANJI4
  0
TEXT
  8
0
  6
CONTINUOUS
 62
     2
 10
94.9
 20
61.25
 30
0.15
 40
1.5
  1
１
 50
0.0
 41
0.9
 51
0.0
  7
KANJI4
  0
TEXT
  8
0
  6
CONTINUOUS
 62
     2
 10
94.9
 20
56.75
 30
0.15
 40
1.5
  1
２
 50
0.0
 41
0.9
 51
0.0
  7
KANJI4
  0
TEXT
  8
0
  6
CONTINUOUS
 62
     2
 10
94.9
 20
52.25
 30
0.15
 40
1.5
  1
３
 50
0.0
 41
0.9
 51
0.0
  7
KANJI4
  0
TEXT
  8
0
  6
CONTINUOUS
 62
     2
 10
94.9
 20
47.75
 30
0.15
 40
1.5
  1
４
 50
0.0
 41
0.9
 51
0.0
  7
KANJI4
  0
TEXT
  8
0
  6
CONTINUOUS
 62
     2
 10
94.9
 20
43.25
 30
0.15
 40
1.5
  1
５
 50
0.0
 41
0.9
 51
0.0
  7
KANJI4
  0
TEXT
  8
0
  6
CONTINUOUS
 62
     2
 10
97.9
 20
61.25
 30
0.15
 40
1.5
  1
９
 50
0.0
 41
0.9
 51
0.0
  7
KANJI4
  0
TEXT
  8
0
  6
CONTINUOUS
 62
     2
 10
97.9
 20
56.75
 30
0.15
 40
1.5
  1
１０
 50
0.0
 41
0.45
 51
0.0
  7
KANJI5
  0
TEXT
  8
0
  6
CONTINUOUS
 62
     2
 10
97.9
 20
52.25
 30
0.15
 40
1.5
  1
６
 50
0.0
 41
0.9
 51
0.0
  7
KANJI4
  0
TEXT
  8
0
  6
CONTINUOUS
 62
     2
 10
97.9
 20
47.75
 30
0.15
 40
1.5
  1
７
 50
0.0
 41
0.9
 51
0.0
  7
KANJI4
  0
TEXT
  8
0
  6
CONTINUOUS
 62
     2
 10
97.9
 20
43.25
 30
0.15
 40
1.5
  1
８
 50
0.0
 41
0.9
 51
0.0
  7
KANJI4
  0
TEXT
  8
0
  6
CONTINUOUS
 62
     2
 10
142.9
 20
61.25
 30
0.15
 40
1.5
  1
１
 50
0.0
 41
0.9
 51
0.0
  7
KANJI4
  0
TEXT
  8
0
  6
CONTINUOUS
 62
     2
 10
142.9
 20
56.75
 30
0.15
 40
1.5
  1
２
 50
0.0
 41
0.9
 51
0.0
  7
KANJI4
  0
TEXT
  8
0
  6
CONTINUOUS
 62
     2
 10
142.9
 20
52.25
 30
0.15
 40
1.5
  1
３
 50
0.0
 41
0.9
 51
0.0
  7
KANJI4
  0
TEXT
  8
0
  6
CONTINUOUS
 62
     2
 10
142.9
 20
47.75
 30
0.15
 40
1.5
  1
４
 50
0.0
 41
0.9
 51
0.0
  7
KANJI4
  0
TEXT
  8
0
  6
CONTINUOUS
 62
     2
 10
142.9
 20
43.25
 30
0.15
 40
1.5
  1
５
 50
0.0
 41
0.9
 51
0.0
  7
KANJI4
  0
TEXT
  8
0
  6
CONTINUOUS
 62
     2
 10
145.9
 20
61.25
 30
0.15
 40
1.5
  1
９
 50
0.0
 41
0.9
 51
0.0
  7
KANJI4
  0
TEXT
  8
0
  6
CONTINUOUS
 62
     2
 10
145.9
 20
56.75
 30
0.15
 40
1.5
  1
１０
 50
0.0
 41
0.45
 51
0.0
  7
KANJI5
  0
TEXT
  8
0
  6
CONTINUOUS
 62
     2
 10
145.9
 20
52.25
 30
0.15
 40
1.5
  1
６
 50
0.0
 41
0.9
 51
0.0
  7
KANJI4
  0
TEXT
  8
0
  6
CONTINUOUS
 62
     2
 10
145.9
 20
47.75
 30
0.15
 40
1.5
  1
７
 50
0.0
 41
0.9
 51
0.0
  7
KANJI4
  0
TEXT
  8
0
  6
CONTINUOUS
 62
     2
 10
145.9
 20
43.25
 30
0.15
 40
1.5
  1
８
 50
0.0
 41
0.9
 51
0.0
  7
KANJI4
  0
LINE
  8
0
  6
CONTINUOUS
 62
     2
 10
133.5
 20
89.25
 30
0.0
 11
156.5
 21
89.25
 31
0.0
  0
LINE
  8
0
  6
CONTINUOUS
 62
     2
 10
156.049420471
 20
93.305215763
 30
0.0
 11
156.5
 21
89.25
 31
0.0
  0
ARC
  8
0
  6
CONTINUOUS
 62
     2
 10
155.552478603
 20
93.25
 30
0.0
 40
0.5
 50
6.340191746
 51
90.0
  0
LINE
  8
0
  6
CONTINUOUS
 62
     2
 10
133.950579529
 20
93.305215763
 30
0.0
 11
133.5
 21
89.25
 31
0.0
  0
LINE
  8
0
  6
CONTINUOUS
 62
     2
 10
155.552478603
 20
93.75
 30
0.0
 11
134.447521397
 21
93.75
 31
0.0
  0
ARC
  8
0
  6
CONTINUOUS
 62
     2
 10
134.447521397
 20
93.25
 30
0.0
 40
0.5
 50
90.0
 51
173.659808254
  0
LINE
  8
0
  6
CONTINUOUS
 62
     2
 10
85.5
 20
89.25
 30
0.0
 11
108.5
 21
89.25
 31
0.0
  0
LINE
  8
0
  6
CONTINUOUS
 62
     2
 10
108.049420471
 20
93.305215763
 30
0.0
 11
108.5
 21
89.25
 31
0.0
  0
ARC
  8
0
  6
CONTINUOUS
 62
     2
 10
107.552478603
 20
93.25
 30
0.0
 40
0.5
 50
6.340191746
 51
90.0
  0
LINE
  8
0
  6
CONTINUOUS
 62
     2
 10
85.950579529
 20
93.305215763
 30
0.0
 11
85.5
 21
89.25
 31
0.0
  0
LINE
  8
0
  6
CONTINUOUS
 62
     2
 10
107.552478603
 20
93.75
 30
0.0
 11
86.447521397
 21
93.75
 31
0.0
  0
ARC
  8
0
  6
CONTINUOUS
 62
     2
 10
86.447521397
 20
93.25
 30
0.0
 40
0.5
 50
90.0
 51
173.659808254
  0
LINE
  8
0
  6
CONTINUOUS
 62
     2
 10
82.0
 20
89.25
 30
0.0
 11
112.0
 21
89.25
 31
0.0
  0
LINE
  8
0
  6
CONTINUOUS
 62
     2
 10
28.5
 20
89.25
 30
0.0
 11
51.5
 21
89.25
 31
0.0
  0
LINE
  8
0
  6
CONTINUOUS
 62
     2
 10
51.049420471
 20
93.305215763
 30
0.0
 11
51.5
 21
89.25
 31
0.0
  0
ARC
  8
0
  6
CONTINUOUS
 62
     2
 10
50.552478603
 20
93.25
 30
0.0
 40
0.5
 50
6.340191746
 51
90.0
  0
LINE
  8
0
  6
CONTINUOUS
 62
     2
 10
28.950579529
 20
93.305215763
 30
0.0
 11
28.5
 21
89.25
 31
0.0
  0
LINE
  8
0
  6
CONTINUOUS
 62
     2
 10
50.552478603
 20
93.75
 30
0.0
 11
29.447521397
 21
93.75
 31
0.0
  0
ARC
  8
0
  6
CONTINUOUS
 62
     2
 10
29.447521397
 20
93.25
 30
0.0
 40
0.5
 50
90.0
 51
173.659808254
  0
LINE
  8
0
  6
CONTINUOUS
 62
     2
 10
25.0
 20
89.25
 30
0.0
 11
55.0
 21
89.25
 31
0.0
  0
TEXT
  8
0
  6
CONTINUOUS
 62
     2
 10
52.478858118
 20
113.0
 30
0.3
 40
3.0
  1
Ｈ側設定指針
 50
0.0
 41
0.6
 51
0.0
  7
KANJI6
  0
TEXT
  8
0
  6
CONTINUOUS
 62
     2
 10
55.478858118
 20
108.0
 30
0.3
 40
3.0
  1
（赤色）
 50
0.0
 41
0.6
 51
0.0
  7
KANJI6
  0
TEXT
  8
0
  6
CONTINUOUS
 62
     2
 10
27.521141882
 20
113.0
 30
0.3
 40
3.0
  1
Ｌ側設定指針
 50
0.0
 41
0.6
 51
0.0
  7
KANJI6
  0
TEXT
  8
0
  6
CONTINUOUS
 62
     2
 10
27.521141882
 20
108.0
 30
0.3
 40
3.0
  1
（黄色）
 50
0.0
 41
0.6
 51
0.0
  7
KANJI6
  0
TEXT
  8
0
  6
CONTINUOUS
 62
     2
 10
15.788181664
 20
113.0
 30
0.3
 40
3.0
  1
指針
 50
0.0
 41
0.6
 51
0.0
  7
KANJI6
  0
LINE
  8
0
  6
CONTINUOUS
 62
     2
 10
22.385423541
 20
107.364683535
 30
0.0
 11
22.250501206
 21
106.670568297
 31
0.0
  0
LINE
  8
0
  6
CONTINUOUS
 62
     2
 10
30.802408733
 20
93.75
 30
0.0
 11
22.250501206
 21
106.670568297
 31
0.0
  0
LINE
  8
0
  6
CONTINUOUS
 62
     2
 10
31.568643539
 20
93.75
 30
0.0
 11
22.385423541
 21
107.364683535
 31
0.0
  0
LINE
  8
0
  6
CONTINUOUS
 62
     2
 10
19.174344032
 20
105.874584839
 30
0.0
 11
19.365855143
 21
106.035281742
 31
0.0
  0
LINE
  8
0
  6
CONTINUOUS
 62
     2
 10
19.365855143
 20
106.035281742
 30
0.0
 11
29.674430521
 21
93.75
 31
0.0
  0
LINE
  8
0
  6
CONTINUOUS
 62
     2
 10
29.348078699
 20
93.75
 30
0.0
 11
19.174344032
 21
105.874584839
 31
0.0
  0
LINE
  8
0
  6
CONTINUOUS
 62
     2
 10
57.614576459
 20
107.364683535
 30
0.0
 11
57.749498794
 21
106.670568297
 31
0.0
  0
LINE
  8
0
  6
CONTINUOUS
 62
     2
 10
48.431356461
 20
93.75
 30
0.0
 11
57.614576459
 21
107.364683535
 31
0.0
  0
LINE
  8
0
  6
CONTINUOUS
 62
     2
 10
49.197591267
 20
93.75
 30
0.0
 11
57.749498794
 21
106.670568297
 31
0.0
  0
TEXT
  8
0
  6
CONTINUOUS
 62
     2
 10
72.788181664
 20
113.0
 30
0.3
 40
3.0
  1
指針
 50
0.0
 41
0.6
 51
0.0
  7
KANJI6
  0
LINE
  8
0
  6
CONTINUOUS
 62
     2
 10
76.174344032
 20
105.874584839
 30
0.0
 11
76.365855143
 21
106.035281742
 31
0.0
  0
LINE
  8
0
  6
CONTINUOUS
 62
     2
 10
76.365855143
 20
106.035281742
 30
0.0
 11
86.674430521
 21
93.75
 31
0.0
  0
LINE
  8
0
  6
CONTINUOUS
 62
     2
 10
86.348078699
 20
93.75
 30
0.0
 11
76.174344032
 21
105.874584839
 31
0.0
  0
TEXT
  8
0
  6
CONTINUOUS
 62
     2
 10
112.478858118
 20
108.0
 30
0.3
 40
3.0
  1
（赤色）
 50
0.0
 41
0.6
 51
0.0
  7
KANJI6
  0
LINE
  8
0
  6
CONTINUOUS
 62
     2
 10
114.614576459
 20
107.364683535
 30
0.0
 11
114.749498794
 21
106.670568297
 31
0.0
  0
LINE
  8
0
  6
CONTINUOUS
 62
     2
 10
105.431356461
 20
93.75
 30
0.0
 11
114.614576459
 21
107.364683535
 31
0.0
  0
LINE
  8
0
  6
CONTINUOUS
 62
     2
 10
106.197591267
 20
93.75
 30
0.0
 11
114.749498794
 21
106.670568297
 31
0.0
  0
TEXT
  8
0
  6
CONTINUOUS
 62
     2
 10
132.521141882
 20
113.0
 30
0.3
 40
3.0
  1
Ｌ側設定指針
 50
0.0
 41
0.6
 51
0.0
  7
KANJI6
  0
TEXT
  8
0
  6
CONTINUOUS
 62
     2
 10
132.521141882
 20
108.0
 30
0.3
 40
3.0
  1
（黄色）
 50
0.0
 41
0.6
 51
0.0
  7
KANJI6
  0
TEXT
  8
0
  6
CONTINUOUS
 62
     2
 10
120.788181664
 20
113.0
 30
0.3
 40
3.0
  1
指針
 50
0.0
 41
0.6
 51
0.0
  7
KANJI6
  0
LINE
  8
0
  6
CONTINUOUS
 62
     2
 10
127.385423541
 20
107.364683535
 30
0.0
 11
127.250501206
 21
106.670568297
 31
0.0
  0
LINE
  8
0
  6
CONTINUOUS
 62
     2
 10
135.802408733
 20
93.75
 30
0.0
 11
127.250501206
 21
106.670568297
 31
0.0
  0
LINE
  8
0
  6
CONTINUOUS
 62
     2
 10
136.568643539
 20
93.75
 30
0.0
 11
127.385423541
 21
107.364683535
 31
0.0
  0
LINE
  8
0
  6
CONTINUOUS
 62
     2
 10
124.174344032
 20
105.874584839
 30
0.0
 11
124.365855143
 21
106.035281742
 31
0.0
  0
LINE
  8
0
  6
CONTINUOUS
 62
     2
 10
124.365855143
 20
106.035281742
 30
0.0
 11
134.674430521
 21
93.75
 31
0.0
  0
LINE
  8
0
  6
CONTINUOUS
 62
     2
 10
134.348078699
 20
93.75
 30
0.0
 11
124.174344032
 21
105.874584839
 31
0.0
  0
CIRCLE
  8
0
  6
CONTINUOUS
 62
     2
 10
36.25
 20
81.0
 30
0.0
 40
1.75
  0
CIRCLE
  8
0
  6
CONTINUOUS
 62
     2
 10
36.25
 20
81.0
 30
0.0
 40
0.75
  0
LINE
  8
0
  6
CONTINUOUS
 62
     2
 10
35.430143345
 20
78.904687358
 30
0.0
 11
35.365008209
 21
78.661883337
 31
0.0
  0
LINE
  8
0
  6
CONTINUOUS
 62
     2
 10
35.912360369
 20
78.775477696
 30
0.0
 11
35.847367041
 21
78.532635677
 31
0.0
  0
ARC
  8
0
  6
CONTINUOUS
 62
     2
 10
35.667657149
 20
78.826666891
 30
0.0
 40
0.25
 50
348.184738537
 51
161.815261463
  0
ARC
  8
0
  6
CONTINUOUS
 62
     2
 10
35.602952387
 20
78.585185434
 30
0.0
 40
0.25
 50
347.865983983
 51
162.134016018
  0
LINE
  8
0
  6
CONTINUOUS
 62
     2
 10
34.492326989
 20
79.595334351
 30
0.0
 11
34.314516296
 21
79.417627468
 31
0.0
  0
LINE
  8
0
  6
CONTINUOUS
 62
     2
 10
34.845334351
 20
79.242326989
 30
0.0
 11
34.667627468
 21
79.064516296
 31
0.0
  0
ARC
  8
0
  6
CONTINUOUS
 62
     2
 10
34.659009742
 20
79.409009742
 30
0.0
 40
0.25
 50
318.184738537
 51
131.815261463
  0
ARC
  8
0
  6
CONTINUOUS
 62
     2
 10
34.482233047
 20
79.232233047
 30
0.0
 40
0.25
 50
317.865983983
 51
132.134016018
  0
LINE
  8
0
  6
CONTINUOUS
 62
     2
 10
34.025477696
 20
80.662360369
 30
0.0
 11
33.782635677
 21
80.597367041
 31
0.0
  0
LINE
  8
0
  6
CONTINUOUS
 62
     2
 10
34.154687358
 20
80.180143345
 30
0.0
 11
33.911883337
 21
80.115008209
 31
0.0
  0
ARC
  8
0
  6
CONTINUOUS
 62
     2
 10
34.076666891
 20
80.417657149
 30
0.0
 40
0.25
 50
288.184738537
 51
101.815261463
  0
ARC
  8
0
  6
CONTINUOUS
 62
     2
 10
33.835185434
 20
80.352952387
 30
0.0
 40
0.25
 50
287.865983983
 51
102.134016018
  0
ARC
  8
0
  6
CONTINUOUS
 62
     2
 10
36.25
 20
81.0
 30
0.0
 40
2.5
 50
230.731967965
 51
249.268032035
  0
ARC
  8
0
  6
CONTINUOUS
 62
     2
 10
36.25
 20
81.0
 30
0.0
 40
2.25
 50
231.369477073
 51
248.630522927
  0
ARC
  8
0
  6
CONTINUOUS
 62
     2
 10
36.25
 20
81.0
 30
0.0
 40
2.5
 50
200.731967965
 51
219.268032035
  0
ARC
  8
0
  6
CONTINUOUS
 62
     2
 10
36.25
 20
81.0
 30
0.0
 40
2.25
 50
201.369477073
 51
218.630522927
  0
LINE
  8
0
  6
CONTINUOUS
 62
     2
 10
37.069856655
 20
78.904687358
 30
0.0
 11
37.134991791
 21
78.661883337
 31
0.0
  0
LINE
  8
0
  6
CONTINUOUS
 62
     2
 10
36.587639631
 20
78.775477696
 30
0.0
 11
36.652632959
 21
78.532635677
 31
0.0
  0
ARC
  8
0
  6
CONTINUOUS
 62
     2
 10
36.832342851
 20
78.826666891
 30
0.0
 40
0.25
 50
18.184738537
 51
191.815261463
  0
ARC
  8
0
  6
CONTINUOUS
 62
     2
 10
36.897047613
 20
78.585185434
 30
0.0
 40
0.25
 50
17.865983982
 51
192.134016017
  0
LINE
  8
0
  6
CONTINUOUS
 62
     2
 10
38.007673011
 20
79.595334351
 30
0.0
 11
38.185483704
 21
79.417627468
 31
0.0
  0
LINE
  8
0
  6
CONTINUOUS
 62
     2
 10
37.654665649
 20
79.242326989
 30
0.0
 11
37.832372532
 21
79.064516296
 31
0.0
  0
ARC
  8
0
  6
CONTINUOUS
 62
     2
 10
37.840990258
 20
79.409009742
 30
0.0
 40
0.25
 50
48.184738537
 51
221.815261463
  0
ARC
  8
0
  6
CONTINUOUS
 62
     2
 10
38.017766953
 20
79.232233047
 30
0.0
 40
0.25
 50
47.865983982
 51
222.134016017
  0
LINE
  8
0
  6
CONTINUOUS
 62
     2
 10
38.474522304
 20
80.662360369
 30
0.0
 11
38.717364323
 21
80.597367041
 31
0.0
  0
LINE
  8
0
  6
CONTINUOUS
 62
     2
 10
38.345312642
 20
80.180143345
 30
0.0
 11
38.588116663
 21
80.115008209
 31
0.0
  0
ARC
  8
0
  6
CONTINUOUS
 62
     2
 10
38.423333109
 20
80.417657149
 30
0.0
 40
0.25
 50
78.184738537
 51
251.815261463
  0
ARC
  8
0
  6
CONTINUOUS
 62
     2
 10
38.664814566
 20
80.352952387
 30
0.0
 40
0.25
 50
77.865983982
 51
252.134016017
  0
ARC
  8
0
  6
CONTINUOUS
 62
     2
 10
36.25
 20
81.0
 30
0.0
 40
2.5
 50
290.731967965
 51
309.268032035
  0
ARC
  8
0
  6
CONTINUOUS
 62
     2
 10
36.25
 20
81.0
 30
0.0
 40
2.25
 50
291.369477073
 51
308.630522927
  0
ARC
  8
0
  6
CONTINUOUS
 62
     2
 10
36.25
 20
81.0
 30
0.0
 40
2.5
 50
320.731967965
 51
339.268032035
  0
ARC
  8
0
  6
CONTINUOUS
 62
     2
 10
36.25
 20
81.0
 30
0.0
 40
2.25
 50
321.369477073
 51
338.630522927
  0
ARC
  8
0
  6
CONTINUOUS
 62
     2
 10
36.25
 20
81.0
 30
0.0
 40
2.25
 50
261.369477073
 51
278.630522927
  0
ARC
  8
0
  6
CONTINUOUS
 62
     2
 10
36.25
 20
81.0
 30
0.0
 40
2.5
 50
260.731967965
 51
279.268032035
  0
LINE
  8
0
  6
CONTINUOUS
 62
     2
 10
35.430143345
 20
83.095312642
 30
0.0
 11
35.365008209
 21
83.338116663
 31
0.0
  0
LINE
  8
0
  6
CONTINUOUS
 62
     2
 10
35.912360369
 20
83.224522304
 30
0.0
 11
35.847367041
 21
83.467364323
 31
0.0
  0
ARC
  8
0
  6
CONTINUOUS
 62
     2
 10
35.667657149
 20
83.173333109
 30
0.0
 40
0.25
 50
198.184738537
 51
11.815261463
  0
ARC
  8
0
  6
CONTINUOUS
 62
     2
 10
35.602952387
 20
83.414814566
 30
0.0
 40
0.25
 50
197.865983982
 51
12.134016017
  0
LINE
  8
0
  6
CONTINUOUS
 62
     2
 10
34.492326989
 20
82.404665649
 30
0.0
 11
34.314516296
 21
82.582372532
 31
0.0
  0
LINE
  8
0
  6
CONTINUOUS
 62
     2
 10
34.845334351
 20
82.757673011
 30
0.0
 11
34.667627468
 21
82.935483704
 31
0.0
  0
ARC
  8
0
  6
CONTINUOUS
 62
     2
 10
34.659009742
 20
82.590990258
 30
0.0
 40
0.25
 50
228.184738537
 51
41.815261463
  0
ARC
  8
0
  6
CONTINUOUS
 62
     2
 10
34.482233047
 20
82.767766953
 30
0.0
 40
0.25
 50
227.865983982
 51
42.134016017
  0
LINE
  8
0
  6
CONTINUOUS
 62
     2
 10
34.025477696
 20
81.337639631
 30
0.0
 11
33.782635677
 21
81.402632959
 31
0.0
  0
LINE
  8
0
  6
CONTINUOUS
 62
     2
 10
34.154687358
 20
81.819856655
 30
0.0
 11
33.911883337
 21
81.884991791
 31
0.0
  0
ARC
  8
0
  6
CONTINUOUS
 62
     2
 10
34.076666891
 20
81.582342851
 30
0.0
 40
0.25
 50
258.184738537
 51
71.815261463
  0
ARC
  8
0
  6
CONTINUOUS
 62
     2
 10
33.835185434
 20
81.647047613
 30
0.0
 40
0.25
 50
257.865983982
 51
72.134016017
  0
ARC
  8
0
  6
CONTINUOUS
 62
     2
 10
36.25
 20
81.0
 30
0.0
 40
2.5
 50
110.731967965
 51
129.268032035
  0
ARC
  8
0
  6
CONTINUOUS
 62
     2
 10
36.25
 20
81.0
 30
0.0
 40
2.25
 50
111.369477073
 51
128.630522927
  0
ARC
  8
0
  6
CONTINUOUS
 62
     2
 10
36.25
 20
81.0
 30
0.0
 40
2.5
 50
140.731967965
 51
159.268032035
  0
ARC
  8
0
  6
CONTINUOUS
 62
     2
 10
36.25
 20
81.0
 30
0.0
 40
2.25
 50
141.369477073
 51
158.630522927
  0
LINE
  8
0
  6
CONTINUOUS
 62
     2
 10
37.069856655
 20
83.095312642
 30
0.0
 11
37.134991791
 21
83.338116663
 31
0.0
  0
LINE
  8
0
  6
CONTINUOUS
 62
     2
 10
36.587639631
 20
83.224522304
 30
0.0
 11
36.652632959
 21
83.467364323
 31
0.0
  0
ARC
  8
0
  6
CONTINUOUS
 62
     2
 10
36.832342851
 20
83.173333109
 30
0.0
 40
0.25
 50
168.184738537
 51
341.815261463
  0
ARC
  8
0
  6
CONTINUOUS
 62
     2
 10
36.897047613
 20
83.414814566
 30
0.0
 40
0.25
 50
167.865983983
 51
342.134016018
  0
LINE
  8
0
  6
CONTINUOUS
 62
     2
 10
38.007673011
 20
82.404665649
 30
0.0
 11
38.185483704
 21
82.582372532
 31
0.0
  0
LINE
  8
0
  6
CONTINUOUS
 62
     2
 10
37.654665649
 20
82.757673011
 30
0.0
 11
37.832372532
 21
82.935483704
 31
0.0
  0
ARC
  8
0
  6
CONTINUOUS
 62
     2
 10
37.840990258
 20
82.590990258
 30
0.0
 40
0.25
 50
138.184738537
 51
311.815261463
  0
ARC
  8
0
  6
CONTINUOUS
 62
     2
 10
38.017766953
 20
82.767766953
 30
0.0
 40
0.25
 50
137.865983983
 51
312.134016018
  0
LINE
  8
0
  6
CONTINUOUS
 62
     2
 10
38.474522304
 20
81.337639631
 30
0.0
 11
38.717364323
 21
81.402632959
 31
0.0
  0
LINE
  8
0
  6
CONTINUOUS
 62
     2
 10
38.345312642
 20
81.819856655
 30
0.0
 11
38.588116663
 21
81.884991791
 31
0.0
  0
ARC
  8
0
  6
CONTINUOUS
 62
     2
 10
38.423333109
 20
81.582342851
 30
0.0
 40
0.25
 50
108.184738537
 51
281.815261463
  0
ARC
  8
0
  6
CONTINUOUS
 62
     2
 10
38.664814566
 20
81.647047613
 30
0.0
 40
0.25
 50
107.865983983
 51
282.134016018
  0
ARC
  8
0
  6
CONTINUOUS
 62
     2
 10
36.25
 20
81.0
 30
0.0
 40
2.5
 50
50.731967965
 51
69.268032035
  0
ARC
  8
0
  6
CONTINUOUS
 62
     2
 10
36.25
 20
81.0
 30
0.0
 40
2.25
 50
51.369477073
 51
68.630522927
  0
ARC
  8
0
  6
CONTINUOUS
 62
     2
 10
36.25
 20
81.0
 30
0.0
 40
2.5
 50
20.731967965
 51
39.268032035
  0
ARC
  8
0
  6
CONTINUOUS
 62
     2
 10
36.25
 20
81.0
 30
0.0
 40
2.25
 50
21.369477073
 51
38.630522927
  0
ARC
  8
0
  6
CONTINUOUS
 62
     2
 10
36.25
 20
81.0
 30
0.0
 40
2.25
 50
81.369477073
 51
98.630522927
  0
ARC
  8
0
  6
CONTINUOUS
 62
     2
 10
36.25
 20
81.0
 30
0.0
 40
2.5
 50
80.731967965
 51
99.268032035
  0
ARC
  8
0
  6
CONTINUOUS
 62
     2
 10
36.25
 20
81.0
 30
0.0
 40
2.5
 50
170.731967965
 51
189.268032035
  0
ARC
  8
0
  6
CONTINUOUS
 62
     2
 10
36.25
 20
81.0
 30
0.0
 40
2.5
 50
350.731967965
 51
9.268032035
  0
ARC
  8
0
  6
CONTINUOUS
 62
     2
 10
36.25
 20
81.0
 30
0.0
 40
2.25
 50
171.369477073
 51
188.630522927
  0
ARC
  8
0
  6
CONTINUOUS
 62
     2
 10
36.25
 20
81.0
 30
0.0
 40
2.25
 50
351.369477073
 51
8.630522927
  0
LINE
  8
0
  6
LTYPE1
 62
     2
 10
33.25
 20
81.0
 30
0.0
 11
39.25
 21
81.0
 31
0.0
  0
LINE
  8
0
  6
LTYPE1
 62
     2
 10
36.25
 20
84.0
 30
0.0
 11
36.25
 21
78.0
 31
0.0
  0
CIRCLE
  8
0
  6
CONTINUOUS
 62
     2
 10
43.75
 20
81.0
 30
0.0
 40
1.75
  0
CIRCLE
  8
0
  6
CONTINUOUS
 62
     2
 10
43.75
 20
81.0
 30
0.0
 40
0.75
  0
LINE
  8
0
  6
CONTINUOUS
 62
     2
 10
42.930143345
 20
78.904687358
 30
0.0
 11
42.865008209
 21
78.661883337
 31
0.0
  0
LINE
  8
0
  6
CONTINUOUS
 62
     2
 10
43.412360369
 20
78.775477696
 30
0.0
 11
43.347367041
 21
78.532635677
 31
0.0
  0
ARC
  8
0
  6
CONTINUOUS
 62
     2
 10
43.167657149
 20
78.826666891
 30
0.0
 40
0.25
 50
348.184738537
 51
161.815261463
  0
ARC
  8
0
  6
CONTINUOUS
 62
     2
 10
43.102952387
 20
78.585185434
 30
0.0
 40
0.25
 50
347.865983983
 51
162.134016018
  0
LINE
  8
0
  6
CONTINUOUS
 62
     2
 10
41.992326989
 20
79.595334351
 30
0.0
 11
41.814516296
 21
79.417627468
 31
0.0
  0
LINE
  8
0
  6
CONTINUOUS
 62
     2
 10
42.345334351
 20
79.242326989
 30
0.0
 11
42.167627468
 21
79.064516296
 31
0.0
  0
ARC
  8
0
  6
CONTINUOUS
 62
     2
 10
42.159009742
 20
79.409009742
 30
0.0
 40
0.25
 50
318.184738537
 51
131.815261463
  0
ARC
  8
0
  6
CONTINUOUS
 62
     2
 10
41.982233047
 20
79.232233047
 30
0.0
 40
0.25
 50
317.865983983
 51
132.134016018
  0
LINE
  8
0
  6
CONTINUOUS
 62
     2
 10
41.525477696
 20
80.662360369
 30
0.0
 11
41.282635677
 21
80.597367041
 31
0.0
  0
LINE
  8
0
  6
CONTINUOUS
 62
     2
 10
41.654687358
 20
80.180143345
 30
0.0
 11
41.411883337
 21
80.115008209
 31
0.0
  0
ARC
  8
0
  6
CONTINUOUS
 62
     2
 10
41.576666891
 20
80.417657149
 30
0.0
 40
0.25
 50
288.184738537
 51
101.815261463
  0
ARC
  8
0
  6
CONTINUOUS
 62
     2
 10
41.335185434
 20
80.352952387
 30
0.0
 40
0.25
 50
287.865983983
 51
102.134016018
  0
ARC
  8
0
  6
CONTINUOUS
 62
     2
 10
43.75
 20
81.0
 30
0.0
 40
2.5
 50
230.731967965
 51
249.268032035
  0
ARC
  8
0
  6
CONTINUOUS
 62
     2
 10
43.75
 20
81.0
 30
0.0
 40
2.25
 50
231.369477073
 51
248.630522927
  0
ARC
  8
0
  6
CONTINUOUS
 62
     2
 10
43.75
 20
81.0
 30
0.0
 40
2.5
 50
200.731967965
 51
219.268032035
  0
ARC
  8
0
  6
CONTINUOUS
 62
     2
 10
43.75
 20
81.0
 30
0.0
 40
2.25
 50
201.369477073
 51
218.630522927
  0
LINE
  8
0
  6
CONTINUOUS
 62
     2
 10
44.569856655
 20
78.904687358
 30
0.0
 11
44.634991791
 21
78.661883337
 31
0.0
  0
LINE
  8
0
  6
CONTINUOUS
 62
     2
 10
44.087639631
 20
78.775477696
 30
0.0
 11
44.152632959
 21
78.532635677
 31
0.0
  0
ARC
  8
0
  6
CONTINUOUS
 62
     2
 10
44.332342851
 20
78.826666891
 30
0.0
 40
0.25
 50
18.184738537
 51
191.815261463
  0
ARC
  8
0
  6
CONTINUOUS
 62
     2
 10
44.397047613
 20
78.585185434
 30
0.0
 40
0.25
 50
17.865983982
 51
192.134016017
  0
LINE
  8
0
  6
CONTINUOUS
 62
     2
 10
45.507673011
 20
79.595334351
 30
0.0
 11
45.685483704
 21
79.417627468
 31
0.0
  0
LINE
  8
0
  6
CONTINUOUS
 62
     2
 10
45.154665649
 20
79.242326989
 30
0.0
 11
45.332372532
 21
79.064516296
 31
0.0
  0
ARC
  8
0
  6
CONTINUOUS
 62
     2
 10
45.340990258
 20
79.409009742
 30
0.0
 40
0.25
 50
48.184738537
 51
221.815261463
  0
ARC
  8
0
  6
CONTINUOUS
 62
     2
 10
45.517766953
 20
79.232233047
 30
0.0
 40
0.25
 50
47.865983982
 51
222.134016017
  0
LINE
  8
0
  6
CONTINUOUS
 62
     2
 10
45.974522304
 20
80.662360369
 30
0.0
 11
46.217364323
 21
80.597367041
 31
0.0
  0
LINE
  8
0
  6
CONTINUOUS
 62
     2
 10
45.845312642
 20
80.180143345
 30
0.0
 11
46.088116663
 21
80.115008209
 31
0.0
  0
ARC
  8
0
  6
CONTINUOUS
 62
     2
 10
45.923333109
 20
80.417657149
 30
0.0
 40
0.25
 50
78.184738537
 51
251.815261463
  0
ARC
  8
0
  6
CONTINUOUS
 62
     2
 10
46.164814566
 20
80.352952387
 30
0.0
 40
0.25
 50
77.865983982
 51
252.134016017
  0
ARC
  8
0
  6
CONTINUOUS
 62
     2
 10
43.75
 20
81.0
 30
0.0
 40
2.5
 50
290.731967965
 51
309.268032035
  0
ARC
  8
0
  6
CONTINUOUS
 62
     2
 10
43.75
 20
81.0
 30
0.0
 40
2.25
 50
291.369477073
 51
308.630522927
  0
ARC
  8
0
  6
CONTINUOUS
 62
     2
 10
43.75
 20
81.0
 30
0.0
 40
2.5
 50
320.731967965
 51
339.268032035
  0
ARC
  8
0
  6
CONTINUOUS
 62
     2
 10
43.75
 20
81.0
 30
0.0
 40
2.25
 50
321.369477073
 51
338.630522927
  0
ARC
  8
0
  6
CONTINUOUS
 62
     2
 10
43.75
 20
81.0
 30
0.0
 40
2.25
 50
261.369477073
 51
278.630522927
  0
ARC
  8
0
  6
CONTINUOUS
 62
     2
 10
43.75
 20
81.0
 30
0.0
 40
2.5
 50
260.731967965
 51
279.268032035
  0
LINE
  8
0
  6
CONTINUOUS
 62
     2
 10
42.930143345
 20
83.095312642
 30
0.0
 11
42.865008209
 21
83.338116663
 31
0.0
  0
LINE
  8
0
  6
CONTINUOUS
 62
     2
 10
43.412360369
 20
83.224522304
 30
0.0
 11
43.347367041
 21
83.467364323
 31
0.0
  0
ARC
  8
0
  6
CONTINUOUS
 62
     2
 10
43.167657149
 20
83.173333109
 30
0.0
 40
0.25
 50
198.184738537
 51
11.815261463
  0
ARC
  8
0
  6
CONTINUOUS
 62
     2
 10
43.102952387
 20
83.414814566
 30
0.0
 40
0.25
 50
197.865983982
 51
12.134016017
  0
LINE
  8
0
  6
CONTINUOUS
 62
     2
 10
41.992326989
 20
82.404665649
 30
0.0
 11
41.814516296
 21
82.582372532
 31
0.0
  0
LINE
  8
0
  6
CONTINUOUS
 62
     2
 10
42.345334351
 20
82.757673011
 30
0.0
 11
42.167627468
 21
82.935483704
 31
0.0
  0
ARC
  8
0
  6
CONTINUOUS
 62
     2
 10
42.159009742
 20
82.590990258
 30
0.0
 40
0.25
 50
228.184738537
 51
41.815261463
  0
ARC
  8
0
  6
CONTINUOUS
 62
     2
 10
41.982233047
 20
82.767766953
 30
0.0
 40
0.25
 50
227.865983982
 51
42.134016017
  0
LINE
  8
0
  6
CONTINUOUS
 62
     2
 10
41.525477696
 20
81.337639631
 30
0.0
 11
41.282635677
 21
81.402632959
 31
0.0
  0
LINE
  8
0
  6
CONTINUOUS
 62
     2
 10
41.654687358
 20
81.819856655
 30
0.0
 11
41.411883337
 21
81.884991791
 31
0.0
  0
ARC
  8
0
  6
CONTINUOUS
 62
     2
 10
41.576666891
 20
81.582342851
 30
0.0
 40
0.25
 50
258.184738537
 51
71.815261463
  0
ARC
  8
0
  6
CONTINUOUS
 62
     2
 10
41.335185434
 20
81.647047613
 30
0.0
 40
0.25
 50
257.865983982
 51
72.134016017
  0
ARC
  8
0
  6
CONTINUOUS
 62
     2
 10
43.75
 20
81.0
 30
0.0
 40
2.5
 50
110.731967965
 51
129.268032035
  0
ARC
  8
0
  6
CONTINUOUS
 62
     2
 10
43.75
 20
81.0
 30
0.0
 40
2.25
 50
111.369477073
 51
128.630522927
  0
ARC
  8
0
  6
CONTINUOUS
 62
     2
 10
43.75
 20
81.0
 30
0.0
 40
2.5
 50
140.731967965
 51
159.268032035
  0
ARC
  8
0
  6
CONTINUOUS
 62
     2
 10
43.75
 20
81.0
 30
0.0
 40
2.25
 50
141.369477073
 51
158.630522927
  0
LINE
  8
0
  6
CONTINUOUS
 62
     2
 10
44.569856655
 20
83.095312642
 30
0.0
 11
44.634991791
 21
83.338116663
 31
0.0
  0
LINE
  8
0
  6
CONTINUOUS
 62
     2
 10
44.087639631
 20
83.224522304
 30
0.0
 11
44.152632959
 21
83.467364323
 31
0.0
  0
ARC
  8
0
  6
CONTINUOUS
 62
     2
 10
44.332342851
 20
83.173333109
 30
0.0
 40
0.25
 50
168.184738537
 51
341.815261463
  0
ARC
  8
0
  6
CONTINUOUS
 62
     2
 10
44.397047613
 20
83.414814566
 30
0.0
 40
0.25
 50
167.865983983
 51
342.134016018
  0
LINE
  8
0
  6
CONTINUOUS
 62
     2
 10
45.507673011
 20
82.404665649
 30
0.0
 11
45.685483704
 21
82.582372532
 31
0.0
  0
LINE
  8
0
  6
CONTINUOUS
 62
     2
 10
45.154665649
 20
82.757673011
 30
0.0
 11
45.332372532
 21
82.935483704
 31
0.0
  0
ARC
  8
0
  6
CONTINUOUS
 62
     2
 10
45.340990258
 20
82.590990258
 30
0.0
 40
0.25
 50
138.184738537
 51
311.815261463
  0
ARC
  8
0
  6
CONTINUOUS
 62
     2
 10
45.517766953
 20
82.767766953
 30
0.0
 40
0.25
 50
137.865983983
 51
312.134016018
  0
LINE
  8
0
  6
CONTINUOUS
 62
     2
 10
45.974522304
 20
81.337639631
 30
0.0
 11
46.217364323
 21
81.402632959
 31
0.0
  0
LINE
  8
0
  6
CONTINUOUS
 62
     2
 10
45.845312642
 20
81.819856655
 30
0.0
 11
46.088116663
 21
81.884991791
 31
0.0
  0
ARC
  8
0
  6
CONTINUOUS
 62
     2
 10
45.923333109
 20
81.582342851
 30
0.0
 40
0.25
 50
108.184738537
 51
281.815261463
  0
ARC
  8
0
  6
CONTINUOUS
 62
     2
 10
46.164814566
 20
81.647047613
 30
0.0
 40
0.25
 50
107.865983983
 51
282.134016018
  0
ARC
  8
0
  6
CONTINUOUS
 62
     2
 10
43.75
 20
81.0
 30
0.0
 40
2.5
 50
50.731967965
 51
69.268032035
  0
ARC
  8
0
  6
CONTINUOUS
 62
     2
 10
43.75
 20
81.0
 30
0.0
 40
2.25
 50
51.369477073
 51
68.630522927
  0
ARC
  8
0
  6
CONTINUOUS
 62
     2
 10
43.75
 20
81.0
 30
0.0
 40
2.5
 50
20.731967965
 51
39.268032035
  0
ARC
  8
0
  6
CONTINUOUS
 62
     2
 10
43.75
 20
81.0
 30
0.0
 40
2.25
 50
21.369477073
 51
38.630522927
  0
ARC
  8
0
  6
CONTINUOUS
 62
     2
 10
43.75
 20
81.0
 30
0.0
 40
2.25
 50
81.369477073
 51
98.630522927
  0
ARC
  8
0
  6
CONTINUOUS
 62
     2
 10
43.75
 20
81.0
 30
0.0
 40
2.5
 50
80.731967965
 51
99.268032035
  0
ARC
  8
0
  6
CONTINUOUS
 62
     2
 10
43.75
 20
81.0
 30
0.0
 40
2.5
 50
170.731967965
 51
189.268032035
  0
ARC
  8
0
  6
CONTINUOUS
 62
     2
 10
43.75
 20
81.0
 30
0.0
 40
2.5
 50
350.731967965
 51
9.268032035
  0
ARC
  8
0
  6
CONTINUOUS
 62
     2
 10
43.75
 20
81.0
 30
0.0
 40
2.25
 50
171.369477073
 51
188.630522927
  0
ARC
  8
0
  6
CONTINUOUS
 62
     2
 10
43.75
 20
81.0
 30
0.0
 40
2.25
 50
351.369477073
 51
8.630522927
  0
LINE
  8
0
  6
LTYPE1
 62
     2
 10
40.75
 20
81.0
 30
0.0
 11
46.75
 21
81.0
 31
0.0
  0
LINE
  8
0
  6
LTYPE1
 62
     2
 10
43.75
 20
84.0
 30
0.0
 11
43.75
 21
78.0
 31
0.0
  0
CIRCLE
  8
0
  6
CONTINUOUS
 62
     2
 10
43.75
 20
81.0
 30
0.0
 40
2.5
  0
CIRCLE
  8
0
  6
CONTINUOUS
 62
     2
 10
36.25
 20
81.0
 30
0.0
 40
2.5
  0
TEXT
  8
0
  6
CONTINUOUS
 62
     2
 10
48.946152423
 20
73.0
 30
0.3
 40
3.0
  1
Ｈ側設定ツマミ
 50
0.0
 41
0.6
 51
0.0
  7
KANJI6
  0
TEXT
  8
0
  6
CONTINUOUS
 62
     2
 10
48.946152423
 20
68.0
 30
0.3
 40
3.0
  1
（中央赤色）
 50
0.0
 41
0.6
 51
0.0
  7
KANJI6
  0
TEXT
  8
0
  6
CONTINUOUS
 62
     2
 10
16.653847577
 20
73.0
 30
0.3
 40
3.0
  1
Ｌ側設定ツマミ
 50
0.0
 41
0.6
 51
0.0
  7
KANJI6
  0
TEXT
  8
0
  6
CONTINUOUS
 62
     2
 10
16.653847577
 20
68.0
 30
0.3
 40
3.0
  1
（中央黄色）
 50
0.0
 41
0.6
 51
0.0
  7
KANJI6
  0
CIRCLE
  8
0
  6
CONTINUOUS
 62
     2
 10
40.0
 20
76.25
 30
0.0
 40
1.8
  0
LINE
  8
0
  6
CONTINUOUS
 62
     2
 10
39.75
 20
78.032554347
 30
0.0
 11
39.75
 21
74.467445653
 31
0.0
  0
LINE
  8
0
  6
CONTINUOUS
 62
     2
 10
40.25
 20
74.467445653
 30
0.0
 11
40.25
 21
78.032554347
 31
0.0
  0
LINE
  8
0
  6
LTYPE1
 62
     2
 10
37.0
 20
76.25
 30
0.0
 11
43.0
 21
76.25
 31
0.0
  0
CIRCLE
  8
0
  6
CONTINUOUS
 62
     2
 10
100.75
 20
81.0
 30
0.0
 40
1.75
  0
CIRCLE
  8
0
  6
CONTINUOUS
 62
     2
 10
100.75
 20
81.0
 30
0.0
 40
0.75
  0
LINE
  8
0
  6
CONTINUOUS
 62
     2
 10
99.930143345
 20
78.904687358
 30
0.0
 11
99.865008209
 21
78.661883337
 31
0.0
  0
LINE
  8
0
  6
CONTINUOUS
 62
     2
 10
100.412360369
 20
78.775477696
 30
0.0
 11
100.347367041
 21
78.532635677
 31
0.0
  0
ARC
  8
0
  6
CONTINUOUS
 62
     2
 10
100.167657149
 20
78.826666891
 30
0.0
 40
0.25
 50
348.184738537
 51
161.815261463
  0
ARC
  8
0
  6
CONTINUOUS
 62
     2
 10
100.102952387
 20
78.585185434
 30
0.0
 40
0.25
 50
347.865983983
 51
162.134016018
  0
LINE
  8
0
  6
CONTINUOUS
 62
     2
 10
98.992326989
 20
79.595334351
 30
0.0
 11
98.814516296
 21
79.417627468
 31
0.0
  0
LINE
  8
0
  6
CONTINUOUS
 62
     2
 10
99.345334351
 20
79.242326989
 30
0.0
 11
99.167627468
 21
79.064516296
 31
0.0
  0
ARC
  8
0
  6
CONTINUOUS
 62
     2
 10
99.159009742
 20
79.409009742
 30
0.0
 40
0.25
 50
318.184738537
 51
131.815261463
  0
ARC
  8
0
  6
CONTINUOUS
 62
     2
 10
98.982233047
 20
79.232233047
 30
0.0
 40
0.25
 50
317.865983983
 51
132.134016018
  0
LINE
  8
0
  6
CONTINUOUS
 62
     2
 10
98.525477696
 20
80.662360369
 30
0.0
 11
98.282635677
 21
80.597367041
 31
0.0
  0
LINE
  8
0
  6
CONTINUOUS
 62
     2
 10
98.654687358
 20
80.180143345
 30
0.0
 11
98.411883337
 21
80.115008209
 31
0.0
  0
ARC
  8
0
  6
CONTINUOUS
 62
     2
 10
98.576666891
 20
80.417657149
 30
0.0
 40
0.25
 50
288.184738537
 51
101.815261463
  0
ARC
  8
0
  6
CONTINUOUS
 62
     2
 10
98.335185434
 20
80.352952387
 30
0.0
 40
0.25
 50
287.865983983
 51
102.134016018
  0
ARC
  8
0
  6
CONTINUOUS
 62
     2
 10
100.75
 20
81.0
 30
0.0
 40
2.5
 50
230.731967965
 51
249.268032035
  0
ARC
  8
0
  6
CONTINUOUS
 62
     2
 10
100.75
 20
81.0
 30
0.0
 40
2.25
 50
231.369477073
 51
248.630522927
  0
ARC
  8
0
  6
CONTINUOUS
 62
     2
 10
100.75
 20
81.0
 30
0.0
 40
2.5
 50
200.731967965
 51
219.268032035
  0
ARC
  8
0
  6
CONTINUOUS
 62
     2
 10
100.75
 20
81.0
 30
0.0
 40
2.25
 50
201.369477073
 51
218.630522927
  0
LINE
  8
0
  6
CONTINUOUS
 62
     2
 10
101.569856655
 20
78.904687358
 30
0.0
 11
101.634991791
 21
78.661883337
 31
0.0
  0
LINE
  8
0
  6
CONTINUOUS
 62
     2
 10
101.087639631
 20
78.775477696
 30
0.0
 11
101.152632959
 21
78.532635677
 31
0.0
  0
ARC
  8
0
  6
CONTINUOUS
 62
     2
 10
101.332342851
 20
78.826666891
 30
0.0
 40
0.25
 50
18.184738537
 51
191.815261463
  0
ARC
  8
0
  6
CONTINUOUS
 62
     2
 10
101.397047613
 20
78.585185434
 30
0.0
 40
0.25
 50
17.865983982
 51
192.134016017
  0
LINE
  8
0
  6
CONTINUOUS
 62
     2
 10
102.507673011
 20
79.595334351
 30
0.0
 11
102.685483704
 21
79.417627468
 31
0.0
  0
LINE
  8
0
  6
CONTINUOUS
 62
     2
 10
102.154665649
 20
79.242326989
 30
0.0
 11
102.332372532
 21
79.064516296
 31
0.0
  0
ARC
  8
0
  6
CONTINUOUS
 62
     2
 10
102.340990258
 20
79.409009742
 30
0.0
 40
0.25
 50
48.184738537
 51
221.815261463
  0
ARC
  8
0
  6
CONTINUOUS
 62
     2
 10
102.517766953
 20
79.232233047
 30
0.0
 40
0.25
 50
47.865983982
 51
222.134016017
  0
LINE
  8
0
  6
CONTINUOUS
 62
     2
 10
102.974522304
 20
80.662360369
 30
0.0
 11
103.217364323
 21
80.597367041
 31
0.0
  0
LINE
  8
0
  6
CONTINUOUS
 62
     2
 10
102.845312642
 20
80.180143345
 30
0.0
 11
103.088116663
 21
80.115008209
 31
0.0
  0
ARC
  8
0
  6
CONTINUOUS
 62
     2
 10
102.923333109
 20
80.417657149
 30
0.0
 40
0.25
 50
78.184738537
 51
251.815261463
  0
ARC
  8
0
  6
CONTINUOUS
 62
     2
 10
103.164814566
 20
80.352952387
 30
0.0
 40
0.25
 50
77.865983982
 51
252.134016017
  0
ARC
  8
0
  6
CONTINUOUS
 62
     2
 10
100.75
 20
81.0
 30
0.0
 40
2.5
 50
290.731967965
 51
309.268032035
  0
ARC
  8
0
  6
CONTINUOUS
 62
     2
 10
100.75
 20
81.0
 30
0.0
 40
2.25
 50
291.369477073
 51
308.630522927
  0
ARC
  8
0
  6
CONTINUOUS
 62
     2
 10
100.75
 20
81.0
 30
0.0
 40
2.5
 50
320.731967965
 51
339.268032035
  0
ARC
  8
0
  6
CONTINUOUS
 62
     2
 10
100.75
 20
81.0
 30
0.0
 40
2.25
 50
321.369477073
 51
338.630522927
  0
ARC
  8
0
  6
CONTINUOUS
 62
     2
 10
100.75
 20
81.0
 30
0.0
 40
2.25
 50
261.369477073
 51
278.630522927
  0
ARC
  8
0
  6
CONTINUOUS
 62
     2
 10
100.75
 20
81.0
 30
0.0
 40
2.5
 50
260.731967965
 51
279.268032035
  0
LINE
  8
0
  6
CONTINUOUS
 62
     2
 10
99.930143345
 20
83.095312642
 30
0.0
 11
99.865008209
 21
83.338116663
 31
0.0
  0
LINE
  8
0
  6
CONTINUOUS
 62
     2
 10
100.412360369
 20
83.224522304
 30
0.0
 11
100.347367041
 21
83.467364323
 31
0.0
  0
ARC
  8
0
  6
CONTINUOUS
 62
     2
 10
100.167657149
 20
83.173333109
 30
0.0
 40
0.25
 50
198.184738537
 51
11.815261463
  0
ARC
  8
0
  6
CONTINUOUS
 62
     2
 10
100.102952387
 20
83.414814566
 30
0.0
 40
0.25
 50
197.865983982
 51
12.134016017
  0
LINE
  8
0
  6
CONTINUOUS
 62
     2
 10
98.992326989
 20
82.404665649
 30
0.0
 11
98.814516296
 21
82.582372532
 31
0.0
  0
LINE
  8
0
  6
CONTINUOUS
 62
     2
 10
99.345334351
 20
82.757673011
 30
0.0
 11
99.167627468
 21
82.935483704
 31
0.0
  0
ARC
  8
0
  6
CONTINUOUS
 62
     2
 10
99.159009742
 20
82.590990258
 30
0.0
 40
0.25
 50
228.184738537
 51
41.815261463
  0
ARC
  8
0
  6
CONTINUOUS
 62
     2
 10
98.982233047
 20
82.767766953
 30
0.0
 40
0.25
 50
227.865983982
 51
42.134016017
  0
LINE
  8
0
  6
CONTINUOUS
 62
     2
 10
98.525477696
 20
81.337639631
 30
0.0
 11
98.282635677
 21
81.402632959
 31
0.0
  0
LINE
  8
0
  6
CONTINUOUS
 62
     2
 10
98.654687358
 20
81.819856655
 30
0.0
 11
98.411883337
 21
81.884991791
 31
0.0
  0
ARC
  8
0
  6
CONTINUOUS
 62
     2
 10
98.576666891
 20
81.582342851
 30
0.0
 40
0.25
 50
258.184738537
 51
71.815261463
  0
ARC
  8
0
  6
CONTINUOUS
 62
     2
 10
98.335185434
 20
81.647047613
 30
0.0
 40
0.25
 50
257.865983982
 51
72.134016017
  0
ARC
  8
0
  6
CONTINUOUS
 62
     2
 10
100.75
 20
81.0
 30
0.0
 40
2.5
 50
110.731967965
 51
129.268032035
  0
ARC
  8
0
  6
CONTINUOUS
 62
     2
 10
100.75
 20
81.0
 30
0.0
 40
2.25
 50
111.369477073
 51
128.630522927
  0
ARC
  8
0
  6
CONTINUOUS
 62
     2
 10
100.75
 20
81.0
 30
0.0
 40
2.5
 50
140.731967965
 51
159.268032035
  0
ARC
  8
0
  6
CONTINUOUS
 62
     2
 10
100.75
 20
81.0
 30
0.0
 40
2.25
 50
141.369477073
 51
158.630522927
  0
LINE
  8
0
  6
CONTINUOUS
 62
     2
 10
101.569856655
 20
83.095312642
 30
0.0
 11
101.634991791
 21
83.338116663
 31
0.0
  0
LINE
  8
0
  6
CONTINUOUS
 62
     2
 10
101.087639631
 20
83.224522304
 30
0.0
 11
101.152632959
 21
83.467364323
 31
0.0
  0
ARC
  8
0
  6
CONTINUOUS
 62
     2
 10
101.332342851
 20
83.173333109
 30
0.0
 40
0.25
 50
168.184738537
 51
341.815261463
  0
ARC
  8
0
  6
CONTINUOUS
 62
     2
 10
101.397047613
 20
83.414814566
 30
0.0
 40
0.25
 50
167.865983983
 51
342.134016018
  0
LINE
  8
0
  6
CONTINUOUS
 62
     2
 10
102.507673011
 20
82.404665649
 30
0.0
 11
102.685483704
 21
82.582372532
 31
0.0
  0
LINE
  8
0
  6
CONTINUOUS
 62
     2
 10
102.154665649
 20
82.757673011
 30
0.0
 11
102.332372532
 21
82.935483704
 31
0.0
  0
ARC
  8
0
  6
CONTINUOUS
 62
     2
 10
102.340990258
 20
82.590990258
 30
0.0
 40
0.25
 50
138.184738537
 51
311.815261463
  0
ARC
  8
0
  6
CONTINUOUS
 62
     2
 10
102.517766953
 20
82.767766953
 30
0.0
 40
0.25
 50
137.865983983
 51
312.134016018
  0
LINE
  8
0
  6
CONTINUOUS
 62
     2
 10
102.974522304
 20
81.337639631
 30
0.0
 11
103.217364323
 21
81.402632959
 31
0.0
  0
LINE
  8
0
  6
CONTINUOUS
 62
     2
 10
102.845312642
 20
81.819856655
 30
0.0
 11
103.088116663
 21
81.884991791
 31
0.0
  0
ARC
  8
0
  6
CONTINUOUS
 62
     2
 10
102.923333109
 20
81.582342851
 30
0.0
 40
0.25
 50
108.184738537
 51
281.815261463
  0
ARC
  8
0
  6
CONTINUOUS
 62
     2
 10
103.164814566
 20
81.647047613
 30
0.0
 40
0.25
 50
107.865983983
 51
282.134016018
  0
ARC
  8
0
  6
CONTINUOUS
 62
     2
 10
100.75
 20
81.0
 30
0.0
 40
2.5
 50
50.731967965
 51
69.268032035
  0
ARC
  8
0
  6
CONTINUOUS
 62
     2
 10
100.75
 20
81.0
 30
0.0
 40
2.25
 50
51.369477073
 51
68.630522927
  0
ARC
  8
0
  6
CONTINUOUS
 62
     2
 10
100.75
 20
81.0
 30
0.0
 40
2.5
 50
20.731967965
 51
39.268032035
  0
ARC
  8
0
  6
CONTINUOUS
 62
     2
 10
100.75
 20
81.0
 30
0.0
 40
2.25
 50
21.369477073
 51
38.630522927
  0
ARC
  8
0
  6
CONTINUOUS
 62
     2
 10
100.75
 20
81.0
 30
0.0
 40
2.25
 50
81.369477073
 51
98.630522927
  0
ARC
  8
0
  6
CONTINUOUS
 62
     2
 10
100.75
 20
81.0
 30
0.0
 40
2.5
 50
80.731967965
 51
99.268032035
  0
ARC
  8
0
  6
CONTINUOUS
 62
     2
 10
100.75
 20
81.0
 30
0.0
 40
2.5
 50
170.731967965
 51
189.268032035
  0
ARC
  8
0
  6
CONTINUOUS
 62
     2
 10
100.75
 20
81.0
 30
0.0
 40
2.5
 50
350.731967965
 51
9.268032035
  0
ARC
  8
0
  6
CONTINUOUS
 62
     2
 10
100.75
 20
81.0
 30
0.0
 40
2.25
 50
171.369477073
 51
188.630522927
  0
ARC
  8
0
  6
CONTINUOUS
 62
     2
 10
100.75
 20
81.0
 30
0.0
 40
2.25
 50
351.369477073
 51
8.630522927
  0
LINE
  8
0
  6
LTYPE1
 62
     2
 10
97.75
 20
81.0
 30
0.0
 11
103.75
 21
81.0
 31
0.0
  0
LINE
  8
0
  6
LTYPE1
 62
     2
 10
100.75
 20
84.0
 30
0.0
 11
100.75
 21
78.0
 31
0.0
  0
CIRCLE
  8
0
  6
CONTINUOUS
 62
     2
 10
100.75
 20
81.0
 30
0.0
 40
2.5
  0
TEXT
  8
0
  6
CONTINUOUS
 62
     2
 10
105.946152423
 20
73.0
 30
0.3
 40
3.0
  1
Ｈ側設定ツマミ
 50
0.0
 41
0.6
 51
0.0
  7
KANJI6
  0
TEXT
  8
0
  6
CONTINUOUS
 62
     2
 10
105.946152423
 20
68.0
 30
0.3
 40
3.0
  1
（中央赤色）
 50
0.0
 41
0.6
 51
0.0
  7
KANJI6
  0
CIRCLE
  8
0
  6
CONTINUOUS
 62
     2
 10
97.0
 20
76.25
 30
0.0
 40
1.8
  0
LINE
  8
0
  6
CONTINUOUS
 62
     2
 10
96.75
 20
78.032554347
 30
0.0
 11
96.75
 21
74.467445653
 31
0.0
  0
LINE
  8
0
  6
CONTINUOUS
 62
     2
 10
97.25
 20
74.467445653
 30
0.0
 11
97.25
 21
78.032554347
 31
0.0
  0
LINE
  8
0
  6
LTYPE1
 62
     2
 10
94.0
 20
76.25
 30
0.0
 11
100.0
 21
76.25
 31
0.0
  0
CIRCLE
  8
0
  6
CONTINUOUS
 62
     2
 10
141.25
 20
81.0
 30
0.0
 40
1.75
  0
CIRCLE
  8
0
  6
CONTINUOUS
 62
     2
 10
141.25
 20
81.0
 30
0.0
 40
0.75
  0
LINE
  8
0
  6
CONTINUOUS
 62
     2
 10
140.430143345
 20
78.904687358
 30
0.0
 11
140.365008209
 21
78.661883337
 31
0.0
  0
LINE
  8
0
  6
CONTINUOUS
 62
     2
 10
140.912360369
 20
78.775477696
 30
0.0
 11
140.847367041
 21
78.532635677
 31
0.0
  0
ARC
  8
0
  6
CONTINUOUS
 62
     2
 10
140.667657149
 20
78.826666891
 30
0.0
 40
0.25
 50
348.184738537
 51
161.815261463
  0
ARC
  8
0
  6
CONTINUOUS
 62
     2
 10
140.602952387
 20
78.585185434
 30
0.0
 40
0.25
 50
347.865983983
 51
162.134016018
  0
LINE
  8
0
  6
CONTINUOUS
 62
     2
 10
139.492326989
 20
79.595334351
 30
0.0
 11
139.314516296
 21
79.417627468
 31
0.0
  0
LINE
  8
0
  6
CONTINUOUS
 62
     2
 10
139.845334351
 20
79.242326989
 30
0.0
 11
139.667627468
 21
79.064516296
 31
0.0
  0
ARC
  8
0
  6
CONTINUOUS
 62
     2
 10
139.659009742
 20
79.409009742
 30
0.0
 40
0.25
 50
318.184738537
 51
131.815261463
  0
ARC
  8
0
  6
CONTINUOUS
 62
     2
 10
139.482233047
 20
79.232233047
 30
0.0
 40
0.25
 50
317.865983983
 51
132.134016018
  0
LINE
  8
0
  6
CONTINUOUS
 62
     2
 10
139.025477696
 20
80.662360369
 30
0.0
 11
138.782635677
 21
80.597367041
 31
0.0
  0
LINE
  8
0
  6
CONTINUOUS
 62
     2
 10
139.154687358
 20
80.180143345
 30
0.0
 11
138.911883337
 21
80.115008209
 31
0.0
  0
ARC
  8
0
  6
CONTINUOUS
 62
     2
 10
139.076666891
 20
80.417657149
 30
0.0
 40
0.25
 50
288.184738537
 51
101.815261463
  0
ARC
  8
0
  6
CONTINUOUS
 62
     2
 10
138.835185434
 20
80.352952387
 30
0.0
 40
0.25
 50
287.865983983
 51
102.134016018
  0
ARC
  8
0
  6
CONTINUOUS
 62
     2
 10
141.25
 20
81.0
 30
0.0
 40
2.5
 50
230.731967965
 51
249.268032035
  0
ARC
  8
0
  6
CONTINUOUS
 62
     2
 10
141.25
 20
81.0
 30
0.0
 40
2.25
 50
231.369477073
 51
248.630522927
  0
ARC
  8
0
  6
CONTINUOUS
 62
     2
 10
141.25
 20
81.0
 30
0.0
 40
2.5
 50
200.731967965
 51
219.268032035
  0
ARC
  8
0
  6
CONTINUOUS
 62
     2
 10
141.25
 20
81.0
 30
0.0
 40
2.25
 50
201.369477073
 51
218.630522927
  0
LINE
  8
0
  6
CONTINUOUS
 62
     2
 10
142.069856655
 20
78.904687358
 30
0.0
 11
142.134991791
 21
78.661883337
 31
0.0
  0
LINE
  8
0
  6
CONTINUOUS
 62
     2
 10
141.587639631
 20
78.775477696
 30
0.0
 11
141.652632959
 21
78.532635677
 31
0.0
  0
ARC
  8
0
  6
CONTINUOUS
 62
     2
 10
141.832342851
 20
78.826666891
 30
0.0
 40
0.25
 50
18.184738537
 51
191.815261463
  0
ARC
  8
0
  6
CONTINUOUS
 62
     2
 10
141.897047613
 20
78.585185434
 30
0.0
 40
0.25
 50
17.865983982
 51
192.134016017
  0
LINE
  8
0
  6
CONTINUOUS
 62
     2
 10
143.007673011
 20
79.595334351
 30
0.0
 11
143.185483704
 21
79.417627468
 31
0.0
  0
LINE
  8
0
  6
CONTINUOUS
 62
     2
 10
142.654665649
 20
79.242326989
 30
0.0
 11
142.832372532
 21
79.064516296
 31
0.0
  0
ARC
  8
0
  6
CONTINUOUS
 62
     2
 10
142.840990258
 20
79.409009742
 30
0.0
 40
0.25
 50
48.184738537
 51
221.815261463
  0
ARC
  8
0
  6
CONTINUOUS
 62
     2
 10
143.017766953
 20
79.232233047
 30
0.0
 40
0.25
 50
47.865983982
 51
222.134016017
  0
LINE
  8
0
  6
CONTINUOUS
 62
     2
 10
143.474522304
 20
80.662360369
 30
0.0
 11
143.717364323
 21
80.597367041
 31
0.0
  0
LINE
  8
0
  6
CONTINUOUS
 62
     2
 10
143.345312642
 20
80.180143345
 30
0.0
 11
143.588116663
 21
80.115008209
 31
0.0
  0
ARC
  8
0
  6
CONTINUOUS
 62
     2
 10
143.423333109
 20
80.417657149
 30
0.0
 40
0.25
 50
78.184738537
 51
251.815261463
  0
ARC
  8
0
  6
CONTINUOUS
 62
     2
 10
143.664814566
 20
80.352952387
 30
0.0
 40
0.25
 50
77.865983982
 51
252.134016017
  0
ARC
  8
0
  6
CONTINUOUS
 62
     2
 10
141.25
 20
81.0
 30
0.0
 40
2.5
 50
290.731967965
 51
309.268032035
  0
ARC
  8
0
  6
CONTINUOUS
 62
     2
 10
141.25
 20
81.0
 30
0.0
 40
2.25
 50
291.369477073
 51
308.630522927
  0
ARC
  8
0
  6
CONTINUOUS
 62
     2
 10
141.25
 20
81.0
 30
0.0
 40
2.5
 50
320.731967965
 51
339.268032035
  0
ARC
  8
0
  6
CONTINUOUS
 62
     2
 10
141.25
 20
81.0
 30
0.0
 40
2.25
 50
321.369477073
 51
338.630522927
  0
ARC
  8
0
  6
CONTINUOUS
 62
     2
 10
141.25
 20
81.0
 30
0.0
 40
2.25
 50
261.369477073
 51
278.630522927
  0
ARC
  8
0
  6
CONTINUOUS
 62
     2
 10
141.25
 20
81.0
 30
0.0
 40
2.5
 50
260.731967965
 51
279.268032035
  0
LINE
  8
0
  6
CONTINUOUS
 62
     2
 10
140.430143345
 20
83.095312642
 30
0.0
 11
140.365008209
 21
83.338116663
 31
0.0
  0
LINE
  8
0
  6
CONTINUOUS
 62
     2
 10
140.912360369
 20
83.224522304
 30
0.0
 11
140.847367041
 21
83.467364323
 31
0.0
  0
ARC
  8
0
  6
CONTINUOUS
 62
     2
 10
140.667657149
 20
83.173333109
 30
0.0
 40
0.25
 50
198.184738537
 51
11.815261463
  0
ARC
  8
0
  6
CONTINUOUS
 62
     2
 10
140.602952387
 20
83.414814566
 30
0.0
 40
0.25
 50
197.865983982
 51
12.134016017
  0
LINE
  8
0
  6
CONTINUOUS
 62
     2
 10
139.492326989
 20
82.404665649
 30
0.0
 11
139.314516296
 21
82.582372532
 31
0.0
  0
LINE
  8
0
  6
CONTINUOUS
 62
     2
 10
139.845334351
 20
82.757673011
 30
0.0
 11
139.667627468
 21
82.935483704
 31
0.0
  0
ARC
  8
0
  6
CONTINUOUS
 62
     2
 10
139.659009742
 20
82.590990258
 30
0.0
 40
0.25
 50
228.184738537
 51
41.815261463
  0
ARC
  8
0
  6
CONTINUOUS
 62
     2
 10
139.482233047
 20
82.767766953
 30
0.0
 40
0.25
 50
227.865983982
 51
42.134016017
  0
LINE
  8
0
  6
CONTINUOUS
 62
     2
 10
139.025477696
 20
81.337639631
 30
0.0
 11
138.782635677
 21
81.402632959
 31
0.0
  0
LINE
  8
0
  6
CONTINUOUS
 62
     2
 10
139.154687358
 20
81.819856655
 30
0.0
 11
138.911883337
 21
81.884991791
 31
0.0
  0
ARC
  8
0
  6
CONTINUOUS
 62
     2
 10
139.076666891
 20
81.582342851
 30
0.0
 40
0.25
 50
258.184738537
 51
71.815261463
  0
ARC
  8
0
  6
CONTINUOUS
 62
     2
 10
138.835185434
 20
81.647047613
 30
0.0
 40
0.25
 50
257.865983982
 51
72.134016017
  0
ARC
  8
0
  6
CONTINUOUS
 62
     2
 10
141.25
 20
81.0
 30
0.0
 40
2.5
 50
110.731967965
 51
129.268032035
  0
ARC
  8
0
  6
CONTINUOUS
 62
     2
 10
141.25
 20
81.0
 30
0.0
 40
2.25
 50
111.369477073
 51
128.630522927
  0
ARC
  8
0
  6
CONTINUOUS
 62
     2
 10
141.25
 20
81.0
 30
0.0
 40
2.5
 50
140.731967965
 51
159.268032035
  0
ARC
  8
0
  6
CONTINUOUS
 62
     2
 10
141.25
 20
81.0
 30
0.0
 40
2.25
 50
141.369477073
 51
158.630522927
  0
LINE
  8
0
  6
CONTINUOUS
 62
     2
 10
142.069856655
 20
83.095312642
 30
0.0
 11
142.134991791
 21
83.338116663
 31
0.0
  0
LINE
  8
0
  6
CONTINUOUS
 62
     2
 10
141.587639631
 20
83.224522304
 30
0.0
 11
141.652632959
 21
83.467364323
 31
0.0
  0
ARC
  8
0
  6
CONTINUOUS
 62
     2
 10
141.832342851
 20
83.173333109
 30
0.0
 40
0.25
 50
168.184738537
 51
341.815261463
  0
ARC
  8
0
  6
CONTINUOUS
 62
     2
 10
141.897047613
 20
83.414814566
 30
0.0
 40
0.25
 50
167.865983983
 51
342.134016018
  0
LINE
  8
0
  6
CONTINUOUS
 62
     2
 10
143.007673011
 20
82.404665649
 30
0.0
 11
143.185483704
 21
82.582372532
 31
0.0
  0
LINE
  8
0
  6
CONTINUOUS
 62
     2
 10
142.654665649
 20
82.757673011
 30
0.0
 11
142.832372532
 21
82.935483704
 31
0.0
  0
ARC
  8
0
  6
CONTINUOUS
 62
     2
 10
142.840990258
 20
82.590990258
 30
0.0
 40
0.25
 50
138.184738537
 51
311.815261463
  0
ARC
  8
0
  6
CONTINUOUS
 62
     2
 10
143.017766953
 20
82.767766953
 30
0.0
 40
0.25
 50
137.865983983
 51
312.134016018
  0
LINE
  8
0
  6
CONTINUOUS
 62
     2
 10
143.474522304
 20
81.337639631
 30
0.0
 11
143.717364323
 21
81.402632959
 31
0.0
  0
LINE
  8
0
  6
CONTINUOUS
 62
     2
 10
143.345312642
 20
81.819856655
 30
0.0
 11
143.588116663
 21
81.884991791
 31
0.0
  0
ARC
  8
0
  6
CONTINUOUS
 62
     2
 10
143.423333109
 20
81.582342851
 30
0.0
 40
0.25
 50
108.184738537
 51
281.815261463
  0
ARC
  8
0
  6
CONTINUOUS
 62
     2
 10
143.664814566
 20
81.647047613
 30
0.0
 40
0.25
 50
107.865983983
 51
282.134016018
  0
ARC
  8
0
  6
CONTINUOUS
 62
     2
 10
141.25
 20
81.0
 30
0.0
 40
2.5
 50
50.731967965
 51
69.268032035
  0
ARC
  8
0
  6
CONTINUOUS
 62
     2
 10
141.25
 20
81.0
 30
0.0
 40
2.25
 50
51.369477073
 51
68.630522927
  0
ARC
  8
0
  6
CONTINUOUS
 62
     2
 10
141.25
 20
81.0
 30
0.0
 40
2.5
 50
20.731967965
 51
39.268032035
  0
ARC
  8
0
  6
CONTINUOUS
 62
     2
 10
141.25
 20
81.0
 30
0.0
 40
2.25
 50
21.369477073
 51
38.630522927
  0
ARC
  8
0
  6
CONTINUOUS
 62
     2
 10
141.25
 20
81.0
 30
0.0
 40
2.25
 50
81.369477073
 51
98.630522927
  0
ARC
  8
0
  6
CONTINUOUS
 62
     2
 10
141.25
 20
81.0
 30
0.0
 40
2.5
 50
80.731967965
 51
99.268032035
  0
ARC
  8
0
  6
CONTINUOUS
 62
     2
 10
141.25
 20
81.0
 30
0.0
 40
2.5
 50
170.731967965
 51
189.268032035
  0
ARC
  8
0
  6
CONTINUOUS
 62
     2
 10
141.25
 20
81.0
 30
0.0
 40
2.5
 50
350.731967965
 51
9.268032035
  0
ARC
  8
0
  6
CONTINUOUS
 62
     2
 10
141.25
 20
81.0
 30
0.0
 40
2.25
 50
171.369477073
 51
188.630522927
  0
ARC
  8
0
  6
CONTINUOUS
 62
     2
 10
141.25
 20
81.0
 30
0.0
 40
2.25
 50
351.369477073
 51
8.630522927
  0
LINE
  8
0
  6
LTYPE1
 62
     2
 10
138.25
 20
81.0
 30
0.0
 11
144.25
 21
81.0
 31
0.0
  0
LINE
  8
0
  6
LTYPE1
 62
     2
 10
141.25
 20
84.0
 30
0.0
 11
141.25
 21
78.0
 31
0.0
  0
CIRCLE
  8
0
  6
CONTINUOUS
 62
     2
 10
141.25
 20
81.0
 30
0.0
 40
2.5
  0
TEXT
  8
0
  6
CONTINUOUS
 62
     2
 10
121.653847577
 20
73.0
 30
0.3
 40
3.0
  1
Ｌ側設定ツマミ
 50
0.0
 41
0.6
 51
0.0
  7
KANJI6
  0
TEXT
  8
0
  6
CONTINUOUS
 62
     2
 10
121.653847577
 20
68.0
 30
0.3
 40
3.0
  1
（中央黄色）
 50
0.0
 41
0.6
 51
0.0
  7
KANJI6
  0
CIRCLE
  8
0
  6
CONTINUOUS
 62
     2
 10
145.0
 20
76.25
 30
0.0
 40
1.8
  0
LINE
  8
0
  6
CONTINUOUS
 62
     2
 10
144.75
 20
78.032554347
 30
0.0
 11
144.75
 21
74.467445653
 31
0.0
  0
LINE
  8
0
  6
CONTINUOUS
 62
     2
 10
145.25
 20
74.467445653
 30
0.0
 11
145.25
 21
78.032554347
 31
0.0
  0
LINE
  8
0
  6
LTYPE1
 62
     2
 10
142.0
 20
76.25
 30
0.0
 11
148.0
 21
76.25
 31
0.0
  0
TEXT
  8
0
  6
CONTINUOUS
 62
     2
 10
107.751310073
 20
113.0
 30
0.3
 40
3.0
  1
Ｈ側設定指針
 50
0.0
 41
0.6
 51
0.0
  7
KANJI6
  0
ARC
  8
0
  6
CONTINUOUS
 62
     2
 10
12.5
 20
126.5
 30
0.0
 40
0.5
 50
180.0
 51
270.0
  0
ARC
  8
0
  6
CONTINUOUS
 62
     2
 10
12.5
 20
173.5
 30
0.0
 40
0.5
 50
90.0
 51
180.0
  0
LINE
  8
0
  6
CONTINUOUS
 62
     2
 10
12.0
 20
173.5
 30
0.0
 11
12.0
 21
126.5
 31
0.0
  0
ARC
  8
0
  6
CONTINUOUS
 62
     2
 10
13.35
 20
172.65
 30
0.0
 40
0.5
 50
90.0
 51
180.0
  0
LINE
  8
0
  6
CONTINUOUS
 62
     2
 10
12.85
 20
172.65
 30
0.0
 11
12.85
 21
142.5
 31
0.0
  0
LINE
  8
0
  6
CONTINUOUS
 62
     2
 10
29.5
 20
142.5
 30
0.0
 11
52.5
 21
142.5
 31
0.0
  0
LINE
  8
0
  6
CONTINUOUS
 62
     2
 10
52.049420471
 20
146.555215763
 30
0.0
 11
52.5
 21
142.5
 31
0.0
  0
ARC
  8
0
  6
CONTINUOUS
 62
     2
 10
51.552478603
 20
146.5
 30
0.0
 40
0.5
 50
6.340191746
 51
90.0
  0
LINE
  8
0
  6
CONTINUOUS
 62
     2
 10
29.950579529
 20
146.555215763
 30
0.0
 11
29.5
 21
142.5
 31
0.0
  0
LINE
  8
0
  6
CONTINUOUS
 62
     2
 10
51.552478603
 20
147.0
 30
0.0
 11
30.447521397
 21
147.0
 31
0.0
  0
ARC
  8
0
  6
CONTINUOUS
 62
     2
 10
30.447521397
 20
146.5
 30
0.0
 40
0.5
 50
90.0
 51
173.659808254
  0
CIRCLE
  8
0
  6
CONTINUOUS
 62
     2
 10
41.0
 20
129.5
 30
0.0
 40
1.8
  0
LINE
  8
0
  6
CONTINUOUS
 62
     2
 10
40.75
 20
131.282554347
 30
0.0
 11
40.75
 21
127.717445653
 31
0.0
  0
LINE
  8
0
  6
CONTINUOUS
 62
     2
 10
41.25
 20
127.717445653
 30
0.0
 11
41.25
 21
131.282554347
 31
0.0
  0
LINE
  8
0
  6
LTYPE1
 62
     2
 10
38.0
 20
129.5
 30
0.0
 11
44.0
 21
129.5
 31
0.0
  0
TEXT
  8
0
  6
CONTINUOUS
 62
     2
 10
46.484827557
 20
121.0
 30
0.3
 40
3.0
  1
零位調整器
 50
0.0
 41
0.6
 51
0.0
  7
KANJI6
  0
TEXT
  8
0
  6
CONTINUOUS
 62
     2
 10
10.644555434
 20
121.0
 30
0.3
 40
3.0
  1
遮光フ－ド
 50
0.0
 41
0.6
 51
0.0
  7
KANJI6
  0
CIRCLE
  8
0
  6
CONTINUOUS
 62
     2
 10
16.0
 20
139.5
 30
0.0
 40
1.6
  0
LINE
  8
0
  6
LTYPE1
 62
     2
 10
13.5
 20
139.5
 30
0.0
 11
18.5
 21
139.5
 31
0.0
  0
LINE
  8
0
  6
LTYPE1
 62
     2
 10
16.0
 20
142.0
 30
0.0
 11
16.0
 21
137.0
 31
0.0
  0
LINE
  8
0
  6
CONTINUOUS
 62
     2
 10
15.2
 20
138.7
 30
0.0
 11
16.8
 21
140.3
 31
0.0
  0
LINE
  8
0
  6
CONTINUOUS
 62
     2
 10
15.2
 20
140.3
 30
0.0
 11
16.8
 21
138.7
 31
0.0
  0
CIRCLE
  8
0
  6
CONTINUOUS
 62
     2
 10
16.0
 20
139.5
 30
0.0
 40
1.75
  0
CIRCLE
  8
0
  6
CONTINUOUS
 62
     2
 10
37.25
 20
134.25
 30
0.0
 40
1.75
  0
CIRCLE
  8
0
  6
CONTINUOUS
 62
     2
 10
37.25
 20
134.25
 30
0.0
 40
0.75
  0
LINE
  8
0
  6
CONTINUOUS
 62
     2
 10
36.430143345
 20
132.154687358
 30
0.0
 11
36.365008209
 21
131.911883337
 31
0.0
  0
LINE
  8
0
  6
CONTINUOUS
 62
     2
 10
36.912360369
 20
132.025477696
 30
0.0
 11
36.847367041
 21
131.782635677
 31
0.0
  0
ARC
  8
0
  6
CONTINUOUS
 62
     2
 10
36.667657149
 20
132.076666891
 30
0.0
 40
0.25
 50
348.184738537
 51
161.815261463
  0
ARC
  8
0
  6
CONTINUOUS
 62
     2
 10
36.602952387
 20
131.835185434
 30
0.0
 40
0.25
 50
347.865983983
 51
162.134016018
  0
LINE
  8
0
  6
CONTINUOUS
 62
     2
 10
35.492326989
 20
132.845334351
 30
0.0
 11
35.314516296
 21
132.667627468
 31
0.0
  0
LINE
  8
0
  6
CONTINUOUS
 62
     2
 10
35.845334351
 20
132.492326989
 30
0.0
 11
35.667627468
 21
132.314516296
 31
0.0
  0
ARC
  8
0
  6
CONTINUOUS
 62
     2
 10
35.659009742
 20
132.659009742
 30
0.0
 40
0.25
 50
318.184738537
 51
131.815261463
  0
ARC
  8
0
  6
CONTINUOUS
 62
     2
 10
35.482233047
 20
132.482233047
 30
0.0
 40
0.25
 50
317.865983983
 51
132.134016018
  0
LINE
  8
0
  6
CONTINUOUS
 62
     2
 10
35.025477696
 20
133.912360369
 30
0.0
 11
34.782635677
 21
133.847367041
 31
0.0
  0
LINE
  8
0
  6
CONTINUOUS
 62
     2
 10
35.154687358
 20
133.430143345
 30
0.0
 11
34.911883337
 21
133.365008209
 31
0.0
  0
ARC
  8
0
  6
CONTINUOUS
 62
     2
 10
35.076666891
 20
133.667657149
 30
0.0
 40
0.25
 50
288.184738537
 51
101.815261463
  0
ARC
  8
0
  6
CONTINUOUS
 62
     2
 10
34.835185434
 20
133.602952387
 30
0.0
 40
0.25
 50
287.865983983
 51
102.134016018
  0
ARC
  8
0
  6
CONTINUOUS
 62
     2
 10
37.25
 20
134.25
 30
0.0
 40
2.5
 50
230.731967965
 51
249.268032035
  0
ARC
  8
0
  6
CONTINUOUS
 62
     2
 10
37.25
 20
134.25
 30
0.0
 40
2.25
 50
231.369477073
 51
248.630522927
  0
ARC
  8
0
  6
CONTINUOUS
 62
     2
 10
37.25
 20
134.25
 30
0.0
 40
2.5
 50
200.731967965
 51
219.268032035
  0
ARC
  8
0
  6
CONTINUOUS
 62
     2
 10
37.25
 20
134.25
 30
0.0
 40
2.25
 50
201.369477073
 51
218.630522927
  0
LINE
  8
0
  6
CONTINUOUS
 62
     2
 10
38.069856655
 20
132.154687358
 30
0.0
 11
38.134991791
 21
131.911883337
 31
0.0
  0
LINE
  8
0
  6
CONTINUOUS
 62
     2
 10
37.587639631
 20
132.025477696
 30
0.0
 11
37.652632959
 21
131.782635677
 31
0.0
  0
ARC
  8
0
  6
CONTINUOUS
 62
     2
 10
37.832342851
 20
132.076666891
 30
0.0
 40
0.25
 50
18.184738537
 51
191.815261463
  0
ARC
  8
0
  6
CONTINUOUS
 62
     2
 10
37.897047613
 20
131.835185434
 30
0.0
 40
0.25
 50
17.865983982
 51
192.134016017
  0
LINE
  8
0
  6
CONTINUOUS
 62
     2
 10
39.007673011
 20
132.845334351
 30
0.0
 11
39.185483704
 21
132.667627468
 31
0.0
  0
LINE
  8
0
  6
CONTINUOUS
 62
     2
 10
38.654665649
 20
132.492326989
 30
0.0
 11
38.832372532
 21
132.314516296
 31
0.0
  0
ARC
  8
0
  6
CONTINUOUS
 62
     2
 10
38.840990258
 20
132.659009742
 30
0.0
 40
0.25
 50
48.184738537
 51
221.815261463
  0
ARC
  8
0
  6
CONTINUOUS
 62
     2
 10
39.017766953
 20
132.482233047
 30
0.0
 40
0.25
 50
47.865983982
 51
222.134016017
  0
LINE
  8
0
  6
CONTINUOUS
 62
     2
 10
39.474522304
 20
133.912360369
 30
0.0
 11
39.717364323
 21
133.847367041
 31
0.0
  0
LINE
  8
0
  6
CONTINUOUS
 62
     2
 10
39.345312642
 20
133.430143345
 30
0.0
 11
39.588116663
 21
133.365008209
 31
0.0
  0
ARC
  8
0
  6
CONTINUOUS
 62
     2
 10
39.423333109
 20
133.667657149
 30
0.0
 40
0.25
 50
78.184738537
 51
251.815261463
  0
ARC
  8
0
  6
CONTINUOUS
 62
     2
 10
39.664814566
 20
133.602952387
 30
0.0
 40
0.25
 50
77.865983982
 51
252.134016017
  0
ARC
  8
0
  6
CONTINUOUS
 62
     2
 10
37.25
 20
134.25
 30
0.0
 40
2.5
 50
290.731967965
 51
309.268032035
  0
ARC
  8
0
  6
CONTINUOUS
 62
     2
 10
37.25
 20
134.25
 30
0.0
 40
2.25
 50
291.369477073
 51
308.630522927
  0
ARC
  8
0
  6
CONTINUOUS
 62
     2
 10
37.25
 20
134.25
 30
0.0
 40
2.5
 50
320.731967965
 51
339.268032035
  0
ARC
  8
0
  6
CONTINUOUS
 62
     2
 10
37.25
 20
134.25
 30
0.0
 40
2.25
 50
321.369477073
 51
338.630522927
  0
ARC
  8
0
  6
CONTINUOUS
 62
     2
 10
37.25
 20
134.25
 30
0.0
 40
2.25
 50
261.369477073
 51
278.630522927
  0
ARC
  8
0
  6
CONTINUOUS
 62
     2
 10
37.25
 20
134.25
 30
0.0
 40
2.5
 50
260.731967965
 51
279.268032035
  0
LINE
  8
0
  6
CONTINUOUS
 62
     2
 10
36.430143345
 20
136.345312642
 30
0.0
 11
36.365008209
 21
136.588116663
 31
0.0
  0
LINE
  8
0
  6
CONTINUOUS
 62
     2
 10
36.912360369
 20
136.474522304
 30
0.0
 11
36.847367041
 21
136.717364323
 31
0.0
  0
ARC
  8
0
  6
CONTINUOUS
 62
     2
 10
36.667657149
 20
136.423333109
 30
0.0
 40
0.25
 50
198.184738537
 51
11.815261463
  0
ARC
  8
0
  6
CONTINUOUS
 62
     2
 10
36.602952387
 20
136.664814566
 30
0.0
 40
0.25
 50
197.865983982
 51
12.134016017
  0
LINE
  8
0
  6
CONTINUOUS
 62
     2
 10
35.492326989
 20
135.654665649
 30
0.0
 11
35.314516296
 21
135.832372532
 31
0.0
  0
LINE
  8
0
  6
CONTINUOUS
 62
     2
 10
35.845334351
 20
136.007673011
 30
0.0
 11
35.667627468
 21
136.185483704
 31
0.0
  0
ARC
  8
0
  6
CONTINUOUS
 62
     2
 10
35.659009742
 20
135.840990258
 30
0.0
 40
0.25
 50
228.184738537
 51
41.815261463
  0
ARC
  8
0
  6
CONTINUOUS
 62
     2
 10
35.482233047
 20
136.017766953
 30
0.0
 40
0.25
 50
227.865983982
 51
42.134016017
  0
LINE
  8
0
  6
CONTINUOUS
 62
     2
 10
35.025477696
 20
134.587639631
 30
0.0
 11
34.782635677
 21
134.652632959
 31
0.0
  0
LINE
  8
0
  6
CONTINUOUS
 62
     2
 10
35.154687358
 20
135.069856655
 30
0.0
 11
34.911883337
 21
135.134991791
 31
0.0
  0
ARC
  8
0
  6
CONTINUOUS
 62
     2
 10
35.076666891
 20
134.832342851
 30
0.0
 40
0.25
 50
258.184738537
 51
71.815261463
  0
ARC
  8
0
  6
CONTINUOUS
 62
     2
 10
34.835185434
 20
134.897047613
 30
0.0
 40
0.25
 50
257.865983982
 51
72.134016017
  0
ARC
  8
0
  6
CONTINUOUS
 62
     2
 10
37.25
 20
134.25
 30
0.0
 40
2.5
 50
110.731967965
 51
129.268032035
  0
ARC
  8
0
  6
CONTINUOUS
 62
     2
 10
37.25
 20
134.25
 30
0.0
 40
2.25
 50
111.369477073
 51
128.630522927
  0
ARC
  8
0
  6
CONTINUOUS
 62
     2
 10
37.25
 20
134.25
 30
0.0
 40
2.5
 50
140.731967965
 51
159.268032035
  0
ARC
  8
0
  6
CONTINUOUS
 62
     2
 10
37.25
 20
134.25
 30
0.0
 40
2.25
 50
141.369477073
 51
158.630522927
  0
LINE
  8
0
  6
CONTINUOUS
 62
     2
 10
38.069856655
 20
136.345312642
 30
0.0
 11
38.134991791
 21
136.588116663
 31
0.0
  0
LINE
  8
0
  6
CONTINUOUS
 62
     2
 10
37.587639631
 20
136.474522304
 30
0.0
 11
37.652632959
 21
136.717364323
 31
0.0
  0
ARC
  8
0
  6
CONTINUOUS
 62
     2
 10
37.832342851
 20
136.423333109
 30
0.0
 40
0.25
 50
168.184738537
 51
341.815261463
  0
ARC
  8
0
  6
CONTINUOUS
 62
     2
 10
37.897047613
 20
136.664814566
 30
0.0
 40
0.25
 50
167.865983983
 51
342.134016018
  0
LINE
  8
0
  6
CONTINUOUS
 62
     2
 10
39.007673011
 20
135.654665649
 30
0.0
 11
39.185483704
 21
135.832372532
 31
0.0
  0
LINE
  8
0
  6
CONTINUOUS
 62
     2
 10
38.654665649
 20
136.007673011
 30
0.0
 11
38.832372532
 21
136.185483704
 31
0.0
  0
ARC
  8
0
  6
CONTINUOUS
 62
     2
 10
38.840990258
 20
135.840990258
 30
0.0
 40
0.25
 50
138.184738537
 51
311.815261463
  0
ARC
  8
0
  6
CONTINUOUS
 62
     2
 10
39.017766953
 20
136.017766953
 30
0.0
 40
0.25
 50
137.865983983
 51
312.134016018
  0
LINE
  8
0
  6
CONTINUOUS
 62
     2
 10
39.474522304
 20
134.587639631
 30
0.0
 11
39.717364323
 21
134.652632959
 31
0.0
  0
LINE
  8
0
  6
CONTINUOUS
 62
     2
 10
39.345312642
 20
135.069856655
 30
0.0
 11
39.588116663
 21
135.134991791
 31
0.0
  0
ARC
  8
0
  6
CONTINUOUS
 62
     2
 10
39.423333109
 20
134.832342851
 30
0.0
 40
0.25
 50
108.184738537
 51
281.815261463
  0
ARC
  8
0
  6
CONTINUOUS
 62
     2
 10
39.664814566
 20
134.897047613
 30
0.0
 40
0.25
 50
107.865983983
 51
282.134016018
  0
ARC
  8
0
  6
CONTINUOUS
 62
     2
 10
37.25
 20
134.25
 30
0.0
 40
2.5
 50
50.731967965
 51
69.268032035
  0
ARC
  8
0
  6
CONTINUOUS
 62
     2
 10
37.25
 20
134.25
 30
0.0
 40
2.25
 50
51.369477073
 51
68.630522927
  0
ARC
  8
0
  6
CONTINUOUS
 62
     2
 10
37.25
 20
134.25
 30
0.0
 40
2.5
 50
20.731967965
 51
39.268032035
  0
ARC
  8
0
  6
CONTINUOUS
 62
     2
 10
37.25
 20
134.25
 30
0.0
 40
2.25
 50
21.369477073
 51
38.630522927
  0
ARC
  8
0
  6
CONTINUOUS
 62
     2
 10
37.25
 20
134.25
 30
0.0
 40
2.25
 50
81.369477073
 51
98.630522927
  0
ARC
  8
0
  6
CONTINUOUS
 62
     2
 10
37.25
 20
134.25
 30
0.0
 40
2.5
 50
80.731967965
 51
99.268032035
  0
ARC
  8
0
  6
CONTINUOUS
 62
     2
 10
37.25
 20
134.25
 30
0.0
 40
2.5
 50
170.731967965
 51
189.268032035
  0
ARC
  8
0
  6
CONTINUOUS
 62
     2
 10
37.25
 20
134.25
 30
0.0
 40
2.5
 50
350.731967965
 51
9.268032035
  0
ARC
  8
0
  6
CONTINUOUS
 62
     2
 10
37.25
 20
134.25
 30
0.0
 40
2.25
 50
171.369477073
 51
188.630522927
  0
ARC
  8
0
  6
CONTINUOUS
 62
     2
 10
37.25
 20
134.25
 30
0.0
 40
2.25
 50
351.369477073
 51
8.630522927
  0
LINE
  8
0
  6
LTYPE1
 62
     2
 10
34.25
 20
134.25
 30
0.0
 11
40.25
 21
134.25
 31
0.0
  0
LINE
  8
0
  6
LTYPE1
 62
     2
 10
37.25
 20
137.25
 30
0.0
 11
37.25
 21
131.25
 31
0.0
  0
CIRCLE
  8
0
  6
CONTINUOUS
 62
     2
 10
44.75
 20
134.25
 30
0.0
 40
1.75
  0
CIRCLE
  8
0
  6
CONTINUOUS
 62
     2
 10
44.75
 20
134.25
 30
0.0
 40
0.75
  0
LINE
  8
0
  6
CONTINUOUS
 62
     2
 10
43.930143345
 20
132.154687358
 30
0.0
 11
43.865008209
 21
131.911883337
 31
0.0
  0
LINE
  8
0
  6
CONTINUOUS
 62
     2
 10
44.412360369
 20
132.025477696
 30
0.0
 11
44.347367041
 21
131.782635677
 31
0.0
  0
ARC
  8
0
  6
CONTINUOUS
 62
     2
 10
44.167657149
 20
132.076666891
 30
0.0
 40
0.25
 50
348.184738537
 51
161.815261463
  0
ARC
  8
0
  6
CONTINUOUS
 62
     2
 10
44.102952387
 20
131.835185434
 30
0.0
 40
0.25
 50
347.865983983
 51
162.134016018
  0
LINE
  8
0
  6
CONTINUOUS
 62
     2
 10
42.992326989
 20
132.845334351
 30
0.0
 11
42.814516296
 21
132.667627468
 31
0.0
  0
LINE
  8
0
  6
CONTINUOUS
 62
     2
 10
43.345334351
 20
132.492326989
 30
0.0
 11
43.167627468
 21
132.314516296
 31
0.0
  0
ARC
  8
0
  6
CONTINUOUS
 62
     2
 10
43.159009742
 20
132.659009742
 30
0.0
 40
0.25
 50
318.184738537
 51
131.815261463
  0
ARC
  8
0
  6
CONTINUOUS
 62
     2
 10
42.982233047
 20
132.482233047
 30
0.0
 40
0.25
 50
317.865983983
 51
132.134016018
  0
LINE
  8
0
  6
CONTINUOUS
 62
     2
 10
42.525477696
 20
133.912360369
 30
0.0
 11
42.282635677
 21
133.847367041
 31
0.0
  0
LINE
  8
0
  6
CONTINUOUS
 62
     2
 10
42.654687358
 20
133.430143345
 30
0.0
 11
42.411883337
 21
133.365008209
 31
0.0
  0
ARC
  8
0
  6
CONTINUOUS
 62
     2
 10
42.576666891
 20
133.667657149
 30
0.0
 40
0.25
 50
288.184738537
 51
101.815261463
  0
ARC
  8
0
  6
CONTINUOUS
 62
     2
 10
42.335185434
 20
133.602952387
 30
0.0
 40
0.25
 50
287.865983983
 51
102.134016018
  0
ARC
  8
0
  6
CONTINUOUS
 62
     2
 10
44.75
 20
134.25
 30
0.0
 40
2.5
 50
230.731967965
 51
249.268032035
  0
ARC
  8
0
  6
CONTINUOUS
 62
     2
 10
44.75
 20
134.25
 30
0.0
 40
2.25
 50
231.369477073
 51
248.630522927
  0
ARC
  8
0
  6
CONTINUOUS
 62
     2
 10
44.75
 20
134.25
 30
0.0
 40
2.5
 50
200.731967965
 51
219.268032035
  0
ARC
  8
0
  6
CONTINUOUS
 62
     2
 10
44.75
 20
134.25
 30
0.0
 40
2.25
 50
201.369477073
 51
218.630522927
  0
LINE
  8
0
  6
CONTINUOUS
 62
     2
 10
45.569856655
 20
132.154687358
 30
0.0
 11
45.634991791
 21
131.911883337
 31
0.0
  0
LINE
  8
0
  6
CONTINUOUS
 62
     2
 10
45.087639631
 20
132.025477696
 30
0.0
 11
45.152632959
 21
131.782635677
 31
0.0
  0
ARC
  8
0
  6
CONTINUOUS
 62
     2
 10
45.332342851
 20
132.076666891
 30
0.0
 40
0.25
 50
18.184738537
 51
191.815261463
  0
ARC
  8
0
  6
CONTINUOUS
 62
     2
 10
45.397047613
 20
131.835185434
 30
0.0
 40
0.25
 50
17.865983982
 51
192.134016017
  0
LINE
  8
0
  6
CONTINUOUS
 62
     2
 10
46.507673011
 20
132.845334351
 30
0.0
 11
46.685483704
 21
132.667627468
 31
0.0
  0
LINE
  8
0
  6
CONTINUOUS
 62
     2
 10
46.154665649
 20
132.492326989
 30
0.0
 11
46.332372532
 21
132.314516296
 31
0.0
  0
ARC
  8
0
  6
CONTINUOUS
 62
     2
 10
46.340990258
 20
132.659009742
 30
0.0
 40
0.25
 50
48.184738537
 51
221.815261463
  0
ARC
  8
0
  6
CONTINUOUS
 62
     2
 10
46.517766953
 20
132.482233047
 30
0.0
 40
0.25
 50
47.865983982
 51
222.134016017
  0
LINE
  8
0
  6
CONTINUOUS
 62
     2
 10
46.974522304
 20
133.912360369
 30
0.0
 11
47.217364323
 21
133.847367041
 31
0.0
  0
LINE
  8
0
  6
CONTINUOUS
 62
     2
 10
46.845312642
 20
133.430143345
 30
0.0
 11
47.088116663
 21
133.365008209
 31
0.0
  0
ARC
  8
0
  6
CONTINUOUS
 62
     2
 10
46.923333109
 20
133.667657149
 30
0.0
 40
0.25
 50
78.184738537
 51
251.815261463
  0
ARC
  8
0
  6
CONTINUOUS
 62
     2
 10
47.164814566
 20
133.602952387
 30
0.0
 40
0.25
 50
77.865983982
 51
252.134016017
  0
ARC
  8
0
  6
CONTINUOUS
 62
     2
 10
44.75
 20
134.25
 30
0.0
 40
2.5
 50
290.731967965
 51
309.268032035
  0
ARC
  8
0
  6
CONTINUOUS
 62
     2
 10
44.75
 20
134.25
 30
0.0
 40
2.25
 50
291.369477073
 51
308.630522927
  0
ARC
  8
0
  6
CONTINUOUS
 62
     2
 10
44.75
 20
134.25
 30
0.0
 40
2.5
 50
320.731967965
 51
339.268032035
  0
ARC
  8
0
  6
CONTINUOUS
 62
     2
 10
44.75
 20
134.25
 30
0.0
 40
2.25
 50
321.369477073
 51
338.630522927
  0
ARC
  8
0
  6
CONTINUOUS
 62
     2
 10
44.75
 20
134.25
 30
0.0
 40
2.25
 50
261.369477073
 51
278.630522927
  0
ARC
  8
0
  6
CONTINUOUS
 62
     2
 10
44.75
 20
134.25
 30
0.0
 40
2.5
 50
260.731967965
 51
279.268032035
  0
LINE
  8
0
  6
CONTINUOUS
 62
     2
 10
43.930143345
 20
136.345312642
 30
0.0
 11
43.865008209
 21
136.588116663
 31
0.0
  0
LINE
  8
0
  6
CONTINUOUS
 62
     2
 10
44.412360369
 20
136.474522304
 30
0.0
 11
44.347367041
 21
136.717364323
 31
0.0
  0
ARC
  8
0
  6
CONTINUOUS
 62
     2
 10
44.167657149
 20
136.423333109
 30
0.0
 40
0.25
 50
198.184738537
 51
11.815261463
  0
ARC
  8
0
  6
CONTINUOUS
 62
     2
 10
44.102952387
 20
136.664814566
 30
0.0
 40
0.25
 50
197.865983982
 51
12.134016017
  0
LINE
  8
0
  6
CONTINUOUS
 62
     2
 10
42.992326989
 20
135.654665649
 30
0.0
 11
42.814516296
 21
135.832372532
 31
0.0
  0
LINE
  8
0
  6
CONTINUOUS
 62
     2
 10
43.345334351
 20
136.007673011
 30
0.0
 11
43.167627468
 21
136.185483704
 31
0.0
  0
ARC
  8
0
  6
CONTINUOUS
 62
     2
 10
43.159009742
 20
135.840990258
 30
0.0
 40
0.25
 50
228.184738537
 51
41.815261463
  0
ARC
  8
0
  6
CONTINUOUS
 62
     2
 10
42.982233047
 20
136.017766953
 30
0.0
 40
0.25
 50
227.865983982
 51
42.134016017
  0
LINE
  8
0
  6
CONTINUOUS
 62
     2
 10
42.525477696
 20
134.587639631
 30
0.0
 11
42.282635677
 21
134.652632959
 31
0.0
  0
LINE
  8
0
  6
CONTINUOUS
 62
     2
 10
42.654687358
 20
135.069856655
 30
0.0
 11
42.411883337
 21
135.134991791
 31
0.0
  0
ARC
  8
0
  6
CONTINUOUS
 62
     2
 10
42.576666891
 20
134.832342851
 30
0.0
 40
0.25
 50
258.184738537
 51
71.815261463
  0
ARC
  8
0
  6
CONTINUOUS
 62
     2
 10
42.335185434
 20
134.897047613
 30
0.0
 40
0.25
 50
257.865983982
 51
72.134016017
  0
ARC
  8
0
  6
CONTINUOUS
 62
     2
 10
44.75
 20
134.25
 30
0.0
 40
2.5
 50
110.731967965
 51
129.268032035
  0
ARC
  8
0
  6
CONTINUOUS
 62
     2
 10
44.75
 20
134.25
 30
0.0
 40
2.25
 50
111.369477073
 51
128.630522927
  0
ARC
  8
0
  6
CONTINUOUS
 62
     2
 10
44.75
 20
134.25
 30
0.0
 40
2.5
 50
140.731967965
 51
159.268032035
  0
ARC
  8
0
  6
CONTINUOUS
 62
     2
 10
44.75
 20
134.25
 30
0.0
 40
2.25
 50
141.369477073
 51
158.630522927
  0
LINE
  8
0
  6
CONTINUOUS
 62
     2
 10
45.569856655
 20
136.345312642
 30
0.0
 11
45.634991791
 21
136.588116663
 31
0.0
  0
LINE
  8
0
  6
CONTINUOUS
 62
     2
 10
45.087639631
 20
136.474522304
 30
0.0
 11
45.152632959
 21
136.717364323
 31
0.0
  0
ARC
  8
0
  6
CONTINUOUS
 62
     2
 10
45.332342851
 20
136.423333109
 30
0.0
 40
0.25
 50
168.184738537
 51
341.815261463
  0
ARC
  8
0
  6
CONTINUOUS
 62
     2
 10
45.397047613
 20
136.664814566
 30
0.0
 40
0.25
 50
167.865983983
 51
342.134016018
  0
LINE
  8
0
  6
CONTINUOUS
 62
     2
 10
46.507673011
 20
135.654665649
 30
0.0
 11
46.685483704
 21
135.832372532
 31
0.0
  0
LINE
  8
0
  6
CONTINUOUS
 62
     2
 10
46.154665649
 20
136.007673011
 30
0.0
 11
46.332372532
 21
136.185483704
 31
0.0
  0
ARC
  8
0
  6
CONTINUOUS
 62
     2
 10
46.340990258
 20
135.840990258
 30
0.0
 40
0.25
 50
138.184738537
 51
311.815261463
  0
ARC
  8
0
  6
CONTINUOUS
 62
     2
 10
46.517766953
 20
136.017766953
 30
0.0
 40
0.25
 50
137.865983983
 51
312.134016018
  0
LINE
  8
0
  6
CONTINUOUS
 62
     2
 10
46.974522304
 20
134.587639631
 30
0.0
 11
47.217364323
 21
134.652632959
 31
0.0
  0
LINE
  8
0
  6
CONTINUOUS
 62
     2
 10
46.845312642
 20
135.069856655
 30
0.0
 11
47.088116663
 21
135.134991791
 31
0.0
  0
ARC
  8
0
  6
CONTINUOUS
 62
     2
 10
46.923333109
 20
134.832342851
 30
0.0
 40
0.25
 50
108.184738537
 51
281.815261463
  0
ARC
  8
0
  6
CONTINUOUS
 62
     2
 10
47.164814566
 20
134.897047613
 30
0.0
 40
0.25
 50
107.865983983
 51
282.134016018
  0
ARC
  8
0
  6
CONTINUOUS
 62
     2
 10
44.75
 20
134.25
 30
0.0
 40
2.5
 50
50.731967965
 51
69.268032035
  0
ARC
  8
0
  6
CONTINUOUS
 62
     2
 10
44.75
 20
134.25
 30
0.0
 40
2.25
 50
51.369477073
 51
68.630522927
  0
ARC
  8
0
  6
CONTINUOUS
 62
     2
 10
44.75
 20
134.25
 30
0.0
 40
2.5
 50
20.731967965
 51
39.268032035
  0
ARC
  8
0
  6
CONTINUOUS
 62
     2
 10
44.75
 20
134.25
 30
0.0
 40
2.25
 50
21.369477073
 51
38.630522927
  0
ARC
  8
0
  6
CONTINUOUS
 62
     2
 10
44.75
 20
134.25
 30
0.0
 40
2.25
 50
81.369477073
 51
98.630522927
  0
ARC
  8
0
  6
CONTINUOUS
 62
     2
 10
44.75
 20
134.25
 30
0.0
 40
2.5
 50
80.731967965
 51
99.268032035
  0
ARC
  8
0
  6
CONTINUOUS
 62
     2
 10
44.75
 20
134.25
 30
0.0
 40
2.5
 50
350.731967965
 51
9.268032035
  0
ARC
  8
0
  6
CONTINUOUS
 62
     2
 10
44.75
 20
134.25
 30
0.0
 40
2.25
 50
171.369477073
 51
188.630522927
  0
ARC
  8
0
  6
CONTINUOUS
 62
     2
 10
44.75
 20
134.25
 30
0.0
 40
2.25
 50
351.369477073
 51
8.630522927
  0
LINE
  8
0
  6
LTYPE1
 62
     2
 10
41.75
 20
134.25
 30
0.0
 11
47.75
 21
134.25
 31
0.0
  0
LINE
  8
0
  6
LTYPE1
 62
     2
 10
44.75
 20
137.25
 30
0.0
 11
44.75
 21
131.25
 31
0.0
  0
CIRCLE
  8
0
  6
CONTINUOUS
 62
     2
 10
44.75
 20
134.25
 30
0.0
 40
2.5
  0
CIRCLE
  8
0
  6
CONTINUOUS
 62
     2
 10
37.25
 20
134.25
 30
0.0
 40
2.5
  0
LINE
  8
0
  6
CONTINUOUS
 62
     2
 10
12.5
 20
126.0
 30
0.0
 11
56.0
 21
126.0
 31
0.0
  0
LINE
  8
0
  6
CONTINUOUS
 62
     2
 10
12.85
 20
142.5
 30
0.0
 11
56.0
 21
142.5
 31
0.0
  0
LINE
  8
0
  6
CONTINUOUS
 62
     2
 10
56.0
 20
174.0
 30
0.0
 11
12.5
 21
174.0
 31
0.0
  0
LINE
  8
0
  6
CONTINUOUS
 62
     2
 10
56.0
 20
173.15
 30
0.0
 11
13.35
 21
173.15
 31
0.0
  0
ARC
  8
0
  6
CONTINUOUS
 62
     2
 10
44.033363564
 20
136.718942426
 30
0.0
 40
2.5
 50
210.731967965
 51
229.268032035
  0
LINE
  8
0
  6
CONTINUOUS
 62
     2
 10
20.174344032
 20
159.124584839
 30
0.0
 11
20.365855143
 21
159.285281742
 31
0.0
  0
LINE
  8
0
  6
CONTINUOUS
 62
     2
 10
20.365855143
 20
159.285281742
 30
0.0
 11
30.674430521
 21
147.0
 31
0.0
  0
LINE
  8
0
  6
CONTINUOUS
 62
     2
 10
30.348078699
 20
147.0
 30
0.0
 11
20.174344032
 21
159.124584839
 31
0.0
  0
LINE
  8
0
  6
CONTINUOUS
 62
     2
 10
23.385423541
 20
160.614683535
 30
0.0
 11
23.250501206
 21
159.920568297
 31
0.0
  0
LINE
  8
0
  6
CONTINUOUS
 62
     2
 10
31.802408733
 20
147.0
 30
0.0
 11
23.250501206
 21
159.920568297
 31
0.0
  0
LINE
  8
0
  6
CONTINUOUS
 62
     2
 10
32.568643539
 20
147.0
 30
0.0
 11
23.385423541
 21
160.614683535
 31
0.0
  0
LINE
  8
0
  6
CONTINUOUS
 62
     2
 10
50.197591267
 20
147.0
 30
0.0
 11
55.825115708
 21
155.502291875
 31
0.0
  0
LINE
  8
0
  6
CONTINUOUS
 62
     2
 10
49.431356461
 20
147.0
 30
0.0
 11
55.884541888
 21
156.567240838
 31
0.0
  0
TEXT
  8
0
  6
CONTINUOUS
 62
     2
 10
20.0
 20
25.0
 30
0.3
 40
3.0
  1
注１）感度調整用可変抵抗器は，ＭＰＣ－１２Ｖ形に限り付きます。
 50
0.0
 41
0.9
 51
0.0
  7
KANJI0
  0
LINE
  8
0
  6
CONTINUOUS
 62
     2
 10
20.0
 20
24.0
 30
0.0
 11
112.0
 21
24.0
 31
0.0
  0
LINE
  8
0
  6
CONTINUOUS
 62
     2
 10
20.0
 20
19.0
 30
0.0
 11
116.0
 21
19.0
 31
0.0
  0
TEXT
  8
0
  6
CONTINUOUS
 62
     2
 10
20.0
 20
20.0
 30
0.3
 40
3.0
  1
　２）計器入力，電源端子の（＋）記号は，交流の場合関係ありません。
 50
0.0
 41
0.9
 51
0.0
  7
KANJI0
  0
TEXT
  8
0
  6
CONTINUOUS
 62
     2
 10
32.0
 20
63.0
 30
0.3
 40
3.0
  1
注２
 50
0.0
 41
0.6
 51
0.0
  7
KANJI6
  0
TEXT
  8
0
  6
CONTINUOUS
 62
     2
 10
45.3
 20
63.0
 30
0.3
 40
3.0
  1
注２
 50
0.0
 41
0.6
 51
0.0
  7
KANJI6
  0
TEXT
  8
0
  6
CONTINUOUS
 62
     2
 10
89.0
 20
63.0
 30
0.3
 40
3.0
  1
注２
 50
0.0
 41
0.6
 51
0.0
  7
KANJI6
  0
TEXT
  8
0
  6
CONTINUOUS
 62
     2
 10
102.3
 20
63.0
 30
0.3
 40
3.0
  1
注２
 50
0.0
 41
0.6
 51
0.0
  7
KANJI6
  0
TEXT
  8
0
  6
CONTINUOUS
 62
     2
 10
137.0
 20
63.0
 30
0.3
 40
3.0
  1
注２
 50
0.0
 41
0.6
 51
0.0
  7
KANJI6
  0
TEXT
  8
0
  6
CONTINUOUS
 62
     2
 10
150.3
 20
63.0
 30
0.3
 40
3.0
  1
注２
 50
0.0
 41
0.6
 51
0.0
  7
KANJI6
  0
TEXT
  8
0
  6
CONTINUOUS
 62
     3
 10
233.0
 20
17.0
 30
0.6
 40
6.0
  1
ＭＳ－１２３０１Ａ
 50
0.0
 41
0.9
 51
0.0
  7
KANJI7
  0
LINE
  8
0
  6
CONTINUOUS
 62
     5
 10
22.921686661
 20
156.205507363
 30
0.0
 11
21.865141007
 21
158.47127683
 31
0.0
  0
LINE
  8
0
  6
CONTINUOUS
 62
     5
 10
22.921686661
 20
156.205507363
 30
0.0
 11
23.139576018
 21
158.695994108
 31
0.0
  0
LINE
  8
0
  6
CONTINUOUS
 62
     5
 10
46.484827557
 20
120.0
 30
0.0
 11
56.684827557
 21
120.0
 31
0.0
  0
LINE
  8
0
  6
CONTINUOUS
 62
     5
 10
41.9
 20
127.941154273
 30
0.0
 11
42.547047613
 21
125.526339707
 31
0.0
  0
LINE
  8
0
  6
CONTINUOUS
 62
     5
 10
41.9
 20
127.941154273
 30
0.0
 11
43.667766953
 21
126.17338732
 31
0.0
  0
LINE
  8
0
  6
CONTINUOUS
 62
     5
 10
41.9
 20
127.941154273
 30
0.0
 11
46.484827557
 21
120.0
 31
0.0
  0
LINE
  8
0
  6
CONTINUOUS
 62
     5
 10
36.0
 20
146.25
 30
0.0
 11
34.232233047
 21
144.482233047
 31
0.0
  0
LINE
  8
0
  6
CONTINUOUS
 62
     5
 10
36.0
 20
146.25
 30
0.0
 11
35.352952387
 21
143.835185434
 31
0.0
  0
LINE
  8
0
  6
CONTINUOUS
 62
     5
 10
36.0
 20
146.25
 30
0.0
 11
20.844555434
 21
120.0
 31
0.0
  0
LINE
  8
0
  6
CONTINUOUS
 62
     5
 10
20.844555434
 20
120.0
 30
0.0
 11
10.644555434
 21
120.0
 31
0.0
  0
LINE
  8
0
  6
CONTINUOUS
 62
     5
 10
19.277971115
 20
105.955507363
 30
0.0
 11
18.630923502
 21
108.370321928
 31
0.0
  0
LINE
  8
0
  6
CONTINUOUS
 62
     5
 10
19.277971115
 20
105.955507363
 30
0.0
 11
17.510204162
 21
107.723274316
 31
0.0
  0
LINE
  8
0
  6
CONTINUOUS
 62
     5
 10
19.277971115
 20
105.955507363
 30
0.0
 11
15.788181664
 21
112.0
 31
0.0
  0
LINE
  8
0
  6
CONTINUOUS
 62
     5
 10
19.688181664
 20
112.0
 30
0.0
 11
15.788181664
 21
112.0
 31
0.0
  0
LINE
  8
0
  6
CONTINUOUS
 62
     5
 10
23.71062513
 20
105.399991383
 30
0.0
 11
25.478392083
 21
107.167758336
 31
0.0
  0
LINE
  8
0
  6
CONTINUOUS
 62
     5
 10
23.71062513
 20
105.399991383
 30
0.0
 11
24.357672743
 21
107.814805949
 31
0.0
  0
LINE
  8
0
  6
CONTINUOUS
 62
     5
 10
23.71062513
 20
105.399991383
 30
0.0
 11
27.521141882
 21
112.0
 31
0.0
  0
LINE
  8
0
  6
CONTINUOUS
 62
     5
 10
27.521141882
 20
112.0
 30
0.0
 11
39.821141882
 21
112.0
 31
0.0
  0
LINE
  8
0
  6
CONTINUOUS
 62
     5
 10
64.778858118
 20
112.0
 30
0.0
 11
52.478858118
 21
112.0
 31
0.0
  0
LINE
  8
0
  6
CONTINUOUS
 62
     5
 10
56.28937487
 20
105.399991383
 30
0.0
 11
55.642327257
 21
107.814805949
 31
0.0
  0
LINE
  8
0
  6
CONTINUOUS
 62
     5
 10
56.28937487
 20
105.399991383
 30
0.0
 11
54.521607917
 21
107.167758336
 31
0.0
  0
LINE
  8
0
  6
CONTINUOUS
 62
     5
 10
56.28937487
 20
105.399991383
 30
0.0
 11
52.478858118
 21
112.0
 31
0.0
  0
LINE
  8
0
  6
CONTINUOUS
 62
     5
 10
35.0
 20
78.834936491
 30
0.0
 11
33.232233047
 21
77.067169538
 31
0.0
  0
LINE
  8
0
  6
CONTINUOUS
 62
     5
 10
35.0
 20
78.834936491
 30
0.0
 11
34.352952387
 21
76.420121925
 31
0.0
  0
LINE
  8
0
  6
CONTINUOUS
 62
     5
 10
35.0
 20
78.834936491
 30
0.0
 11
31.053847577
 21
72.0
 31
0.0
  0
LINE
  8
0
  6
CONTINUOUS
 62
     5
 10
45.0
 20
78.834936491
 30
0.0
 11
45.647047613
 21
76.420121925
 31
0.0
  0
LINE
  8
0
  6
CONTINUOUS
 62
     5
 10
45.0
 20
78.834936491
 30
0.0
 11
46.767766953
 21
77.067169538
 31
0.0
  0
LINE
  8
0
  6
CONTINUOUS
 62
     5
 10
45.0
 20
78.834936491
 30
0.0
 11
48.946152423
 21
72.0
 31
0.0
  0
LINE
  8
0
  6
CONTINUOUS
 62
     5
 10
31.053847577
 20
72.0
 30
0.0
 11
16.653847577
 21
72.0
 31
0.0
  0
LINE
  8
0
  6
CONTINUOUS
 62
     5
 10
48.946152423
 20
72.0
 30
0.0
 11
63.346152423
 21
72.0
 31
0.0
  0
LINE
  8
0
  6
CONTINUOUS
 62
     5
 10
102.0
 20
78.834936491
 30
0.0
 11
102.647047613
 21
76.420121925
 31
0.0
  0
LINE
  8
0
  6
CONTINUOUS
 62
     5
 10
102.0
 20
78.834936491
 30
0.0
 11
103.767766953
 21
77.067169538
 31
0.0
  0
LINE
  8
0
  6
CONTINUOUS
 62
     5
 10
102.0
 20
78.834936491
 30
0.0
 11
105.946152423
 21
72.0
 31
0.0
  0
LINE
  8
0
  6
CONTINUOUS
 62
     5
 10
105.946152423
 20
72.0
 30
0.0
 11
120.346152423
 21
72.0
 31
0.0
  0
LINE
  8
0
  6
CONTINUOUS
 62
     5
 10
113.28937487
 20
105.399991383
 30
0.0
 11
112.232829215
 21
107.665760851
 31
0.0
  0
LINE
  8
0
  6
CONTINUOUS
 62
     5
 10
113.28937487
 20
105.399991383
 30
0.0
 11
111.241494759
 21
106.833932474
 31
0.0
  0
LINE
  8
0
  6
CONTINUOUS
 62
     5
 10
113.28937487
 20
105.399991383
 30
0.0
 11
107.751310073
 21
112.0
 31
0.0
  0
LINE
  8
0
  6
CONTINUOUS
 62
     5
 10
120.051310073
 20
112.0
 30
0.0
 11
107.751310073
 21
112.0
 31
0.0
  0
LINE
  8
0
  6
CONTINUOUS
 62
     5
 10
76.688181664
 20
112.0
 30
0.0
 11
72.788181664
 21
112.0
 31
0.0
  0
LINE
  8
0
  6
CONTINUOUS
 62
     5
 10
76.277971115
 20
105.955507363
 30
0.0
 11
75.630923502
 21
108.370321928
 31
0.0
  0
LINE
  8
0
  6
CONTINUOUS
 62
     5
 10
76.277971115
 20
105.955507363
 30
0.0
 11
74.510204162
 21
107.723274316
 31
0.0
  0
LINE
  8
0
  6
CONTINUOUS
 62
     5
 10
76.277971115
 20
105.955507363
 30
0.0
 11
72.788181664
 21
112.0
 31
0.0
  0
LINE
  8
0
  6
CONTINUOUS
 62
     5
 10
124.277971115
 20
105.955507363
 30
0.0
 11
123.630923502
 21
108.370321928
 31
0.0
  0
LINE
  8
0
  6
CONTINUOUS
 62
     5
 10
124.277971115
 20
105.955507363
 30
0.0
 11
122.510204162
 21
107.723274316
 31
0.0
  0
LINE
  8
0
  6
CONTINUOUS
 62
     5
 10
124.277971115
 20
105.955507363
 30
0.0
 11
120.788181664
 21
112.0
 31
0.0
  0
LINE
  8
0
  6
CONTINUOUS
 62
     5
 10
124.688181664
 20
112.0
 30
0.0
 11
120.788181664
 21
112.0
 31
0.0
  0
LINE
  8
0
  6
CONTINUOUS
 62
     5
 10
128.71062513
 20
105.399991383
 30
0.0
 11
130.478392083
 21
107.167758336
 31
0.0
  0
LINE
  8
0
  6
CONTINUOUS
 62
     5
 10
128.71062513
 20
105.399991383
 30
0.0
 11
129.357672743
 21
107.814805949
 31
0.0
  0
LINE
  8
0
  6
CONTINUOUS
 62
     5
 10
128.71062513
 20
105.399991383
 30
0.0
 11
132.521141882
 21
112.0
 31
0.0
  0
LINE
  8
0
  6
CONTINUOUS
 62
     5
 10
132.521141882
 20
112.0
 30
0.0
 11
144.821141882
 21
112.0
 31
0.0
  0
LINE
  8
0
  6
CONTINUOUS
 62
     5
 10
136.053847577
 20
72.0
 30
0.0
 11
121.653847577
 21
72.0
 31
0.0
  0
LINE
  8
0
  6
CONTINUOUS
 62
     5
 10
140.0
 20
78.834936491
 30
0.0
 11
138.232233047
 21
77.067169538
 31
0.0
  0
LINE
  8
0
  6
CONTINUOUS
 62
     5
 10
140.0
 20
78.834936491
 30
0.0
 11
139.352952387
 21
76.420121925
 31
0.0
  0
LINE
  8
0
  6
CONTINUOUS
 62
     5
 10
140.0
 20
78.834936491
 30
0.0
 11
136.053847577
 21
72.0
 31
0.0
  0
TEXT
  8
0
  6
CONTINUOUS
 62
     2
 10
234.0
 20
29.0
 30
0.4
 40
4.0
  1
無接点式メ－タリレ－外形図
 50
0.0
 41
0.9
 51
0.0
  7
KANJI8
  0
TEXT
  8
0
  6
CONTINUOUS
 62
     2
 10
234.0
 20
34.0
 30
0.3
 40
3.0
  1
端子カバー付
 50
0.0
 41
0.9
 51
0.0
  7
KANJI0
  0
TEXT
  8
0
  6
CONTINUOUS
 62
     2
 10
234.0
 20
40.0
 30
0.4
 40
4.0
  1
ＭＰＣ－１２（ＨＬ，Ｈ，Ｌ設定）
 50
0.0
 41
0.9
 51
0.0
  7
KANJI8
  0
ARC
  8
0
  6
CONTINUOUS
 62
     1
 10
169.325
 20
173.375
 30
0.0
 40
1.625
 50
90.0
 51
180.0
  0
LINE
  8
0
  6
CONTINUOUS
 62
     1
 10
226.075
 20
175.0
 30
0.0
 11
169.325
 21
175.0
 31
0.0
  0
LINE
  8
0
  6
CONTINUOUS
 62
     1
 10
167.7
 20
173.375
 30
0.0
 11
167.7
 21
126.625
 31
0.0
  0
ARC
  8
0
  6
CONTINUOUS
 62
     1
 10
169.325
 20
126.625
 30
0.0
 40
1.625
 50
180.0
 51
270.0
  0
LINE
  8
0
  6
CONTINUOUS
 62
     1
 10
169.325
 20
125.0
 30
0.0
 11
226.075
 21
125.0
 31
0.0
  0
ARC
  8
0
  6
CONTINUOUS
 62
     1
 10
226.075
 20
126.625
 30
0.0
 40
1.625
 50
270.0
 51
0.0
  0
LINE
  8
0
  6
CONTINUOUS
 62
     1
 10
227.7
 20
126.625
 30
0.0
 11
227.7
 21
173.375
 31
0.0
  0
ARC
  8
0
  6
CONTINUOUS
 62
     1
 10
226.075
 20
173.375
 30
0.0
 40
1.625
 50
0.0
 51
90.0
  0
CIRCLE
  8
0
  6
CONTINUOUS
 62
     1
 10
197.7
 20
143.25
 30
0.0
 40
16.0
  0
ARC
  8
0
  6
CONTINUOUS
 62
     1
 10
204.95
 20
145.3
 30
0.0
 40
0.25
 50
270.0
 51
0.0
  0
ARC
  8
0
  6
CONTINUOUS
 62
     1
 10
204.95
 20
141.2
 30
0.0
 40
0.25
 50
0.0
 51
90.0
  0
ARC
  8
0
  6
CONTINUOUS
 62
     1
 10
204.95
 20
149.8
 30
0.0
 40
0.25
 50
270.0
 51
0.0
  0
ARC
  8
0
  6
CONTINUOUS
 62
     1
 10
204.95
 20
145.7
 30
0.0
 40
0.25
 50
0.0
 51
90.0
  0
ARC
  8
0
  6
CONTINUOUS
 62
     1
 10
204.95
 20
150.2
 30
0.0
 40
0.25
 50
0.0
 51
90.0
  0
ARC
  8
0
  6
CONTINUOUS
 62
     1
 10
204.95
 20
140.8
 30
0.0
 40
0.25
 50
270.0
 51
0.0
  0
ARC
  8
0
  6
CONTINUOUS
 62
     1
 10
204.95
 20
136.7
 30
0.0
 40
0.25
 50
0.0
 51
90.0
  0
ARC
  8
0
  6
CONTINUOUS
 62
     1
 10
204.95
 20
136.3
 30
0.0
 40
0.25
 50
270.0
 51
0.0
  0
ARC
  8
0
  6
CONTINUOUS
 62
     1
 10
204.95
 20
155.0
 30
0.0
 40
0.25
 50
270.0
 51
0.0
  0
ARC
  8
0
  6
CONTINUOUS
 62
     1
 10
204.95
 20
131.5
 30
0.0
 40
0.25
 50
0.0
 51
90.0
  0
ARC
  8
0
  6
CONTINUOUS
 62
     1
 10
190.45
 20
145.3
 30
0.0
 40
0.25
 50
180.0
 51
270.0
  0
ARC
  8
0
  6
CONTINUOUS
 62
     1
 10
190.45
 20
141.2
 30
0.0
 40
0.25
 50
90.0
 51
180.0
  0
ARC
  8
0
  6
CONTINUOUS
 62
     1
 10
190.45
 20
149.8
 30
0.0
 40
0.25
 50
180.0
 51
270.0
  0
ARC
  8
0
  6
CONTINUOUS
 62
     1
 10
190.45
 20
145.7
 30
0.0
 40
0.25
 50
90.0
 51
180.0
  0
ARC
  8
0
  6
CONTINUOUS
 62
     1
 10
190.45
 20
150.2
 30
0.0
 40
0.25
 50
90.0
 51
180.0
  0
ARC
  8
0
  6
CONTINUOUS
 62
     1
 10
190.45
 20
140.8
 30
0.0
 40
0.25
 50
180.0
 51
270.0
  0
ARC
  8
0
  6
CONTINUOUS
 62
     1
 10
190.45
 20
136.7
 30
0.0
 40
0.25
 50
90.0
 51
180.0
  0
ARC
  8
0
  6
CONTINUOUS
 62
     1
 10
190.45
 20
136.3
 30
0.0
 40
0.25
 50
180.0
 51
270.0
  0
ARC
  8
0
  6
CONTINUOUS
 62
     1
 10
190.45
 20
155.0
 30
0.0
 40
0.25
 50
180.0
 51
270.0
  0
ARC
  8
0
  6
CONTINUOUS
 62
     1
 10
190.45
 20
131.5
 30
0.0
 40
0.25
 50
90.0
 51
180.0
  0
LINE
  8
0
  6
CONTINUOUS
 62
     1
 10
191.2
 20
136.05
 30
0.0
 11
191.2
 21
132.45
 31
0.0
  0
LINE
  8
0
  6
CONTINUOUS
 62
     1
 10
191.2
 20
140.55
 30
0.0
 11
191.2
 21
136.95
 31
0.0
  0
LINE
  8
0
  6
CONTINUOUS
 62
     1
 10
191.2
 20
145.05
 30
0.0
 11
191.2
 21
141.45
 31
0.0
  0
LINE
  8
0
  6
CONTINUOUS
 62
     1
 10
191.2
 20
149.55
 30
0.0
 11
191.2
 21
145.95
 31
0.0
  0
LINE
  8
0
  6
CONTINUOUS
 62
     1
 10
191.2
 20
154.05
 30
0.0
 11
191.2
 21
150.45
 31
0.0
  0
LINE
  8
0
  6
CONTINUOUS
 62
     1
 10
190.2
 20
150.2
 30
0.0
 11
190.2
 21
149.8
 31
0.0
  0
LINE
  8
0
  6
CONTINUOUS
 62
     1
 10
190.2
 20
145.7
 30
0.0
 11
190.2
 21
145.3
 31
0.0
  0
LINE
  8
0
  6
CONTINUOUS
 62
     1
 10
190.2
 20
141.2
 30
0.0
 11
190.2
 21
140.8
 31
0.0
  0
LINE
  8
0
  6
CONTINUOUS
 62
     1
 10
190.2
 20
136.7
 30
0.0
 11
190.2
 21
136.3
 31
0.0
  0
LINE
  8
0
  6
CONTINUOUS
 62
     1
 10
205.2
 20
136.3
 30
0.0
 11
205.2
 21
136.7
 31
0.0
  0
LINE
  8
0
  6
CONTINUOUS
 62
     1
 10
205.2
 20
140.8
 30
0.0
 11
205.2
 21
141.2
 31
0.0
  0
LINE
  8
0
  6
CONTINUOUS
 62
     1
 10
205.2
 20
145.3
 30
0.0
 11
205.2
 21
145.7
 31
0.0
  0
LINE
  8
0
  6
CONTINUOUS
 62
     1
 10
205.2
 20
149.8
 30
0.0
 11
205.2
 21
150.2
 31
0.0
  0
LINE
  8
0
  6
CONTINUOUS
 62
     1
 10
190.45
 20
131.75
 30
0.0
 11
204.95
 21
131.75
 31
0.0
  0
LINE
  8
0
  6
CONTINUOUS
 62
     1
 10
204.2
 20
132.45
 30
0.0
 11
204.2
 21
136.05
 31
0.0
  0
LINE
  8
0
  6
CONTINUOUS
 62
     1
 10
204.2
 20
136.95
 30
0.0
 11
204.2
 21
140.55
 31
0.0
  0
LINE
  8
0
  6
CONTINUOUS
 62
     1
 10
204.2
 20
141.45
 30
0.0
 11
204.2
 21
145.05
 31
0.0
  0
LINE
  8
0
  6
CONTINUOUS
 62
     1
 10
204.2
 20
145.95
 30
0.0
 11
204.2
 21
149.55
 31
0.0
  0
LINE
  8
0
  6
CONTINUOUS
 62
     1
 10
204.2
 20
150.45
 30
0.0
 11
204.2
 21
154.05
 31
0.0
  0
LINE
  8
0
  6
CONTINUOUS
 62
     1
 10
190.45
 20
154.75
 30
0.0
 11
204.95
 21
154.75
 31
0.0
  0
ARC
  8
0
  6
CONTINUOUS
 62
     1
 10
190.65
 20
154.5
 30
0.0
 40
0.45
 50
180.0
 51
270.0
  0
ARC
  8
0
  6
CONTINUOUS
 62
     1
 10
204.75
 20
154.5
 30
0.0
 40
0.45
 50
270.0
 51
0.0
  0
ARC
  8
0
  6
CONTINUOUS
 62
     1
 10
190.65
 20
132.0
 30
0.0
 40
0.45
 50
90.0
 51
180.0
  0
ARC
  8
0
  6
CONTINUOUS
 62
     1
 10
204.75
 20
132.0
 30
0.0
 40
0.45
 50
360.0
 51
90.0
  0
LINE
  8
0
  6
CONTINUOUS
 62
     1
 10
190.65
 20
154.05
 30
0.0
 11
195.25
 21
154.05
 31
0.0
  0
ARC
  8
0
  6
CONTINUOUS
 62
     1
 10
195.25
 20
153.6
 30
0.0
 40
0.45
 50
360.0
 51
90.0
  0
LINE
  8
0
  6
CONTINUOUS
 62
     1
 10
195.25
 20
150.45
 30
0.0
 11
190.45
 21
150.45
 31
0.0
  0
LINE
  8
0
  6
CONTINUOUS
 62
     1
 10
195.7
 20
153.6
 30
0.0
 11
195.7
 21
150.9
 31
0.0
  0
ARC
  8
0
  6
CONTINUOUS
 62
     1
 10
195.25
 20
150.9
 30
0.0
 40
0.45
 50
270.0
 51
0.0
  0
LINE
  8
0
  6
CONTINUOUS
 62
     1
 10
190.45
 20
149.55
 30
0.0
 11
195.25
 21
149.55
 31
0.0
  0
ARC
  8
0
  6
CONTINUOUS
 62
     1
 10
195.25
 20
149.1
 30
0.0
 40
0.45
 50
0.0
 51
90.0
  0
LINE
  8
0
  6
CONTINUOUS
 62
     1
 10
195.7
 20
149.1
 30
0.0
 11
195.7
 21
146.4
 31
0.0
  0
LINE
  8
0
  6
CONTINUOUS
 62
     1
 10
195.25
 20
145.95
 30
0.0
 11
190.45
 21
145.95
 31
0.0
  0
ARC
  8
0
  6
CONTINUOUS
 62
     1
 10
195.25
 20
146.4
 30
0.0
 40
0.45
 50
270.0
 51
0.0
  0
LINE
  8
0
  6
CONTINUOUS
 62
     1
 10
190.45
 20
145.05
 30
0.0
 11
195.25
 21
145.05
 31
0.0
  0
ARC
  8
0
  6
CONTINUOUS
 62
     1
 10
195.25
 20
144.6
 30
0.0
 40
0.45
 50
0.0
 51
90.0
  0
LINE
  8
0
  6
CONTINUOUS
 62
     1
 10
195.25
 20
141.45
 30
0.0
 11
190.45
 21
141.45
 31
0.0
  0
LINE
  8
0
  6
CONTINUOUS
 62
     1
 10
195.7
 20
144.6
 30
0.0
 11
195.7
 21
141.9
 31
0.0
  0
ARC
  8
0
  6
CONTINUOUS
 62
     1
 10
195.25
 20
141.9
 30
0.0
 40
0.45
 50
270.0
 51
0.0
  0
LINE
  8
0
  6
CONTINUOUS
 62
     1
 10
190.45
 20
140.55
 30
0.0
 11
195.25
 21
140.55
 31
0.0
  0
ARC
  8
0
  6
CONTINUOUS
 62
     1
 10
195.25
 20
140.1
 30
0.0
 40
0.45
 50
0.0
 51
90.0
  0
LINE
  8
0
  6
CONTINUOUS
 62
     1
 10
195.25
 20
136.95
 30
0.0
 11
190.45
 21
136.95
 31
0.0
  0
LINE
  8
0
  6
CONTINUOUS
 62
     1
 10
195.7
 20
140.1
 30
0.0
 11
195.7
 21
137.4
 31
0.0
  0
ARC
  8
0
  6
CONTINUOUS
 62
     1
 10
195.25
 20
137.4
 30
0.0
 40
0.45
 50
270.0
 51
0.0
  0
LINE
  8
0
  6
CONTINUOUS
 62
     1
 10
190.45
 20
136.05
 30
0.0
 11
195.25
 21
136.05
 31
0.0
  0
ARC
  8
0
  6
CONTINUOUS
 62
     1
 10
195.25
 20
135.6
 30
0.0
 40
0.45
 50
0.0
 51
90.0
  0
LINE
  8
0
  6
CONTINUOUS
 62
     1
 10
195.25
 20
132.45
 30
0.0
 11
190.65
 21
132.45
 31
0.0
  0
LINE
  8
0
  6
CONTINUOUS
 62
     1
 10
195.7
 20
135.6
 30
0.0
 11
195.7
 21
132.9
 31
0.0
  0
ARC
  8
0
  6
CONTINUOUS
 62
     1
 10
195.25
 20
132.9
 30
0.0
 40
0.45
 50
270.0
 51
0.0
  0
LINE
  8
0
  6
CONTINUOUS
 62
     1
 10
200.15
 20
132.45
 30
0.0
 11
204.75
 21
132.45
 31
0.0
  0
ARC
  8
0
  6
CONTINUOUS
 62
     1
 10
200.15
 20
132.9
 30
0.0
 40
0.45
 50
180.0
 51
270.0
  0
LINE
  8
0
  6
CONTINUOUS
 62
     1
 10
204.95
 20
136.05
 30
0.0
 11
200.15
 21
136.05
 31
0.0
  0
LINE
  8
0
  6
CONTINUOUS
 62
     1
 10
199.7
 20
135.6
 30
0.0
 11
199.7
 21
132.9
 31
0.0
  0
ARC
  8
0
  6
CONTINUOUS
 62
     1
 10
200.15
 20
135.6
 30
0.0
 40
0.45
 50
90.0
 51
180.0
  0
LINE
  8
0
  6
CONTINUOUS
 62
     1
 10
200.15
 20
136.95
 30
0.0
 11
204.95
 21
136.95
 31
0.0
  0
ARC
  8
0
  6
CONTINUOUS
 62
     1
 10
200.15
 20
137.4
 30
0.0
 40
0.45
 50
180.0
 51
270.0
  0
LINE
  8
0
  6
CONTINUOUS
 62
     1
 10
204.95
 20
140.55
 30
0.0
 11
200.15
 21
140.55
 31
0.0
  0
LINE
  8
0
  6
CONTINUOUS
 62
     1
 10
199.7
 20
140.1
 30
0.0
 11
199.7
 21
137.4
 31
0.0
  0
ARC
  8
0
  6
CONTINUOUS
 62
     1
 10
200.15
 20
140.1
 30
0.0
 40
0.45
 50
90.0
 51
180.0
  0
LINE
  8
0
  6
CONTINUOUS
 62
     1
 10
200.15
 20
141.45
 30
0.0
 11
204.95
 21
141.45
 31
0.0
  0
ARC
  8
0
  6
CONTINUOUS
 62
     1
 10
200.15
 20
141.9
 30
0.0
 40
0.45
 50
180.0
 51
270.0
  0
LINE
  8
0
  6
CONTINUOUS
 62
     1
 10
199.7
 20
144.6
 30
0.0
 11
199.7
 21
141.9
 31
0.0
  0
LINE
  8
0
  6
CONTINUOUS
 62
     1
 10
204.95
 20
145.05
 30
0.0
 11
200.15
 21
145.05
 31
0.0
  0
ARC
  8
0
  6
CONTINUOUS
 62
     1
 10
200.15
 20
144.6
 30
0.0
 40
0.45
 50
90.0
 51
180.0
  0
LINE
  8
0
  6
CONTINUOUS
 62
     1
 10
200.15
 20
145.95
 30
0.0
 11
204.95
 21
145.95
 31
0.0
  0
ARC
  8
0
  6
CONTINUOUS
 62
     1
 10
200.15
 20
146.4
 30
0.0
 40
0.45
 50
180.0
 51
270.0
  0
LINE
  8
0
  6
CONTINUOUS
 62
     1
 10
199.7
 20
149.1
 30
0.0
 11
199.7
 21
146.4
 31
0.0
  0
LINE
  8
0
  6
CONTINUOUS
 62
     1
 10
204.95
 20
149.55
 30
0.0
 11
200.15
 21
149.55
 31
0.0
  0
ARC
  8
0
  6
CONTINUOUS
 62
     1
 10
200.15
 20
149.1
 30
0.0
 40
0.45
 50
90.0
 51
180.0
  0
LINE
  8
0
  6
CONTINUOUS
 62
     1
 10
200.15
 20
150.45
 30
0.0
 11
204.95
 21
150.45
 31
0.0
  0
ARC
  8
0
  6
CONTINUOUS
 62
     1
 10
200.15
 20
150.9
 30
0.0
 40
0.45
 50
180.0
 51
270.0
  0
LINE
  8
0
  6
CONTINUOUS
 62
     1
 10
199.7
 20
153.6
 30
0.0
 11
199.7
 21
150.9
 31
0.0
  0
LINE
  8
0
  6
CONTINUOUS
 62
     1
 10
204.75
 20
154.05
 30
0.0
 11
200.15
 21
154.05
 31
0.0
  0
ARC
  8
0
  6
CONTINUOUS
 62
     1
 10
200.15
 20
153.6
 30
0.0
 40
0.45
 50
90.0
 51
180.0
  0
LINE
  8
0
  6
CONTINUOUS
 62
     1
 10
190.2
 20
155.75
 30
0.0
 11
190.2
 21
154.5
 31
0.0
  0
ARC
  8
0
  6
CONTINUOUS
 62
     1
 10
190.7
 20
155.75
 30
0.0
 40
0.5
 50
90.0
 51
180.0
  0
LINE
  8
0
  6
CONTINUOUS
 62
     1
 10
204.7
 20
156.25
 30
0.0
 11
190.7
 21
156.25
 31
0.0
  0
LINE
  8
0
  6
CONTINUOUS
 62
     1
 10
205.2
 20
154.5
 30
0.0
 11
205.2
 21
155.75
 31
0.0
  0
ARC
  8
0
  6
CONTINUOUS
 62
     1
 10
204.7
 20
155.75
 30
0.0
 40
0.5
 50
0.0
 51
90.0
  0
LINE
  8
0
  6
CONTINUOUS
 62
     1
 10
190.2
 20
132.0
 30
0.0
 11
190.2
 21
130.75
 31
0.0
  0
ARC
  8
0
  6
CONTINUOUS
 62
     1
 10
190.7
 20
130.75
 30
0.0
 40
0.5
 50
180.0
 51
270.0
  0
LINE
  8
0
  6
CONTINUOUS
 62
     1
 10
205.2
 20
130.75
 30
0.0
 11
205.2
 21
132.0
 31
0.0
  0
LINE
  8
0
  6
CONTINUOUS
 62
     1
 10
190.7
 20
130.25
 30
0.0
 11
204.7
 21
130.25
 31
0.0
  0
ARC
  8
0
  6
CONTINUOUS
 62
     1
 10
204.7
 20
130.75
 30
0.0
 40
0.5
 50
270.0
 51
0.0
  0
LINE
  8
0
  6
LTYPE1
 62
     2
 10
169.7
 20
170.0
 30
0.0
 11
175.7
 21
170.0
 31
0.0
  0
LINE
  8
0
  6
LTYPE1
 62
     2
 10
172.7
 20
173.0
 30
0.0
 11
172.7
 21
167.0
 31
0.0
  0
CIRCLE
  8
0
  6
CONTINUOUS
 62
     2
 10
172.7
 20
170.0
 30
0.0
 40
2.5
  0
CIRCLE
  8
0
  6
CONTINUOUS
 62
     2
 10
172.7
 20
170.0
 30
0.0
 40
1.0
  0
CIRCLE
  8
0
  6
CONTINUOUS
 62
     2
 10
172.7
 20
170.0
 30
0.0
 40
0.8
  0
LINE
  8
0
  6
CONTINUOUS
 62
     2
 10
172.7
 20
172.025
 30
0.0
 11
170.946298557
 21
171.0125
 31
0.0
  0
LINE
  8
0
  6
CONTINUOUS
 62
     2
 10
170.946298557
 20
171.0125
 30
0.0
 11
170.946298557
 21
168.9875
 31
0.0
  0
LINE
  8
0
  6
CONTINUOUS
 62
     2
 10
170.946298557
 20
168.9875
 30
0.0
 11
172.7
 21
167.975
 31
0.0
  0
LINE
  8
0
  6
CONTINUOUS
 62
     2
 10
172.7
 20
167.975
 30
0.0
 11
174.453701443
 21
168.9875
 31
0.0
  0
LINE
  8
0
  6
CONTINUOUS
 62
     2
 10
174.453701443
 20
168.9875
 30
0.0
 11
174.453701443
 21
171.0125
 31
0.0
  0
LINE
  8
0
  6
CONTINUOUS
 62
     2
 10
174.453701443
 20
171.0125
 30
0.0
 11
172.7
 21
172.025
 31
0.0
  0
LINE
  8
0
  6
LTYPE1
 62
     2
 10
219.7
 20
170.0
 30
0.0
 11
225.7
 21
170.0
 31
0.0
  0
LINE
  8
0
  6
LTYPE1
 62
     2
 10
222.7
 20
173.0
 30
0.0
 11
222.7
 21
167.0
 31
0.0
  0
CIRCLE
  8
0
  6
CONTINUOUS
 62
     2
 10
222.7
 20
170.0
 30
0.0
 40
2.5
  0
CIRCLE
  8
0
  6
CONTINUOUS
 62
     2
 10
222.7
 20
170.0
 30
0.0
 40
1.0
  0
CIRCLE
  8
0
  6
CONTINUOUS
 62
     2
 10
222.7
 20
170.0
 30
0.0
 40
0.8
  0
LINE
  8
0
  6
CONTINUOUS
 62
     2
 10
222.7
 20
172.025
 30
0.0
 11
220.946298557
 21
171.0125
 31
0.0
  0
LINE
  8
0
  6
CONTINUOUS
 62
     2
 10
220.946298557
 20
171.0125
 30
0.0
 11
220.946298557
 21
168.9875
 31
0.0
  0
LINE
  8
0
  6
CONTINUOUS
 62
     2
 10
220.946298557
 20
168.9875
 30
0.0
 11
222.7
 21
167.975
 31
0.0
  0
LINE
  8
0
  6
CONTINUOUS
 62
     2
 10
222.7
 20
167.975
 30
0.0
 11
224.453701443
 21
168.9875
 31
0.0
  0
LINE
  8
0
  6
CONTINUOUS
 62
     2
 10
224.453701443
 20
168.9875
 30
0.0
 11
224.453701443
 21
171.0125
 31
0.0
  0
LINE
  8
0
  6
CONTINUOUS
 62
     2
 10
224.453701443
 20
171.0125
 30
0.0
 11
222.7
 21
172.025
 31
0.0
  0
LINE
  8
0
  6
LTYPE1
 62
     2
 10
219.7
 20
130.0
 30
0.0
 11
225.7
 21
130.0
 31
0.0
  0
LINE
  8
0
  6
LTYPE1
 62
     2
 10
222.7
 20
133.0
 30
0.0
 11
222.7
 21
127.0
 31
0.0
  0
CIRCLE
  8
0
  6
CONTINUOUS
 62
     2
 10
222.7
 20
130.0
 30
0.0
 40
2.5
  0
CIRCLE
  8
0
  6
CONTINUOUS
 62
     2
 10
222.7
 20
130.0
 30
0.0
 40
1.0
  0
CIRCLE
  8
0
  6
CONTINUOUS
 62
     2
 10
222.7
 20
130.0
 30
0.0
 40
0.8
  0
LINE
  8
0
  6
CONTINUOUS
 62
     2
 10
222.7
 20
132.025
 30
0.0
 11
220.946298557
 21
131.0125
 31
0.0
  0
LINE
  8
0
  6
CONTINUOUS
 62
     2
 10
220.946298557
 20
131.0125
 30
0.0
 11
220.946298557
 21
128.9875
 31
0.0
  0
LINE
  8
0
  6
CONTINUOUS
 62
     2
 10
220.946298557
 20
128.9875
 30
0.0
 11
222.7
 21
127.975
 31
0.0
  0
LINE
  8
0
  6
CONTINUOUS
 62
     2
 10
222.7
 20
127.975
 30
0.0
 11
224.453701443
 21
128.9875
 31
0.0
  0
LINE
  8
0
  6
CONTINUOUS
 62
     2
 10
224.453701443
 20
128.9875
 30
0.0
 11
224.453701443
 21
131.0125
 31
0.0
  0
LINE
  8
0
  6
CONTINUOUS
 62
     2
 10
224.453701443
 20
131.0125
 30
0.0
 11
222.7
 21
132.025
 31
0.0
  0
LINE
  8
0
  6
LTYPE1
 62
     2
 10
169.7
 20
130.0
 30
0.0
 11
175.7
 21
130.0
 31
0.0
  0
LINE
  8
0
  6
LTYPE1
 62
     2
 10
172.7
 20
133.0
 30
0.0
 11
172.7
 21
127.0
 31
0.0
  0
CIRCLE
  8
0
  6
CONTINUOUS
 62
     2
 10
172.7
 20
130.0
 30
0.0
 40
2.5
  0
CIRCLE
  8
0
  6
CONTINUOUS
 62
     2
 10
172.7
 20
130.0
 30
0.0
 40
1.0
  0
CIRCLE
  8
0
  6
CONTINUOUS
 62
     2
 10
172.7
 20
130.0
 30
0.0
 40
0.8
  0
LINE
  8
0
  6
CONTINUOUS
 62
     2
 10
172.7
 20
132.025
 30
0.0
 11
170.946298557
 21
131.0125
 31
0.0
  0
LINE
  8
0
  6
CONTINUOUS
 62
     2
 10
170.946298557
 20
131.0125
 30
0.0
 11
170.946298557
 21
128.9875
 31
0.0
  0
LINE
  8
0
  6
CONTINUOUS
 62
     2
 10
170.946298557
 20
128.9875
 30
0.0
 11
172.7
 21
127.975
 31
0.0
  0
LINE
  8
0
  6
CONTINUOUS
 62
     2
 10
172.7
 20
127.975
 30
0.0
 11
174.453701443
 21
128.9875
 31
0.0
  0
LINE
  8
0
  6
CONTINUOUS
 62
     2
 10
174.453701443
 20
128.9875
 30
0.0
 11
174.453701443
 21
131.0125
 31
0.0
  0
LINE
  8
0
  6
CONTINUOUS
 62
     2
 10
174.453701443
 20
131.0125
 30
0.0
 11
172.7
 21
132.025
 31
0.0
  0
TEXT
  8
0
  6
CONTINUOUS
 62
     2
 10
184.72
 20
181.0
 30
0.18
 40
1.8
  1
±０．５
 50
0.0
 41
0.6
 51
0.0
  7
KANJI9
  0
TEXT
  8
0
  6
CONTINUOUS
 62
     2
 10
209.72
 20
181.0
 30
0.18
 40
1.8
  1
±０．５
 50
0.0
 41
0.6
 51
0.0
  7
KANJI9
  0
TEXT
  8
0
  6
CONTINUOUS
 62
     2
 10
180.82
 20
181.0
 30
0.3
 40
3.0
  1
５０
 50
0.0
 41
0.6
 51
0.0
  7
KANJI6
  0
TEXT
  8
0
  6
CONTINUOUS
 62
     2
 10
205.82
 20
181.0
 30
0.3
 40
3.0
  1
５０
 50
0.0
 41
0.6
 51
0.0
  7
KANJI6
  0
LINE
  8
0
  6
LTYPE1
 62
     2
 10
165.7
 20
147.5
 30
0.0
 11
221.7
 21
147.5
 31
0.0
  0
CIRCLE
  8
0
  6
CONTINUOUS
 62
     2
 10
197.7
 20
147.5
 30
0.0
 40
21.25
  0
CIRCLE
  8
0
  6
CONTINUOUS
 62
     2
 10
197.7
 20
147.5
 30
0.0
 40
21.0
  0
TEXT
  8
0
  6
CONTINUOUS
 62
     2
 10
236.7
 20
154.27
 30
0.3
 40
3.0
  1
４５
 50
90.0
 41
0.6
 51
0.0
  7
KANJI6
  0
TEXT
  8
0
  6
CONTINUOUS
 62
     2
 10
236.7
 20
158.37
 30
0.18
 40
1.8
  1
±０．５
 50
90.0
 41
0.6
 51
0.0
  7
KANJI9
  0
TEXT
  8
0
  6
CONTINUOUS
 62
     2
 10
236.7
 20
134.27
 30
0.3
 40
3.0
  1
３５
 50
90.0
 41
0.6
 51
0.0
  7
KANJI6
  0
TEXT
  8
0
  6
CONTINUOUS
 62
     2
 10
236.7
 20
138.37
 30
0.18
 40
1.8
  1
±０．５
 50
90.0
 41
0.6
 51
0.0
  7
KANJI9
  0
TEXT
  8
0
  6
CONTINUOUS
 62
     2
 10
231.7
 20
147.85
 30
0.3
 40
3.0
  1
５
 50
90.0
 41
0.6
 51
0.0
  7
KANJI6
  0
ARC
  8
0
  6
CONTINUOUS
 62
     2
 10
169.25
 20
173.45
 30
0.0
 40
0.75
 50
90.0
 51
180.0
  0
ARC
  8
0
  6
CONTINUOUS
 62
     2
 10
169.25
 20
126.55
 30
0.0
 40
0.75
 50
180.0
 51
270.0
  0
LINE
  8
0
  6
CONTINUOUS
 62
     2
 10
168.5
 20
173.45
 30
0.0
 11
168.5
 21
126.55
 31
0.0
  0
ARC
  8
0
  6
CONTINUOUS
 62
     2
 10
226.15
 20
126.55
 30
0.0
 40
0.75
 50
270.0
 51
0.0
  0
LINE
  8
0
  6
CONTINUOUS
 62
     2
 10
169.25
 20
125.8
 30
0.0
 11
226.15
 21
125.8
 31
0.0
  0
ARC
  8
0
  6
CONTINUOUS
 62
     2
 10
226.15
 20
173.45
 30
0.0
 40
0.75
 50
0.0
 51
90.0
  0
LINE
  8
0
  6
CONTINUOUS
 62
     2
 10
226.15
 20
174.2
 30
0.0
 11
169.25
 21
174.2
 31
0.0
  0
LINE
  8
0
  6
CONTINUOUS
 62
     2
 10
226.9
 20
126.55
 30
0.0
 11
226.9
 21
173.45
 31
0.0
  0
LINE
  8
0
  6
LTYPE2
 62
     2
 10
191.7
 20
152.25
 30
0.0
 11
195.7
 21
152.25
 31
0.0
  0
LINE
  8
0
  6
LTYPE2
 62
     2
 10
193.7
 20
154.25
 30
0.0
 11
193.7
 21
150.25
 31
0.0
  0
LINE
  8
0
  6
LTYPE2
 62
     2
 10
191.7
 20
147.75
 30
0.0
 11
195.7
 21
147.75
 31
0.0
  0
LINE
  8
0
  6
LTYPE2
 62
     2
 10
191.7
 20
143.25
 30
0.0
 11
195.7
 21
143.25
 31
0.0
  0
LINE
  8
0
  6
LTYPE2
 62
     2
 10
193.7
 20
145.25
 30
0.0
 11
193.7
 21
141.25
 31
0.0
  0
LINE
  8
0
  6
LTYPE2
 62
     2
 10
191.7
 20
138.75
 30
0.0
 11
195.7
 21
138.75
 31
0.0
  0
LINE
  8
0
  6
LTYPE2
 62
     2
 10
191.7
 20
134.25
 30
0.0
 11
195.7
 21
134.25
 31
0.0
  0
LINE
  8
0
  6
LTYPE2
 62
     2
 10
193.7
 20
136.25
 30
0.0
 11
193.7
 21
132.25
 31
0.0
  0
LINE
  8
0
  6
LTYPE2
 62
     2
 10
199.7
 20
152.25
 30
0.0
 11
203.7
 21
152.25
 31
0.0
  0
LINE
  8
0
  6
LTYPE2
 62
     2
 10
201.7
 20
154.25
 30
0.0
 11
201.7
 21
150.25
 31
0.0
  0
LINE
  8
0
  6
LTYPE2
 62
     2
 10
199.7
 20
147.75
 30
0.0
 11
203.7
 21
147.75
 31
0.0
  0
LINE
  8
0
  6
LTYPE2
 62
     2
 10
199.7
 20
143.25
 30
0.0
 11
203.7
 21
143.25
 31
0.0
  0
LINE
  8
0
  6
LTYPE2
 62
     2
 10
199.7
 20
138.75
 30
0.0
 11
203.7
 21
138.75
 31
0.0
  0
LINE
  8
0
  6
LTYPE2
 62
     2
 10
201.7
 20
140.75
 30
0.0
 11
201.7
 21
136.75
 31
0.0
  0
LINE
  8
0
  6
LTYPE2
 62
     2
 10
199.7
 20
134.25
 30
0.0
 11
203.7
 21
134.25
 31
0.0
  0
LINE
  8
0
  6
LTYPE2
 62
     2
 10
201.7
 20
136.25
 30
0.0
 11
201.7
 21
132.25
 31
0.0
  0
LINE
  8
0
  6
CONTINUOUS
 62
     2
 10
191.2
 20
143.25
 30
0.0
 11
187.7
 21
143.25
 31
0.0
  0
ARC
  8
0
  6
CONTINUOUS
 62
     2
 10
183.7
 20
143.25
 30
0.0
 40
1.575
 50
270.0
 51
90.0
  0
ARC
  8
0
  6
CONTINUOUS
 62
     2
 10
182.88128295
 20
145.575
 30
0.0
 40
0.75
 50
171.083203747
 51
270.0
  0
ARC
  8
0
  6
CONTINUOUS
 62
     2
 10
182.628275646
 20
145.575
 30
0.0
 40
0.75
 50
171.230542851
 51
270.0
  0
LINE
  8
0
  6
CONTINUOUS
 62
     2
 10
183.7
 20
144.825
 30
0.0
 11
182.628275646
 21
144.825
 31
0.0
  0
ARC
  8
0
  6
CONTINUOUS
 62
     2
 10
182.88128295
 20
140.925
 30
0.0
 40
0.75
 50
90.0
 51
188.916796253
  0
ARC
  8
0
  6
CONTINUOUS
 62
     2
 10
182.628275646
 20
140.925
 30
0.0
 40
0.75
 50
90.0
 51
188.769457149
  0
LINE
  8
0
  6
CONTINUOUS
 62
     2
 10
183.7
 20
141.675
 30
0.0
 11
182.628275646
 21
141.675
 31
0.0
  0
LINE
  8
0
  6
LTYPE2
 62
     2
 10
183.7
 20
141.75
 30
0.0
 11
183.7
 21
144.75
 31
0.0
  0
LINE
  8
0
  6
LTYPE2
 62
     2
 10
211.7
 20
141.75
 30
0.0
 11
211.7
 21
144.75
 31
0.0
  0
ARC
  8
0
  6
CONTINUOUS
 62
     2
 10
212.51871705
 20
145.575
 30
0.0
 40
0.75
 50
270.0
 51
8.916796253
  0
ARC
  8
0
  6
CONTINUOUS
 62
     2
 10
212.771724354
 20
145.575
 30
0.0
 40
0.75
 50
270.0
 51
8.769457149
  0
ARC
  8
0
  6
CONTINUOUS
 62
     2
 10
212.51871705
 20
140.925
 30
0.0
 40
0.75
 50
351.083203747
 51
90.0
  0
ARC
  8
0
  6
CONTINUOUS
 62
     2
 10
212.771724354
 20
140.925
 30
0.0
 40
0.75
 50
351.230542851
 51
90.0
  0
ARC
  8
0
  6
CONTINUOUS
 62
     2
 10
211.7
 20
143.25
 30
0.0
 40
1.575
 50
90.0
 51
270.0
  0
LINE
  8
0
  6
LTYPE2
 62
     2
 10
211.7
 20
141.75
 30
0.0
 11
211.7
 21
144.75
 31
0.0
  0
LINE
  8
0
  6
CONTINUOUS
 62
     2
 10
211.7
 20
144.825
 30
0.0
 11
212.771724354
 21
144.825
 31
0.0
  0
LINE
  8
0
  6
CONTINUOUS
 62
     2
 10
211.7
 20
141.675
 30
0.0
 11
212.771724354
 21
141.675
 31
0.0
  0
LINE
  8
0
  6
LTYPE2
 62
     2
 10
211.7
 20
141.75
 30
0.0
 11
211.7
 21
144.75
 31
0.0
  0
ARC
  8
0
  6
CONTINUOUS
 62
     2
 10
197.7
 20
143.25
 30
0.0
 40
15.75
 50
8.916796253
 51
171.083203747
  0
ARC
  8
0
  6
CONTINUOUS
 62
     2
 10
197.7
 20
143.25
 30
0.0
 40
15.75
 50
188.916796253
 51
351.083203747
  0
TEXT
  8
0
  6
CONTINUOUS
 62
     2
 10
196.025
 20
151.5
 30
0.15
 40
1.5
  1
１
 50
0.0
 41
0.9
 51
0.0
  7
KANJI4
  0
TEXT
  8
0
  6
CONTINUOUS
 62
     2
 10
196.025
 20
147.0
 30
0.15
 40
1.5
  1
２
 50
0.0
 41
0.9
 51
0.0
  7
KANJI4
  0
TEXT
  8
0
  6
CONTINUOUS
 62
     2
 10
196.025
 20
142.5
 30
0.15
 40
1.5
  1
３
 50
0.0
 41
0.9
 51
0.0
  7
KANJI4
  0
TEXT
  8
0
  6
CONTINUOUS
 62
     2
 10
196.025
 20
138.0
 30
0.15
 40
1.5
  1
４
 50
0.0
 41
0.9
 51
0.0
  7
KANJI4
  0
TEXT
  8
0
  6
CONTINUOUS
 62
     2
 10
196.025
 20
133.5
 30
0.15
 40
1.5
  1
５
 50
0.0
 41
0.9
 51
0.0
  7
KANJI4
  0
TEXT
  8
0
  6
CONTINUOUS
 62
     2
 10
198.025
 20
151.5
 30
0.15
 40
1.5
  1
９
 50
0.0
 41
0.9
 51
0.0
  7
KANJI4
  0
TEXT
  8
0
  6
CONTINUOUS
 62
     2
 10
198.025
 20
147.0
 30
0.15
 40
1.5
  1
１０
 50
0.0
 41
0.45
 51
0.0
  7
KANJI5
  0
TEXT
  8
0
  6
CONTINUOUS
 62
     2
 10
198.025
 20
142.5
 30
0.15
 40
1.5
  1
６
 50
0.0
 41
0.9
 51
0.0
  7
KANJI4
  0
TEXT
  8
0
  6
CONTINUOUS
 62
     2
 10
198.025
 20
138.0
 30
0.15
 40
1.5
  1
７
 50
0.0
 41
0.9
 51
0.0
  7
KANJI4
  0
TEXT
  8
0
  6
CONTINUOUS
 62
     2
 10
198.025
 20
133.5
 30
0.15
 40
1.5
  1
８
 50
0.0
 41
0.9
 51
0.0
  7
KANJI4
  0
CIRCLE
  8
0
  6
CONTINUOUS
 62
     2
 10
197.7
 20
141.0
 30
0.0
 40
0.5
  0
LINE
  8
0
  6
CONTINUOUS
 62
     2
 10
197.7
 20
154.25
 30
0.0
 11
197.7
 21
141.75
 31
0.0
  0
LINE
  8
0
  6
CONTINUOUS
 62
     2
 10
197.7
 20
140.25
 30
0.0
 11
197.7
 21
132.25
 31
0.0
  0
LINE
  8
0
  6
LTYPE2
 62
     2
 10
197.7
 20
141.75
 30
0.0
 11
197.7
 21
140.25
 31
0.0
  0
LINE
  8
0
  6
LTYPE2
 62
     2
 10
196.95
 20
141.0
 30
0.0
 11
198.45
 21
141.0
 31
0.0
  0
LINE
  8
0
  6
LTYPE2
 62
     2
 10
180.7
 20
143.25
 30
0.0
 11
187.7
 21
143.25
 31
0.0
  0
LINE
  8
0
  6
LTYPE2
 62
     2
 10
214.7
 20
143.25
 30
0.0
 11
203.7
 21
143.25
 31
0.0
  0
LINE
  8
0
  6
LTYPE2
 62
     2
 10
197.7
 20
131.75
 30
0.0
 11
197.7
 21
126.25
 31
0.0
  0
LINE
  8
0
  6
LTYPE3
 62
     2
 10
199.2
 20
154.75
 30
0.0
 11
199.2
 21
155.5
 31
0.0
  0
LINE
  8
0
  6
LTYPE3
 62
     2
 10
199.2
 20
155.5
 30
0.0
 11
196.2
 21
155.5
 31
0.0
  0
LINE
  8
0
  6
LTYPE3
 62
     2
 10
196.2
 20
155.5
 30
0.0
 11
196.2
 21
154.75
 31
0.0
  0
LINE
  8
0
  6
LTYPE3
 62
     2
 10
199.2
 20
131.75
 30
0.0
 11
199.2
 21
131.0
 31
0.0
  0
LINE
  8
0
  6
LTYPE3
 62
     2
 10
199.2
 20
131.0
 30
0.0
 11
196.2
 21
131.0
 31
0.0
  0
LINE
  8
0
  6
LTYPE3
 62
     2
 10
196.2
 20
131.0
 30
0.0
 11
196.2
 21
131.75
 31
0.0
  0
LINE
  8
0
  6
LTYPE4
 62
     2
 10
162.7
 20
150.0
 30
0.0
 11
234.7
 21
150.0
 31
0.0
  0
TEXT
  8
0
  6
CONTINUOUS
 62
     2
 10
209.824355653
 20
121.0
 30
0.3
 40
3.0
  1
感度調整用可変抵抗器
 50
0.0
 41
0.9
 51
0.0
  7
KANJI0
  0
TEXT
  8
0
  6
CONTINUOUS
 62
     2
 10
149.772758664
 20
121.0
 30
0.3
 40
3.0
  1
１０－Ｍ３タ－ミナルネジ
 50
0.0
 41
0.9
 51
0.0
  7
KANJI0
  0
TEXT
  8
0
  6
CONTINUOUS
 62
     2
 10
219.824355653
 20
117.0
 30
0.3
 40
3.0
  1
注１
 50
0.0
 41
0.9
 51
0.0
  7
KANJI0
  0
LINE
  8
0
  6
LTYPE2
 62
     2
 10
197.7
 20
154.75
 30
0.0
 11
197.7
 21
175.0
 31
0.0
  0
CIRCLE
  8
0
  6
CONTINUOUS
 62
     2
 10
183.7
 20
143.25
 30
0.0
 40
1.4
  0
CIRCLE
  8
0
  6
CONTINUOUS
 62
     2
 10
211.7
 20
143.25
 30
0.0
 40
1.4
  0
LINE
  8
0
  6
CONTINUOUS
 62
     2
 10
212.5
 20
144.05
 30
0.0
 11
210.9
 21
142.45
 31
0.0
  0
LINE
  8
0
  6
CONTINUOUS
 62
     2
 10
210.9
 20
144.05
 30
0.0
 11
212.5
 21
142.45
 31
0.0
  0
LINE
  8
0
  6
CONTINUOUS
 62
     2
 10
184.5
 20
144.05
 30
0.0
 11
182.9
 21
142.45
 31
0.0
  0
LINE
  8
0
  6
CONTINUOUS
 62
     2
 10
182.9
 20
144.05
 30
0.0
 11
184.5
 21
142.45
 31
0.0
  0
CIRCLE
  8
0
  6
CONTINUOUS
 62
     2
 10
201.7
 20
152.25
 30
0.0
 40
1.375
  0
LINE
  8
0
  6
CONTINUOUS
 62
     2
 10
202.5
 20
153.05
 30
0.0
 11
200.9
 21
151.45
 31
0.0
  0
LINE
  8
0
  6
CONTINUOUS
 62
     2
 10
200.9
 20
153.05
 30
0.0
 11
202.5
 21
151.45
 31
0.0
  0
LINE
  8
0
  6
LTYPE2
 62
     2
 10
201.7
 20
145.25
 30
0.0
 11
201.7
 21
141.25
 31
0.0
  0
LINE
  8
0
  6
LTYPE2
 62
     2
 10
193.7
 20
149.75
 30
0.0
 11
193.7
 21
145.75
 31
0.0
  0
LINE
  8
0
  6
LTYPE2
 62
     2
 10
193.7
 20
140.75
 30
0.0
 11
193.7
 21
136.75
 31
0.0
  0
LINE
  8
0
  6
LTYPE2
 62
     2
 10
201.7
 20
149.75
 30
0.0
 11
201.7
 21
145.75
 31
0.0
  0
CIRCLE
  8
0
  6
CONTINUOUS
 62
     2
 10
201.7
 20
147.75
 30
0.0
 40
1.375
  0
LINE
  8
0
  6
CONTINUOUS
 62
     2
 10
202.5
 20
148.55
 30
0.0
 11
200.9
 21
146.95
 31
0.0
  0
LINE
  8
0
  6
CONTINUOUS
 62
     2
 10
200.9
 20
148.55
 30
0.0
 11
202.5
 21
146.95
 31
0.0
  0
CIRCLE
  8
0
  6
CONTINUOUS
 62
     2
 10
201.7
 20
143.25
 30
0.0
 40
1.375
  0
LINE
  8
0
  6
CONTINUOUS
 62
     2
 10
202.5
 20
144.05
 30
0.0
 11
200.9
 21
142.45
 31
0.0
  0
LINE
  8
0
  6
CONTINUOUS
 62
     2
 10
200.9
 20
144.05
 30
0.0
 11
202.5
 21
142.45
 31
0.0
  0
CIRCLE
  8
0
  6
CONTINUOUS
 62
     2
 10
201.7
 20
138.75
 30
0.0
 40
1.375
  0
LINE
  8
0
  6
CONTINUOUS
 62
     2
 10
202.5
 20
139.55
 30
0.0
 11
200.9
 21
137.95
 31
0.0
  0
LINE
  8
0
  6
CONTINUOUS
 62
     2
 10
200.9
 20
139.55
 30
0.0
 11
202.5
 21
137.95
 31
0.0
  0
CIRCLE
  8
0
  6
CONTINUOUS
 62
     2
 10
201.7
 20
134.25
 30
0.0
 40
1.375
  0
LINE
  8
0
  6
CONTINUOUS
 62
     2
 10
202.5
 20
135.05
 30
0.0
 11
200.9
 21
133.45
 31
0.0
  0
LINE
  8
0
  6
CONTINUOUS
 62
     2
 10
200.9
 20
135.05
 30
0.0
 11
202.5
 21
133.45
 31
0.0
  0
CIRCLE
  8
0
  6
CONTINUOUS
 62
     2
 10
193.7
 20
134.25
 30
0.0
 40
1.375
  0
LINE
  8
0
  6
CONTINUOUS
 62
     2
 10
194.5
 20
135.05
 30
0.0
 11
192.9
 21
133.45
 31
0.0
  0
LINE
  8
0
  6
CONTINUOUS
 62
     2
 10
192.9
 20
135.05
 30
0.0
 11
194.5
 21
133.45
 31
0.0
  0
CIRCLE
  8
0
  6
CONTINUOUS
 62
     2
 10
193.7
 20
138.75
 30
0.0
 40
1.375
  0
LINE
  8
0
  6
CONTINUOUS
 62
     2
 10
194.5
 20
139.55
 30
0.0
 11
192.9
 21
137.95
 31
0.0
  0
LINE
  8
0
  6
CONTINUOUS
 62
     2
 10
192.9
 20
139.55
 30
0.0
 11
194.5
 21
137.95
 31
0.0
  0
CIRCLE
  8
0
  6
CONTINUOUS
 62
     2
 10
193.7
 20
143.25
 30
0.0
 40
1.375
  0
LINE
  8
0
  6
CONTINUOUS
 62
     2
 10
194.5
 20
144.05
 30
0.0
 11
192.9
 21
142.45
 31
0.0
  0
LINE
  8
0
  6
CONTINUOUS
 62
     2
 10
192.9
 20
144.05
 30
0.0
 11
194.5
 21
142.45
 31
0.0
  0
CIRCLE
  8
0
  6
CONTINUOUS
 62
     2
 10
193.7
 20
147.75
 30
0.0
 40
1.375
  0
LINE
  8
0
  6
CONTINUOUS
 62
     2
 10
194.5
 20
148.55
 30
0.0
 11
192.9
 21
146.95
 31
0.0
  0
LINE
  8
0
  6
CONTINUOUS
 62
     2
 10
192.9
 20
148.55
 30
0.0
 11
194.5
 21
146.95
 31
0.0
  0
CIRCLE
  8
0
  6
CONTINUOUS
 62
     2
 10
193.7
 20
152.25
 30
0.0
 40
1.375
  0
LINE
  8
0
  6
CONTINUOUS
 62
     2
 10
194.5
 20
153.05
 30
0.0
 11
192.9
 21
151.45
 31
0.0
  0
LINE
  8
0
  6
CONTINUOUS
 62
     2
 10
192.9
 20
153.05
 30
0.0
 11
194.5
 21
151.45
 31
0.0
  0
LINE
  8
0
  6
CONTINUOUS
 62
     5
 10
172.7
 20
180.0
 30
0.0
 11
175.114814566
 21
179.352952387
 31
0.0
  0
LINE
  8
0
  6
CONTINUOUS
 62
     5
 10
172.7
 20
180.0
 30
0.0
 11
175.114814566
 21
180.647047613
 31
0.0
  0
LINE
  8
0
  6
CONTINUOUS
 62
     5
 10
172.7
 20
173.0
 30
0.0
 11
172.7
 21
182.0
 31
0.0
  0
LINE
  8
0
  6
CONTINUOUS
 62
     5
 10
197.7
 20
175.0
 30
0.0
 11
197.7
 21
182.0
 31
0.0
  0
LINE
  8
0
  6
CONTINUOUS
 62
     5
 10
197.7
 20
180.0
 30
0.0
 11
195.285185434
 21
180.647047613
 31
0.0
  0
LINE
  8
0
  6
CONTINUOUS
 62
     5
 10
197.7
 20
180.0
 30
0.0
 11
195.285185434
 21
179.352952387
 31
0.0
  0
LINE
  8
0
  6
CONTINUOUS
 62
     5
 10
197.7
 20
180.0
 30
0.0
 11
200.114814566
 21
179.352952387
 31
0.0
  0
LINE
  8
0
  6
CONTINUOUS
 62
     5
 10
197.7
 20
180.0
 30
0.0
 11
200.114814566
 21
180.647047613
 31
0.0
  0
LINE
  8
0
  6
CONTINUOUS
 62
     5
 10
197.7
 20
180.0
 30
0.0
 11
172.7
 21
180.0
 31
0.0
  0
LINE
  8
0
  6
CONTINUOUS
 62
     5
 10
222.7
 20
180.0
 30
0.0
 11
220.285185434
 21
180.647047613
 31
0.0
  0
LINE
  8
0
  6
CONTINUOUS
 62
     5
 10
222.7
 20
180.0
 30
0.0
 11
220.285185434
 21
179.352952387
 31
0.0
  0
LINE
  8
0
  6
CONTINUOUS
 62
     5
 10
222.7
 20
173.0
 30
0.0
 11
222.7
 21
182.0
 31
0.0
  0
LINE
  8
0
  6
CONTINUOUS
 62
     5
 10
197.7
 20
180.0
 30
0.0
 11
222.7
 21
180.0
 31
0.0
  0
LINE
  8
0
  6
CONTINUOUS
 62
     5
 10
237.7
 20
170.0
 30
0.0
 11
237.052952387
 21
167.585185434
 31
0.0
  0
LINE
  8
0
  6
CONTINUOUS
 62
     5
 10
237.7
 20
170.0
 30
0.0
 11
238.347047613
 21
167.585185434
 31
0.0
  0
LINE
  8
0
  6
CONTINUOUS
 62
     5
 10
225.7
 20
170.0
 30
0.0
 11
239.7
 21
170.0
 31
0.0
  0
LINE
  8
0
  6
CONTINUOUS
 62
     5
 10
237.7
 20
147.5
 30
0.0
 11
238.347047613
 21
149.914814566
 31
0.0
  0
LINE
  8
0
  6
CONTINUOUS
 62
     5
 10
237.7
 20
147.5
 30
0.0
 11
237.052952387
 21
149.914814566
 31
0.0
  0
LINE
  8
0
  6
CONTINUOUS
 62
     5
 10
237.7
 20
147.5
 30
0.0
 11
237.052952387
 21
145.085185434
 31
0.0
  0
LINE
  8
0
  6
CONTINUOUS
 62
     5
 10
237.7
 20
147.5
 30
0.0
 11
238.347047613
 21
145.085185434
 31
0.0
  0
LINE
  8
0
  6
CONTINUOUS
 62
     5
 10
222.7
 20
147.5
 30
0.0
 11
239.7
 21
147.5
 31
0.0
  0
LINE
  8
0
  6
CONTINUOUS
 62
     5
 10
237.7
 20
170.0
 30
0.0
 11
237.7
 21
147.5
 31
0.0
  0
LINE
  8
0
  6
CONTINUOUS
 62
     5
 10
232.7
 20
150.0
 30
0.0
 11
233.347047613
 21
152.414814566
 31
0.0
  0
LINE
  8
0
  6
CONTINUOUS
 62
     5
 10
232.7
 20
150.0
 30
0.0
 11
232.052952387
 21
152.414814566
 31
0.0
  0
LINE
  8
0
  6
CONTINUOUS
 62
     5
 10
232.7
 20
147.5
 30
0.0
 11
232.052952387
 21
145.085185434
 31
0.0
  0
LINE
  8
0
  6
CONTINUOUS
 62
     5
 10
232.7
 20
147.5
 30
0.0
 11
233.347047613
 21
145.085185434
 31
0.0
  0
LINE
  8
0
  6
CONTINUOUS
 62
     5
 10
232.7
 20
155.0
 30
0.0
 11
232.7
 21
142.5
 31
0.0
  0
LINE
  8
0
  6
CONTINUOUS
 62
     5
 10
237.7
 20
130.0
 30
0.0
 11
238.347047613
 21
132.414814566
 31
0.0
  0
LINE
  8
0
  6
CONTINUOUS
 62
     5
 10
237.7
 20
130.0
 30
0.0
 11
237.052952387
 21
132.414814566
 31
0.0
  0
LINE
  8
0
  6
CONTINUOUS
 62
     5
 10
225.7
 20
130.0
 30
0.0
 11
239.7
 21
130.0
 31
0.0
  0
LINE
  8
0
  6
CONTINUOUS
 62
     5
 10
237.7
 20
147.5
 30
0.0
 11
237.7
 21
130.0
 31
0.0
  0
LINE
  8
0
  6
CONTINUOUS
 62
     5
 10
190.7
 20
154.75
 30
0.0
 11
190.7
 21
131.75
 31
0.0
  0
LINE
  8
0
  6
CONTINUOUS
 62
     5
 10
204.7
 20
154.75
 30
0.0
 11
204.7
 21
131.75
 31
0.0
  0
LINE
  8
0
  6
CONTINUOUS
 62
     5
 10
197.95
 20
140.566987298
 30
0.0
 11
198.597047613
 21
138.152172732
 31
0.0
  0
LINE
  8
0
  6
CONTINUOUS
 62
     5
 10
197.95
 20
140.566987298
 30
0.0
 11
199.717766953
 21
138.799220345
 31
0.0
  0
LINE
  8
0
  6
CONTINUOUS
 62
     5
 10
197.95
 20
140.566987298
 30
0.0
 11
209.824355653
 21
120.0
 31
0.0
  0
LINE
  8
0
  6
CONTINUOUS
 62
     5
 10
209.824355653
 20
120.0
 30
0.0
 11
239.524355653
 21
120.0
 31
0.0
  0
LINE
  8
0
  6
CONTINUOUS
 62
     5
 10
193.075
 20
133.167468245
 30
0.0
 11
191.307233047
 21
131.399701292
 31
0.0
  0
LINE
  8
0
  6
CONTINUOUS
 62
     5
 10
193.075
 20
133.167468245
 30
0.0
 11
192.427952387
 21
130.75265368
 31
0.0
  0
LINE
  8
0
  6
CONTINUOUS
 62
     5
 10
193.075
 20
133.167468245
 30
0.0
 11
185.472758664
 21
120.0
 31
0.0
  0
LINE
  8
0
  6
CONTINUOUS
 62
     5
 10
185.472758664
 20
120.0
 30
0.0
 11
149.772758664
 21
120.0
 31
0.0
  0
CIRCLE
  8
0
  6
CONTINUOUS
 62
     1
 10
197.7
 20
85.0
 30
0.0
 40
21.75
  0
CIRCLE
  8
0
  6
CONTINUOUS
 62
     1
 10
172.7
 20
107.5
 30
0.0
 40
1.25
  0
CIRCLE
  8
0
  6
CONTINUOUS
 62
     1
 10
222.7
 20
107.5
 30
0.0
 40
1.25
  0
CIRCLE
  8
0
  6
CONTINUOUS
 62
     1
 10
222.7
 20
67.5
 30
0.0
 40
1.25
  0
CIRCLE
  8
0
  6
CONTINUOUS
 62
     1
 10
172.7
 20
67.5
 30
0.0
 40
1.25
  0
LINE
  8
0
  6
LTYPE1
 62
     2
 10
172.7
 20
85.0
 30
0.0
 11
222.7
 21
85.0
 31
0.0
  0
LINE
  8
0
  6
LTYPE1
 62
     2
 10
197.7
 20
110.0
 30
0.0
 11
197.7
 21
60.0
 31
0.0
  0
LINE
  8
0
  6
LTYPE1
 62
     2
 10
170.7
 20
107.5
 30
0.0
 11
174.7
 21
107.5
 31
0.0
  0
LINE
  8
0
  6
LTYPE1
 62
     2
 10
172.7
 20
109.5
 30
0.0
 11
172.7
 21
105.5
 31
0.0
  0
LINE
  8
0
  6
LTYPE1
 62
     2
 10
220.7
 20
107.5
 30
0.0
 11
224.7
 21
107.5
 31
0.0
  0
LINE
  8
0
  6
LTYPE1
 62
     2
 10
222.7
 20
109.5
 30
0.0
 11
222.7
 21
105.5
 31
0.0
  0
LINE
  8
0
  6
LTYPE1
 62
     2
 10
220.7
 20
67.5
 30
0.0
 11
224.7
 21
67.5
 31
0.0
  0
LINE
  8
0
  6
LTYPE1
 62
     2
 10
222.7
 20
69.5
 30
0.0
 11
222.7
 21
65.5
 31
0.0
  0
TEXT
  8
0
  6
CONTINUOUS
 62
     2
 10
185.17
 20
113.5
 30
0.18
 40
1.8
  1
±０．５
 50
0.0
 41
0.6
 51
0.0
  7
KANJI9
  0
TEXT
  8
0
  6
CONTINUOUS
 62
     2
 10
210.17
 20
113.5
 30
0.18
 40
1.8
  1
±０．５
 50
0.0
 41
0.6
 51
0.0
  7
KANJI9
  0
TEXT
  8
0
  6
CONTINUOUS
 62
     2
 10
180.82
 20
113.5
 30
0.3
 40
3.0
  1
５０
 50
0.0
 41
0.6
 51
0.0
  7
KANJI6
  0
TEXT
  8
0
  6
CONTINUOUS
 62
     2
 10
205.82
 20
113.5
 30
0.3
 40
3.0
  1
５０
 50
0.0
 41
0.6
 51
0.0
  7
KANJI6
  0
TEXT
  8
0
  6
CONTINUOUS
 62
     2
 10
226.7
 20
92.17
 30
0.3
 40
3.0
  1
４５
 50
90.0
 41
0.6
 51
0.0
  7
KANJI6
  0
TEXT
  8
0
  6
CONTINUOUS
 62
     2
 10
226.7
 20
95.92
 30
0.18
 40
1.8
  1
±０．５
 50
90.0
 41
0.6
 51
0.0
  7
KANJI9
  0
TEXT
  8
0
  6
CONTINUOUS
 62
     2
 10
194.828609324
 20
84.928476691
 30
0.3
 40
3.0
  1
φ８７
 50
21.801409486
 41
0.6
 51
0.0
  7
KANJI6
  0
TEXT
  8
0
  6
CONTINUOUS
 62
     2
 10
200.549071571
 20
87.21666159
 30
0.18
 40
1.8
  1
±１
 50
21.801409486
 41
0.6
 51
0.0
  7
KANJI9
  0
LINE
  8
0
  6
LTYPE1
 62
     2
 10
170.7
 20
67.5
 30
0.0
 11
174.7
 21
67.5
 31
0.0
  0
LINE
  8
0
  6
LTYPE1
 62
     2
 10
172.7
 20
69.5
 30
0.0
 11
172.7
 21
65.5
 31
0.0
  0
TEXT
  8
0
  6
CONTINUOUS
 62
     2
 10
226.7
 20
71.77
 30
0.3
 40
3.0
  1
３５
 50
90.0
 41
0.6
 51
0.0
  7
KANJI6
  0
TEXT
  8
0
  6
CONTINUOUS
 62
     2
 10
226.7
 20
75.87
 30
0.18
 40
1.8
  1
±０．５
 50
90.0
 41
0.6
 51
0.0
  7
KANJI9
  0
LINE
  8
0
  6
CONTINUOUS
 62
     5
 10
172.7
 20
109.5
 30
0.0
 11
172.7
 21
114.5
 31
0.0
  0
LINE
  8
0
  6
CONTINUOUS
 62
     5
 10
172.7
 20
112.5
 30
0.0
 11
175.114814566
 21
111.852952387
 31
0.0
  0
LINE
  8
0
  6
CONTINUOUS
 62
     5
 10
172.7
 20
112.5
 30
0.0
 11
175.114814566
 21
113.147047613
 31
0.0
  0
LINE
  8
0
  6
CONTINUOUS
 62
     5
 10
197.7
 20
112.5
 30
0.0
 11
195.285185434
 21
113.147047613
 31
0.0
  0
LINE
  8
0
  6
CONTINUOUS
 62
     5
 10
197.7
 20
112.5
 30
0.0
 11
195.285185434
 21
111.852952387
 31
0.0
  0
LINE
  8
0
  6
CONTINUOUS
 62
     5
 10
197.7
 20
112.5
 30
0.0
 11
200.114814566
 21
111.852952387
 31
0.0
  0
LINE
  8
0
  6
CONTINUOUS
 62
     5
 10
197.7
 20
112.5
 30
0.0
 11
200.114814566
 21
113.147047613
 31
0.0
  0
LINE
  8
0
  6
CONTINUOUS
 62
     5
 10
197.7
 20
110.0
 30
0.0
 11
197.7
 21
114.5
 31
0.0
  0
LINE
  8
0
  6
CONTINUOUS
 62
     5
 10
172.7
 20
112.5
 30
0.0
 11
197.7
 21
112.5
 31
0.0
  0
LINE
  8
0
  6
CONTINUOUS
 62
     5
 10
222.7
 20
112.5
 30
0.0
 11
220.285185434
 21
113.147047613
 31
0.0
  0
LINE
  8
0
  6
CONTINUOUS
 62
     5
 10
222.7
 20
112.5
 30
0.0
 11
220.285185434
 21
111.852952387
 31
0.0
  0
LINE
  8
0
  6
CONTINUOUS
 62
     5
 10
222.7
 20
109.5
 30
0.0
 11
222.7
 21
114.5
 31
0.0
  0
LINE
  8
0
  6
CONTINUOUS
 62
     5
 10
197.7
 20
112.5
 30
0.0
 11
222.7
 21
112.5
 31
0.0
  0
LINE
  8
0
  6
CONTINUOUS
 62
     5
 10
224.7
 20
107.5
 30
0.0
 11
229.7
 21
107.5
 31
0.0
  0
LINE
  8
0
  6
CONTINUOUS
 62
     5
 10
227.7
 20
107.5
 30
0.0
 11
227.052952387
 21
105.085185434
 31
0.0
  0
LINE
  8
0
  6
CONTINUOUS
 62
     5
 10
227.7
 20
107.5
 30
0.0
 11
228.347047613
 21
105.085185434
 31
0.0
  0
LINE
  8
0
  6
CONTINUOUS
 62
     5
 10
227.7
 20
85.0
 30
0.0
 11
228.347047613
 21
87.414814566
 31
0.0
  0
LINE
  8
0
  6
CONTINUOUS
 62
     5
 10
227.7
 20
85.0
 30
0.0
 11
227.052952387
 21
87.414814566
 31
0.0
  0
LINE
  8
0
  6
CONTINUOUS
 62
     5
 10
222.7
 20
85.0
 30
0.0
 11
229.7
 21
85.0
 31
0.0
  0
LINE
  8
0
  6
CONTINUOUS
 62
     5
 10
227.7
 20
85.0
 30
0.0
 11
227.052952387
 21
82.585185434
 31
0.0
  0
LINE
  8
0
  6
CONTINUOUS
 62
     5
 10
227.7
 20
85.0
 30
0.0
 11
228.347047613
 21
82.585185434
 31
0.0
  0
LINE
  8
0
  6
CONTINUOUS
 62
     5
 10
227.7
 20
107.5
 30
0.0
 11
227.7
 21
85.0
 31
0.0
  0
LINE
  8
0
  6
CONTINUOUS
 62
     5
 10
227.7
 20
67.5
 30
0.0
 11
228.347047613
 21
69.914814566
 31
0.0
  0
LINE
  8
0
  6
CONTINUOUS
 62
     5
 10
227.7
 20
67.5
 30
0.0
 11
227.052952387
 21
69.914814566
 31
0.0
  0
LINE
  8
0
  6
CONTINUOUS
 62
     5
 10
224.7
 20
67.5
 30
0.0
 11
229.7
 21
67.5
 31
0.0
  0
LINE
  8
0
  6
CONTINUOUS
 62
     5
 10
227.7
 20
85.0
 30
0.0
 11
227.7
 21
67.5
 31
0.0
  0
LINE
  8
0
  6
CONTINUOUS
 62
     5
 10
217.894368027
 20
93.077747211
 30
0.0
 11
215.411961539
 21
92.781676222
 31
0.0
  0
LINE
  8
0
  6
CONTINUOUS
 62
     5
 10
217.894368027
 20
93.077747211
 30
0.0
 11
215.89257644
 21
91.58013897
 31
0.0
  0
LINE
  8
0
  6
CONTINUOUS
 62
     5
 10
177.505631973
 20
76.922252789
 30
0.0
 11
179.988038461
 21
77.218323778
 31
0.0
  0
LINE
  8
0
  6
CONTINUOUS
 62
     5
 10
177.505631973
 20
76.922252789
 30
0.0
 11
179.50742356
 21
78.41986103
 31
0.0
  0
LINE
  8
0
  6
CONTINUOUS
 62
     5
 10
177.505631973
 20
76.922252789
 30
0.0
 11
217.894368027
 21
93.077747211
 31
0.0
  0
LINE
  8
0
  6
CONTINUOUS
 62
     5
 10
173.583883476
 20
66.616116524
 30
0.0
 11
174.833883476
 21
64.451053014
 31
0.0
  0
LINE
  8
0
  6
CONTINUOUS
 62
     5
 10
173.583883476
 20
66.616116524
 30
0.0
 11
175.748946986
 21
65.366116524
 31
0.0
  0
LINE
  8
0
  6
CONTINUOUS
 62
     5
 10
173.583883476
 20
66.616116524
 30
0.0
 11
180.876776695
 21
59.323223305
 31
0.0
  0
TEXT
  8
0
  6
CONTINUOUS
 62
     2
 10
180.876776695
 20
60.323223305
 30
0.3
 40
3.0
  1
４－φ５穴
 50
0.0
 41
0.6
 51
0.0
  7
KANJI6
  0
LINE
  8
0
  6
CONTINUOUS
 62
     5
 10
180.876776695
 20
59.323223305
 30
0.0
 11
197.076776695
 21
59.323223305
 31
0.0
  0
TEXT
  8
0
  6
CONTINUOUS
 62
     2
 10
191.37
 20
61.9
 30
0.18
 40
1.8
  1
＋０．５
 50
0.0
 41
0.6
 51
0.0
  7
KANJI9
  0
TEXT
  8
0
  6
CONTINUOUS
 62
     2
 10
191.37
 20
60.1
 30
0.18
 40
1.8
  1
－０
 50
0.0
 41
0.6
 51
0.0
  7
KANJI9
  0
LINE
  8
0
  6
CONTINUOUS
 62
     2
 10
130.0
 20
89.25
 30
0.0
 11
160.0
 21
89.25
 31
0.0
  0
LINE
  8
0
  6
CONTINUOUS
 62
     1
 10
92.7
 20
175.0
 30
0.0
 11
86.85
 21
174.0
 31
0.0
  0
LINE
  8
0
  6
CONTINUOUS
 62
     1
 10
92.7
 20
175.0
 30
0.0
 11
92.7
 21
125.0
 31
0.0
  0
LINE
  8
0
  6
CONTINUOUS
 62
     1
 10
86.85
 20
173.15
 30
0.0
 11
86.7
 21
173.15
 31
0.0
  0
LINE
  8
0
  6
CONTINUOUS
 62
     1
 10
86.85
 20
173.15
 30
0.0
 11
86.85
 21
174.0
 31
0.0
  0
LINE
  8
0
  6
CONTINUOUS
 62
     1
 10
86.7
 20
173.15
 30
0.0
 11
86.7
 21
142.5
 31
0.0
  0
LINE
  8
0
  6
CONTINUOUS
 62
     1
 10
86.85
 20
142.5
 30
0.0
 11
86.85
 21
126.0
 31
0.0
  0
LINE
  8
0
  6
CONTINUOUS
 62
     1
 10
86.85
 20
142.5
 30
0.0
 11
86.7
 21
142.5
 31
0.0
  0
LINE
  8
0
  6
CONTINUOUS
 62
     1
 10
92.7
 20
125.0
 30
0.0
 11
86.85
 21
126.0
 31
0.0
  0
LINE
  8
0
  6
CONTINUOUS
 62
     1
 10
100.2
 20
126.369047619
 30
0.0
 11
98.2
 21
126.369047619
 31
0.0
  0
ARC
  8
0
  6
CONTINUOUS
 62
     1
 10
104.95
 20
168.007775018
 30
0.0
 40
0.5
 50
0.0
 51
89.102085478
  0
LINE
  8
0
  6
CONTINUOUS
 62
     1
 10
105.45
 20
168.007775018
 30
0.0
 11
105.45
 21
126.992126476
 31
0.0
  0
ARC
  8
0
  6
CONTINUOUS
 62
     1
 10
104.95
 20
126.992126476
 30
0.0
 40
0.5
 50
270.909380449
 51
0.0
  0
LINE
  8
0
  6
CONTINUOUS
 62
     1
 10
95.6
 20
168.701396096
 30
0.0
 11
104.957835462
 21
168.50771362
 31
0.0
  0
LINE
  8
0
  6
CONTINUOUS
 62
     1
 10
92.7
 20
126.25
 30
0.0
 11
104.957935508
 21
126.492189453
 31
0.0
  0
POLYLINE
  8
0
  6
CONTINUOUS
 62
     1
 66
     1
  0
VERTEX
  8
0
  6
CONTINUOUS
 62
     1
 10
105.45
 20
159.25
 30
0.0
  0
VERTEX
  8
0
  6
CONTINUOUS
 62
     1
 10
140.7
 20
159.25
 30
0.0
  0
VERTEX
  8
0
  6
CONTINUOUS
 62
     1
 10
140.7
 20
127.25
 30
0.0
  0
VERTEX
  8
0
  6
CONTINUOUS
 62
     1
 10
105.45
 20
127.25
 30
0.0
  0
SEQEND
  0
LINE
  8
0
  6
CONTINUOUS
 62
     1
 10
140.7
 20
159.25
 30
0.0
 11
140.7
 21
127.25
 31
0.0
  0
LINE
  8
0
  6
CONTINUOUS
 62
     1
 10
146.7
 20
154.75
 30
0.0
 11
146.7
 21
131.75
 31
0.0
  0
LINE
  8
0
  6
CONTINUOUS
 62
     1
 10
140.7
 20
127.25
 30
0.0
 11
142.481008684
 21
127.472626085
 31
0.0
  0
ARC
  8
0
  6
CONTINUOUS
 62
     1
 10
142.45
 20
127.720695555
 30
0.0
 40
0.25
 50
277.125016349
 51
0.0
  0
LINE
  8
0
  6
CONTINUOUS
 62
     1
 10
142.481008684
 20
159.027373915
 30
0.0
 11
140.7
 21
159.25
 31
0.0
  0
ARC
  8
0
  6
CONTINUOUS
 62
     1
 10
142.45
 20
158.779304445
 30
0.0
 40
0.25
 50
0.0
 51
82.874983651
  0
LINE
  8
0
  6
CONTINUOUS
 62
     1
 10
146.7
 20
131.75
 30
0.0
 11
147.55
 21
131.75
 31
0.0
  0
ARC
  8
0
  6
CONTINUOUS
 62
     1
 10
147.55
 20
131.35
 30
0.0
 40
0.4
 50
360.0
 51
90.0
  0
LINE
  8
0
  6
CONTINUOUS
 62
     1
 10
146.7
 20
154.75
 30
0.0
 11
147.55
 21
154.75
 31
0.0
  0
ARC
  8
0
  6
CONTINUOUS
 62
     1
 10
147.55
 20
155.15
 30
0.0
 40
0.4
 50
270.0
 51
360.0
  0
LINE
  8
0
  6
CONTINUOUS
 62
     1
 10
142.7
 20
156.65
 30
0.0
 11
142.7
 21
158.779304445
 31
0.0
  0
ARC
  8
0
  6
CONTINUOUS
 62
     1
 10
143.1
 20
156.65
 30
0.0
 40
0.4
 50
180.0
 51
270.0
  0
LINE
  8
0
  6
CONTINUOUS
 62
     1
 10
147.95
 20
155.15
 30
0.0
 11
147.95
 21
155.85
 31
0.0
  0
LINE
  8
0
  6
CONTINUOUS
 62
     1
 10
147.55
 20
156.25
 30
0.0
 11
143.1
 21
156.25
 31
0.0
  0
ARC
  8
0
  6
CONTINUOUS
 62
     1
 10
147.55
 20
155.85
 30
0.0
 40
0.4
 50
0.0
 51
90.0
  0
LINE
  8
0
  6
CONTINUOUS
 62
     1
 10
147.95
 20
131.35
 30
0.0
 11
147.95
 21
130.65
 31
0.0
  0
ARC
  8
0
  6
CONTINUOUS
 62
     1
 10
147.55
 20
130.65
 30
0.0
 40
0.4
 50
270.0
 51
0.0
  0
LINE
  8
0
  6
CONTINUOUS
 62
     1
 10
142.7
 20
127.720695555
 30
0.0
 11
142.7
 21
129.85
 31
0.0
  0
LINE
  8
0
  6
CONTINUOUS
 62
     1
 10
147.55
 20
130.25
 30
0.0
 11
143.1
 21
130.25
 31
0.0
  0
ARC
  8
0
  6
CONTINUOUS
 62
     1
 10
143.1
 20
129.85
 30
0.0
 40
0.4
 50
90.0
 51
180.0
  0
LINE
  8
0
  6
CONTINUOUS
 62
     1
 10
142.7
 20
156.65
 30
0.0
 11
142.7
 21
145.075
 31
0.0
  0
LINE
  8
0
  6
CONTINUOUS
 62
     1
 10
142.7
 20
141.425
 30
0.0
 11
142.7
 21
129.85
 31
0.0
  0
ARC
  8
0
  6
CONTINUOUS
 62
     1
 10
142.45
 20
141.425
 30
0.0
 40
0.25
 50
0.0
 51
90.0
  0
LINE
  8
0
  6
CONTINUOUS
 62
     1
 10
141.7
 20
141.675
 30
0.0
 11
142.45
 21
141.675
 31
0.0
  0
LINE
  8
0
  6
CONTINUOUS
 62
     1
 10
141.7
 20
144.825
 30
0.0
 11
141.7
 21
141.675
 31
0.0
  0
ARC
  8
0
  6
CONTINUOUS
 62
     1
 10
142.45
 20
145.075
 30
0.0
 40
0.25
 50
270.0
 51
0.0
  0
LINE
  8
0
  6
CONTINUOUS
 62
     1
 10
142.45
 20
144.825
 30
0.0
 11
141.7
 21
144.825
 31
0.0
  0
TEXT
  8
0
  6
CONTINUOUS
 62
     2
 10
85.75
 20
121.0
 30
0.3
 40
3.0
  1
２０
 50
0.0
 41
0.6
 51
0.0
  7
KANJI6
  0
ARC
  8
0
  6
CONTINUOUS
 62
     2
 10
93.6
 20
129.5
 30
0.0
 40
7.0
 50
165.068582822
 51
194.931417178
  0
LINE
  8
0
  6
LTYPE1
 62
     2
 10
84.85
 20
129.5
 30
0.0
 11
88.85
 21
129.5
 31
0.0
  0
LINE
  8
0
  6
CONTINUOUS
 62
     2
 10
82.7
 20
136.5
 30
0.0
 11
82.7
 21
132.0
 31
0.0
  0
LINE
  8
0
  6
CONTINUOUS
 62
     2
 10
85.95
 20
136.75
 30
0.0
 11
85.95
 21
131.75
 31
0.0
  0
LINE
  8
0
  6
CONTINUOUS
 62
     2
 10
85.95
 20
131.75
 30
0.0
 11
82.7
 21
132.0
 31
0.0
  0
LINE
  8
0
  6
CONTINUOUS
 62
     2
 10
82.7
 20
136.5
 30
0.0
 11
85.95
 21
136.75
 31
0.0
  0
LINE
  8
0
  6
CONTINUOUS
 62
     2
 10
85.95
 20
136.75
 30
0.0
 11
86.2
 21
136.5
 31
0.0
  0
LINE
  8
0
  6
CONTINUOUS
 62
     2
 10
86.2
 20
136.5
 30
0.0
 11
86.2
 21
132.0
 31
0.0
  0
LINE
  8
0
  6
CONTINUOUS
 62
     2
 10
86.2
 20
132.0
 30
0.0
 11
85.95
 21
131.75
 31
0.0
  0
LINE
  8
0
  6
CONTINUOUS
 62
     2
 10
85.2
 20
133.847367041
 30
0.0
 11
82.7
 21
133.912360369
 31
0.0
  0
LINE
  8
0
  6
CONTINUOUS
 62
     2
 10
85.2
 20
133.365008209
 30
0.0
 11
82.7
 21
133.430143345
 31
0.0
  0
LINE
  8
0
  6
CONTINUOUS
 62
     2
 10
85.2
 20
132.667627468
 30
0.0
 11
82.7
 21
132.845334351
 31
0.0
  0
LINE
  8
0
  6
CONTINUOUS
 62
     2
 10
85.2
 20
132.314516296
 30
0.0
 11
82.7
 21
132.492326989
 31
0.0
  0
LINE
  8
0
  6
CONTINUOUS
 62
     2
 10
85.2
 20
131.911883337
 30
0.0
 11
82.7
 21
132.154687358
 31
0.0
  0
POLYLINE
  8
0
  6
CONTINUOUS
 62
     2
 66
     1
  0
VERTEX
  8
0
  6
CONTINUOUS
 62
     2
 10
85.2
 20
133.365008209
 30
0.0
 42
0.02103597
  0
VERTEX
  8
0
  6
CONTINUOUS
 62
     2
 10
85.221788936
 20
133.365925287
 30
0.0
 42
0.021055715
  0
VERTEX
  8
0
  6
CONTINUOUS
 62
     2
 10
85.243412044
 20
133.368669541
 30
0.0
 42
0.021097556
  0
VERTEX
  8
0
  6
CONTINUOUS
 62
     2
 10
85.264704761
 20
133.373220085
 30
0.0
 42
0.021160478
  0
VERTEX
  8
0
  6
CONTINUOUS
 62
     2
 10
85.285505036
 20
133.379542288
 30
0.0
 42
0.021242925
  0
VERTEX
  8
0
  6
CONTINUOUS
 62
     2
 10
85.305654565
 20
133.387588033
 30
0.0
 42
0.02134281
  0
VERTEX
  8
0
  6
CONTINUOUS
 62
     2
 10
85.325
 20
133.397296087
 30
0.0
 42
0.021457536
  0
VERTEX
  8
0
  6
CONTINUOUS
 62
     2
 10
85.343394109
 20
133.408592567
 30
0.0
 42
0.021584022
  0
VERTEX
  8
0
  6
CONTINUOUS
 62
     2
 10
85.360696902
 20
133.421391499
 30
0.0
 42
0.021718748
  0
VERTEX
  8
0
  6
CONTINUOUS
 62
     2
 10
85.376776695
 20
133.435595475
 30
0.0
 42
0.021857823
  0
VERTEX
  8
0
  6
CONTINUOUS
 62
     2
 10
85.391511111
 20
133.451096396
 30
0.0
 42
0.021997074
  0
VERTEX
  8
0
  6
CONTINUOUS
 62
     2
 10
85.404788011
 20
133.467776288
 30
0.0
 42
0.022132162
  0
VERTEX
  8
0
  6
CONTINUOUS
 62
     2
 10
85.416506351
 20
133.485508209
 30
0.0
 42
0.022258722
  0
VERTEX
  8
0
  6
CONTINUOUS
 62
     2
 10
85.426576947
 20
133.504157208
 30
0.0
 42
0.022372526
  0
VERTEX
  8
0
  6
CONTINUOUS
 62
     2
 10
85.434923155
 20
133.523581355
 30
0.0
 42
0.022469651
  0
VERTEX
  8
0
  6
CONTINUOUS
 62
     2
 10
85.441481457
 20
133.54363282
 30
0.0
 42
0.022546665
  0
VERTEX
  8
0
  6
CONTINUOUS
 62
     2
 10
85.446201938
 20
133.564158999
 30
0.0
 42
0.022600784
  0
VERTEX
  8
0
  6
CONTINUOUS
 62
     2
 10
85.449048675
 20
133.585003675
 30
0.0
 42
0.022630022
  0
VERTEX
  8
0
  6
CONTINUOUS
 62
     2
 10
85.45
 20
133.606008209
 30
0.0
 42
0.022633296
  0
VERTEX
  8
0
  6
CONTINUOUS
 62
     2
 10
85.449048675
 20
133.627012743
 30
0.0
 42
0.022610484
  0
VERTEX
  8
0
  6
CONTINUOUS
 62
     2
 10
85.446201938
 20
133.64785742
 30
0.0
 42
0.022562433
  0
VERTEX
  8
0
  6
CONTINUOUS
 62
     2
 10
85.441481457
 20
133.668383599
 30
0.0
 42
0.022490911
  0
VERTEX
  8
0
  6
CONTINUOUS
 62
     2
 10
85.434923155
 20
133.688435064
 30
0.0
 42
0.022398514
  0
VERTEX
  8
0
  6
CONTINUOUS
 62
     2
 10
85.426576947
 20
133.707859211
 30
0.0
 42
0.022288529
  0
VERTEX
  8
0
  6
CONTINUOUS
 62
     2
 10
85.416506351
 20
133.726508209
 30
0.0
 42
0.02216477
  0
VERTEX
  8
0
  6
CONTINUOUS
 62
     2
 10
85.404788011
 20
133.744240131
 30
0.0
 42
0.022031407
  0
VERTEX
  8
0
  6
CONTINUOUS
 62
     2
 10
85.391511111
 20
133.760920023
 30
0.0
 42
0.021892787
  0
VERTEX
  8
0
  6
CONTINUOUS
 62
     2
 10
85.376776695
 20
133.776420944
 30
0.0
 42
0.021753268
  0
VERTEX
  8
0
  6
CONTINUOUS
 62
     2
 10
85.360696902
 20
133.79062492
 30
0.0
 42
0.021617077
  0
VERTEX
  8
0
  6
CONTINUOUS
 62
     2
 10
85.343394109
 20
133.803423852
 30
0.0
 42
0.021488186
  0
VERTEX
  8
0
  6
CONTINUOUS
 62
     2
 10
85.325
 20
133.814720332
 30
0.0
 42
0.021370213
  0
VERTEX
  8
0
  6
CONTINUOUS
 62
     2
 10
85.305654565
 20
133.824428386
 30
0.0
 42
0.021266354
  0
VERTEX
  8
0
  6
CONTINUOUS
 62
     2
 10
85.285505036
 20
133.832474131
 30
0.0
 42
0.021179332
  0
VERTEX
  8
0
  6
CONTINUOUS
 62
     2
 10
85.264704761
 20
133.838796334
 30
0.0
 42
0.021111362
  0
VERTEX
  8
0
  6
CONTINUOUS
 62
     2
 10
85.243412044
 20
133.843346878
 30
0.0
 42
0.021064134
  0
VERTEX
  8
0
  6
CONTINUOUS
 62
     2
 10
85.221788936
 20
133.846091132
 30
0.0
 42
0.0210388
  0
VERTEX
  8
0
  6
CONTINUOUS
 62
     2
 10
85.2
 20
133.847008209
 30
0.0
  0
SEQEND
  8
0
  6
CONTINUOUS
 62
     2
  0
POLYLINE
  8
0
  6
CONTINUOUS
 62
     2
 66
     1
  0
VERTEX
  8
0
  6
CONTINUOUS
 62
     2
 10
85.2
 20
132.314516296
 30
0.0
 42
0.015412332
  0
VERTEX
  8
0
  6
CONTINUOUS
 62
     2
 10
85.221788936
 20
132.315187931
 30
0.0
 42
0.015515584
  0
VERTEX
  8
0
  6
CONTINUOUS
 62
     2
 10
85.243412044
 20
132.317197727
 30
0.0
 42
0.015738372
  0
VERTEX
  8
0
  6
CONTINUOUS
 62
     2
 10
85.264704761
 20
132.320530387
 30
0.0
 42
0.016083955
  0
VERTEX
  8
0
  6
CONTINUOUS
 62
     2
 10
85.285505036
 20
132.325160548
 30
0.0
 42
0.016557065
  0
VERTEX
  8
0
  6
CONTINUOUS
 62
     2
 10
85.305654565
 20
132.331052971
 30
0.0
 42
0.017163493
  0
VERTEX
  8
0
  6
CONTINUOUS
 62
     2
 10
85.325
 20
132.338162812
 30
0.0
 42
0.017909379
  0
VERTEX
  8
0
  6
CONTINUOUS
 62
     2
 10
85.343394109
 20
132.34643596
 30
0.0
 42
0.018800064
  0
VERTEX
  8
0
  6
CONTINUOUS
 62
     2
 10
85.360696902
 20
132.355809451
 30
0.0
 42
0.019838316
  0
VERTEX
  8
0
  6
CONTINUOUS
 62
     2
 10
85.376776695
 20
132.366211949
 30
0.0
 42
0.021021724
  0
VERTEX
  8
0
  6
CONTINUOUS
 62
     2
 10
85.391511111
 20
132.377564283
 30
0.0
 42
0.022339115
  0
VERTEX
  8
0
  6
CONTINUOUS
 62
     2
 10
85.404788011
 20
132.389780055
 30
0.0
 42
0.023766055
  0
VERTEX
  8
0
  6
CONTINUOUS
 62
     2
 10
85.416506351
 20
132.402766296
 30
0.0
 42
0.025259945
  0
VERTEX
  8
0
  6
CONTINUOUS
 62
     2
 10
85.426576947
 20
132.416424172
 30
0.0
 42
0.026756003
  0
VERTEX
  8
0
  6
CONTINUOUS
 62
     2
 10
85.434923155
 20
132.43064974
 30
0.0
 42
0.028166363
  0
VERTEX
  8
0
  6
CONTINUOUS
 62
     2
 10
85.441481457
 20
132.445334734
 30
0.0
 42
0.029385072
  0
VERTEX
  8
0
  6
CONTINUOUS
 62
     2
 10
85.446201938
 20
132.460367392
 30
0.0
 42
0.030301045
  0
VERTEX
  8
0
  6
CONTINUOUS
 62
     2
 10
85.449048675
 20
132.475633307
 30
0.0
 42
0.030818133
  0
VERTEX
  8
0
  6
CONTINUOUS
 62
     2
 10
85.45
 20
132.491016296
 30
0.0
 42
0.030877053
  0
VERTEX
  8
0
  6
CONTINUOUS
 62
     2
 10
85.449048675
 20
132.506399284
 30
0.0
 42
0.030470815
  0
VERTEX
  8
0
  6
CONTINUOUS
 62
     2
 10
85.446201938
 20
132.521665199
 30
0.0
 42
0.029646632
  0
VERTEX
  8
0
  6
CONTINUOUS
 62
     2
 10
85.441481457
 20
132.536697857
 30
0.0
 42
0.028493394
  0
VERTEX
  8
0
  6
CONTINUOUS
 62
     2
 10
85.434923155
 20
132.551382851
 30
0.0
 42
0.027120527
  0
VERTEX
  8
0
  6
CONTINUOUS
 62
     2
 10
85.426576947
 20
132.565608419
 30
0.0
 42
0.025636807
  0
VERTEX
  8
0
  6
CONTINUOUS
 62
     2
 10
85.416506351
 20
132.579266296
 30
0.0
 42
0.02413538
  0
VERTEX
  8
0
  6
CONTINUOUS
 62
     2
 10
85.404788011
 20
132.592252537
 30
0.0
 42
0.022686896
  0
VERTEX
  8
0
  6
CONTINUOUS
 62
     2
 10
85.391511111
 20
132.604468309
 30
0.0
 42
0.021339201
  0
VERTEX
  8
0
  6
CONTINUOUS
 62
     2
 10
85.376776695
 20
132.615820643
 30
0.0
 42
0.020120814
  0
VERTEX
  8
0
  6
CONTINUOUS
 62
     2
 10
85.360696902
 20
132.62622314
 30
0.0
 42
0.019045774
  0
VERTEX
  8
0
  6
CONTINUOUS
 62
     2
 10
85.343394109
 20
132.635596631
 30
0.0
 42
0.018118306
  0
VERTEX
  8
0
  6
CONTINUOUS
 62
     2
 10
85.325
 20
132.643869779
 30
0.0
 42
0.017336657
  0
VERTEX
  8
0
  6
CONTINUOUS
 62
     2
 10
85.305654565
 20
132.65097962
 30
0.0
 42
0.016695933
  0
VERTEX
  8
0
  6
CONTINUOUS
 62
     2
 10
85.285505036
 20
132.656872043
 30
0.0
 42
0.016190065
  0
VERTEX
  8
0
  6
CONTINUOUS
 62
     2
 10
85.264704761
 20
132.661502204
 30
0.0
 42
0.015813094
  0
VERTEX
  8
0
  6
CONTINUOUS
 62
     2
 10
85.243412044
 20
132.664834864
 30
0.0
 42
0.015559975
  0
VERTEX
  8
0
  6
CONTINUOUS
 62
     2
 10
85.221788936
 20
132.66684466
 30
0.0
 42
0.015427054
  0
VERTEX
  8
0
  6
CONTINUOUS
 62
     2
 10
85.2
 20
132.667516296
 30
0.0
  0
SEQEND
  8
0
  6
CONTINUOUS
 62
     2
  0
POLYLINE
  8
0
  6
CONTINUOUS
 62
     2
 66
     1
  0
VERTEX
  8
0
  6
CONTINUOUS
 62
     2
 10
85.44583255
 20
131.788782112
 30
0.0
 42
0.047646099
  0
VERTEX
  8
0
  6
CONTINUOUS
 62
     2
 10
85.448868835
 20
131.797810201
 30
0.0
 42
0.05177306
  0
VERTEX
  8
0
  6
CONTINUOUS
 62
     2
 10
85.449993003
 20
131.806914216
 30
0.0
 42
0.052570142
  0
VERTEX
  8
0
  6
CONTINUOUS
 62
     2
 10
85.449196418
 20
131.81602421
 30
0.0
 42
0.049705543
  0
VERTEX
  8
0
  6
CONTINUOUS
 62
     2
 10
85.4464852
 20
131.825070188
 30
0.0
 42
0.044306081
  0
VERTEX
  8
0
  6
CONTINUOUS
 62
     2
 10
85.441880179
 20
131.833982648
 30
0.0
 42
0.038019413
  0
VERTEX
  8
0
  6
CONTINUOUS
 62
     2
 10
85.435416738
 20
131.842693113
 30
0.0
 42
0.032051009
  0
VERTEX
  8
0
  6
CONTINUOUS
 62
     2
 10
85.427144537
 20
131.851134659
 30
0.0
 42
0.02694418
  0
VERTEX
  8
0
  6
CONTINUOUS
 62
     2
 10
85.417127132
 20
131.859242427
 30
0.0
 42
0.022799057
  0
VERTEX
  8
0
  6
CONTINUOUS
 62
     2
 10
85.405441489
 20
131.866954124
 30
0.0
 42
0.019517382
  0
VERTEX
  8
0
  6
CONTINUOUS
 62
     2
 10
85.392177393
 20
131.874210499
 30
0.0
 42
0.01694562
  0
VERTEX
  8
0
  6
CONTINUOUS
 62
     2
 10
85.377436753
 20
131.8809558
 30
0.0
 42
0.014936363
  0
VERTEX
  8
0
  6
CONTINUOUS
 62
     2
 10
85.361332827
 20
131.8871382
 30
0.0
 42
0.013367538
  0
VERTEX
  8
0
  6
CONTINUOUS
 62
     2
 10
85.343989344
 20
131.892710199
 30
0.0
 42
0.012144258
  0
VERTEX
  8
0
  6
CONTINUOUS
 62
     2
 10
85.325539557
 20
131.897628987
 30
0.0
 42
0.011194996
  0
VERTEX
  8
0
  6
CONTINUOUS
 62
     2
 10
85.306125222
 20
131.90185677
 30
0.0
 42
0.01046677
  0
VERTEX
  8
0
  6
CONTINUOUS
 62
     2
 10
85.285895502
 20
131.905361066
 30
0.0
 42
0.009920899
  0
VERTEX
  8
0
  6
CONTINUOUS
 62
     2
 10
85.265005827
 20
131.908114951
 30
0.0
 42
0.009529713
  0
VERTEX
  8
0
  6
CONTINUOUS
 62
     2
 10
85.243616698
 20
131.910097266
 30
0.0
 42
0.009274162
  0
VERTEX
  8
0
  6
CONTINUOUS
 62
     2
 10
85.221892451
 20
131.91129278
 30
0.0
 42
0.009142179
  0
VERTEX
  8
0
  6
CONTINUOUS
 62
     2
 10
85.2
 20
131.911692308
 30
0.0
  0
SEQEND
  8
0
  6
CONTINUOUS
 62
     2
  0
LINE
  8
0
  6
CONTINUOUS
 62
     2
 10
85.2
 20
134.652632959
 30
0.0
 11
82.7
 21
134.587639631
 31
0.0
  0
LINE
  8
0
  6
CONTINUOUS
 62
     2
 10
85.2
 20
135.134991791
 30
0.0
 11
82.7
 21
135.069856655
 31
0.0
  0
LINE
  8
0
  6
CONTINUOUS
 62
     2
 10
85.2
 20
135.832372532
 30
0.0
 11
82.7
 21
135.654665649
 31
0.0
  0
LINE
  8
0
  6
CONTINUOUS
 62
     2
 10
85.2
 20
136.185483704
 30
0.0
 11
82.7
 21
136.007673011
 31
0.0
  0
LINE
  8
0
  6
CONTINUOUS
 62
     2
 10
85.2
 20
136.588116663
 30
0.0
 11
82.7
 21
136.345312642
 31
0.0
  0
POLYLINE
  8
0
  6
CONTINUOUS
 62
     2
 66
     1
  0
VERTEX
  8
0
  6
CONTINUOUS
 62
     2
 10
85.2
 20
135.134991791
 30
0.0
 42
-0.02103597
  0
VERTEX
  8
0
  6
CONTINUOUS
 62
     2
 10
85.221788936
 20
135.134074713
 30
0.0
 42
-0.021055715
  0
VERTEX
  8
0
  6
CONTINUOUS
 62
     2
 10
85.243412044
 20
135.131330459
 30
0.0
 42
-0.021097556
  0
VERTEX
  8
0
  6
CONTINUOUS
 62
     2
 10
85.264704761
 20
135.126779915
 30
0.0
 42
-0.021160478
  0
VERTEX
  8
0
  6
CONTINUOUS
 62
     2
 10
85.285505036
 20
135.120457712
 30
0.0
 42
-0.021242925
  0
VERTEX
  8
0
  6
CONTINUOUS
 62
     2
 10
85.305654565
 20
135.112411967
 30
0.0
 42
-0.02134281
  0
VERTEX
  8
0
  6
CONTINUOUS
 62
     2
 10
85.325
 20
135.102703913
 30
0.0
 42
-0.021457536
  0
VERTEX
  8
0
  6
CONTINUOUS
 62
     2
 10
85.343394109
 20
135.091407433
 30
0.0
 42
-0.021584022
  0
VERTEX
  8
0
  6
CONTINUOUS
 62
     2
 10
85.360696902
 20
135.078608501
 30
0.0
 42
-0.021718748
  0
VERTEX
  8
0
  6
CONTINUOUS
 62
     2
 10
85.376776695
 20
135.064404525
 30
0.0
 42
-0.021857823
  0
VERTEX
  8
0
  6
CONTINUOUS
 62
     2
 10
85.391511111
 20
135.048903604
 30
0.0
 42
-0.021997074
  0
VERTEX
  8
0
  6
CONTINUOUS
 62
     2
 10
85.404788011
 20
135.032223712
 30
0.0
 42
-0.022132162
  0
VERTEX
  8
0
  6
CONTINUOUS
 62
     2
 10
85.416506351
 20
135.014491791
 30
0.0
 42
-0.022258722
  0
VERTEX
  8
0
  6
CONTINUOUS
 62
     2
 10
85.426576947
 20
134.995842792
 30
0.0
 42
-0.022372526
  0
VERTEX
  8
0
  6
CONTINUOUS
 62
     2
 10
85.434923155
 20
134.976418645
 30
0.0
 42
-0.022469651
  0
VERTEX
  8
0
  6
CONTINUOUS
 62
     2
 10
85.441481457
 20
134.95636718
 30
0.0
 42
-0.022546665
  0
VERTEX
  8
0
  6
CONTINUOUS
 62
     2
 10
85.446201938
 20
134.935841001
 30
0.0
 42
-0.022600784
  0
VERTEX
  8
0
  6
CONTINUOUS
 62
     2
 10
85.449048675
 20
134.914996325
 30
0.0
 42
-0.022630022
  0
VERTEX
  8
0
  6
CONTINUOUS
 62
     2
 10
85.45
 20
134.893991791
 30
0.0
 42
-0.022633296
  0
VERTEX
  8
0
  6
CONTINUOUS
 62
     2
 10
85.449048675
 20
134.872987257
 30
0.0
 42
-0.022610484
  0
VERTEX
  8
0
  6
CONTINUOUS
 62
     2
 10
85.446201938
 20
134.85214258
 30
0.0
 42
-0.022562433
  0
VERTEX
  8
0
  6
CONTINUOUS
 62
     2
 10
85.441481457
 20
134.831616401
 30
0.0
 42
-0.022490911
  0
VERTEX
  8
0
  6
CONTINUOUS
 62
     2
 10
85.434923155
 20
134.811564936
 30
0.0
 42
-0.022398514
  0
VERTEX
  8
0
  6
CONTINUOUS
 62
     2
 10
85.426576947
 20
134.792140789
 30
0.0
 42
-0.022288529
  0
VERTEX
  8
0
  6
CONTINUOUS
 62
     2
 10
85.416506351
 20
134.773491791
 30
0.0
 42
-0.02216477
  0
VERTEX
  8
0
  6
CONTINUOUS
 62
     2
 10
85.404788011
 20
134.755759869
 30
0.0
 42
-0.022031407
  0
VERTEX
  8
0
  6
CONTINUOUS
 62
     2
 10
85.391511111
 20
134.739079977
 30
0.0
 42
-0.021892787
  0
VERTEX
  8
0
  6
CONTINUOUS
 62
     2
 10
85.376776695
 20
134.723579056
 30
0.0
 42
-0.021753268
  0
VERTEX
  8
0
  6
CONTINUOUS
 62
     2
 10
85.360696902
 20
134.70937508
 30
0.0
 42
-0.021617077
  0
VERTEX
  8
0
  6
CONTINUOUS
 62
     2
 10
85.343394109
 20
134.696576148
 30
0.0
 42
-0.021488186
  0
VERTEX
  8
0
  6
CONTINUOUS
 62
     2
 10
85.325
 20
134.685279668
 30
0.0
 42
-0.021370213
  0
VERTEX
  8
0
  6
CONTINUOUS
 62
     2
 10
85.305654565
 20
134.675571614
 30
0.0
 42
-0.021266354
  0
VERTEX
  8
0
  6
CONTINUOUS
 62
     2
 10
85.285505036
 20
134.667525869
 30
0.0
 42
-0.021179332
  0
VERTEX
  8
0
  6
CONTINUOUS
 62
     2
 10
85.264704761
 20
134.661203666
 30
0.0
 42
-0.021111362
  0
VERTEX
  8
0
  6
CONTINUOUS
 62
     2
 10
85.243412044
 20
134.656653122
 30
0.0
 42
-0.021064134
  0
VERTEX
  8
0
  6
CONTINUOUS
 62
     2
 10
85.221788936
 20
134.653908868
 30
0.0
 42
-0.0210388
  0
VERTEX
  8
0
  6
CONTINUOUS
 62
     2
 10
85.2
 20
134.652991791
 30
0.0
  0
SEQEND
  8
0
  6
CONTINUOUS
 62
     2
  0
POLYLINE
  8
0
  6
CONTINUOUS
 62
     2
 66
     1
  0
VERTEX
  8
0
  6
CONTINUOUS
 62
     2
 10
85.2
 20
136.185483704
 30
0.0
 42
-0.015412332
  0
VERTEX
  8
0
  6
CONTINUOUS
 62
     2
 10
85.221788936
 20
136.184812069
 30
0.0
 42
-0.015515584
  0
VERTEX
  8
0
  6
CONTINUOUS
 62
     2
 10
85.243412044
 20
136.182802273
 30
0.0
 42
-0.015738372
  0
VERTEX
  8
0
  6
CONTINUOUS
 62
     2
 10
85.264704761
 20
136.179469613
 30
0.0
 42
-0.016083955
  0
VERTEX
  8
0
  6
CONTINUOUS
 62
     2
 10
85.285505036
 20
136.174839452
 30
0.0
 42
-0.016557065
  0
VERTEX
  8
0
  6
CONTINUOUS
 62
     2
 10
85.305654565
 20
136.168947029
 30
0.0
 42
-0.017163493
  0
VERTEX
  8
0
  6
CONTINUOUS
 62
     2
 10
85.325
 20
136.161837188
 30
0.0
 42
-0.017909379
  0
VERTEX
  8
0
  6
CONTINUOUS
 62
     2
 10
85.343394109
 20
136.15356404
 30
0.0
 42
-0.018800064
  0
VERTEX
  8
0
  6
CONTINUOUS
 62
     2
 10
85.360696902
 20
136.144190549
 30
0.0
 42
-0.019838316
  0
VERTEX
  8
0
  6
CONTINUOUS
 62
     2
 10
85.376776695
 20
136.133788051
 30
0.0
 42
-0.021021724
  0
VERTEX
  8
0
  6
CONTINUOUS
 62
     2
 10
85.391511111
 20
136.122435717
 30
0.0
 42
-0.022339115
  0
VERTEX
  8
0
  6
CONTINUOUS
 62
     2
 10
85.404788011
 20
136.110219945
 30
0.0
 42
-0.023766055
  0
VERTEX
  8
0
  6
CONTINUOUS
 62
     2
 10
85.416506351
 20
136.097233704
 30
0.0
 42
-0.025259945
  0
VERTEX
  8
0
  6
CONTINUOUS
 62
     2
 10
85.426576947
 20
136.083575828
 30
0.0
 42
-0.026756003
  0
VERTEX
  8
0
  6
CONTINUOUS
 62
     2
 10
85.434923155
 20
136.06935026
 30
0.0
 42
-0.028166363
  0
VERTEX
  8
0
  6
CONTINUOUS
 62
     2
 10
85.441481457
 20
136.054665266
 30
0.0
 42
-0.029385072
  0
VERTEX
  8
0
  6
CONTINUOUS
 62
     2
 10
85.446201938
 20
136.039632608
 30
0.0
 42
-0.030301045
  0
VERTEX
  8
0
  6
CONTINUOUS
 62
     2
 10
85.449048675
 20
136.024366693
 30
0.0
 42
-0.030818133
  0
VERTEX
  8
0
  6
CONTINUOUS
 62
     2
 10
85.45
 20
136.008983704
 30
0.0
 42
-0.030877053
  0
VERTEX
  8
0
  6
CONTINUOUS
 62
     2
 10
85.449048675
 20
135.993600716
 30
0.0
 42
-0.030470815
  0
VERTEX
  8
0
  6
CONTINUOUS
 62
     2
 10
85.446201938
 20
135.978334801
 30
0.0
 42
-0.029646632
  0
VERTEX
  8
0
  6
CONTINUOUS
 62
     2
 10
85.441481457
 20
135.963302143
 30
0.0
 42
-0.028493394
  0
VERTEX
  8
0
  6
CONTINUOUS
 62
     2
 10
85.434923155
 20
135.948617149
 30
0.0
 42
-0.027120527
  0
VERTEX
  8
0
  6
CONTINUOUS
 62
     2
 10
85.426576947
 20
135.934391581
 30
0.0
 42
-0.025636807
  0
VERTEX
  8
0
  6
CONTINUOUS
 62
     2
 10
85.416506351
 20
135.920733704
 30
0.0
 42
-0.02413538
  0
VERTEX
  8
0
  6
CONTINUOUS
 62
     2
 10
85.404788011
 20
135.907747463
 30
0.0
 42
-0.022686896
  0
VERTEX
  8
0
  6
CONTINUOUS
 62
     2
 10
85.391511111
 20
135.895531691
 30
0.0
 42
-0.021339201
  0
VERTEX
  8
0
  6
CONTINUOUS
 62
     2
 10
85.376776695
 20
135.884179357
 30
0.0
 42
-0.020120814
  0
VERTEX
  8
0
  6
CONTINUOUS
 62
     2
 10
85.360696902
 20
135.87377686
 30
0.0
 42
-0.019045774
  0
VERTEX
  8
0
  6
CONTINUOUS
 62
     2
 10
85.343394109
 20
135.864403369
 30
0.0
 42
-0.018118306
  0
VERTEX
  8
0
  6
CONTINUOUS
 62
     2
 10
85.325
 20
135.856130221
 30
0.0
 42
-0.017336657
  0
VERTEX
  8
0
  6
CONTINUOUS
 62
     2
 10
85.305654565
 20
135.84902038
 30
0.0
 42
-0.016695933
  0
VERTEX
  8
0
  6
CONTINUOUS
 62
     2
 10
85.285505036
 20
135.843127957
 30
0.0
 42
-0.016190065
  0
VERTEX
  8
0
  6
CONTINUOUS
 62
     2
 10
85.264704761
 20
135.838497796
 30
0.0
 42
-0.015813094
  0
VERTEX
  8
0
  6
CONTINUOUS
 62
     2
 10
85.243412044
 20
135.835165136
 30
0.0
 42
-0.015559975
  0
VERTEX
  8
0
  6
CONTINUOUS
 62
     2
 10
85.221788936
 20
135.83315534
 30
0.0
 42
-0.015427054
  0
VERTEX
  8
0
  6
CONTINUOUS
 62
     2
 10
85.2
 20
135.832483704
 30
0.0
  0
SEQEND
  8
0
  6
CONTINUOUS
 62
     2
  0
POLYLINE
  8
0
  6
CONTINUOUS
 62
     2
 66
     1
  0
VERTEX
  8
0
  6
CONTINUOUS
 62
     2
 10
85.44583255
 20
136.711217888
 30
0.0
 42
-0.047646099
  0
VERTEX
  8
0
  6
CONTINUOUS
 62
     2
 10
85.448868835
 20
136.702189799
 30
0.0
 42
-0.05177306
  0
VERTEX
  8
0
  6
CONTINUOUS
 62
     2
 10
85.449993003
 20
136.693085784
 30
0.0
 42
-0.052570142
  0
VERTEX
  8
0
  6
CONTINUOUS
 62
     2
 10
85.449196418
 20
136.68397579
 30
0.0
 42
-0.049705543
  0
VERTEX
  8
0
  6
CONTINUOUS
 62
     2
 10
85.4464852
 20
136.674929812
 30
0.0
 42
-0.044306081
  0
VERTEX
  8
0
  6
CONTINUOUS
 62
     2
 10
85.441880179
 20
136.666017352
 30
0.0
 42
-0.038019413
  0
VERTEX
  8
0
  6
CONTINUOUS
 62
     2
 10
85.435416738
 20
136.657306887
 30
0.0
 42
-0.032051009
  0
VERTEX
  8
0
  6
CONTINUOUS
 62
     2
 10
85.427144537
 20
136.648865341
 30
0.0
 42
-0.02694418
  0
VERTEX
  8
0
  6
CONTINUOUS
 62
     2
 10
85.417127132
 20
136.640757573
 30
0.0
 42
-0.022799057
  0
VERTEX
  8
0
  6
CONTINUOUS
 62
     2
 10
85.405441489
 20
136.633045876
 30
0.0
 42
-0.019517382
  0
VERTEX
  8
0
  6
CONTINUOUS
 62
     2
 10
85.392177393
 20
136.625789501
 30
0.0
 42
-0.01694562
  0
VERTEX
  8
0
  6
CONTINUOUS
 62
     2
 10
85.377436753
 20
136.6190442
 30
0.0
 42
-0.014936363
  0
VERTEX
  8
0
  6
CONTINUOUS
 62
     2
 10
85.361332827
 20
136.6128618
 30
0.0
 42
-0.013367538
  0
VERTEX
  8
0
  6
CONTINUOUS
 62
     2
 10
85.343989344
 20
136.607289801
 30
0.0
 42
-0.012144258
  0
VERTEX
  8
0
  6
CONTINUOUS
 62
     2
 10
85.325539557
 20
136.602371013
 30
0.0
 42
-0.011194996
  0
VERTEX
  8
0
  6
CONTINUOUS
 62
     2
 10
85.306125222
 20
136.59814323
 30
0.0
 42
-0.01046677
  0
VERTEX
  8
0
  6
CONTINUOUS
 62
     2
 10
85.285895502
 20
136.594638934
 30
0.0
 42
-0.009920899
  0
VERTEX
  8
0
  6
CONTINUOUS
 62
     2
 10
85.265005827
 20
136.591885049
 30
0.0
 42
-0.009529713
  0
VERTEX
  8
0
  6
CONTINUOUS
 62
     2
 10
85.243616698
 20
136.589902734
 30
0.0
 42
-0.009274162
  0
VERTEX
  8
0
  6
CONTINUOUS
 62
     2
 10
85.221892451
 20
136.58870722
 30
0.0
 42
-0.009142179
  0
VERTEX
  8
0
  6
CONTINUOUS
 62
     2
 10
85.2
 20
136.588307692
 30
0.0
  0
SEQEND
  8
0
  6
CONTINUOUS
 62
     2
  0
LINE
  8
0
  6
CONTINUOUS
 62
     2
 10
86.2
 20
134.85
 30
0.0
 11
86.85
 21
134.85
 31
0.0
  0
LINE
  8
0
  6
CONTINUOUS
 62
     2
 10
86.2
 20
133.65
 30
0.0
 11
86.85
 21
133.65
 31
0.0
  0
LINE
  8
0
  6
LTYPE1
 62
     2
 10
80.7
 20
134.25
 30
0.0
 11
88.7
 21
134.25
 31
0.0
  0
LINE
  8
0
  6
LTYPE1
 62
     2
 10
84.85
 20
139.5
 30
0.0
 11
88.85
 21
139.5
 31
0.0
  0
LINE
  8
0
  6
LTYPE5
 62
     2
 10
91.9
 20
170.0
 30
0.0
 11
99.3
 21
170.0
 31
0.0
  0
TEXT
  8
0
  6
CONTINUOUS
 62
     2
 10
103.423502692
 20
121.0
 30
0.3
 40
3.0
  1
４－Ｍ４取付ボルト
 50
0.0
 41
0.6
 51
0.0
  7
KANJI6
  0
LINE
  8
0
  6
CONTINUOUS
 62
     2
 10
92.95
 20
172.05
 30
0.0
 11
92.95
 21
168.05
 31
0.0
  0
LINE
  8
0
  6
CONTINUOUS
 62
     2
 10
92.95
 20
168.741666667
 30
0.0
 11
93.722253903
 21
168.728795768
 31
0.0
  0
LINE
  8
0
  6
CONTINUOUS
 62
     2
 10
92.7
 20
172.05
 30
0.0
 11
92.95
 21
172.05
 31
0.0
  0
LINE
  8
0
  6
CONTINUOUS
 62
     2
 10
92.95
 20
168.05
 30
0.0
 11
92.7
 21
168.05
 31
0.0
  0
POLYLINE
  8
0
  6
CONTINUOUS
 62
     2
 66
     1
  0
VERTEX
  8
0
  6
CONTINUOUS
 62
     2
 10
97.95
 20
171.05
 30
0.0
  0
VERTEX
  8
0
  6
CONTINUOUS
 62
     2
 10
97.95
 20
169.05
 30
0.0
  0
VERTEX
  8
0
  6
CONTINUOUS
 62
     2
 10
95.622253903
 20
169.05
 30
0.0
  0
SEQEND
  0
LINE
  8
0
  6
CONTINUOUS
 62
     2
 10
95.622253903
 20
169.325
 30
0.0
 11
97.95
 21
169.325
 31
0.0
  0
LINE
  8
0
  6
CONTINUOUS
 62
     2
 10
97.95
 20
170.825
 30
0.0
 11
95.622253903
 21
170.825
 31
0.0
  0
LINE
  8
0
  6
CONTINUOUS
 62
     2
 10
95.622253903
 20
171.05
 30
0.0
 11
97.95
 21
171.05
 31
0.0
  0
LINE
  8
0
  6
CONTINUOUS
 62
     2
 10
95.35
 20
172.1
 30
0.0
 11
94.1
 21
172.1
 31
0.0
  0
LINE
  8
0
  6
CONTINUOUS
 62
     2
 10
95.35
 20
172.1
 30
0.0
 11
95.6
 21
171.85
 31
0.0
  0
LINE
  8
0
  6
CONTINUOUS
 62
     2
 10
95.34
 20
171.035
 30
0.0
 11
95.6
 21
171.335
 31
0.0
  0
LINE
  8
0
  6
CONTINUOUS
 62
     2
 10
95.6
 20
168.75
 30
0.0
 11
95.3
 21
169.02
 31
0.0
  0
LINE
  8
0
  6
CONTINUOUS
 62
     2
 10
95.6
 20
169.325
 30
0.0
 11
95.3
 21
169.055
 31
0.0
  0
LINE
  8
0
  6
CONTINUOUS
 62
     2
 10
95.3
 20
168.025
 30
0.0
 11
95.6
 21
168.325
 31
0.0
  0
LINE
  8
0
  6
CONTINUOUS
 62
     2
 10
94.1
 20
168.05
 30
0.0
 11
95.35
 21
168.05
 31
0.0
  0
LINE
  8
0
  6
CONTINUOUS
 62
     2
 10
94.1
 20
172.1
 30
0.0
 11
94.1
 21
168.05
 31
0.0
  0
LINE
  8
0
  6
CONTINUOUS
 62
     2
 10
95.6
 20
168.305
 30
0.0
 11
95.6
 21
171.85
 31
0.0
  0
LINE
  8
0
  6
CONTINUOUS
 62
     2
 10
95.353
 20
171.05
 30
0.0
 11
95.603
 21
170.85
 31
0.0
  0
LINE
  8
0
  6
CONTINUOUS
 62
     2
 10
95.353
 20
171.05
 30
0.0
 11
94.1
 21
171.05
 31
0.0
  0
LINE
  8
0
  6
CONTINUOUS
 62
     2
 10
94.1
 20
169.05
 30
0.0
 11
95.316666667
 21
169.05
 31
0.0
  0
POLYLINE
  8
0
  6
CONTINUOUS
 62
     2
 66
     1
  0
VERTEX
  8
0
  6
CONTINUOUS
 62
     2
 10
94.1
 20
172.1
 30
0.0
  0
VERTEX
  8
0
  6
CONTINUOUS
 62
     2
 10
93.7
 20
172.5
 30
0.0
  0
VERTEX
  8
0
  6
CONTINUOUS
 62
     2
 10
93.7
 20
167.65
 30
0.0
  0
SEQEND
  0
LINE
  8
0
  6
CONTINUOUS
 62
     2
 10
94.1
 20
168.05
 30
0.0
 11
93.7
 21
167.65
 31
0.0
  0
LINE
  8
0
  6
CONTINUOUS
 62
     2
 10
93.7
 20
171.05
 30
0.0
 11
92.95
 21
171.05
 31
0.0
  0
LINE
  8
0
  6
CONTINUOUS
 62
     2
 10
92.95
 20
170.825
 30
0.0
 11
93.7
 21
170.825
 31
0.0
  0
LINE
  8
0
  6
CONTINUOUS
 62
     2
 10
93.7
 20
169.325
 30
0.0
 11
92.95
 21
169.325
 31
0.0
  0
LINE
  8
0
  6
CONTINUOUS
 62
     2
 10
92.95
 20
169.05
 30
0.0
 11
93.7
 21
169.05
 31
0.0
  0
LINE
  8
0
  6
LTYPE5
 62
     2
 10
91.9
 20
130.0
 30
0.0
 11
99.3
 21
130.0
 31
0.0
  0
LINE
  8
0
  6
CONTINUOUS
 62
     2
 10
92.95
 20
132.05
 30
0.0
 11
92.95
 21
128.05
 31
0.0
  0
LINE
  8
0
  6
CONTINUOUS
 62
     2
 10
92.95
 20
128.741666667
 30
0.0
 11
93.722253903
 21
128.728795768
 31
0.0
  0
LINE
  8
0
  6
CONTINUOUS
 62
     2
 10
92.7
 20
132.05
 30
0.0
 11
92.95
 21
132.05
 31
0.0
  0
LINE
  8
0
  6
CONTINUOUS
 62
     2
 10
92.95
 20
128.05
 30
0.0
 11
92.7
 21
128.05
 31
0.0
  0
LINE
  8
0
  6
CONTINUOUS
 62
     2
 10
97.95
 20
131.05
 30
0.0
 11
97.95
 21
129.05
 31
0.0
  0
LINE
  8
0
  6
CONTINUOUS
 62
     2
 10
97.95
 20
129.05
 30
0.0
 11
95.622253903
 21
129.05
 31
0.0
  0
LINE
  8
0
  6
CONTINUOUS
 62
     2
 10
95.622253903
 20
129.325
 30
0.0
 11
97.95
 21
129.325
 31
0.0
  0
LINE
  8
0
  6
CONTINUOUS
 62
     2
 10
97.95
 20
130.825
 30
0.0
 11
95.622253903
 21
130.825
 31
0.0
  0
LINE
  8
0
  6
CONTINUOUS
 62
     2
 10
95.622253903
 20
131.05
 30
0.0
 11
97.95
 21
131.05
 31
0.0
  0
LINE
  8
0
  6
CONTINUOUS
 62
     2
 10
95.35
 20
132.1
 30
0.0
 11
94.1
 21
132.1
 31
0.0
  0
LINE
  8
0
  6
CONTINUOUS
 62
     2
 10
95.35
 20
132.1
 30
0.0
 11
95.6
 21
131.85
 31
0.0
  0
LINE
  8
0
  6
CONTINUOUS
 62
     2
 10
95.34
 20
131.035
 30
0.0
 11
95.6
 21
131.335
 31
0.0
  0
LINE
  8
0
  6
CONTINUOUS
 62
     2
 10
95.6
 20
128.75
 30
0.0
 11
95.3
 21
129.02
 31
0.0
  0
LINE
  8
0
  6
CONTINUOUS
 62
     2
 10
95.6
 20
129.325
 30
0.0
 11
95.3
 21
129.055
 31
0.0
  0
LINE
  8
0
  6
CONTINUOUS
 62
     2
 10
95.3
 20
128.025
 30
0.0
 11
95.6
 21
128.325
 31
0.0
  0
LINE
  8
0
  6
CONTINUOUS
 62
     2
 10
94.1
 20
128.05
 30
0.0
 11
95.35
 21
128.05
 31
0.0
  0
LINE
  8
0
  6
CONTINUOUS
 62
     2
 10
94.1
 20
132.1
 30
0.0
 11
94.1
 21
128.05
 31
0.0
  0
LINE
  8
0
  6
CONTINUOUS
 62
     2
 10
95.6
 20
128.305
 30
0.0
 11
95.6
 21
131.85
 31
0.0
  0
LINE
  8
0
  6
CONTINUOUS
 62
     2
 10
95.353
 20
131.05
 30
0.0
 11
95.603
 21
130.85
 31
0.0
  0
LINE
  8
0
  6
CONTINUOUS
 62
     2
 10
95.353
 20
131.05
 30
0.0
 11
94.1
 21
131.05
 31
0.0
  0
LINE
  8
0
  6
CONTINUOUS
 62
     2
 10
94.1
 20
129.05
 30
0.0
 11
95.316666667
 21
129.05
 31
0.0
  0
LINE
  8
0
  6
CONTINUOUS
 62
     2
 10
94.1
 20
132.1
 30
0.0
 11
93.7
 21
132.5
 31
0.0
  0
LINE
  8
0
  6
CONTINUOUS
 62
     2
 10
93.7
 20
132.5
 30
0.0
 11
93.7
 21
127.65
 31
0.0
  0
LINE
  8
0
  6
CONTINUOUS
 62
     2
 10
94.1
 20
128.05
 30
0.0
 11
93.7
 21
127.65
 31
0.0
  0
LINE
  8
0
  6
CONTINUOUS
 62
     2
 10
93.7
 20
131.05
 30
0.0
 11
92.95
 21
131.05
 31
0.0
  0
LINE
  8
0
  6
CONTINUOUS
 62
     2
 10
92.95
 20
130.825
 30
0.0
 11
93.7
 21
130.825
 31
0.0
  0
LINE
  8
0
  6
CONTINUOUS
 62
     2
 10
93.7
 20
129.325
 30
0.0
 11
92.95
 21
129.325
 31
0.0
  0
LINE
  8
0
  6
CONTINUOUS
 62
     2
 10
92.95
 20
129.05
 30
0.0
 11
93.7
 21
129.05
 31
0.0
  0
TEXT
  8
0
  6
CONTINUOUS
 62
     2
 10
87.75
 20
186.0
 30
0.3
 40
3.0
  1
１２
 50
0.0
 41
0.6
 51
0.0
  7
KANJI6
  0
ARC
  8
0
  6
CONTINUOUS
 62
     2
 10
143.7
 20
144.8
 30
0.0
 40
0.25
 50
90.0
 51
180.0
  0
LINE
  8
0
  6
CONTINUOUS
 62
     2
 10
143.45
 20
144.8
 30
0.0
 11
143.45
 21
141.7
 31
0.0
  0
ARC
  8
0
  6
CONTINUOUS
 62
     2
 10
143.7
 20
141.7
 30
0.0
 40
0.25
 50
180.0
 51
270.0
  0
ARC
  8
0
  6
CONTINUOUS
 62
     2
 10
146.45
 20
145.3
 30
0.0
 40
0.25
 50
270.0
 51
0.0
  0
ARC
  8
0
  6
CONTINUOUS
 62
     2
 10
146.45
 20
141.2
 30
0.0
 40
0.25
 50
0.0
 51
90.0
  0
LINE
  8
0
  6
CONTINUOUS
 62
     2
 10
146.45
 20
145.05
 30
0.0
 11
143.7
 21
145.05
 31
0.0
  0
LINE
  8
0
  6
CONTINUOUS
 62
     2
 10
143.7
 20
141.45
 30
0.0
 11
146.45
 21
141.45
 31
0.0
  0
ARC
  8
0
  6
CONTINUOUS
 62
     2
 10
143.7
 20
149.3
 30
0.0
 40
0.25
 50
90.0
 51
180.0
  0
LINE
  8
0
  6
CONTINUOUS
 62
     2
 10
143.45
 20
149.3
 30
0.0
 11
143.45
 21
146.2
 31
0.0
  0
ARC
  8
0
  6
CONTINUOUS
 62
     2
 10
143.7
 20
146.2
 30
0.0
 40
0.25
 50
180.0
 51
270.0
  0
ARC
  8
0
  6
CONTINUOUS
 62
     2
 10
146.45
 20
149.8
 30
0.0
 40
0.25
 50
270.0
 51
0.0
  0
ARC
  8
0
  6
CONTINUOUS
 62
     2
 10
146.45
 20
145.7
 30
0.0
 40
0.25
 50
0.0
 51
90.0
  0
LINE
  8
0
  6
CONTINUOUS
 62
     2
 10
146.45
 20
149.55
 30
0.0
 11
143.7
 21
149.55
 31
0.0
  0
LINE
  8
0
  6
CONTINUOUS
 62
     2
 10
143.7
 20
145.95
 30
0.0
 11
146.45
 21
145.95
 31
0.0
  0
LINE
  8
0
  6
LTYPE2
 62
     2
 10
138.7
 20
147.75
 30
0.0
 11
147.2
 21
147.75
 31
0.0
  0
ARC
  8
0
  6
CONTINUOUS
 62
     2
 10
143.7
 20
153.8
 30
0.0
 40
0.25
 50
90.0
 51
180.0
  0
LINE
  8
0
  6
CONTINUOUS
 62
     2
 10
143.45
 20
153.8
 30
0.0
 11
143.45
 21
150.7
 31
0.0
  0
ARC
  8
0
  6
CONTINUOUS
 62
     2
 10
143.7
 20
150.7
 30
0.0
 40
0.25
 50
180.0
 51
270.0
  0
ARC
  8
0
  6
CONTINUOUS
 62
     2
 10
146.45
 20
154.3
 30
0.0
 40
0.25
 50
270.0
 51
0.0
  0
ARC
  8
0
  6
CONTINUOUS
 62
     2
 10
146.45
 20
150.2
 30
0.0
 40
0.25
 50
0.0
 51
90.0
  0
LINE
  8
0
  6
CONTINUOUS
 62
     2
 10
146.45
 20
154.05
 30
0.0
 11
143.7
 21
154.05
 31
0.0
  0
LINE
  8
0
  6
CONTINUOUS
 62
     2
 10
143.7
 20
150.45
 30
0.0
 11
146.45
 21
150.45
 31
0.0
  0
LINE
  8
0
  6
LTYPE2
 62
     2
 10
138.7
 20
152.25
 30
0.0
 11
147.2
 21
152.25
 31
0.0
  0
ARC
  8
0
  6
CONTINUOUS
 62
     2
 10
143.7
 20
140.3
 30
0.0
 40
0.25
 50
90.0
 51
180.0
  0
LINE
  8
0
  6
CONTINUOUS
 62
     2
 10
143.45
 20
140.3
 30
0.0
 11
143.45
 21
137.2
 31
0.0
  0
ARC
  8
0
  6
CONTINUOUS
 62
     2
 10
143.7
 20
137.2
 30
0.0
 40
0.25
 50
180.0
 51
270.0
  0
ARC
  8
0
  6
CONTINUOUS
 62
     2
 10
146.45
 20
140.8
 30
0.0
 40
0.25
 50
270.0
 51
0.0
  0
ARC
  8
0
  6
CONTINUOUS
 62
     2
 10
146.45
 20
136.7
 30
0.0
 40
0.25
 50
0.0
 51
90.0
  0
LINE
  8
0
  6
CONTINUOUS
 62
     2
 10
146.45
 20
140.55
 30
0.0
 11
143.7
 21
140.55
 31
0.0
  0
LINE
  8
0
  6
CONTINUOUS
 62
     2
 10
143.7
 20
136.95
 30
0.0
 11
146.45
 21
136.95
 31
0.0
  0
LINE
  8
0
  6
LTYPE2
 62
     2
 10
138.7
 20
138.75
 30
0.0
 11
147.2
 21
138.75
 31
0.0
  0
ARC
  8
0
  6
CONTINUOUS
 62
     2
 10
143.7
 20
135.8
 30
0.0
 40
0.25
 50
90.0
 51
180.0
  0
LINE
  8
0
  6
CONTINUOUS
 62
     2
 10
143.45
 20
135.8
 30
0.0
 11
143.45
 21
132.7
 31
0.0
  0
ARC
  8
0
  6
CONTINUOUS
 62
     2
 10
143.7
 20
132.7
 30
0.0
 40
0.25
 50
180.0
 51
270.0
  0
ARC
  8
0
  6
CONTINUOUS
 62
     2
 10
146.45
 20
136.3
 30
0.0
 40
0.25
 50
270.0
 51
0.0
  0
ARC
  8
0
  6
CONTINUOUS
 62
     2
 10
146.45
 20
132.2
 30
0.0
 40
0.25
 50
0.0
 51
90.0
  0
LINE
  8
0
  6
CONTINUOUS
 62
     2
 10
146.45
 20
136.05
 30
0.0
 11
143.7
 21
136.05
 31
0.0
  0
LINE
  8
0
  6
CONTINUOUS
 62
     2
 10
143.7
 20
132.45
 30
0.0
 11
146.45
 21
132.45
 31
0.0
  0
LINE
  8
0
  6
LTYPE2
 62
     2
 10
138.7
 20
134.25
 30
0.0
 11
147.2
 21
134.25
 31
0.0
  0
LINE
  8
0
  6
LTYPE6
 62
     2
 10
140.7
 20
144.125
 30
0.0
 11
141.7
 21
144.125
 31
0.0
  0
LINE
  8
0
  6
LTYPE6
 62
     2
 10
140.7
 20
142.375
 30
0.0
 11
141.7
 21
142.375
 31
0.0
  0
TEXT
  8
0
  6
CONTINUOUS
 62
     2
 10
151.95
 20
158.25
 30
0.3
 40
3.0
  1
端子カバ－
 50
0.0
 41
0.9
 51
0.0
  7
KANJI0
  0
TEXT
  8
0
  6
CONTINUOUS
 62
     2
 10
93.5
 20
178.0
 30
0.3
 40
3.0
  1
１０
 50
0.0
 41
0.6
 51
0.0
  7
KANJI6
  0
TEXT
  8
0
  6
CONTINUOUS
 62
     2
 10
87.4
 20
178.0
 30
0.3
 40
3.0
  1
０．５
 50
0.0
 41
0.6
 51
0.0
  7
KANJI6
  0
TEXT
  8
0
  6
CONTINUOUS
 62
     2
 10
95.025
 20
182.0
 30
0.3
 40
3.0
  1
２５．５
 50
0.0
 41
0.6
 51
0.0
  7
KANJI6
  0
TEXT
  8
0
  6
CONTINUOUS
 62
     2
 10
114.7
 20
186.0
 30
0.3
 40
3.0
  1
１００
 50
0.0
 41
0.6
 51
0.0
  7
KANJI6
  0
TEXT
  8
0
  6
CONTINUOUS
 62
     2
 10
134.7
 20
140.25
 30
0.3
 40
3.0
  1
φ６４
 50
90.0
 41
0.6
 51
0.0
  7
KANJI6
  0
POLYLINE
  8
0
  6
CONTINUOUS
 62
     2
 66
     1
  0
VERTEX
  8
0
  6
CONTINUOUS
 62
     2
 10
143.45
 20
153.5
 30
0.0
  0
VERTEX
  8
0
  6
CONTINUOUS
 62
     2
 10
143.95
 20
153.5
 30
0.0
  0
VERTEX
  8
0
  6
CONTINUOUS
 62
     2
 10
143.95
 20
151.0
 30
0.0
  0
VERTEX
  8
0
  6
CONTINUOUS
 62
     2
 10
143.45
 20
151.0
 30
0.0
  0
SEQEND
  0
LINE
  8
0
  6
CONTINUOUS
 62
     2
 10
143.95
 20
153.5
 30
0.0
 11
143.95
 21
151.0
 31
0.0
  0
LINE
  8
0
  6
CONTINUOUS
 62
     2
 10
143.95
 20
153.5
 30
0.0
 11
143.95
 21
153.625
 31
0.0
  0
LINE
  8
0
  6
CONTINUOUS
 62
     2
 10
143.95
 20
153.625
 30
0.0
 11
144.494766293
 21
153.625
 31
0.0
  0
ARC
  8
0
  6
CONTINUOUS
 62
     2
 10
144.331682295
 20
153.152344089
 30
0.0
 40
0.5
 50
34.773912785
 51
70.963647363
  0
LINE
  8
0
  6
CONTINUOUS
 62
     2
 10
143.95
 20
151.0
 30
0.0
 11
143.95
 21
150.875
 31
0.0
  0
LINE
  8
0
  6
CONTINUOUS
 62
     2
 10
143.95
 20
150.875
 30
0.0
 11
144.494766293
 21
150.875
 31
0.0
  0
ARC
  8
0
  6
CONTINUOUS
 62
     2
 10
144.331682295
 20
151.347655911
 30
0.0
 40
0.5
 50
289.036352637
 51
325.226087215
  0
LINE
  8
0
  6
CONTINUOUS
 62
     2
 10
144.95
 20
152.45
 30
0.0
 11
144.4
 21
152.45
 31
0.0
  0
LINE
  8
0
  6
CONTINUOUS
 62
     2
 10
144.4
 20
152.45
 30
0.0
 11
144.4
 21
152.05
 31
0.0
  0
LINE
  8
0
  6
CONTINUOUS
 62
     2
 10
144.4
 20
152.05
 30
0.0
 11
144.95
 21
152.05
 31
0.0
  0
ARC
  8
0
  6
CONTINUOUS
 62
     2
 10
141.45
 20
152.25
 30
0.0
 40
3.5
 50
3.270487923
 51
19.833603907
  0
ARC
  8
0
  6
CONTINUOUS
 62
     2
 10
141.45
 20
152.25
 30
0.0
 40
3.5
 50
340.166396093
 51
356.729512077
  0
POLYLINE
  8
0
  6
CONTINUOUS
 62
     2
 66
     1
  0
VERTEX
  8
0
  6
CONTINUOUS
 62
     2
 10
143.45
 20
149.0
 30
0.0
  0
VERTEX
  8
0
  6
CONTINUOUS
 62
     2
 10
143.95
 20
149.0
 30
0.0
  0
VERTEX
  8
0
  6
CONTINUOUS
 62
     2
 10
143.95
 20
146.5
 30
0.0
  0
VERTEX
  8
0
  6
CONTINUOUS
 62
     2
 10
143.45
 20
146.5
 30
0.0
  0
SEQEND
  0
LINE
  8
0
  6
CONTINUOUS
 62
     2
 10
143.95
 20
149.0
 30
0.0
 11
143.95
 21
146.5
 31
0.0
  0
LINE
  8
0
  6
CONTINUOUS
 62
     2
 10
143.95
 20
149.0
 30
0.0
 11
143.95
 21
149.125
 31
0.0
  0
LINE
  8
0
  6
CONTINUOUS
 62
     2
 10
143.95
 20
149.125
 30
0.0
 11
144.494766293
 21
149.125
 31
0.0
  0
ARC
  8
0
  6
CONTINUOUS
 62
     2
 10
144.331682295
 20
148.652344089
 30
0.0
 40
0.5
 50
34.773912785
 51
70.963647363
  0
LINE
  8
0
  6
CONTINUOUS
 62
     2
 10
143.95
 20
146.5
 30
0.0
 11
143.95
 21
146.375
 31
0.0
  0
LINE
  8
0
  6
CONTINUOUS
 62
     2
 10
143.95
 20
146.375
 30
0.0
 11
144.494766293
 21
146.375
 31
0.0
  0
ARC
  8
0
  6
CONTINUOUS
 62
     2
 10
144.331682295
 20
146.847655911
 30
0.0
 40
0.5
 50
289.036352637
 51
325.226087215
  0
LINE
  8
0
  6
CONTINUOUS
 62
     2
 10
144.95
 20
147.95
 30
0.0
 11
144.4
 21
147.95
 31
0.0
  0
LINE
  8
0
  6
CONTINUOUS
 62
     2
 10
144.4
 20
147.95
 30
0.0
 11
144.4
 21
147.55
 31
0.0
  0
LINE
  8
0
  6
CONTINUOUS
 62
     2
 10
144.4
 20
147.55
 30
0.0
 11
144.95
 21
147.55
 31
0.0
  0
ARC
  8
0
  6
CONTINUOUS
 62
     2
 10
141.45
 20
147.75
 30
0.0
 40
3.5
 50
3.270487923
 51
19.833603907
  0
ARC
  8
0
  6
CONTINUOUS
 62
     2
 10
141.45
 20
147.75
 30
0.0
 40
3.5
 50
340.166396093
 51
356.729512077
  0
POLYLINE
  8
0
  6
CONTINUOUS
 62
     2
 66
     1
  0
VERTEX
  8
0
  6
CONTINUOUS
 62
     2
 10
143.45
 20
144.5
 30
0.0
  0
VERTEX
  8
0
  6
CONTINUOUS
 62
     2
 10
143.95
 20
144.5
 30
0.0
  0
VERTEX
  8
0
  6
CONTINUOUS
 62
     2
 10
143.95
 20
142.0
 30
0.0
  0
VERTEX
  8
0
  6
CONTINUOUS
 62
     2
 10
143.45
 20
142.0
 30
0.0
  0
SEQEND
  0
LINE
  8
0
  6
CONTINUOUS
 62
     2
 10
143.95
 20
144.5
 30
0.0
 11
143.95
 21
142.0
 31
0.0
  0
LINE
  8
0
  6
CONTINUOUS
 62
     2
 10
143.95
 20
144.5
 30
0.0
 11
143.95
 21
144.625
 31
0.0
  0
LINE
  8
0
  6
CONTINUOUS
 62
     2
 10
143.95
 20
144.625
 30
0.0
 11
144.494766293
 21
144.625
 31
0.0
  0
ARC
  8
0
  6
CONTINUOUS
 62
     2
 10
144.331682295
 20
144.152344089
 30
0.0
 40
0.5
 50
34.773912785
 51
70.963647363
  0
LINE
  8
0
  6
CONTINUOUS
 62
     2
 10
143.95
 20
142.0
 30
0.0
 11
143.95
 21
141.875
 31
0.0
  0
LINE
  8
0
  6
CONTINUOUS
 62
     2
 10
143.95
 20
141.875
 30
0.0
 11
144.494766293
 21
141.875
 31
0.0
  0
ARC
  8
0
  6
CONTINUOUS
 62
     2
 10
144.331682295
 20
142.347655911
 30
0.0
 40
0.5
 50
289.036352637
 51
325.226087215
  0
LINE
  8
0
  6
CONTINUOUS
 62
     2
 10
144.95
 20
143.45
 30
0.0
 11
144.4
 21
143.45
 31
0.0
  0
LINE
  8
0
  6
CONTINUOUS
 62
     2
 10
144.4
 20
143.45
 30
0.0
 11
144.4
 21
143.05
 31
0.0
  0
LINE
  8
0
  6
CONTINUOUS
 62
     2
 10
144.4
 20
143.05
 30
0.0
 11
144.95
 21
143.05
 31
0.0
  0
ARC
  8
0
  6
CONTINUOUS
 62
     2
 10
141.45
 20
143.25
 30
0.0
 40
3.5
 50
3.270487923
 51
19.833603907
  0
ARC
  8
0
  6
CONTINUOUS
 62
     2
 10
141.45
 20
143.25
 30
0.0
 40
3.5
 50
340.166396093
 51
356.729512077
  0
POLYLINE
  8
0
  6
CONTINUOUS
 62
     2
 66
     1
  0
VERTEX
  8
0
  6
CONTINUOUS
 62
     2
 10
143.45
 20
140.0
 30
0.0
  0
VERTEX
  8
0
  6
CONTINUOUS
 62
     2
 10
143.95
 20
140.0
 30
0.0
  0
VERTEX
  8
0
  6
CONTINUOUS
 62
     2
 10
143.95
 20
137.5
 30
0.0
  0
VERTEX
  8
0
  6
CONTINUOUS
 62
     2
 10
143.45
 20
137.5
 30
0.0
  0
SEQEND
  0
LINE
  8
0
  6
CONTINUOUS
 62
     2
 10
143.95
 20
140.0
 30
0.0
 11
143.95
 21
137.5
 31
0.0
  0
LINE
  8
0
  6
CONTINUOUS
 62
     2
 10
143.95
 20
140.0
 30
0.0
 11
143.95
 21
140.125
 31
0.0
  0
LINE
  8
0
  6
CONTINUOUS
 62
     2
 10
143.95
 20
140.125
 30
0.0
 11
144.494766293
 21
140.125
 31
0.0
  0
ARC
  8
0
  6
CONTINUOUS
 62
     2
 10
144.331682295
 20
139.652344089
 30
0.0
 40
0.5
 50
34.773912785
 51
70.963647363
  0
LINE
  8
0
  6
CONTINUOUS
 62
     2
 10
143.95
 20
137.5
 30
0.0
 11
143.95
 21
137.375
 31
0.0
  0
LINE
  8
0
  6
CONTINUOUS
 62
     2
 10
143.95
 20
137.375
 30
0.0
 11
144.494766293
 21
137.375
 31
0.0
  0
ARC
  8
0
  6
CONTINUOUS
 62
     2
 10
144.331682295
 20
137.847655911
 30
0.0
 40
0.5
 50
289.036352637
 51
325.226087215
  0
LINE
  8
0
  6
CONTINUOUS
 62
     2
 10
144.95
 20
138.95
 30
0.0
 11
144.4
 21
138.95
 31
0.0
  0
LINE
  8
0
  6
CONTINUOUS
 62
     2
 10
144.4
 20
138.95
 30
0.0
 11
144.4
 21
138.55
 31
0.0
  0
LINE
  8
0
  6
CONTINUOUS
 62
     2
 10
144.4
 20
138.55
 30
0.0
 11
144.95
 21
138.55
 31
0.0
  0
ARC
  8
0
  6
CONTINUOUS
 62
     2
 10
141.45
 20
138.75
 30
0.0
 40
3.5
 50
3.270487923
 51
19.833603907
  0
ARC
  8
0
  6
CONTINUOUS
 62
     2
 10
141.45
 20
138.75
 30
0.0
 40
3.5
 50
340.166396093
 51
356.729512077
  0
POLYLINE
  8
0
  6
CONTINUOUS
 62
     2
 66
     1
  0
VERTEX
  8
0
  6
CONTINUOUS
 62
     2
 10
143.45
 20
135.5
 30
0.0
  0
VERTEX
  8
0
  6
CONTINUOUS
 62
     2
 10
143.95
 20
135.5
 30
0.0
  0
VERTEX
  8
0
  6
CONTINUOUS
 62
     2
 10
143.95
 20
133.0
 30
0.0
  0
VERTEX
  8
0
  6
CONTINUOUS
 62
     2
 10
143.45
 20
133.0
 30
0.0
  0
SEQEND
  0
LINE
  8
0
  6
CONTINUOUS
 62
     2
 10
143.95
 20
135.5
 30
0.0
 11
143.95
 21
133.0
 31
0.0
  0
LINE
  8
0
  6
CONTINUOUS
 62
     2
 10
143.95
 20
135.5
 30
0.0
 11
143.95
 21
135.625
 31
0.0
  0
LINE
  8
0
  6
CONTINUOUS
 62
     2
 10
143.95
 20
135.625
 30
0.0
 11
144.494766293
 21
135.625
 31
0.0
  0
ARC
  8
0
  6
CONTINUOUS
 62
     2
 10
144.331682295
 20
135.152344089
 30
0.0
 40
0.5
 50
34.773912785
 51
70.963647363
  0
LINE
  8
0
  6
CONTINUOUS
 62
     2
 10
143.95
 20
133.0
 30
0.0
 11
143.95
 21
132.875
 31
0.0
  0
LINE
  8
0
  6
CONTINUOUS
 62
     2
 10
143.95
 20
132.875
 30
0.0
 11
144.494766293
 21
132.875
 31
0.0
  0
ARC
  8
0
  6
CONTINUOUS
 62
     2
 10
144.331682295
 20
133.347655911
 30
0.0
 40
0.5
 50
289.036352637
 51
325.226087215
  0
LINE
  8
0
  6
CONTINUOUS
 62
     2
 10
144.95
 20
134.45
 30
0.0
 11
144.4
 21
134.45
 31
0.0
  0
LINE
  8
0
  6
CONTINUOUS
 62
     2
 10
144.4
 20
134.45
 30
0.0
 11
144.4
 21
134.05
 31
0.0
  0
LINE
  8
0
  6
CONTINUOUS
 62
     2
 10
144.4
 20
134.05
 30
0.0
 11
144.95
 21
134.05
 31
0.0
  0
ARC
  8
0
  6
CONTINUOUS
 62
     2
 10
141.45
 20
134.25
 30
0.0
 40
3.5
 50
3.270487923
 51
19.833603907
  0
ARC
  8
0
  6
CONTINUOUS
 62
     2
 10
141.45
 20
134.25
 30
0.0
 40
3.5
 50
340.166396093
 51
356.729512077
  0
LINE
  8
0
  6
CONTINUOUS
 62
     2
 10
141.7
 20
144.5
 30
0.0
 11
141.7
 21
142.0
 31
0.0
  0
LINE
  8
0
  6
CONTINUOUS
 62
     2
 10
141.7
 20
144.5
 30
0.0
 11
141.7
 21
144.625
 31
0.0
  0
LINE
  8
0
  6
CONTINUOUS
 62
     2
 10
141.7
 20
144.625
 30
0.0
 11
142.244766293
 21
144.625
 31
0.0
  0
ARC
  8
0
  6
CONTINUOUS
 62
     2
 10
142.081682295
 20
144.152344089
 30
0.0
 40
0.5
 50
34.773912785
 51
70.963647363
  0
LINE
  8
0
  6
CONTINUOUS
 62
     2
 10
141.7
 20
142.0
 30
0.0
 11
141.7
 21
141.875
 31
0.0
  0
LINE
  8
0
  6
CONTINUOUS
 62
     2
 10
141.7
 20
141.875
 30
0.0
 11
142.244766293
 21
141.875
 31
0.0
  0
ARC
  8
0
  6
CONTINUOUS
 62
     2
 10
142.081682295
 20
142.347655911
 30
0.0
 40
0.5
 50
289.036352637
 51
325.226087215
  0
LINE
  8
0
  6
CONTINUOUS
 62
     2
 10
142.7
 20
143.45
 30
0.0
 11
142.15
 21
143.45
 31
0.0
  0
LINE
  8
0
  6
CONTINUOUS
 62
     2
 10
142.15
 20
143.45
 30
0.0
 11
142.15
 21
143.05
 31
0.0
  0
LINE
  8
0
  6
CONTINUOUS
 62
     2
 10
142.15
 20
143.05
 30
0.0
 11
142.7
 21
143.05
 31
0.0
  0
ARC
  8
0
  6
CONTINUOUS
 62
     2
 10
139.2
 20
143.25
 30
0.0
 40
3.5
 50
3.270487923
 51
19.833603907
  0
ARC
  8
0
  6
CONTINUOUS
 62
     2
 10
139.2
 20
143.25
 30
0.0
 40
3.5
 50
340.166396093
 51
356.729512077
  0
LINE
  8
0
  6
CONTINUOUS
 62
     5
 10
86.7
 20
185.0
 30
0.0
 11
84.285185434
 21
185.647047613
 31
0.0
  0
LINE
  8
0
  6
CONTINUOUS
 62
     5
 10
86.7
 20
185.0
 30
0.0
 11
84.285185434
 21
184.352952387
 31
0.0
  0
LINE
  8
0
  6
CONTINUOUS
 62
     5
 10
92.7
 20
176.0
 30
0.0
 11
92.7
 21
187.0
 31
0.0
  0
LINE
  8
0
  6
CONTINUOUS
 62
     5
 10
86.7
 20
174.15
 30
0.0
 11
86.7
 21
187.0
 31
0.0
  0
LINE
  8
0
  6
CONTINUOUS
 62
     5
 10
100.2
 20
168.629300995
 30
0.0
 11
99.552952387
 21
166.21448643
 31
0.0
  0
LINE
  8
0
  6
CONTINUOUS
 62
     5
 10
100.2
 20
168.629300995
 30
0.0
 11
100.847047613
 21
166.21448643
 31
0.0
  0
LINE
  8
0
  6
CONTINUOUS
 62
     5
 10
100.2
 20
168.629300995
 30
0.0
 11
100.2
 21
126.369047619
 31
0.0
  0
LINE
  8
0
  6
CONTINUOUS
 62
     5
 10
97.65
 20
130.0
 30
0.0
 11
98.297047613
 21
127.585185434
 31
0.0
  0
LINE
  8
0
  6
CONTINUOUS
 62
     5
 10
97.65
 20
130.0
 30
0.0
 11
99.417766953
 21
128.232233047
 31
0.0
  0
LINE
  8
0
  6
CONTINUOUS
 62
     5
 10
97.65
 20
130.0
 30
0.0
 11
103.423502692
 21
120.0
 31
0.0
  0
LINE
  8
0
  6
CONTINUOUS
 62
     5
 10
100.2
 20
126.369047619
 30
0.0
 11
99.552952387
 21
128.783862185
 31
0.0
  0
LINE
  8
0
  6
CONTINUOUS
 62
     5
 10
100.2
 20
126.369047619
 30
0.0
 11
100.847047613
 21
128.783862185
 31
0.0
  0
LINE
  8
0
  6
CONTINUOUS
 62
     5
 10
103.423502692
 20
120.0
 30
0.0
 11
121.823502692
 21
120.0
 31
0.0
  0
LINE
  8
0
  6
CONTINUOUS
 62
     5
 10
82.7
 20
120.0
 30
0.0
 11
85.114814566
 21
119.352952387
 31
0.0
  0
LINE
  8
0
  6
CONTINUOUS
 62
     5
 10
82.7
 20
120.0
 30
0.0
 11
85.114814566
 21
120.647047613
 31
0.0
  0
LINE
  8
0
  6
CONTINUOUS
 62
     5
 10
82.7
 20
131.0
 30
0.0
 11
82.7
 21
118.0
 31
0.0
  0
LINE
  8
0
  6
CONTINUOUS
 62
     5
 10
92.7
 20
124.0
 30
0.0
 11
92.7
 21
118.0
 31
0.0
  0
LINE
  8
0
  6
CONTINUOUS
 62
     5
 10
92.7
 20
120.0
 30
0.0
 11
90.285185434
 21
120.647047613
 31
0.0
  0
LINE
  8
0
  6
CONTINUOUS
 62
     5
 10
92.7
 20
120.0
 30
0.0
 11
90.285185434
 21
119.352952387
 31
0.0
  0
LINE
  8
0
  6
CONTINUOUS
 62
     5
 10
92.7
 20
120.0
 30
0.0
 11
82.7
 21
120.0
 31
0.0
  0
LINE
  8
0
  6
CONTINUOUS
 62
     5
 10
146.95
 20
131.75
 30
0.0
 11
146.95
 21
154.75
 31
0.0
  0
LINE
  8
0
  6
CONTINUOUS
 62
     5
 10
146.95
 20
152.25
 30
0.0
 11
149.115063509
 21
153.5
 31
0.0
  0
LINE
  8
0
  6
CONTINUOUS
 62
     5
 10
146.95
 20
152.25
 30
0.0
 11
148.2
 21
154.415063509
 31
0.0
  0
LINE
  8
0
  6
CONTINUOUS
 62
     5
 10
146.95
 20
152.25
 30
0.0
 11
151.95
 21
157.25
 31
0.0
  0
LINE
  8
0
  6
CONTINUOUS
 62
     5
 10
151.95
 20
157.25
 30
0.0
 11
166.65
 21
157.25
 31
0.0
  0
LINE
  8
0
  6
CONTINUOUS
 62
     5
 10
87.95
 20
177.0
 30
0.0
 11
102.95
 21
177.0
 31
0.0
  0
LINE
  8
0
  6
CONTINUOUS
 62
     5
 10
97.95
 20
177.0
 30
0.0
 11
100.364814566
 21
176.352952387
 31
0.0
  0
LINE
  8
0
  6
CONTINUOUS
 62
     5
 10
97.95
 20
177.0
 30
0.0
 11
100.364814566
 21
177.647047613
 31
0.0
  0
LINE
  8
0
  6
CONTINUOUS
 62
     5
 10
92.7
 20
177.0
 30
0.0
 11
90.285185434
 21
177.647047613
 31
0.0
  0
LINE
  8
0
  6
CONTINUOUS
 62
     5
 10
92.7
 20
177.0
 30
0.0
 11
90.285185434
 21
176.352952387
 31
0.0
  0
CIRCLE
  8
0
  6
CONTINUOUS
 62
     5
 10
92.95
 20
177.0
 30
0.0
 40
0.2
  0
LINE
  8
0
  6
CONTINUOUS
 62
     5
 10
97.95
 20
172.05
 30
0.0
 11
97.95
 21
179.0
 31
0.0
  0
LINE
  8
0
  6
CONTINUOUS
 62
     5
 10
92.95
 20
173.05
 30
0.0
 11
92.95
 21
179.0
 31
0.0
  0
POLYLINE
  8
0
  6
CONTINUOUS
 62
     5
 66
     1
  0
VERTEX
  8
0
  6
CONTINUOUS
 62
     5
 10
92.7
 20
181.0
 30
0.0
  0
VERTEX
  8
0
  6
CONTINUOUS
 62
     5
 10
105.45
 20
181.0
 30
0.0
  0
VERTEX
  8
0
  6
CONTINUOUS
 62
     5
 10
103.035185434
 20
181.647047613
 30
0.0
  0
SEQEND
  0
LINE
  8
0
  6
CONTINUOUS
 62
     5
 10
105.45
 20
181.0
 30
0.0
 11
103.035185434
 21
180.352952387
 31
0.0
  0
LINE
  8
0
  6
CONTINUOUS
 62
     5
 10
92.7
 20
181.0
 30
0.0
 11
95.114814566
 21
180.352952387
 31
0.0
  0
LINE
  8
0
  6
CONTINUOUS
 62
     5
 10
92.7
 20
181.0
 30
0.0
 11
95.114814566
 21
181.647047613
 31
0.0
  0
LINE
  8
0
  6
CONTINUOUS
 62
     5
 10
92.7
 20
181.0
 30
0.0
 11
95.114814566
 21
180.352952387
 31
0.0
  0
LINE
  8
0
  6
CONTINUOUS
 62
     5
 10
92.7
 20
181.0
 30
0.0
 11
95.114814566
 21
181.647047613
 31
0.0
  0
LINE
  8
0
  6
CONTINUOUS
 62
     5
 10
92.7
 20
181.0
 30
0.0
 11
95.114814566
 21
180.352952387
 31
0.0
  0
LINE
  8
0
  6
CONTINUOUS
 62
     5
 10
92.7
 20
181.0
 30
0.0
 11
95.114814566
 21
181.647047613
 31
0.0
  0
LINE
  8
0
  6
CONTINUOUS
 62
     5
 10
105.45
 20
169.007775018
 30
0.0
 11
105.45
 21
183.0
 31
0.0
  0
LINE
  8
0
  6
CONTINUOUS
 62
     5
 10
81.7
 20
185.0
 30
0.0
 11
92.7
 21
185.0
 31
0.0
  0
LINE
  8
0
  6
CONTINUOUS
 62
     5
 10
92.7
 20
185.0
 30
0.0
 11
95.114814566
 21
184.352952387
 31
0.0
  0
LINE
  8
0
  6
CONTINUOUS
 62
     5
 10
92.7
 20
185.0
 30
0.0
 11
95.114814566
 21
185.647047613
 31
0.0
  0
POLYLINE
  8
0
  6
CONTINUOUS
 62
     5
 66
     1
  0
VERTEX
  8
0
  6
CONTINUOUS
 62
     5
 10
92.7
 20
185.0
 30
0.0
  0
VERTEX
  8
0
  6
CONTINUOUS
 62
     5
 10
142.7
 20
185.0
 30
0.0
  0
VERTEX
  8
0
  6
CONTINUOUS
 62
     5
 10
140.285185434
 20
185.647047613
 30
0.0
  0
SEQEND
  0
LINE
  8
0
  6
CONTINUOUS
 62
     5
 10
142.7
 20
185.0
 30
0.0
 11
140.285185434
 21
184.352952387
 31
0.0
  0
LINE
  8
0
  6
CONTINUOUS
 62
     5
 10
142.7
 20
159.779304445
 30
0.0
 11
142.7
 21
187.0
 31
0.0
  0
LINE
  8
0
  6
CONTINUOUS
 62
     5
 10
142.7
 20
185.0
 30
0.0
 11
140.285185434
 21
185.647047613
 31
0.0
  0
LINE
  8
0
  6
CONTINUOUS
 62
     5
 10
142.7
 20
185.0
 30
0.0
 11
140.285185434
 21
184.352952387
 31
0.0
  0
LINE
  8
0
  6
CONTINUOUS
 62
     5
 10
137.7
 20
185.0
 30
0.0
 11
152.95
 21
185.0
 31
0.0
  0
LINE
  8
0
  6
CONTINUOUS
 62
     5
 10
147.95
 20
185.0
 30
0.0
 11
150.364814566
 21
184.352952387
 31
0.0
  0
LINE
  8
0
  6
CONTINUOUS
 62
     5
 10
147.95
 20
185.0
 30
0.0
 11
150.364814566
 21
185.647047613
 31
0.0
  0
LINE
  8
0
  6
CONTINUOUS
 62
     5
 10
147.95
 20
156.85
 30
0.0
 11
147.95
 21
187.0
 31
0.0
  0
LINE
  8
0
  6
CONTINUOUS
 62
     5
 10
135.7
 20
127.25
 30
0.0
 11
136.347047613
 21
129.664814566
 31
0.0
  0
LINE
  8
0
  6
CONTINUOUS
 62
     5
 10
135.7
 20
127.25
 30
0.0
 11
135.052952387
 21
129.664814566
 31
0.0
  0
LINE
  8
0
  6
CONTINUOUS
 62
     5
 10
135.7
 20
159.25
 30
0.0
 11
135.052952387
 21
156.835185434
 31
0.0
  0
LINE
  8
0
  6
CONTINUOUS
 62
     5
 10
135.7
 20
159.25
 30
0.0
 11
136.347047613
 21
156.835185434
 31
0.0
  0
LINE
  8
0
  6
CONTINUOUS
 62
     5
 10
135.7
 20
159.25
 30
0.0
 11
135.7
 21
127.25
 31
0.0
  0
LINE
  8
0
  6
LTYPE1
 62
     2
 10
84.7
 20
150.0
 30
0.0
 11
151.7
 21
150.0
 31
0.0
  0
LINE
  8
0
  6
LTYPE1
 62
     2
 10
132.45
 20
143.25
 30
0.0
 11
149.7
 21
143.25
 31
0.0
  0
LINE
  8
0
  6
LTYPE2
 62
     2
 10
137.7
 20
143.25
 30
0.0
 11
148.2
 21
143.25
 31
0.0
  0
TEXT
  8
0
  6
CONTINUOUS
 62
     2
 10
99.2
 20
152.499174307
 30
0.3
 40
3.0
  1
φ８５
 50
90.0
 41
0.6
 51
0.0
  7
KANJI6
  0
TEXT
  8
0
  6
CONTINUOUS
 62
     2
 10
6.66
 20
140.88
 30
0.3
 40
3.0
  1
１００
 50
90.0
 41
0.6
 51
0.0
  7
KANJI6
  0
TEXT
  8
0
  6
CONTINUOUS
 62
     2
 10
6.66
 20
146.78
 30
0.18
 40
1.8
  1
±１
 50
90.0
 41
0.6
 51
0.0
  7
KANJI9
  0
LINE
  8
0
  6
CONTINUOUS
 62
     5
 10
7.66
 20
175.0
 30
0.0
 11
7.012952387
 21
172.585185434
 31
0.0
  0
LINE
  8
0
  6
CONTINUOUS
 62
     5
 10
7.66
 20
175.0
 30
0.0
 11
8.307047613
 21
172.585185434
 31
0.0
  0
LINE
  8
0
  6
CONTINUOUS
 62
     5
 10
4.035
 20
175.0
 30
0.0
 11
9.66
 21
175.0
 31
0.0
  0
LINE
  8
0
  6
CONTINUOUS
 62
     5
 10
4.035
 20
125.0
 30
0.0
 11
9.66
 21
125.0
 31
0.0
  0
LINE
  8
0
  6
CONTINUOUS
 62
     5
 10
7.66
 20
125.0
 30
0.0
 11
8.307047613
 21
127.414814566
 31
0.0
  0
LINE
  8
0
  6
CONTINUOUS
 62
     5
 10
7.66
 20
125.0
 30
0.0
 11
7.012952387
 21
127.414814566
 31
0.0
  0
LINE
  8
0
  6
CONTINUOUS
 62
     5
 10
7.66
 20
125.0
 30
0.0
 11
7.66
 21
175.0
 31
0.0
  0
LINE
  8
0
  6
CONTINUOUS
 62
     1
 10
71.0
 20
173.375
 30
0.0
 11
71.0
 21
126.625
 31
0.0
  0
LINE
  8
0
  6
CONTINUOUS
 62
     2
 10
70.0
 20
173.5
 30
0.0
 11
70.0
 21
126.5
 31
0.0
  0
LINE
  8
0
  6
CONTINUOUS
 62
     2
 10
69.15
 20
172.65
 30
0.0
 11
69.15
 21
142.5
 31
0.0
  0
ARC
  8
0
  6
CONTINUOUS
 62
     1
 10
69.375
 20
126.625
 30
0.0
 40
1.625
 50
270.0
 51
0.0
  0
LINE
  8
0
  6
CONTINUOUS
 62
     1
 10
69.375
 20
125.0
 30
0.0
 11
26.0
 21
125.0
 31
0.0
  0
ARC
  8
0
  6
CONTINUOUS
 62
     2
 10
69.5
 20
126.5
 30
0.0
 40
0.5
 50
270.0
 51
0.0
  0
LINE
  8
0
  6
CONTINUOUS
 62
     2
 10
69.5
 20
126.0
 30
0.0
 11
26.0
 21
126.0
 31
0.0
  0
ARC
  8
0
  6
CONTINUOUS
 62
     1
 10
69.375
 20
173.375
 30
0.0
 40
1.625
 50
0.0
 51
90.0
  0
LINE
  8
0
  6
CONTINUOUS
 62
     1
 10
26.0
 20
175.0
 30
0.0
 11
69.375
 21
175.0
 31
0.0
  0
ARC
  8
0
  6
CONTINUOUS
 62
     2
 10
69.5
 20
173.5
 30
0.0
 40
0.5
 50
0.0
 51
90.0
  0
LINE
  8
0
  6
CONTINUOUS
 62
     2
 10
70.0
 20
173.5
 30
0.0
 11
70.0
 21
126.5
 31
0.0
  0
ARC
  8
0
  6
CONTINUOUS
 62
     2
 10
68.65
 20
172.65
 30
0.0
 40
0.5
 50
0.0
 51
90.0
  0
LINE
  8
0
  6
CONTINUOUS
 62
     2
 10
26.0
 20
174.0
 30
0.0
 11
69.5
 21
174.0
 31
0.0
  0
LINE
  8
0
  6
CONTINUOUS
 62
     2
 10
26.0
 20
173.15
 30
0.0
 11
68.65
 21
173.15
 31
0.0
  0
LINE
  8
0
  6
CONTINUOUS
 62
     2
 10
69.15
 20
142.5
 30
0.0
 11
26.0
 21
142.5
 31
0.0
  0
LINE
  8
0
  6
CONTINUOUS
 62
     2
 10
58.614576459
 20
160.614683535
 30
0.0
 11
58.749498794
 21
159.920568297
 31
0.0
  0
LINE
  8
0
  6
CONTINUOUS
 62
     2
 10
50.197591267
 20
147.0
 30
0.0
 11
58.749498794
 21
159.920568297
 31
0.0
  0
LINE
  8
0
  6
CONTINUOUS
 62
     2
 10
49.431356461
 20
147.0
 30
0.0
 11
58.614576459
 21
160.614683535
 31
0.0
  0
LINE
  8
0
  6
LTYPE1
 62
     2
 10
9.2
 20
150.0
 30
0.0
 11
74.68
 21
150.0
 31
0.0
  0
LINE
  8
0
  6
LTYPE1
 62
     2
 10
41.0
 20
177.0
 30
0.0
 11
41.0
 21
123.0
 31
0.0
  0
TEXT
  8
0
  6
CONTINUOUS
 62
     2
 10
151.275
 20
186.0
 30
0.3
 40
3.0
  1
１０．５
 50
0.0
 41
0.6
 51
0.0
  7
KANJI6
  0
TEXT
  8
0
  6
CONTINUOUS
 62
     2
 10
36.88
 20
186.0
 30
0.3
 40
3.0
  1
１２０
 50
0.0
 41
0.6
 51
0.0
  7
KANJI6
  0
TEXT
  8
0
  6
CONTINUOUS
 62
     2
 10
42.78
 20
186.0
 30
0.18
 40
1.8
  1
±１
 50
0.0
 41
0.6
 51
0.0
  7
KANJI9
  0
LINE
  8
0
  6
CONTINUOUS
 62
     5
 10
11.0
 20
185.0
 30
0.0
 11
13.414814566
 21
184.352952387
 31
0.0
  0
LINE
  8
0
  6
CONTINUOUS
 62
     5
 10
11.0
 20
185.0
 30
0.0
 11
13.414814566
 21
185.647047613
 31
0.0
  0
LINE
  8
0
  6
CONTINUOUS
 62
     5
 10
11.0
 20
185.0
 30
0.0
 11
56.0
 21
185.0
 31
0.0
  0
LINE
  8
0
  6
CONTINUOUS
 62
     5
 10
71.0
 20
185.0
 30
0.0
 11
68.585185434
 21
184.352952387
 31
0.0
  0
LINE
  8
0
  6
CONTINUOUS
 62
     5
 10
71.0
 20
185.0
 30
0.0
 11
68.585185434
 21
185.647047613
 31
0.0
  0
LINE
  8
0
  6
CONTINUOUS
 62
     5
 10
71.0
 20
185.0
 30
0.0
 11
26.0
 21
185.0
 31
0.0
  0
TEXT
  8
0
  6
CONTINUOUS
 62
     2
 10
19.475465285
 20
179.75
 30
0.3
 40
3.0
  1
指針（黒棒）
 50
0.0
 41
0.6
 51
0.0
  7
KANJI6
  0
LINE
  8
0
  6
CONTINUOUS
 62
     5
 10
71.0
 20
174.875
 30
0.0
 11
71.0
 21
187.0
 31
0.0
  0
LINE
  8
0
  6
CONTINUOUS
 62
     5
 10
11.0
 20
174.375
 30
0.0
 11
11.0
 21
187.0
 31
0.0
  0
LINE
  8
0
  6
CONTINUOUS
 62
     5
 10
22.921686661
 20
156.205507363
 30
0.0
 11
18.858320852
 21
179.25
 31
0.0
  0
LINE
  8
0
  6
CONTINUOUS
 62
     5
 10
31.375465285
 20
179.25
 30
0.0
 11
18.858320852
 21
179.25
 31
0.0
  0
LINE
  8
0
  6
LTYPE1
 62
     2
 10
97.0
 20
96.875
 30
0.0
 11
97.0
 21
74.75
 31
0.0
  0
LINE
  8
0
  6
LTYPE1
 62
     2
 10
145.0
 20
97.375
 30
0.0
 11
145.0
 21
74.75
 31
0.0
  0
LINE
  8
0
  6
LTYPE1
 62
     2
 10
40.0
 20
96.875
 30
0.0
 11
40.0
 21
72.875
 31
0.0
  0
ENDSEC
  0
EOF
