  0
SECTION
  2
HEADER
  9
$ACADVER
  1
AC1009
  9
$DWGCODEPAGE
  3
dos932
  9
$EXTMIN
 10
0.0
 20
0.0
 30
0.0
  9
$EXTMAX
 10
297.0
 20
210.0
 30
0.0
  9
$LIMMIN
 10
0.0
 20
0.0
  9
$LIMMAX
 10
297.0
 20
210.0
  9
$LTSCALE
 40
1.0
  9
$PDMODE
 70
     0
  0
ENDSEC
  0
SECTION
  2
TABLES
  0
TABLE
  2
VPORT
 70
     1
  0
VPORT
  2
*ACTIVE
 70
     0
 10
0.0
 20
0.0
 11
1.0
 21
1.0
 12
148.5
 22
105.0
 13
0.0
 23
0.0
 14
10.0
 24
10.0
 15
10.0
 25
10.0
 16
0.0
 26
0.0
 36
1.0
 17
0.0
 27
0.0
 37
0.0
 40
297.0
 41
1.414285714
 42
50.0
 43
0.0
 44
0.0
 50
0.0
 51
0.0
 71
     0
 72
  1000
 73
     1
 74
     3
 75
     0
 76
     0
 77
     0
 78
     0
  0
ENDTAB
  0
TABLE
  2
LTYPE
 70
     7
  0
LTYPE
  2
CONTINUOUS
 70
    64
  3
Solid line
 72
    65
 73
     0
 40
0.0
  0
LTYPE
  2
LTYPE1
 70
    64
  3
CENTER
 72
    65
 73
     4
 40
5.0
 49
3.5
 49
-0.5
 49
0.5
 49
-0.5
  0
LTYPE
  2
LTYPE2
 70
    64
  3
CENTER
 72
    65
 73
     4
 40
15.0
 49
10.5
 49
-1.5
 49
1.5
 49
-1.5
  0
LTYPE
  2
LTYPE3
 70
    64
  3
CENTER
 72
    65
 73
     4
 40
8.0
 49
5.6
 49
-0.8
 49
0.8
 49
-0.8
  0
LTYPE
  2
LTYPE4
 70
    64
  3
HIDDEN
 72
    65
 73
     2
 40
1.0
 49
0.6
 49
-0.4
  0
LTYPE
  2
LTYPE5
 70
    64
  3
HIDDEN
 72
    65
 73
     2
 40
3.0
 49
1.8
 49
-1.2
  0
LTYPE
  2
LTYPE6
 70
    64
  3
HIDDEN
 72
    65
 73
     2
 40
1.5
 49
0.9
 49
-0.6
  0
ENDTAB
  0
TABLE
  2
LAYER
 70
   128
  0
LAYER
  2
0
 70
     0
 62
     7
  6
CONTINUOUS
  0
LAYER
  2
2
 70
     0
 62
     7
  6
CONTINUOUS
  0
LAYER
  2
3
 70
     0
 62
     7
  6
CONTINUOUS
  0
LAYER
  2
4
 70
     0
 62
     7
  6
CONTINUOUS
  0
LAYER
  2
5
 70
     0
 62
     7
  6
CONTINUOUS
  0
LAYER
  2
6
 70
     0
 62
     7
  6
CONTINUOUS
  0
LAYER
  2
7
 70
     0
 62
     7
  6
CONTINUOUS
  0
LAYER
  2
8
 70
     0
 62
     7
  6
CONTINUOUS
  0
LAYER
  2
9
 70
     0
 62
     7
  6
CONTINUOUS
  0
LAYER
  2
10
 70
     0
 62
     7
  6
CONTINUOUS
  0
LAYER
  2
11
 70
     0
 62
     7
  6
CONTINUOUS
  0
LAYER
  2
12
 70
     0
 62
     7
  6
CONTINUOUS
  0
LAYER
  2
13
 70
     0
 62
     7
  6
CONTINUOUS
  0
LAYER
  2
14
 70
     0
 62
     7
  6
CONTINUOUS
  0
LAYER
  2
15
 70
     0
 62
     7
  6
CONTINUOUS
  0
LAYER
  2
16
 70
     0
 62
     7
  6
CONTINUOUS
  0
LAYER
  2
17
 70
     0
 62
     7
  6
CONTINUOUS
  0
LAYER
  2
18
 70
     0
 62
     7
  6
CONTINUOUS
  0
LAYER
  2
19
 70
     0
 62
     7
  6
CONTINUOUS
  0
LAYER
  2
20
 70
     0
 62
     7
  6
CONTINUOUS
  0
LAYER
  2
21
 70
     0
 62
     7
  6
CONTINUOUS
  0
LAYER
  2
22
 70
     0
 62
     7
  6
CONTINUOUS
  0
LAYER
  2
23
 70
     0
 62
     7
  6
CONTINUOUS
  0
LAYER
  2
24
 70
     0
 62
     7
  6
CONTINUOUS
  0
LAYER
  2
25
 70
     0
 62
     7
  6
CONTINUOUS
  0
LAYER
  2
26
 70
     0
 62
     7
  6
CONTINUOUS
  0
LAYER
  2
27
 70
     0
 62
     7
  6
CONTINUOUS
  0
LAYER
  2
28
 70
     0
 62
     7
  6
CONTINUOUS
  0
LAYER
  2
29
 70
     0
 62
     7
  6
CONTINUOUS
  0
LAYER
  2
30
 70
     0
 62
     7
  6
CONTINUOUS
  0
LAYER
  2
31
 70
     0
 62
     7
  6
CONTINUOUS
  0
LAYER
  2
32
 70
     0
 62
     7
  6
CONTINUOUS
  0
LAYER
  2
33
 70
     0
 62
     7
  6
CONTINUOUS
  0
LAYER
  2
34
 70
     0
 62
     7
  6
CONTINUOUS
  0
LAYER
  2
35
 70
     0
 62
     7
  6
CONTINUOUS
  0
LAYER
  2
36
 70
     0
 62
     7
  6
CONTINUOUS
  0
LAYER
  2
37
 70
     0
 62
     7
  6
CONTINUOUS
  0
LAYER
  2
38
 70
     0
 62
     7
  6
CONTINUOUS
  0
LAYER
  2
39
 70
     0
 62
     7
  6
CONTINUOUS
  0
LAYER
  2
40
 70
     0
 62
     7
  6
CONTINUOUS
  0
LAYER
  2
41
 70
     0
 62
     7
  6
CONTINUOUS
  0
LAYER
  2
42
 70
     0
 62
     7
  6
CONTINUOUS
  0
LAYER
  2
43
 70
     0
 62
     7
  6
CONTINUOUS
  0
LAYER
  2
44
 70
     0
 62
     7
  6
CONTINUOUS
  0
LAYER
  2
45
 70
     0
 62
     7
  6
CONTINUOUS
  0
LAYER
  2
46
 70
     0
 62
     7
  6
CONTINUOUS
  0
LAYER
  2
47
 70
     0
 62
     7
  6
CONTINUOUS
  0
LAYER
  2
48
 70
     0
 62
     7
  6
CONTINUOUS
  0
LAYER
  2
49
 70
     0
 62
     7
  6
CONTINUOUS
  0
LAYER
  2
50
 70
     0
 62
     7
  6
CONTINUOUS
  0
LAYER
  2
51
 70
     0
 62
     7
  6
CONTINUOUS
  0
LAYER
  2
52
 70
     0
 62
     7
  6
CONTINUOUS
  0
LAYER
  2
53
 70
     0
 62
     7
  6
CONTINUOUS
  0
LAYER
  2
54
 70
     0
 62
     7
  6
CONTINUOUS
  0
LAYER
  2
55
 70
     0
 62
     7
  6
CONTINUOUS
  0
LAYER
  2
56
 70
     0
 62
     7
  6
CONTINUOUS
  0
LAYER
  2
57
 70
     0
 62
     7
  6
CONTINUOUS
  0
LAYER
  2
58
 70
     0
 62
     7
  6
CONTINUOUS
  0
LAYER
  2
59
 70
     0
 62
     7
  6
CONTINUOUS
  0
LAYER
  2
60
 70
     0
 62
     7
  6
CONTINUOUS
  0
LAYER
  2
61
 70
     0
 62
     7
  6
CONTINUOUS
  0
LAYER
  2
62
 70
     0
 62
     7
  6
CONTINUOUS
  0
LAYER
  2
63
 70
     0
 62
     7
  6
CONTINUOUS
  0
LAYER
  2
64
 70
     0
 62
     7
  6
CONTINUOUS
  0
LAYER
  2
65
 70
     0
 62
     7
  6
CONTINUOUS
  0
LAYER
  2
66
 70
     0
 62
     7
  6
CONTINUOUS
  0
LAYER
  2
67
 70
     0
 62
     7
  6
CONTINUOUS
  0
LAYER
  2
68
 70
     0
 62
     7
  6
CONTINUOUS
  0
LAYER
  2
69
 70
     0
 62
     7
  6
CONTINUOUS
  0
LAYER
  2
70
 70
     0
 62
     7
  6
CONTINUOUS
  0
LAYER
  2
71
 70
     0
 62
     7
  6
CONTINUOUS
  0
LAYER
  2
72
 70
     0
 62
     7
  6
CONTINUOUS
  0
LAYER
  2
73
 70
     0
 62
     7
  6
CONTINUOUS
  0
LAYER
  2
74
 70
     0
 62
     7
  6
CONTINUOUS
  0
LAYER
  2
75
 70
     0
 62
     7
  6
CONTINUOUS
  0
LAYER
  2
76
 70
     0
 62
     7
  6
CONTINUOUS
  0
LAYER
  2
77
 70
     0
 62
     7
  6
CONTINUOUS
  0
LAYER
  2
78
 70
     0
 62
     7
  6
CONTINUOUS
  0
LAYER
  2
79
 70
     0
 62
     7
  6
CONTINUOUS
  0
LAYER
  2
80
 70
     0
 62
     7
  6
CONTINUOUS
  0
LAYER
  2
81
 70
     0
 62
     7
  6
CONTINUOUS
  0
LAYER
  2
82
 70
     0
 62
     7
  6
CONTINUOUS
  0
LAYER
  2
83
 70
     0
 62
     7
  6
CONTINUOUS
  0
LAYER
  2
84
 70
     0
 62
     7
  6
CONTINUOUS
  0
LAYER
  2
85
 70
     0
 62
     7
  6
CONTINUOUS
  0
LAYER
  2
86
 70
     0
 62
     7
  6
CONTINUOUS
  0
LAYER
  2
87
 70
     0
 62
     7
  6
CONTINUOUS
  0
LAYER
  2
88
 70
     0
 62
     7
  6
CONTINUOUS
  0
LAYER
  2
89
 70
     0
 62
     7
  6
CONTINUOUS
  0
LAYER
  2
90
 70
     0
 62
     7
  6
CONTINUOUS
  0
LAYER
  2
91
 70
     0
 62
     7
  6
CONTINUOUS
  0
LAYER
  2
92
 70
     0
 62
     7
  6
CONTINUOUS
  0
LAYER
  2
93
 70
     0
 62
     7
  6
CONTINUOUS
  0
LAYER
  2
94
 70
     0
 62
     7
  6
CONTINUOUS
  0
LAYER
  2
95
 70
     0
 62
     7
  6
CONTINUOUS
  0
LAYER
  2
96
 70
     0
 62
     7
  6
CONTINUOUS
  0
LAYER
  2
97
 70
     0
 62
     7
  6
CONTINUOUS
  0
LAYER
  2
98
 70
     0
 62
     7
  6
CONTINUOUS
  0
LAYER
  2
99
 70
     0
 62
     7
  6
CONTINUOUS
  0
LAYER
  2
100
 70
     0
 62
     7
  6
CONTINUOUS
  0
LAYER
  2
101
 70
     0
 62
     7
  6
CONTINUOUS
  0
LAYER
  2
102
 70
     0
 62
     7
  6
CONTINUOUS
  0
LAYER
  2
103
 70
     0
 62
     7
  6
CONTINUOUS
  0
LAYER
  2
104
 70
     0
 62
     7
  6
CONTINUOUS
  0
LAYER
  2
105
 70
     0
 62
     7
  6
CONTINUOUS
  0
LAYER
  2
106
 70
     0
 62
     7
  6
CONTINUOUS
  0
LAYER
  2
107
 70
     0
 62
     7
  6
CONTINUOUS
  0
LAYER
  2
108
 70
     0
 62
     7
  6
CONTINUOUS
  0
LAYER
  2
109
 70
     0
 62
     7
  6
CONTINUOUS
  0
LAYER
  2
110
 70
     0
 62
     7
  6
CONTINUOUS
  0
LAYER
  2
111
 70
     0
 62
     7
  6
CONTINUOUS
  0
LAYER
  2
112
 70
     0
 62
     7
  6
CONTINUOUS
  0
LAYER
  2
113
 70
     0
 62
     7
  6
CONTINUOUS
  0
LAYER
  2
114
 70
     0
 62
     7
  6
CONTINUOUS
  0
LAYER
  2
115
 70
     0
 62
     7
  6
CONTINUOUS
  0
LAYER
  2
116
 70
     0
 62
     7
  6
CONTINUOUS
  0
LAYER
  2
117
 70
     0
 62
     7
  6
CONTINUOUS
  0
LAYER
  2
118
 70
     0
 62
     7
  6
CONTINUOUS
  0
LAYER
  2
119
 70
     0
 62
     7
  6
CONTINUOUS
  0
LAYER
  2
120
 70
     0
 62
     7
  6
CONTINUOUS
  0
LAYER
  2
121
 70
     0
 62
     7
  6
CONTINUOUS
  0
LAYER
  2
122
 70
     0
 62
     7
  6
CONTINUOUS
  0
LAYER
  2
123
 70
     0
 62
     7
  6
CONTINUOUS
  0
LAYER
  2
124
 70
     0
 62
     7
  6
CONTINUOUS
  0
LAYER
  2
125
 70
     0
 62
     7
  6
CONTINUOUS
  0
LAYER
  2
126
 70
     0
 62
     7
  6
CONTINUOUS
  0
LAYER
  2
127
 70
     0
 62
     7
  6
CONTINUOUS
  0
LAYER
  2
128
 70
     0
 62
     7
  6
CONTINUOUS
  0
ENDTAB
  0
TABLE
  2
STYLE
 70
    25
  0
STYLE
  2
STANDARD
 70
     0
 40
0.0
 41
1.0
 50
0.0
 71
     0
 42
0.2
  3
txt.shx
  4
extfont.shx
  0
STYLE
  2
KANJI0
 70
     0
 40
2.982
 41
0.9
 50
0.0
 71
     0
 42
2.982
  3
txt.shx
  4
extfont.shx
  0
STYLE
  2
KANJI1
 70
     0
 40
3.5
 41
0.9
 50
0.0
 71
     0
 42
3.5
  3
txt.shx
  4
extfont.shx
  0
STYLE
  2
KANJI2
 70
     0
 40
4.0
 41
0.8
 50
0.0
 71
     0
 42
4.0
  3
txt.shx
  4
extfont.shx
  0
STYLE
  2
KANJI3
 70
     0
 40
3.0
 41
0.6
 50
0.0
 71
     0
 42
3.0
  3
txt.shx
  4
extfont.shx
  0
STYLE
  2
KANJI4
 70
     0
 40
1.8
 41
0.6
 50
0.0
 71
     0
 42
1.8
  3
txt.shx
  4
extfont.shx
  0
STYLE
  2
KANJI5
 70
     0
 40
3.0
 41
0.833333333
 50
0.0
 71
     0
 42
3.0
  3
txt.shx
  4
extfont.shx
  0
STYLE
  2
KANJI6
 70
     0
 40
3.0
 41
0.733333333
 50
0.0
 71
     0
 42
3.0
  3
txt.shx
  4
extfont.shx
  0
STYLE
  2
KANJI7
 70
     0
 40
3.0
 41
0.9
 50
0.0
 71
     0
 42
3.0
  3
txt.shx
  4
extfont.shx
  0
STYLE
  2
KANJI8
 70
     0
 40
1.7
 41
0.866666667
 50
0.0
 71
     0
 42
1.7
  3
txt.shx
  4
extfont.shx
  0
STYLE
  2
KANJI9
 70
     0
 40
1.7
 41
0.764705882
 50
0.0
 71
     0
 42
1.7
  3
txt.shx
  4
extfont.shx
  0
STYLE
  2
KANJI10
 70
     0
 40
2.55
 41
0.764705882
 50
0.0
 71
     0
 42
2.55
  3
txt.shx
  4
extfont.shx
  0
STYLE
  2
KANJI11
 70
     0
 40
3.0
 41
0.6
 50
0.0
 71
     0
 42
3.0
  3
txt.shx
  4
extfont.shx
  0
STYLE
  2
KANJI12
 70
     4
 40
2.5
 41
0.8
 50
0.0
 71
     0
 42
2.5
  3
txt.shx
  4
extfont.shx
  0
STYLE
  2
KANJI13
 70
     0
 40
1.8
 41
0.866666667
 50
0.0
 71
     0
 42
1.8
  3
txt.shx
  4
extfont.shx
  0
STYLE
  2
KANJI14
 70
     0
 40
3.0
 41
0.666666667
 50
0.0
 71
     0
 42
3.0
  3
txt.shx
  4
extfont.shx
  0
STYLE
  2
KANJI15
 70
     0
 40
2.4
 41
0.8
 50
0.0
 71
     0
 42
2.4
  3
txt.shx
  4
extfont.shx
  0
STYLE
  2
KANJI16
 70
     0
 40
2.52
 41
0.9
 50
0.0
 71
     0
 42
2.52
  3
txt.shx
  4
extfont.shx
  0
STYLE
  2
KANJI17
 70
     0
 40
2.52
 41
0.6
 50
0.0
 71
     0
 42
2.52
  3
txt.shx
  4
extfont.shx
  0
STYLE
  2
KANJI18
 70
     0
 40
1.512
 41
0.6
 50
0.0
 71
     0
 42
1.512
  3
txt.shx
  4
extfont.shx
  0
STYLE
  2
KANJI19
 70
     0
 40
6.0
 41
0.9
 50
0.0
 71
     0
 42
6.0
  3
txt.shx
  4
extfont.shx
  0
STYLE
  2
KANJI20
 70
     0
 40
4.0
 41
0.9
 50
0.0
 71
     0
 42
4.0
  3
txt.shx
  4
extfont.shx
  0
STYLE
  2
KANJI21
 70
     0
 40
4.0
 41
0.8
 50
0.0
 71
     0
 42
4.0
  3
txt.shx
  4
extfont.shx
  0
STYLE
  2
KANJI22
 70
     0
 40
2.0
 41
0.9
 50
0.0
 71
     0
 42
2.0
  3
txt.shx
  4
extfont.shx
  0
STYLE
  2
KANJI23
 70
     0
 40
3.0
 41
0.666666667
 50
0.0
 71
     0
 42
3.0
  3
txt.shx
  4
extfont.shx
  0
ENDTAB
  0
TABLE
  2
VIEW
 70
     0
  0
ENDTAB
  0
ENDSEC
  0
SECTION
  2
BLOCKS
  0
ENDSEC
  0
SECTION
  2
ENTITIES
  0
LINE
  8
0
  6
CONTINUOUS
 62
     1
 10
153.9
 20
168.9
 30
0.0
 11
158.4
 21
168.9
 31
0.0
  0
LINE
  8
0
  6
CONTINUOUS
 62
     1
 10
159.523058987
 20
101.4
 30
0.0
 11
161.023058987
 21
101.4
 31
0.0
  0
LINE
  8
0
  6
CONTINUOUS
 62
     1
 10
161.023058987
 20
161.4
 30
0.0
 11
159.523058987
 21
161.4
 31
0.0
  0
ARC
  8
0
  6
CONTINUOUS
 62
     1
 10
99.4
 20
131.4
 30
0.0
 40
63.5
 50
0.0
 51
26.515396588
  0
LINE
  8
0
  6
CONTINUOUS
 62
     1
 10
156.223058987
 20
159.753377196
 30
0.0
 11
159.523058987
 21
161.4
 31
0.0
  0
ARC
  8
0
  6
CONTINUOUS
 62
     1
 10
99.4
 20
131.4
 30
0.0
 40
63.5
 50
333.481876884
 51
0.0
  0
LINE
  8
0
  6
CONTINUOUS
 62
     1
 10
156.219366986
 20
103.048465027
 30
0.0
 11
159.523058987
 21
101.4
 31
0.0
  0
ARC
  8
0
  6
CONTINUOUS
 62
     1
 10
161.336568529
 20
162.906461083
 30
0.0
 40
1.0
 50
158.588388075
 51
235.869897646
  0
ARC
  8
0
  6
CONTINUOUS
 62
     1
 10
160.945886744
 20
164.041083374
 30
0.0
 40
1.0
 50
162.657981601
 51
238.188655051
  0
ARC
  8
0
  6
CONTINUOUS
 62
     1
 10
160.555204959
 20
165.175705665
 30
0.0
 40
1.0
 50
160.87696549
 51
236.390581326
  0
ARC
  8
0
  6
CONTINUOUS
 62
     1
 10
160.164523173
 20
166.310327955
 30
0.0
 40
1.0
 50
160.87696549
 51
238.188655051
  0
ARC
  8
0
  6
CONTINUOUS
 62
     1
 10
159.773841388
 20
167.444950246
 30
0.0
 40
1.0
 50
160.87696549
 51
238.188655051
  0
ARC
  8
0
  6
CONTINUOUS
 62
     1
 10
159.383159603
 20
168.579572537
 30
0.0
 40
1.0
 50
160.87696549
 51
238.188655051
  0
ARC
  8
0
  6
CONTINUOUS
 62
     1
 10
60.4
 20
131.4
 30
0.0
 40
105.0
 50
0.0
 51
16.970349643
  0
ARC
  8
0
  6
CONTINUOUS
 62
     1
 10
159.376553342
 20
94.240322774
 30
0.0
 40
1.0
 50
120.588388075
 51
197.869897646
  0
ARC
  8
0
  6
CONTINUOUS
 62
     1
 10
159.767235127
 20
95.374945064
 30
0.0
 40
1.0
 50
124.657981601
 51
200.188655051
  0
ARC
  8
0
  6
CONTINUOUS
 62
     1
 10
160.157916913
 20
96.509567355
 30
0.0
 40
1.0
 50
122.87696549
 51
198.390581326
  0
ARC
  8
0
  6
CONTINUOUS
 62
     1
 10
160.548598698
 20
97.644189646
 30
0.0
 40
1.0
 50
122.87696549
 51
200.188655051
  0
ARC
  8
0
  6
CONTINUOUS
 62
     1
 10
160.939280483
 20
98.778811936
 30
0.0
 40
1.0
 50
122.87696549
 51
200.188655051
  0
ARC
  8
0
  6
CONTINUOUS
 62
     1
 10
161.329962269
 20
99.913434227
 30
0.0
 40
1.0
 50
122.87696549
 51
200.188655051
  0
ARC
  8
0
  6
CONTINUOUS
 62
     1
 10
60.4
 20
131.4
 30
0.0
 40
105.0
 50
343.018596483
 51
0.0
  0
LINE
  8
0
  6
CONTINUOUS
 62
     1
 10
137.4
 20
100.28
 30
0.0
 11
136.9
 21
100.28
 31
0.0
  0
LINE
  8
0
  6
CONTINUOUS
 62
     1
 10
136.9
 20
100.28
 30
0.0
 11
136.9
 21
101.15
 31
0.0
  0
LINE
  8
0
  6
CONTINUOUS
 62
     1
 10
136.9
 20
96.65
 30
0.0
 11
136.9
 21
97.52
 31
0.0
  0
LINE
  8
0
  6
CONTINUOUS
 62
     1
 10
136.9
 20
97.52
 30
0.0
 11
137.4
 21
97.52
 31
0.0
  0
LINE
  8
0
  6
CONTINUOUS
 62
     1
 10
137.4
 20
162.52
 30
0.0
 11
136.9
 21
162.52
 31
0.0
  0
LINE
  8
0
  6
CONTINUOUS
 62
     1
 10
136.9
 20
162.52
 30
0.0
 11
136.9
 21
161.65
 31
0.0
  0
LINE
  8
0
  6
CONTINUOUS
 62
     1
 10
137.4
 20
165.28
 30
0.0
 11
136.9
 21
165.28
 31
0.0
  0
LINE
  8
0
  6
CONTINUOUS
 62
     1
 10
136.9
 20
165.28
 30
0.0
 11
136.9
 21
166.15
 31
0.0
  0
LINE
  8
0
  6
CONTINUOUS
 62
     1
 10
136.65
 20
167.65
 30
0.0
 11
136.65
 21
172.65
 31
0.0
  0
LINE
  8
0
  6
CONTINUOUS
 62
     1
 10
136.65
 20
172.65
 30
0.0
 11
135.15
 21
172.65
 31
0.0
  0
LINE
  8
0
  6
CONTINUOUS
 62
     1
 10
135.15
 20
172.65
 30
0.0
 11
135.15
 21
160.17
 31
0.0
  0
LINE
  8
0
  6
CONTINUOUS
 62
     1
 10
135.15
 20
160.17
 30
0.0
 11
135.9
 21
160.17
 31
0.0
  0
LINE
  8
0
  6
CONTINUOUS
 62
     1
 10
135.9
 20
102.65
 30
0.0
 11
135.16
 21
102.65
 31
0.0
  0
LINE
  8
0
  6
CONTINUOUS
 62
     1
 10
135.16
 20
102.65
 30
0.0
 11
135.15
 21
90.15
 31
0.0
  0
LINE
  8
0
  6
CONTINUOUS
 62
     1
 10
135.15
 20
90.15
 30
0.0
 11
136.65
 21
90.15
 31
0.0
  0
LINE
  8
0
  6
CONTINUOUS
 62
     1
 10
136.65
 20
90.15
 30
0.0
 11
136.65
 21
95.15
 31
0.0
  0
LINE
  8
0
  6
CONTINUOUS
 62
     1
 10
136.65
 20
96.65
 30
0.0
 11
136.65
 21
101.15
 31
0.0
  0
LINE
  8
0
  6
CONTINUOUS
 62
     1
 10
136.65
 20
161.65
 30
0.0
 11
136.65
 21
166.15
 31
0.0
  0
ARC
  8
0
  6
CONTINUOUS
 62
     1
 10
134.260596877
 20
164.647614219
 30
0.0
 40
0.966742525
 50
88.472474559
 51
180.0
  0
ARC
  8
0
  6
CONTINUOUS
 62
     1
 10
134.260596877
 20
163.152385781
 30
0.0
 40
0.966742525
 50
180.0
 51
270.0
  0
LINE
  8
0
  6
CONTINUOUS
 62
     1
 10
133.293854352
 20
163.152385781
 30
0.0
 11
133.293854352
 21
164.647614219
 31
0.0
  0
LINE
  8
0
  6
CONTINUOUS
 62
     1
 10
133.384083655
 20
163.616422193
 30
0.0
 11
133.384083655
 21
164.106238405
 31
0.0
  0
LINE
  8
0
  6
CONTINUOUS
 62
     1
 10
134.647293887
 20
162.185643256
 30
0.0
 11
134.247706977
 21
162.185643256
 31
0.0
  0
LINE
  8
0
  6
CONTINUOUS
 62
     1
 10
134.247706977
 20
165.588576943
 30
0.0
 11
134.647293887
 21
165.614356744
 31
0.0
  0
LINE
  8
0
  6
CONTINUOUS
 62
     1
 10
134.647293887
 20
162.185643256
 30
0.0
 11
134.647293887
 21
165.614356744
 31
0.0
  0
ARC
  8
0
  6
CONTINUOUS
 62
     1
 10
134.260596877
 20
99.647614219
 30
0.0
 40
0.966742525
 50
88.472474559
 51
180.0
  0
ARC
  8
0
  6
CONTINUOUS
 62
     1
 10
134.260596877
 20
98.152385781
 30
0.0
 40
0.966742525
 50
180.0
 51
270.0
  0
LINE
  8
0
  6
CONTINUOUS
 62
     1
 10
133.293854352
 20
98.152385781
 30
0.0
 11
133.293854352
 21
99.647614219
 31
0.0
  0
LINE
  8
0
  6
CONTINUOUS
 62
     1
 10
133.384083655
 20
98.616422193
 30
0.0
 11
133.384083655
 21
99.106238405
 31
0.0
  0
LINE
  8
0
  6
CONTINUOUS
 62
     1
 10
134.647293887
 20
97.185643256
 30
0.0
 11
134.247706977
 21
97.185643256
 31
0.0
  0
LINE
  8
0
  6
CONTINUOUS
 62
     1
 10
134.247706977
 20
100.588576943
 30
0.0
 11
134.647293887
 21
100.614356744
 31
0.0
  0
LINE
  8
0
  6
CONTINUOUS
 62
     1
 10
134.647293887
 20
97.185643256
 30
0.0
 11
134.647293887
 21
100.614356744
 31
0.0
  0
ARC
  8
0
  6
CONTINUOUS
 62
     1
 10
125.616742525
 20
170.877614219
 30
0.0
 40
0.966742525
 50
88.472474559
 51
180.0
  0
ARC
  8
0
  6
CONTINUOUS
 62
     1
 10
125.616742525
 20
169.382385781
 30
0.0
 40
0.966742525
 50
180.0
 51
270.0
  0
LINE
  8
0
  6
CONTINUOUS
 62
     1
 10
124.65
 20
169.382385781
 30
0.0
 11
124.65
 21
170.877614219
 31
0.0
  0
LINE
  8
0
  6
CONTINUOUS
 62
     1
 10
124.740229302
 20
169.846422193
 30
0.0
 11
124.740229302
 21
170.336238405
 31
0.0
  0
LINE
  8
0
  6
CONTINUOUS
 62
     1
 10
126.003439535
 20
168.415643256
 30
0.0
 11
125.603852624
 21
168.415643256
 31
0.0
  0
LINE
  8
0
  6
CONTINUOUS
 62
     1
 10
125.603852624
 20
171.818576943
 30
0.0
 11
126.003439535
 21
171.844356744
 31
0.0
  0
LINE
  8
0
  6
CONTINUOUS
 62
     1
 10
126.003439535
 20
168.415643256
 30
0.0
 11
126.003439535
 21
171.844356744
 31
0.0
  0
LINE
  8
0
  6
CONTINUOUS
 62
     1
 10
145.15
 20
168.65
 30
0.0
 11
149.15
 21
168.65
 31
0.0
  0
LINE
  8
0
  6
CONTINUOUS
 62
     1
 10
149.15
 20
168.65
 30
0.0
 11
149.15
 21
171.65
 31
0.0
  0
LINE
  8
0
  6
CONTINUOUS
 62
     1
 10
149.15
 20
171.65
 30
0.0
 11
145.15
 21
171.65
 31
0.0
  0
LINE
  8
0
  6
CONTINUOUS
 62
     1
 10
145.15
 20
171.65
 30
0.0
 11
145.15
 21
168.65
 31
0.0
  0
LINE
  8
0
  6
CONTINUOUS
 62
     1
 10
145.15
 20
169.15
 30
0.0
 11
136.65
 21
169.15
 31
0.0
  0
LINE
  8
0
  6
CONTINUOUS
 62
     1
 10
136.65
 20
171.15
 30
0.0
 11
145.15
 21
171.15
 31
0.0
  0
LINE
  8
0
  6
CONTINUOUS
 62
     1
 10
133.220203125
 20
168.180952625
 30
0.0
 11
132.97995375
 21
168.421202
 31
0.0
  0
LINE
  8
0
  6
CONTINUOUS
 62
     1
 10
133.2298131
 20
169.204414962
 30
0.0
 11
132.97995375
 21
168.916115712
 31
0.0
  0
LINE
  8
0
  6
CONTINUOUS
 62
     1
 10
132.97995375
 20
171.40029425
 30
0.0
 11
133.268253
 21
171.140824925
 31
0.0
  0
LINE
  8
0
  6
CONTINUOUS
 62
     1
 10
132.97995375
 20
170.847720687
 30
0.0
 11
133.268253
 21
171.107190012
 31
0.0
  0
LINE
  8
0
  6
CONTINUOUS
 62
     1
 10
133.268253
 20
172.097017437
 30
0.0
 11
132.97995375
 21
171.808718187
 31
0.0
  0
LINE
  8
0
  6
CONTINUOUS
 62
     1
 10
132.97995375
 20
171.827938137
 30
0.0
 11
132.97995375
 21
168.421202
 31
0.0
  0
LINE
  8
0
  6
CONTINUOUS
 62
     1
 10
133.217320132
 20
169.19
 30
0.0
 11
132.977070757
 21
169.3821995
 31
0.0
  0
LINE
  8
0
  6
CONTINUOUS
 62
     1
 10
133.220203125
 20
168.180952625
 30
0.0
 11
134.6
 21
168.180952625
 31
0.0
  0
LINE
  8
0
  6
CONTINUOUS
 62
     1
 10
133.217320132
 20
169.19
 30
0.0
 11
134.6
 21
169.19
 31
0.0
  0
LINE
  8
0
  6
CONTINUOUS
 62
     1
 10
134.6
 20
171.111995
 30
0.0
 11
133.252236375
 21
171.111995
 31
0.0
  0
LINE
  8
0
  6
CONTINUOUS
 62
     1
 10
134.6
 20
172.0729925
 30
0.0
 11
133.220203125
 21
172.0729925
 31
0.0
  0
LINE
  8
0
  6
CONTINUOUS
 62
     1
 10
134.6
 20
168.180952625
 30
0.0
 11
134.6
 21
172.0729925
 31
0.0
  0
LINE
  8
0
  6
CONTINUOUS
 62
     1
 10
135.15
 20
171.95
 30
0.0
 11
134.6
 21
171.95
 31
0.0
  0
LINE
  8
0
  6
CONTINUOUS
 62
     1
 10
134.6
 20
171.95
 30
0.0
 11
134.6
 21
168.3
 31
0.0
  0
LINE
  8
0
  6
CONTINUOUS
 62
     1
 10
134.6
 20
168.3
 30
0.0
 11
135.15
 21
168.3
 31
0.0
  0
LINE
  8
0
  6
CONTINUOUS
 62
     1
 10
135.15
 20
168.3
 30
0.0
 11
135.15
 21
171.95
 31
0.0
  0
LINE
  8
0
  6
CONTINUOUS
 62
     1
 10
135.15
 20
170.3
 30
0.0
 11
134.6
 21
170.0
 31
0.0
  0
LINE
  8
0
  6
CONTINUOUS
 62
     1
 10
135.15
 20
170.45
 30
0.0
 11
134.6
 21
170.15
 31
0.0
  0
LINE
  8
0
  6
CONTINUOUS
 62
     1
 10
132.97995375
 20
169.15
 30
0.0
 11
126.003439535
 21
169.15
 31
0.0
  0
LINE
  8
0
  6
CONTINUOUS
 62
     1
 10
126.003439535
 20
171.15
 30
0.0
 11
132.97995375
 21
171.15
 31
0.0
  0
LINE
  8
0
  6
CONTINUOUS
 62
     1
 10
133.215249375
 20
90.680952625
 30
0.0
 11
132.975
 21
90.921202
 31
0.0
  0
LINE
  8
0
  6
CONTINUOUS
 62
     1
 10
133.22485935
 20
91.704414962
 30
0.0
 11
132.975
 21
91.416115712
 31
0.0
  0
LINE
  8
0
  6
CONTINUOUS
 62
     1
 10
132.975
 20
93.90029425
 30
0.0
 11
133.26329925
 21
93.640824925
 31
0.0
  0
LINE
  8
0
  6
CONTINUOUS
 62
     1
 10
132.975
 20
93.347720687
 30
0.0
 11
133.26329925
 21
93.607190012
 31
0.0
  0
LINE
  8
0
  6
CONTINUOUS
 62
     1
 10
133.26329925
 20
94.597017438
 30
0.0
 11
132.975
 21
94.308718188
 31
0.0
  0
LINE
  8
0
  6
CONTINUOUS
 62
     1
 10
132.975
 20
94.327938138
 30
0.0
 11
132.975
 21
90.921202
 31
0.0
  0
LINE
  8
0
  6
CONTINUOUS
 62
     1
 10
133.212366382
 20
91.69
 30
0.0
 11
132.972117007
 21
91.8821995
 31
0.0
  0
LINE
  8
0
  6
CONTINUOUS
 62
     1
 10
133.215249375
 20
90.680952625
 30
0.0
 11
134.59504625
 21
90.680952625
 31
0.0
  0
LINE
  8
0
  6
CONTINUOUS
 62
     1
 10
133.212366382
 20
91.69
 30
0.0
 11
134.59504625
 21
91.69
 31
0.0
  0
LINE
  8
0
  6
CONTINUOUS
 62
     1
 10
134.59504625
 20
93.611995
 30
0.0
 11
133.247282625
 21
93.611995
 31
0.0
  0
LINE
  8
0
  6
CONTINUOUS
 62
     1
 10
134.59504625
 20
94.5729925
 30
0.0
 11
133.215249375
 21
94.5729925
 31
0.0
  0
LINE
  8
0
  6
CONTINUOUS
 62
     1
 10
134.59504625
 20
90.680952625
 30
0.0
 11
134.59504625
 21
94.5729925
 31
0.0
  0
LINE
  8
0
  6
CONTINUOUS
 62
     1
 10
135.14504625
 20
94.45
 30
0.0
 11
134.59504625
 21
94.45
 31
0.0
  0
LINE
  8
0
  6
CONTINUOUS
 62
     1
 10
134.59504625
 20
94.45
 30
0.0
 11
134.59504625
 21
90.8
 31
0.0
  0
LINE
  8
0
  6
CONTINUOUS
 62
     1
 10
134.59504625
 20
90.8
 30
0.0
 11
135.14504625
 21
90.8
 31
0.0
  0
LINE
  8
0
  6
CONTINUOUS
 62
     1
 10
135.14504625
 20
90.8
 30
0.0
 11
135.14504625
 21
94.45
 31
0.0
  0
LINE
  8
0
  6
CONTINUOUS
 62
     1
 10
135.14504625
 20
92.8
 30
0.0
 11
134.59504625
 21
92.5
 31
0.0
  0
LINE
  8
0
  6
CONTINUOUS
 62
     1
 10
135.14504625
 20
92.95
 30
0.0
 11
134.59504625
 21
92.65
 31
0.0
  0
ARC
  8
0
  6
CONTINUOUS
 62
     1
 10
124.26330299
 20
93.377614219
 30
0.0
 40
0.966742525
 50
88.472474559
 51
180.0
  0
ARC
  8
0
  6
CONTINUOUS
 62
     1
 10
124.26330299
 20
91.882385781
 30
0.0
 40
0.966742525
 50
180.0
 51
270.0
  0
LINE
  8
0
  6
CONTINUOUS
 62
     1
 10
123.296560465
 20
91.882385781
 30
0.0
 11
123.296560465
 21
93.377614219
 31
0.0
  0
LINE
  8
0
  6
CONTINUOUS
 62
     1
 10
123.386789768
 20
92.346422193
 30
0.0
 11
123.386789768
 21
92.836238405
 31
0.0
  0
LINE
  8
0
  6
CONTINUOUS
 62
     1
 10
124.65
 20
90.915643256
 30
0.0
 11
124.25041309
 21
90.915643256
 31
0.0
  0
LINE
  8
0
  6
CONTINUOUS
 62
     1
 10
124.25041309
 20
94.318576943
 30
0.0
 11
124.65
 21
94.344356744
 31
0.0
  0
LINE
  8
0
  6
CONTINUOUS
 62
     1
 10
124.65
 20
90.915643256
 30
0.0
 11
124.65
 21
94.344356744
 31
0.0
  0
LINE
  8
0
  6
CONTINUOUS
 62
     1
 10
145.15
 20
91.15
 30
0.0
 11
149.15
 21
91.15
 31
0.0
  0
LINE
  8
0
  6
CONTINUOUS
 62
     1
 10
149.15
 20
91.15
 30
0.0
 11
149.15
 21
94.15
 31
0.0
  0
LINE
  8
0
  6
CONTINUOUS
 62
     1
 10
149.15
 20
94.15
 30
0.0
 11
145.15
 21
94.15
 31
0.0
  0
LINE
  8
0
  6
CONTINUOUS
 62
     1
 10
145.15
 20
94.15
 30
0.0
 11
145.15
 21
91.15
 31
0.0
  0
LINE
  8
0
  6
CONTINUOUS
 62
     1
 10
145.15
 20
91.65
 30
0.0
 11
136.65
 21
91.65
 31
0.0
  0
LINE
  8
0
  6
CONTINUOUS
 62
     1
 10
132.975
 20
91.65
 30
0.0
 11
124.615
 21
91.65
 31
0.0
  0
LINE
  8
0
  6
CONTINUOUS
 62
     1
 10
124.65
 20
93.65
 30
0.0
 11
132.96
 21
93.65
 31
0.0
  0
LINE
  8
0
  6
CONTINUOUS
 62
     1
 10
136.66
 20
93.65
 30
0.0
 11
145.15
 21
93.65
 31
0.0
  0
LINE
  8
0
  6
CONTINUOUS
 62
     1
 10
135.9
 20
160.15
 30
0.0
 11
77.079932297
 21
154.218145715
 31
0.0
  0
ARC
  8
0
  6
CONTINUOUS
 62
     1
 10
77.1
 20
154.019155043
 30
0.0
 40
0.2
 50
95.758664088
 51
180.0
  0
LINE
  8
0
  6
CONTINUOUS
 62
     1
 10
77.077932184
 20
109.180246512
 30
0.0
 11
135.9
 21
102.65
 31
0.0
  0
LINE
  8
0
  6
CONTINUOUS
 62
     1
 10
76.9
 20
154.019155043
 30
0.0
 11
76.9
 21
109.379025312
 31
0.0
  0
ARC
  8
0
  6
CONTINUOUS
 62
     1
 10
77.1
 20
109.379025312
 30
0.0
 40
0.2
 50
180.0
 51
263.665137598
  0
ARC
  8
0
  6
CONTINUOUS
 62
     1
 10
136.1
 20
95.35
 30
0.0
 40
0.2
 50
180.0
 51
270.0
  0
ARC
  8
0
  6
CONTINUOUS
 62
     1
 10
136.1
 20
167.45
 30
0.0
 40
0.2
 50
90.0
 51
180.0
  0
LINE
  8
0
  6
CONTINUOUS
 62
     1
 10
136.9
 20
161.65
 30
0.0
 11
136.1
 21
161.65
 31
0.0
  0
LINE
  8
0
  6
CONTINUOUS
 62
     1
 10
135.9
 20
160.15
 30
0.0
 11
135.9
 21
161.45
 31
0.0
  0
ARC
  8
0
  6
CONTINUOUS
 62
     1
 10
136.1
 20
161.45
 30
0.0
 40
0.2
 50
90.0
 51
180.0
  0
LINE
  8
0
  6
CONTINUOUS
 62
     1
 10
136.9
 20
166.15
 30
0.0
 11
136.1
 21
166.15
 31
0.0
  0
LINE
  8
0
  6
CONTINUOUS
 62
     1
 10
135.9
 20
166.35
 30
0.0
 11
135.9
 21
167.45
 31
0.0
  0
ARC
  8
0
  6
CONTINUOUS
 62
     1
 10
136.1
 20
166.35
 30
0.0
 40
0.2
 50
180.0
 51
270.0
  0
LINE
  8
0
  6
CONTINUOUS
 62
     1
 10
136.1
 20
96.65
 30
0.0
 11
136.9
 21
96.65
 31
0.0
  0
LINE
  8
0
  6
CONTINUOUS
 62
     1
 10
135.9
 20
96.45
 30
0.0
 11
135.9
 21
95.35
 31
0.0
  0
ARC
  8
0
  6
CONTINUOUS
 62
     1
 10
136.1
 20
96.45
 30
0.0
 40
0.2
 50
90.0
 51
180.0
  0
LINE
  8
0
  6
CONTINUOUS
 62
     1
 10
136.9
 20
101.15
 30
0.0
 11
136.1
 21
101.15
 31
0.0
  0
LINE
  8
0
  6
CONTINUOUS
 62
     1
 10
135.9
 20
102.65
 30
0.0
 11
135.9
 21
101.35
 31
0.0
  0
ARC
  8
0
  6
CONTINUOUS
 62
     1
 10
136.1
 20
101.35
 30
0.0
 40
0.2
 50
180.0
 51
270.0
  0
LINE
  8
0
  6
CONTINUOUS
 62
     1
 10
148.9
 20
167.65
 30
0.0
 11
148.9
 21
167.45
 31
0.0
  0
LINE
  8
0
  6
CONTINUOUS
 62
     1
 10
154.1
 20
167.45
 30
0.0
 11
154.1
 21
168.85
 31
0.0
  0
LINE
  8
0
  6
CONTINUOUS
 62
     1
 10
148.9
 20
95.15
 30
0.0
 11
148.9
 21
95.35
 31
0.0
  0
LINE
  8
0
  6
CONTINUOUS
 62
     1
 10
154.1
 20
167.45
 30
0.0
 11
154.1
 21
95.35
 31
0.0
  0
LINE
  8
0
  6
CONTINUOUS
 62
     1
 10
154.1
 20
95.35
 30
0.0
 11
154.1
 21
93.9
 31
0.0
  0
LINE
  8
0
  6
CONTINUOUS
 62
     1
 10
136.1
 20
95.15
 30
0.0
 11
153.85
 21
95.15
 31
0.0
  0
LINE
  8
0
  6
CONTINUOUS
 62
     1
 10
153.85
 20
93.9
 30
0.0
 11
158.4
 21
93.9
 31
0.0
  0
LINE
  8
0
  6
CONTINUOUS
 62
     1
 10
153.85
 20
93.9
 30
0.0
 11
153.85
 21
168.875
 31
0.0
  0
LINE
  8
0
  6
CONTINUOUS
 62
     1
 10
153.85
 20
168.875
 30
0.0
 11
153.9
 21
168.9
 31
0.0
  0
LINE
  8
0
  6
CONTINUOUS
 62
     1
 10
136.1
 20
167.65
 30
0.0
 11
153.85
 21
167.65
 31
0.0
  0
LINE
  8
0
  6
CONTINUOUS
 62
     1
 10
148.9
 20
167.45
 30
0.0
 11
153.85
 21
167.45
 31
0.0
  0
LINE
  8
0
  6
CONTINUOUS
 62
     1
 10
148.9
 20
95.35
 30
0.0
 11
153.85
 21
95.35
 31
0.0
  0
LINE
  8
0
  6
CONTINUOUS
 62
     1
 10
161.023058987
 20
45.0
 30
0.0
 11
161.023058987
 21
65.0
 31
0.0
  0
LINE
  8
0
  6
CONTINUOUS
 62
     1
 10
158.436244664
 20
65.0
 30
0.0
 11
158.436244664
 21
45.0
 31
0.0
  0
LINE
  8
0
  6
CONTINUOUS
 62
     1
 10
154.1
 20
45.0
 30
0.0
 11
165.4
 21
45.0
 31
0.0
  0
LINE
  8
0
  6
CONTINUOUS
 62
     1
 10
165.4
 20
45.0
 30
0.0
 11
165.4
 21
65.0
 31
0.0
  0
LINE
  8
0
  6
CONTINUOUS
 62
     1
 10
165.4
 20
65.0
 30
0.0
 11
154.1
 21
65.0
 31
0.0
  0
LINE
  8
0
  6
CONTINUOUS
 62
     1
 10
153.85
 20
65.0
 30
0.0
 11
76.9
 21
65.0
 31
0.0
  0
LINE
  8
0
  6
CONTINUOUS
 62
     1
 10
135.15
 20
65.0
 30
0.0
 11
135.15
 21
57.5
 31
0.0
  0
LINE
  8
0
  6
CONTINUOUS
 62
     1
 10
135.15
 20
57.5
 30
0.0
 11
136.65
 21
57.5
 31
0.0
  0
LINE
  8
0
  6
CONTINUOUS
 62
     1
 10
135.15
 20
52.5
 30
0.0
 11
136.65
 21
52.5
 31
0.0
  0
LINE
  8
0
  6
CONTINUOUS
 62
     1
 10
136.65
 20
52.5
 30
0.0
 11
136.65
 21
57.5
 31
0.0
  0
LINE
  8
0
  6
CONTINUOUS
 62
     1
 10
136.65
 20
57.5
 30
0.0
 11
135.15
 21
57.5
 31
0.0
  0
LINE
  8
0
  6
CONTINUOUS
 62
     1
 10
135.15
 20
57.5
 30
0.0
 11
135.15
 21
52.5
 31
0.0
  0
ARC
  8
0
  6
CONTINUOUS
 62
     1
 10
84.4
 20
45.5
 30
0.0
 40
0.5
 50
180.0
 51
270.0
  0
LINE
  8
0
  6
CONTINUOUS
 62
     1
 10
84.4
 20
45.0
 30
0.0
 11
97.4
 21
45.0
 31
0.0
  0
ARC
  8
0
  6
CONTINUOUS
 62
     1
 10
97.4
 20
45.5
 30
0.0
 40
0.5
 50
270.0
 51
0.0
  0
LINE
  8
0
  6
CONTINUOUS
 62
     1
 10
98.4
 20
47.5
 30
0.0
 11
136.65
 21
47.5
 31
0.0
  0
LINE
  8
0
  6
CONTINUOUS
 62
     1
 10
97.9
 20
45.5
 30
0.0
 11
97.9
 21
47.0
 31
0.0
  0
ARC
  8
0
  6
CONTINUOUS
 62
     1
 10
98.4
 20
47.0
 30
0.0
 40
0.5
 50
90.0
 51
180.0
  0
LINE
  8
0
  6
CONTINUOUS
 62
     1
 10
83.9
 20
48.0
 30
0.0
 11
83.9
 21
45.5
 31
0.0
  0
ARC
  8
0
  6
CONTINUOUS
 62
     1
 10
83.4
 20
48.0
 30
0.0
 40
0.5
 50
0.0
 51
90.0
  0
LINE
  8
0
  6
CONTINUOUS
 62
     1
 10
76.9
 20
65.0
 30
0.0
 11
76.9
 21
49.0
 31
0.0
  0
LINE
  8
0
  6
CONTINUOUS
 62
     1
 10
77.4
 20
48.5
 30
0.0
 11
83.4
 21
48.5
 31
0.0
  0
ARC
  8
0
  6
CONTINUOUS
 62
     1
 10
77.4
 20
49.0
 30
0.0
 40
0.5
 50
180.0
 51
270.0
  0
LINE
  8
0
  6
CONTINUOUS
 62
     1
 10
136.65
 20
57.5
 30
0.0
 11
136.65
 21
45.5
 31
0.0
  0
LINE
  8
0
  6
CONTINUOUS
 62
     1
 10
137.15
 20
45.0
 30
0.0
 11
153.85
 21
45.0
 31
0.0
  0
ARC
  8
0
  6
CONTINUOUS
 62
     1
 10
137.15
 20
45.5
 30
0.0
 40
0.5
 50
180.0
 51
270.0
  0
LINE
  8
0
  6
CONTINUOUS
 62
     1
 10
97.400000674
 20
45.0
 30
0.0
 11
137.15
 21
45.0
 31
0.0
  0
LINE
  8
0
  6
CONTINUOUS
 62
     1
 10
135.148
 20
52.5
 30
0.0
 11
136.648
 21
52.5
 31
0.0
  0
LINE
  8
0
  6
CONTINUOUS
 62
     1
 10
133.213249375
 20
53.030952625
 30
0.0
 11
132.973
 21
53.271202
 31
0.0
  0
LINE
  8
0
  6
CONTINUOUS
 62
     1
 10
133.22285935
 20
54.054414962
 30
0.0
 11
132.973
 21
53.766115712
 31
0.0
  0
LINE
  8
0
  6
CONTINUOUS
 62
     1
 10
132.973
 20
56.25029425
 30
0.0
 11
133.26129925
 21
55.990824925
 31
0.0
  0
LINE
  8
0
  6
CONTINUOUS
 62
     1
 10
132.973
 20
55.697720687
 30
0.0
 11
133.26129925
 21
55.957190012
 31
0.0
  0
LINE
  8
0
  6
CONTINUOUS
 62
     1
 10
133.26129925
 20
56.947017437
 30
0.0
 11
132.973
 21
56.658718187
 31
0.0
  0
LINE
  8
0
  6
CONTINUOUS
 62
     1
 10
132.973
 20
56.677938137
 30
0.0
 11
132.973
 21
53.271202
 31
0.0
  0
LINE
  8
0
  6
CONTINUOUS
 62
     1
 10
133.210366382
 20
54.04
 30
0.0
 11
132.970117007
 21
54.2321995
 31
0.0
  0
LINE
  8
0
  6
CONTINUOUS
 62
     1
 10
133.213249375
 20
53.030952625
 30
0.0
 11
134.59304625
 21
53.030952625
 31
0.0
  0
LINE
  8
0
  6
CONTINUOUS
 62
     1
 10
133.210366382
 20
54.04
 30
0.0
 11
134.59304625
 21
54.04
 31
0.0
  0
LINE
  8
0
  6
CONTINUOUS
 62
     1
 10
134.59304625
 20
55.961995
 30
0.0
 11
133.245282625
 21
55.961995
 31
0.0
  0
LINE
  8
0
  6
CONTINUOUS
 62
     1
 10
134.59304625
 20
56.9229925
 30
0.0
 11
133.213249375
 21
56.9229925
 31
0.0
  0
LINE
  8
0
  6
CONTINUOUS
 62
     1
 10
134.59304625
 20
53.030952625
 30
0.0
 11
134.59304625
 21
56.9229925
 31
0.0
  0
LINE
  8
0
  6
CONTINUOUS
 62
     1
 10
135.14304625
 20
56.8
 30
0.0
 11
134.59304625
 21
56.8
 31
0.0
  0
LINE
  8
0
  6
CONTINUOUS
 62
     1
 10
134.59304625
 20
56.8
 30
0.0
 11
134.59304625
 21
53.15
 31
0.0
  0
LINE
  8
0
  6
CONTINUOUS
 62
     1
 10
134.59304625
 20
53.15
 30
0.0
 11
135.14304625
 21
53.15
 31
0.0
  0
LINE
  8
0
  6
CONTINUOUS
 62
     1
 10
135.14304625
 20
53.15
 30
0.0
 11
135.14304625
 21
56.8
 31
0.0
  0
LINE
  8
0
  6
CONTINUOUS
 62
     1
 10
135.14304625
 20
55.15
 30
0.0
 11
134.59304625
 21
54.85
 31
0.0
  0
LINE
  8
0
  6
CONTINUOUS
 62
     1
 10
135.14304625
 20
55.3
 30
0.0
 11
134.59304625
 21
55.0
 31
0.0
  0
ARC
  8
0
  6
CONTINUOUS
 62
     1
 10
124.26130299
 20
55.727614219
 30
0.0
 40
0.966742525
 50
88.472474559
 51
180.0
  0
ARC
  8
0
  6
CONTINUOUS
 62
     1
 10
124.26130299
 20
54.232385781
 30
0.0
 40
0.966742525
 50
180.0
 51
270.0
  0
LINE
  8
0
  6
CONTINUOUS
 62
     1
 10
123.294560465
 20
54.232385781
 30
0.0
 11
123.294560465
 21
55.727614219
 31
0.0
  0
LINE
  8
0
  6
CONTINUOUS
 62
     1
 10
123.384789768
 20
54.696422193
 30
0.0
 11
123.384789768
 21
55.186238405
 31
0.0
  0
LINE
  8
0
  6
CONTINUOUS
 62
     1
 10
124.648
 20
53.265643256
 30
0.0
 11
124.24841309
 21
53.265643256
 31
0.0
  0
LINE
  8
0
  6
CONTINUOUS
 62
     1
 10
124.24841309
 20
56.668576943
 30
0.0
 11
124.648
 21
56.694356744
 31
0.0
  0
LINE
  8
0
  6
CONTINUOUS
 62
     1
 10
124.648
 20
53.265643256
 30
0.0
 11
124.648
 21
56.694356744
 31
0.0
  0
LINE
  8
0
  6
CONTINUOUS
 62
     1
 10
145.148
 20
53.5
 30
0.0
 11
149.148
 21
53.5
 31
0.0
  0
LINE
  8
0
  6
CONTINUOUS
 62
     1
 10
149.148
 20
53.5
 30
0.0
 11
149.148
 21
56.5
 31
0.0
  0
LINE
  8
0
  6
CONTINUOUS
 62
     1
 10
149.148
 20
56.5
 30
0.0
 11
145.148
 21
56.5
 31
0.0
  0
LINE
  8
0
  6
CONTINUOUS
 62
     1
 10
145.148
 20
56.5
 30
0.0
 11
145.148
 21
53.5
 31
0.0
  0
LINE
  8
0
  6
CONTINUOUS
 62
     1
 10
145.148
 20
54.0
 30
0.0
 11
136.648
 21
54.0
 31
0.0
  0
LINE
  8
0
  6
CONTINUOUS
 62
     1
 10
132.973
 20
54.0
 30
0.0
 11
124.613
 21
54.0
 31
0.0
  0
LINE
  8
0
  6
CONTINUOUS
 62
     1
 10
124.648
 20
56.0
 30
0.0
 11
132.958
 21
56.0
 31
0.0
  0
LINE
  8
0
  6
CONTINUOUS
 62
     1
 10
136.658
 20
56.0
 30
0.0
 11
145.148
 21
56.0
 31
0.0
  0
POLYLINE
  8
0
  6
CONTINUOUS
 62
     1
 66
     1
 70
     1
  0
VERTEX
  8
0
  6
CONTINUOUS
 62
     1
 10
159.35
 20
56.75
 30
0.0
 42
0.050699051
  0
VERTEX
  8
0
  6
CONTINUOUS
 62
     1
 10
159.284633193
 20
56.743340722
 30
0.0
 42
0.047888382
  0
VERTEX
  8
0
  6
CONTINUOUS
 62
     1
 10
159.219763867
 20
56.723413568
 30
0.0
 42
0.042866866
  0
VERTEX
  8
0
  6
CONTINUOUS
 62
     1
 10
159.155885716
 20
56.690370196
 30
0.0
 42
0.037053014
  0
VERTEX
  8
0
  6
CONTINUOUS
 62
     1
 10
159.093484893
 20
56.644462086
 30
0.0
 42
0.03149445
  0
VERTEX
  8
0
  6
CONTINUOUS
 62
     1
 10
159.033036304
 20
56.586038627
 30
0.0
 42
0.026685798
  0
VERTEX
  8
0
  6
CONTINUOUS
 62
     1
 10
158.975
 20
56.515544457
 30
0.0
 42
0.022738135
  0
VERTEX
  8
0
  6
CONTINUOUS
 62
     1
 10
158.919817673
 20
56.433516078
 30
0.0
 42
0.019580374
  0
VERTEX
  8
0
  6
CONTINUOUS
 62
     1
 10
158.867909293
 20
56.340577775
 30
0.0
 42
0.017083706
  0
VERTEX
  8
0
  6
CONTINUOUS
 62
     1
 10
158.819669914
 20
56.237436867
 30
0.0
 42
0.015118648
  0
VERTEX
  8
0
  6
CONTINUOUS
 62
     1
 10
158.775466668
 20
56.124878317
 30
0.0
 42
0.013574987
  0
VERTEX
  8
0
  6
CONTINUOUS
 62
     1
 10
158.735635967
 20
56.003758764
 30
0.0
 42
0.012365369
  0
VERTEX
  8
0
  6
CONTINUOUS
 62
     1
 10
158.700480947
 20
55.875
 30
0.0
 42
0.011422971
  0
VERTEX
  8
0
  6
CONTINUOUS
 62
     1
 10
158.67026916
 20
55.739581958
 30
0.0
 42
0.010697726
  0
VERTEX
  8
0
  6
CONTINUOUS
 62
     1
 10
158.645230534
 20
55.598535251
 30
0.0
 42
0.010152756
  0
VERTEX
  8
0
  6
CONTINUOUS
 62
     1
 10
158.62555563
 20
55.452933329
 30
0.0
 42
0.0097615
  0
VERTEX
  8
0
  6
CONTINUOUS
 62
     1
 10
158.611394185
 20
55.303884311
 30
0.0
 42
0.009505575
  0
VERTEX
  8
0
  6
CONTINUOUS
 62
     1
 10
158.602853976
 20
55.15252255
 30
0.0
 42
0.009373296
  0
VERTEX
  8
0
  6
CONTINUOUS
 62
     1
 10
158.6
 20
55.0
 30
0.0
 42
0.009358733
  0
VERTEX
  8
0
  6
CONTINUOUS
 62
     1
 10
158.602853976
 20
54.84747745
 30
0.0
 42
0.009461238
  0
VERTEX
  8
0
  6
CONTINUOUS
 62
     1
 10
158.611394185
 20
54.696115689
 30
0.0
 42
0.009685393
  0
VERTEX
  8
0
  6
CONTINUOUS
 62
     1
 10
158.62555563
 20
54.547066671
 30
0.0
 42
0.010041376
  0
VERTEX
  8
0
  6
CONTINUOUS
 62
     1
 10
158.645230534
 20
54.401464749
 30
0.0
 42
0.010545778
  0
VERTEX
  8
0
  6
CONTINUOUS
 62
     1
 10
158.67026916
 20
54.260418042
 30
0.0
 42
0.011222943
  0
VERTEX
  8
0
  6
CONTINUOUS
 62
     1
 10
158.700480947
 20
54.125
 30
0.0
 42
0.01210693
  0
VERTEX
  8
0
  6
CONTINUOUS
 62
     1
 10
158.735635967
 20
53.996241236
 30
0.0
 42
0.013244199
  0
VERTEX
  8
0
  6
CONTINUOUS
 62
     1
 10
158.775466668
 20
53.875121683
 30
0.0
 42
0.014697022
  0
VERTEX
  8
0
  6
CONTINUOUS
 62
     1
 10
158.819669914
 20
53.762563133
 30
0.0
 42
0.0165473
  0
VERTEX
  8
0
  6
CONTINUOUS
 62
     1
 10
158.867909293
 20
53.659422225
 30
0.0
 42
0.018899517
  0
VERTEX
  8
0
  6
CONTINUOUS
 62
     1
 10
158.919817673
 20
53.566483922
 30
0.0
 42
0.021879309
  0
VERTEX
  8
0
  6
CONTINUOUS
 62
     1
 10
158.975
 20
53.484455543
 30
0.0
 42
0.025619082
  0
VERTEX
  8
0
  6
CONTINUOUS
 62
     1
 10
159.033036304
 20
53.413961373
 30
0.0
 42
0.030212853
  0
VERTEX
  8
0
  6
CONTINUOUS
 62
     1
 10
159.093484893
 20
53.355537914
 30
0.0
 42
0.035611414
  0
VERTEX
  8
0
  6
CONTINUOUS
 62
     1
 10
159.155885716
 20
53.309629804
 30
0.0
 42
0.041436988
  0
VERTEX
  8
0
  6
CONTINUOUS
 62
     1
 10
159.219763867
 20
53.276586432
 30
0.0
 42
0.046783888
  0
VERTEX
  8
0
  6
CONTINUOUS
 62
     1
 10
159.284633193
 20
53.256659278
 30
0.0
 42
0.050275899
  0
VERTEX
  8
0
  6
CONTINUOUS
 62
     1
 10
159.35
 20
53.25
 30
0.0
 42
0.050699051
  0
VERTEX
  8
0
  6
CONTINUOUS
 62
     1
 10
159.415366807
 20
53.256659278
 30
0.0
 42
0.047888382
  0
VERTEX
  8
0
  6
CONTINUOUS
 62
     1
 10
159.480236133
 20
53.276586432
 30
0.0
 42
0.042866866
  0
VERTEX
  8
0
  6
CONTINUOUS
 62
     1
 10
159.544114284
 20
53.309629804
 30
0.0
 42
0.037053014
  0
VERTEX
  8
0
  6
CONTINUOUS
 62
     1
 10
159.606515107
 20
53.355537914
 30
0.0
 42
0.03149445
  0
VERTEX
  8
0
  6
CONTINUOUS
 62
     1
 10
159.666963696
 20
53.413961373
 30
0.0
 42
0.026685798
  0
VERTEX
  8
0
  6
CONTINUOUS
 62
     1
 10
159.725
 20
53.484455543
 30
0.0
 42
0.022738135
  0
VERTEX
  8
0
  6
CONTINUOUS
 62
     1
 10
159.780182327
 20
53.566483922
 30
0.0
 42
0.019580374
  0
VERTEX
  8
0
  6
CONTINUOUS
 62
     1
 10
159.832090707
 20
53.659422225
 30
0.0
 42
0.017083706
  0
VERTEX
  8
0
  6
CONTINUOUS
 62
     1
 10
159.880330086
 20
53.762563133
 30
0.0
 42
0.015118648
  0
VERTEX
  8
0
  6
CONTINUOUS
 62
     1
 10
159.924533332
 20
53.875121683
 30
0.0
 42
0.013574987
  0
VERTEX
  8
0
  6
CONTINUOUS
 62
     1
 10
159.964364033
 20
53.996241236
 30
0.0
 42
0.012365369
  0
VERTEX
  8
0
  6
CONTINUOUS
 62
     1
 10
159.999519053
 20
54.125
 30
0.0
 42
0.011422971
  0
VERTEX
  8
0
  6
CONTINUOUS
 62
     1
 10
160.02973084
 20
54.260418042
 30
0.0
 42
0.010697726
  0
VERTEX
  8
0
  6
CONTINUOUS
 62
     1
 10
160.054769466
 20
54.401464749
 30
0.0
 42
0.010152756
  0
VERTEX
  8
0
  6
CONTINUOUS
 62
     1
 10
160.07444437
 20
54.547066671
 30
0.0
 42
0.0097615
  0
VERTEX
  8
0
  6
CONTINUOUS
 62
     1
 10
160.088605815
 20
54.696115689
 30
0.0
 42
0.009505575
  0
VERTEX
  8
0
  6
CONTINUOUS
 62
     1
 10
160.097146024
 20
54.84747745
 30
0.0
 42
0.009373296
  0
VERTEX
  8
0
  6
CONTINUOUS
 62
     1
 10
160.1
 20
55.0
 30
0.0
 42
0.009358733
  0
VERTEX
  8
0
  6
CONTINUOUS
 62
     1
 10
160.097146024
 20
55.15252255
 30
0.0
 42
0.009461238
  0
VERTEX
  8
0
  6
CONTINUOUS
 62
     1
 10
160.088605815
 20
55.303884311
 30
0.0
 42
0.009685393
  0
VERTEX
  8
0
  6
CONTINUOUS
 62
     1
 10
160.07444437
 20
55.452933329
 30
0.0
 42
0.010041376
  0
VERTEX
  8
0
  6
CONTINUOUS
 62
     1
 10
160.054769466
 20
55.598535251
 30
0.0
 42
0.010545778
  0
VERTEX
  8
0
  6
CONTINUOUS
 62
     1
 10
160.02973084
 20
55.739581958
 30
0.0
 42
0.011222943
  0
VERTEX
  8
0
  6
CONTINUOUS
 62
     1
 10
159.999519053
 20
55.875
 30
0.0
 42
0.01210693
  0
VERTEX
  8
0
  6
CONTINUOUS
 62
     1
 10
159.964364033
 20
56.003758764
 30
0.0
 42
0.013244199
  0
VERTEX
  8
0
  6
CONTINUOUS
 62
     1
 10
159.924533332
 20
56.124878317
 30
0.0
 42
0.014697022
  0
VERTEX
  8
0
  6
CONTINUOUS
 62
     1
 10
159.880330086
 20
56.237436867
 30
0.0
 42
0.0165473
  0
VERTEX
  8
0
  6
CONTINUOUS
 62
     1
 10
159.832090707
 20
56.340577775
 30
0.0
 42
0.018899517
  0
VERTEX
  8
0
  6
CONTINUOUS
 62
     1
 10
159.780182327
 20
56.433516078
 30
0.0
 42
0.021879309
  0
VERTEX
  8
0
  6
CONTINUOUS
 62
     1
 10
159.725
 20
56.515544457
 30
0.0
 42
0.025619082
  0
VERTEX
  8
0
  6
CONTINUOUS
 62
     1
 10
159.666963696
 20
56.586038627
 30
0.0
 42
0.030212853
  0
VERTEX
  8
0
  6
CONTINUOUS
 62
     1
 10
159.606515107
 20
56.644462086
 30
0.0
 42
0.035611414
  0
VERTEX
  8
0
  6
CONTINUOUS
 62
     1
 10
159.544114284
 20
56.690370196
 30
0.0
 42
0.041436988
  0
VERTEX
  8
0
  6
CONTINUOUS
 62
     1
 10
159.480236133
 20
56.723413568
 30
0.0
 42
0.046783888
  0
VERTEX
  8
0
  6
CONTINUOUS
 62
     1
 10
159.415366807
 20
56.743340722
 30
0.0
 42
0.050275899
  0
SEQEND
  8
0
  6
CONTINUOUS
 62
     1
  0
LINE
  8
0
  6
CONTINUOUS
 62
     1
 10
43.0
 20
93.9
 30
0.0
 11
43.0
 21
168.9
 31
0.0
  0
LINE
  8
0
  6
CONTINUOUS
 62
     1
 10
22.5
 20
93.9
 30
0.0
 11
23.0
 21
93.9
 31
0.0
  0
ARC
  8
0
  6
CONTINUOUS
 62
     1
 10
22.5
 20
94.9
 30
0.0
 40
1.0
 50
180.0
 51
270.0
  0
LINE
  8
0
  6
CONTINUOUS
 62
     1
 10
23.0
 20
168.9
 30
0.0
 11
22.5
 21
168.9
 31
0.0
  0
LINE
  8
0
  6
CONTINUOUS
 62
     1
 10
21.5
 20
167.9
 30
0.0
 11
21.5
 21
94.9
 31
0.0
  0
ARC
  8
0
  6
CONTINUOUS
 62
     1
 10
22.5
 20
167.9
 30
0.0
 40
1.0
 50
90.0
 51
180.0
  0
LINE
  8
0
  6
CONTINUOUS
 62
     1
 10
43.5
 20
168.9
 30
0.0
 11
43.0
 21
168.9
 31
0.0
  0
ARC
  8
0
  6
CONTINUOUS
 62
     1
 10
43.5
 20
167.9
 30
0.0
 40
1.0
 50
0.0
 51
90.0
  0
LINE
  8
0
  6
CONTINUOUS
 62
     1
 10
43.0
 20
93.9
 30
0.0
 11
43.5
 21
93.9
 31
0.0
  0
LINE
  8
0
  6
CONTINUOUS
 62
     1
 10
44.5
 20
94.9
 30
0.0
 11
44.5
 21
167.9
 31
0.0
  0
ARC
  8
0
  6
CONTINUOUS
 62
     1
 10
43.5
 20
94.9
 30
0.0
 40
1.0
 50
270.0
 51
0.0
  0
LINE
  8
0
  6
CONTINUOUS
 62
     1
 10
30.5
 20
172.65
 30
0.0
 11
35.5
 21
172.65
 31
0.0
  0
LINE
  8
0
  6
CONTINUOUS
 62
     1
 10
30.5
 20
90.15
 30
0.0
 11
35.5
 21
90.15
 31
0.0
  0
LINE
  8
0
  6
CONTINUOUS
 62
     1
 10
30.5
 20
168.9
 30
0.0
 11
23.0
 21
168.9
 31
0.0
  0
LINE
  8
0
  6
CONTINUOUS
 62
     1
 10
43.0
 20
168.9
 30
0.0
 11
35.5
 21
168.9
 31
0.0
  0
LINE
  8
0
  6
CONTINUOUS
 62
     1
 10
23.0
 20
93.9
 30
0.0
 11
30.5
 21
93.9
 31
0.0
  0
LINE
  8
0
  6
CONTINUOUS
 62
     1
 10
35.5
 20
93.9
 30
0.0
 11
43.0
 21
93.9
 31
0.0
  0
LINE
  8
0
  6
CONTINUOUS
 62
     1
 10
30.5
 20
102.65
 30
0.0
 11
30.5
 21
90.15
 31
0.0
  0
LINE
  8
0
  6
CONTINUOUS
 62
     1
 10
23.0
 20
95.15
 30
0.0
 11
30.5
 21
95.15
 31
0.0
  0
LINE
  8
0
  6
CONTINUOUS
 62
     1
 10
35.5
 20
95.15
 30
0.0
 11
43.0
 21
95.15
 31
0.0
  0
LINE
  8
0
  6
CONTINUOUS
 62
     1
 10
30.5
 20
160.17
 30
0.0
 11
30.5
 21
172.65
 31
0.0
  0
LINE
  8
0
  6
CONTINUOUS
 62
     1
 10
23.0
 20
160.17
 30
0.0
 11
43.0
 21
160.17
 31
0.0
  0
LINE
  8
0
  6
CONTINUOUS
 62
     1
 10
23.0
 20
167.65
 30
0.0
 11
30.5
 21
167.65
 31
0.0
  0
LINE
  8
0
  6
CONTINUOUS
 62
     1
 10
35.5
 20
167.65
 30
0.0
 11
43.0
 21
167.65
 31
0.0
  0
LINE
  8
0
  6
CONTINUOUS
 62
     1
 10
35.7
 20
166.16
 30
0.0
 11
43.0
 21
166.16
 31
0.0
  0
LINE
  8
0
  6
CONTINUOUS
 62
     1
 10
35.5
 20
172.65
 30
0.0
 11
35.5
 21
166.36
 31
0.0
  0
ARC
  8
0
  6
CONTINUOUS
 62
     1
 10
35.7
 20
166.36
 30
0.0
 40
0.2
 50
180.0
 51
270.0
  0
LINE
  8
0
  6
CONTINUOUS
 62
     1
 10
35.7
 20
161.66
 30
0.0
 11
43.0
 21
161.66
 31
0.0
  0
LINE
  8
0
  6
CONTINUOUS
 62
     1
 10
35.5
 20
161.46
 30
0.0
 11
35.5
 21
160.17
 31
0.0
  0
ARC
  8
0
  6
CONTINUOUS
 62
     1
 10
35.7
 20
161.46
 30
0.0
 40
0.2
 50
90.0
 51
180.0
  0
LINE
  8
0
  6
CONTINUOUS
 62
     1
 10
35.5
 20
166.36
 30
0.0
 11
35.5
 21
161.46
 31
0.0
  0
LINE
  8
0
  6
CONTINUOUS
 62
     1
 10
35.7
 20
96.65
 30
0.0
 11
43.0
 21
96.65
 31
0.0
  0
LINE
  8
0
  6
CONTINUOUS
 62
     1
 10
35.5
 20
90.15
 30
0.0
 11
35.5
 21
96.45
 31
0.0
  0
ARC
  8
0
  6
CONTINUOUS
 62
     1
 10
35.7
 20
96.45
 30
0.0
 40
0.2
 50
90.0
 51
180.0
  0
ARC
  8
0
  6
CONTINUOUS
 62
     1
 10
27.5
 20
163.91
 30
0.0
 40
1.0
 50
90.0
 51
270.0
  0
LINE
  8
0
  6
CONTINUOUS
 62
     1
 10
27.5
 20
162.91
 30
0.0
 11
30.5
 21
162.842258065
 31
0.0
  0
LINE
  8
0
  6
CONTINUOUS
 62
     1
 10
27.5
 20
164.91
 30
0.0
 11
30.5
 21
164.977741935
 31
0.0
  0
LINE
  8
0
  6
CONTINUOUS
 62
     1
 10
35.5
 20
165.090645161
 30
0.0
 11
43.0
 21
165.26
 31
0.0
  0
LINE
  8
0
  6
CONTINUOUS
 62
     1
 10
35.5
 20
162.729354839
 30
0.0
 11
43.0
 21
162.56
 31
0.0
  0
ARC
  8
0
  6
CONTINUOUS
 62
     1
 10
27.5
 20
98.9
 30
0.0
 40
1.0
 50
90.0
 51
270.0
  0
LINE
  8
0
  6
CONTINUOUS
 62
     1
 10
27.5
 20
97.9
 30
0.0
 11
30.5
 21
97.832258065
 31
0.0
  0
LINE
  8
0
  6
CONTINUOUS
 62
     1
 10
27.5
 20
99.9
 30
0.0
 11
30.5
 21
99.967741935
 31
0.0
  0
LINE
  8
0
  6
CONTINUOUS
 62
     1
 10
35.5
 20
97.719354839
 30
0.0
 11
43.0
 21
97.55
 31
0.0
  0
LINE
  8
0
  6
CONTINUOUS
 62
     1
 10
125.991883885
 20
103.762966102
 30
0.0
 11
125.990458534
 21
103.750127061
 31
0.0
  0
LINE
  8
0
  6
CONTINUOUS
 62
     1
 10
88.624983396
 20
107.898328114
 30
0.0
 11
125.948217274
 21
103.777804733
 31
0.0
  0
LINE
  8
0
  6
CONTINUOUS
 62
     1
 10
25.706
 20
29.45
 30
0.0
 11
40.294
 21
29.45
 31
0.0
  0
LINE
  8
0
  6
CONTINUOUS
 62
     1
 10
40.294
 20
29.45
 30
0.0
 11
40.294
 21
80.55
 31
0.0
  0
LINE
  8
0
  6
CONTINUOUS
 62
     1
 10
40.294
 20
80.55
 30
0.0
 11
25.706
 21
80.55
 31
0.0
  0
LINE
  8
0
  6
CONTINUOUS
 62
     1
 10
25.706
 20
80.55
 30
0.0
 11
25.706
 21
29.45
 31
0.0
  0
TEXT
  8
0
  6
CONTINUOUS
 62
     1
 10
24.753955391
 20
20.032106136
 30
0.2982
 40
2.982
  1
パネルカット
 50
0.0
 41
0.9
 51
0.0
  7
KANJI0
  0
LINE
  8
0
  6
CONTINUOUS
 62
     1
 10
23.759955391
 20
18.640506136
 30
0.0
 11
42.645955391
 21
18.640506136
 31
0.0
  0
LINE
  8
0
  6
CONTINUOUS
 62
     1
 10
165.003765984
 20
165.462981704
 30
0.0
 11
164.076715001
 21
168.316151252
 31
0.0
  0
LINE
  8
0
  6
CONTINUOUS
 62
     1
 10
164.076715001
 20
168.316151252
 30
0.0
 11
163.838950872
 21
168.238897004
 31
0.0
  0
LINE
  8
0
  6
CONTINUOUS
 62
     1
 10
163.838950872
 20
168.238897004
 30
0.0
 11
163.761696623
 21
168.476661133
 31
0.0
  0
LINE
  8
0
  6
CONTINUOUS
 62
     1
 10
163.761696623
 20
168.476661133
 30
0.0
 11
159.012415425
 21
167.722122797
 31
0.0
  0
LINE
  8
0
  6
CONTINUOUS
 62
     1
 10
159.012415425
 20
167.722122797
 30
0.0
 11
160.557500397
 21
162.966840215
 31
0.0
  0
LINE
  8
0
  6
CONTINUOUS
 62
     1
 10
160.497542486
 20
162.947358709
 30
0.0
 11
164.843256103
 21
165.147963326
 31
0.0
  0
LINE
  8
0
  6
CONTINUOUS
 62
     1
 10
164.843256103
 20
165.147963326
 30
0.0
 11
163.838950872
 21
168.238897004
 31
0.0
  0
LINE
  8
0
  6
CONTINUOUS
 62
     1
 10
165.003765984
 20
165.462981704
 30
0.0
 11
164.766001855
 21
165.385727455
 31
0.0
  0
LINE
  8
0
  6
CONTINUOUS
 62
     1
 10
158.937006664
 20
167.750194117
 30
0.0
 11
160.497542486
 21
162.947358709
 31
0.0
  0
TEXT
  8
0
  6
CONTINUOUS
 62
     1
 10
182.627979374
 20
57.57758106
 30
0.3
 40
3.5
  1
計器取付方法
 50
0.0
 41
0.9
 51
0.0
  7
KANJI1
  0
LINE
  8
0
  6
CONTINUOUS
 62
     1
 10
181.427979374
 20
56.32758106
 30
0.0
 11
204.427979374
 21
56.32758106
 31
0.0
  0
LINE
  8
0
  6
CONTINUOUS
 62
     1
 10
42.35
 20
165.26
 30
0.0
 11
42.35
 21
162.61
 31
0.0
  0
LINE
  8
0
  6
CONTINUOUS
 62
     1
 10
42.35
 20
100.235322581
 30
0.0
 11
42.35
 21
97.564677419
 31
0.0
  0
TEXT
  8
0
  6
CONTINUOUS
 62
     1
 10
76.887241836
 20
76.85
 30
0.2
 40
4.0
  1
端子構成　　
 50
0.0
 41
0.8
 51
0.0
  7
KANJI2
  0
LINE
  8
0
  6
CONTINUOUS
 62
     1
 10
23.0
 20
102.65
 30
0.0
 11
33.95
 21
102.65
 31
0.0
  0
LINE
  8
0
  6
CONTINUOUS
 62
     1
 10
40.2
 20
102.65
 30
0.0
 11
43.0
 21
102.65
 31
0.0
  0
LINE
  8
0
  6
CONTINUOUS
 62
     1
 10
26.25
 20
154.218145715
 30
0.0
 11
23.5
 21
154.218145715
 31
0.0
  0
ARC
  8
0
  6
CONTINUOUS
 62
     1
 10
23.5
 20
153.718145715
 30
0.0
 40
0.5
 50
90.0
 51
180.0
  0
LINE
  8
0
  6
CONTINUOUS
 62
     1
 10
26.75
 20
153.218145715
 30
0.0
 11
43.0
 21
153.218145715
 31
0.0
  0
ARC
  8
0
  6
CONTINUOUS
 62
     1
 10
26.75
 20
152.718145715
 30
0.0
 40
0.5
 50
90.0
 51
180.0
  0
LINE
  8
0
  6
CONTINUOUS
 62
     1
 10
23.5
 20
108.180246512
 30
0.0
 11
26.25
 21
108.180246512
 31
0.0
  0
LINE
  8
0
  6
CONTINUOUS
 62
     1
 10
23.0
 20
153.718145715
 30
0.0
 11
23.0
 21
108.680246512
 31
0.0
  0
ARC
  8
0
  6
CONTINUOUS
 62
     1
 10
23.5
 20
108.680246512
 30
0.0
 40
0.5
 50
180.0
 51
270.0
  0
LINE
  8
0
  6
CONTINUOUS
 62
     1
 10
26.75
 20
109.180246512
 30
0.0
 11
43.0
 21
109.180246512
 31
0.0
  0
ARC
  8
0
  6
CONTINUOUS
 62
     1
 10
26.75
 20
109.680246512
 30
0.0
 40
0.5
 50
180.0
 51
270.0
  0
LINE
  8
0
  6
CONTINUOUS
 62
     1
 10
23.0
 20
108.680246512
 30
0.0
 11
23.0
 21
93.9
 31
0.0
  0
LINE
  8
0
  6
CONTINUOUS
 62
     1
 10
23.0
 20
168.9
 30
0.0
 11
23.0
 21
153.730246512
 31
0.0
  0
LINE
  8
0
  6
CONTINUOUS
 62
     1
 10
26.25
 20
152.630246512
 30
0.0
 11
26.25
 21
154.218145715
 31
0.0
  0
ARC
  8
0
  6
CONTINUOUS
 62
     2
 10
60.4
 20
131.4
 30
0.0
 40
104.2
 50
16.7327446
 51
20.745640042
  0
ARC
  8
0
  6
CONTINUOUS
 62
     2
 10
60.4
 20
131.4
 30
0.0
 40
104.2
 50
339.254359958
 51
343.2672554
  0
LINE
  8
0
  6
CONTINUOUS
 62
     2
 10
77.4
 20
153.7
 30
0.0
 11
77.4
 21
109.644491525
 31
0.0
  0
LINE
  8
0
  6
CONTINUOUS
 62
     2
 10
137.4
 20
167.15
 30
0.0
 11
137.4
 21
159.75
 31
0.0
  0
LINE
  8
0
  6
CONTINUOUS
 62
     2
 10
77.4
 20
153.7
 30
0.0
 11
137.4
 21
159.802564103
 31
0.0
  0
LINE
  8
0
  6
CONTINUOUS
 62
     2
 10
137.4
 20
95.65
 30
0.0
 11
137.4
 21
102.95
 31
0.0
  0
LINE
  8
0
  6
CONTINUOUS
 62
     2
 10
77.4
 20
109.644491525
 30
0.0
 11
137.4
 21
102.983474576
 31
0.0
  0
LINE
  8
0
  6
CONTINUOUS
 62
     2
 10
154.425
 20
95.65
 30
0.0
 11
154.425
 21
94.4
 31
0.0
  0
LINE
  8
0
  6
CONTINUOUS
 62
     2
 10
154.425
 20
94.4
 30
0.0
 11
157.825
 21
94.4
 31
0.0
  0
LINE
  8
0
  6
CONTINUOUS
 62
     2
 10
154.3875
 20
167.15
 30
0.0
 11
154.3875
 21
168.35
 31
0.0
  0
LINE
  8
0
  6
CONTINUOUS
 62
     2
 10
154.3875
 20
168.35
 30
0.0
 11
157.7875
 21
168.35
 31
0.0
  0
CIRCLE
  8
0
  6
CONTINUOUS
 62
     2
 10
141.9
 20
97.65
 30
0.0
 40
1.2495
  0
LINE
  8
0
  6
CONTINUOUS
 62
     2
 10
141.171125
 20
97.8166
 30
0.0
 11
141.5668
 21
97.8166
 31
0.0
  0
ARC
  8
0
  6
CONTINUOUS
 62
     2
 10
141.5668
 20
97.9832
 30
0.0
 40
0.1666
 50
270.0
 51
0.0
  0
LINE
  8
0
  6
CONTINUOUS
 62
     2
 10
141.7334
 20
97.9832
 30
0.0
 11
141.7334
 21
98.378875
 31
0.0
  0
LINE
  8
0
  6
CONTINUOUS
 62
     2
 10
141.7334
 20
98.378875
 30
0.0
 11
142.0666
 21
98.378875
 31
0.0
  0
LINE
  8
0
  6
CONTINUOUS
 62
     2
 10
142.0666
 20
98.378875
 30
0.0
 11
142.0666
 21
97.9832
 31
0.0
  0
ARC
  8
0
  6
CONTINUOUS
 62
     2
 10
142.2332
 20
97.9832
 30
0.0
 40
0.1666
 50
180.0
 51
270.0
  0
LINE
  8
0
  6
CONTINUOUS
 62
     2
 10
142.2332
 20
97.8166
 30
0.0
 11
142.628875
 21
97.8166
 31
0.0
  0
LINE
  8
0
  6
CONTINUOUS
 62
     2
 10
142.628875
 20
97.8166
 30
0.0
 11
142.628875
 21
97.4834
 31
0.0
  0
LINE
  8
0
  6
CONTINUOUS
 62
     2
 10
142.628875
 20
97.4834
 30
0.0
 11
142.2332
 21
97.4834
 31
0.0
  0
ARC
  8
0
  6
CONTINUOUS
 62
     2
 10
142.2332
 20
97.3168
 30
0.0
 40
0.1666
 50
90.0
 51
180.0
  0
LINE
  8
0
  6
CONTINUOUS
 62
     2
 10
142.0666
 20
97.3168
 30
0.0
 11
142.0666
 21
96.921125
 31
0.0
  0
LINE
  8
0
  6
CONTINUOUS
 62
     2
 10
142.0666
 20
96.921125
 30
0.0
 11
141.7334
 21
96.921125
 31
0.0
  0
LINE
  8
0
  6
CONTINUOUS
 62
     2
 10
141.7334
 20
96.921125
 30
0.0
 11
141.7334
 21
97.3168
 31
0.0
  0
ARC
  8
0
  6
CONTINUOUS
 62
     2
 10
141.5668
 20
97.3168
 30
0.0
 40
0.1666
 50
0.0
 51
90.0
  0
LINE
  8
0
  6
CONTINUOUS
 62
     2
 10
141.5668
 20
97.4834
 30
0.0
 11
141.171125
 21
97.4834
 31
0.0
  0
LINE
  8
0
  6
CONTINUOUS
 62
     2
 10
141.171125
 20
97.4834
 30
0.0
 11
141.171125
 21
97.8166
 31
0.0
  0
LINE
  8
0
  6
LTYPE1
 62
     2
 10
140.234
 20
97.65
 30
0.0
 11
143.566
 21
97.65
 31
0.0
  0
LINE
  8
0
  6
LTYPE1
 62
     2
 10
141.9
 20
99.316
 30
0.0
 11
141.9
 21
95.984
 31
0.0
  0
CIRCLE
  8
0
  6
CONTINUOUS
 62
     2
 10
141.9
 20
165.15
 30
0.0
 40
1.2495
  0
LINE
  8
0
  6
CONTINUOUS
 62
     2
 10
141.171125
 20
165.3166
 30
0.0
 11
141.5668
 21
165.3166
 31
0.0
  0
ARC
  8
0
  6
CONTINUOUS
 62
     2
 10
141.5668
 20
165.4832
 30
0.0
 40
0.1666
 50
270.0
 51
0.0
  0
LINE
  8
0
  6
CONTINUOUS
 62
     2
 10
141.7334
 20
165.4832
 30
0.0
 11
141.7334
 21
165.878875
 31
0.0
  0
LINE
  8
0
  6
CONTINUOUS
 62
     2
 10
141.7334
 20
165.878875
 30
0.0
 11
142.0666
 21
165.878875
 31
0.0
  0
LINE
  8
0
  6
CONTINUOUS
 62
     2
 10
142.0666
 20
165.878875
 30
0.0
 11
142.0666
 21
165.4832
 31
0.0
  0
ARC
  8
0
  6
CONTINUOUS
 62
     2
 10
142.2332
 20
165.4832
 30
0.0
 40
0.1666
 50
180.0
 51
270.0
  0
LINE
  8
0
  6
CONTINUOUS
 62
     2
 10
142.2332
 20
165.3166
 30
0.0
 11
142.628875
 21
165.3166
 31
0.0
  0
LINE
  8
0
  6
CONTINUOUS
 62
     2
 10
142.628875
 20
165.3166
 30
0.0
 11
142.628875
 21
164.9834
 31
0.0
  0
LINE
  8
0
  6
CONTINUOUS
 62
     2
 10
142.628875
 20
164.9834
 30
0.0
 11
142.2332
 21
164.9834
 31
0.0
  0
ARC
  8
0
  6
CONTINUOUS
 62
     2
 10
142.2332
 20
164.8168
 30
0.0
 40
0.1666
 50
90.0
 51
180.0
  0
LINE
  8
0
  6
CONTINUOUS
 62
     2
 10
142.0666
 20
164.8168
 30
0.0
 11
142.0666
 21
164.421125
 31
0.0
  0
LINE
  8
0
  6
CONTINUOUS
 62
     2
 10
142.0666
 20
164.421125
 30
0.0
 11
141.7334
 21
164.421125
 31
0.0
  0
LINE
  8
0
  6
CONTINUOUS
 62
     2
 10
141.7334
 20
164.421125
 30
0.0
 11
141.7334
 21
164.8168
 31
0.0
  0
ARC
  8
0
  6
CONTINUOUS
 62
     2
 10
141.5668
 20
164.8168
 30
0.0
 40
0.1666
 50
0.0
 51
90.0
  0
LINE
  8
0
  6
CONTINUOUS
 62
     2
 10
141.5668
 20
164.9834
 30
0.0
 11
141.171125
 21
164.9834
 31
0.0
  0
LINE
  8
0
  6
CONTINUOUS
 62
     2
 10
141.171125
 20
164.9834
 30
0.0
 11
141.171125
 21
165.3166
 31
0.0
  0
LINE
  8
0
  6
LTYPE1
 62
     2
 10
140.234
 20
165.15
 30
0.0
 11
143.566
 21
165.15
 31
0.0
  0
LINE
  8
0
  6
LTYPE1
 62
     2
 10
141.9
 20
166.816
 30
0.0
 11
141.9
 21
163.484
 31
0.0
  0
CIRCLE
  8
0
  6
CONTINUOUS
 62
     2
 10
79.4
 20
151.4
 30
0.0
 40
1.2495
  0
LINE
  8
0
  6
CONTINUOUS
 62
     2
 10
78.671125
 20
151.5666
 30
0.0
 11
79.0668
 21
151.5666
 31
0.0
  0
ARC
  8
0
  6
CONTINUOUS
 62
     2
 10
79.0668
 20
151.7332
 30
0.0
 40
0.1666
 50
270.0
 51
0.0
  0
LINE
  8
0
  6
CONTINUOUS
 62
     2
 10
79.2334
 20
151.7332
 30
0.0
 11
79.2334
 21
152.128875
 31
0.0
  0
LINE
  8
0
  6
CONTINUOUS
 62
     2
 10
79.2334
 20
152.128875
 30
0.0
 11
79.5666
 21
152.128875
 31
0.0
  0
LINE
  8
0
  6
CONTINUOUS
 62
     2
 10
79.5666
 20
152.128875
 30
0.0
 11
79.5666
 21
151.7332
 31
0.0
  0
ARC
  8
0
  6
CONTINUOUS
 62
     2
 10
79.7332
 20
151.7332
 30
0.0
 40
0.1666
 50
180.0
 51
270.0
  0
LINE
  8
0
  6
CONTINUOUS
 62
     2
 10
79.7332
 20
151.5666
 30
0.0
 11
80.128875
 21
151.5666
 31
0.0
  0
LINE
  8
0
  6
CONTINUOUS
 62
     2
 10
80.128875
 20
151.5666
 30
0.0
 11
80.128875
 21
151.2334
 31
0.0
  0
LINE
  8
0
  6
CONTINUOUS
 62
     2
 10
80.128875
 20
151.2334
 30
0.0
 11
79.7332
 21
151.2334
 31
0.0
  0
ARC
  8
0
  6
CONTINUOUS
 62
     2
 10
79.7332
 20
151.0668
 30
0.0
 40
0.1666
 50
90.0
 51
180.0
  0
LINE
  8
0
  6
CONTINUOUS
 62
     2
 10
79.5666
 20
151.0668
 30
0.0
 11
79.5666
 21
150.671125
 31
0.0
  0
LINE
  8
0
  6
CONTINUOUS
 62
     2
 10
79.5666
 20
150.671125
 30
0.0
 11
79.2334
 21
150.671125
 31
0.0
  0
LINE
  8
0
  6
CONTINUOUS
 62
     2
 10
79.2334
 20
150.671125
 30
0.0
 11
79.2334
 21
151.0668
 31
0.0
  0
ARC
  8
0
  6
CONTINUOUS
 62
     2
 10
79.0668
 20
151.0668
 30
0.0
 40
0.1666
 50
0.0
 51
90.0
  0
LINE
  8
0
  6
CONTINUOUS
 62
     2
 10
79.0668
 20
151.2334
 30
0.0
 11
78.671125
 21
151.2334
 31
0.0
  0
LINE
  8
0
  6
CONTINUOUS
 62
     2
 10
78.671125
 20
151.2334
 30
0.0
 11
78.671125
 21
151.5666
 31
0.0
  0
LINE
  8
0
  6
LTYPE1
 62
     2
 10
77.734
 20
151.4
 30
0.0
 11
81.066
 21
151.4
 31
0.0
  0
LINE
  8
0
  6
LTYPE1
 62
     2
 10
79.4
 20
153.066
 30
0.0
 11
79.4
 21
149.734
 31
0.0
  0
CIRCLE
  8
0
  6
CONTINUOUS
 62
     2
 10
79.4
 20
111.4
 30
0.0
 40
1.2495
  0
LINE
  8
0
  6
CONTINUOUS
 62
     2
 10
78.671125
 20
111.5666
 30
0.0
 11
79.0668
 21
111.5666
 31
0.0
  0
ARC
  8
0
  6
CONTINUOUS
 62
     2
 10
79.0668
 20
111.7332
 30
0.0
 40
0.1666
 50
270.0
 51
0.0
  0
LINE
  8
0
  6
CONTINUOUS
 62
     2
 10
79.2334
 20
111.7332
 30
0.0
 11
79.2334
 21
112.128875
 31
0.0
  0
LINE
  8
0
  6
CONTINUOUS
 62
     2
 10
79.2334
 20
112.128875
 30
0.0
 11
79.5666
 21
112.128875
 31
0.0
  0
LINE
  8
0
  6
CONTINUOUS
 62
     2
 10
79.5666
 20
112.128875
 30
0.0
 11
79.5666
 21
111.7332
 31
0.0
  0
ARC
  8
0
  6
CONTINUOUS
 62
     2
 10
79.7332
 20
111.7332
 30
0.0
 40
0.1666
 50
180.0
 51
270.0
  0
LINE
  8
0
  6
CONTINUOUS
 62
     2
 10
79.7332
 20
111.5666
 30
0.0
 11
80.128875
 21
111.5666
 31
0.0
  0
LINE
  8
0
  6
CONTINUOUS
 62
     2
 10
80.128875
 20
111.5666
 30
0.0
 11
80.128875
 21
111.2334
 31
0.0
  0
LINE
  8
0
  6
CONTINUOUS
 62
     2
 10
80.128875
 20
111.2334
 30
0.0
 11
79.7332
 21
111.2334
 31
0.0
  0
ARC
  8
0
  6
CONTINUOUS
 62
     2
 10
79.7332
 20
111.0668
 30
0.0
 40
0.1666
 50
90.0
 51
180.0
  0
LINE
  8
0
  6
CONTINUOUS
 62
     2
 10
79.5666
 20
111.0668
 30
0.0
 11
79.5666
 21
110.671125
 31
0.0
  0
LINE
  8
0
  6
CONTINUOUS
 62
     2
 10
79.5666
 20
110.671125
 30
0.0
 11
79.2334
 21
110.671125
 31
0.0
  0
LINE
  8
0
  6
CONTINUOUS
 62
     2
 10
79.2334
 20
110.671125
 30
0.0
 11
79.2334
 21
111.0668
 31
0.0
  0
ARC
  8
0
  6
CONTINUOUS
 62
     2
 10
79.0668
 20
111.0668
 30
0.0
 40
0.1666
 50
0.0
 51
90.0
  0
LINE
  8
0
  6
CONTINUOUS
 62
     2
 10
79.0668
 20
111.2334
 30
0.0
 11
78.671125
 21
111.2334
 31
0.0
  0
LINE
  8
0
  6
CONTINUOUS
 62
     2
 10
78.671125
 20
111.2334
 30
0.0
 11
78.671125
 21
111.5666
 31
0.0
  0
LINE
  8
0
  6
LTYPE1
 62
     2
 10
77.734
 20
111.4
 30
0.0
 11
81.066
 21
111.4
 31
0.0
  0
LINE
  8
0
  6
LTYPE1
 62
     2
 10
79.4
 20
113.066
 30
0.0
 11
79.4
 21
109.734
 31
0.0
  0
LINE
  8
0
  6
CONTINUOUS
 62
     2
 10
135.15
 20
165.614356744
 30
0.0
 11
134.660183787
 21
165.614356744
 31
0.0
  0
LINE
  8
0
  6
CONTINUOUS
 62
     2
 10
135.15
 20
164.054678804
 30
0.0
 11
134.660183787
 21
163.655091894
 31
0.0
  0
LINE
  8
0
  6
CONTINUOUS
 62
     2
 10
135.15
 20
164.364036412
 30
0.0
 11
134.647293887
 21
163.990229302
 31
0.0
  0
LINE
  8
0
  6
CONTINUOUS
 62
     2
 10
133.293854352
 20
163.629312093
 30
0.0
 11
133.384083655
 21
163.629312093
 31
0.0
  0
LINE
  8
0
  6
CONTINUOUS
 62
     2
 10
133.384083655
 20
164.106238405
 30
0.0
 11
133.306744253
 21
164.106238405
 31
0.0
  0
LINE
  8
0
  6
CONTINUOUS
 62
     2
 10
135.147293887
 20
162.185643256
 30
0.0
 11
134.647293887
 21
162.185643256
 31
0.0
  0
LINE
  8
0
  6
CONTINUOUS
 62
     2
 10
135.15
 20
162.184863455
 30
0.0
 11
135.15
 21
165.614356744
 31
0.0
  0
LINE
  8
0
  6
CONTINUOUS
 62
     2
 10
135.15
 20
100.614356744
 30
0.0
 11
134.660183787
 21
100.614356744
 31
0.0
  0
LINE
  8
0
  6
CONTINUOUS
 62
     2
 10
135.15
 20
99.054678804
 30
0.0
 11
134.660183787
 21
98.655091894
 31
0.0
  0
LINE
  8
0
  6
CONTINUOUS
 62
     2
 10
135.15
 20
99.364036412
 30
0.0
 11
134.647293887
 21
98.990229302
 31
0.0
  0
LINE
  8
0
  6
CONTINUOUS
 62
     2
 10
133.293854352
 20
98.629312093
 30
0.0
 11
133.384083655
 21
98.629312093
 31
0.0
  0
LINE
  8
0
  6
CONTINUOUS
 62
     2
 10
133.384083655
 20
99.106238405
 30
0.0
 11
133.306744253
 21
99.106238405
 31
0.0
  0
LINE
  8
0
  6
CONTINUOUS
 62
     2
 10
135.147293887
 20
97.185643256
 30
0.0
 11
134.647293887
 21
97.185643256
 31
0.0
  0
LINE
  8
0
  6
CONTINUOUS
 62
     2
 10
135.15
 20
97.184863455
 30
0.0
 11
135.15
 21
100.614356744
 31
0.0
  0
LINE
  8
0
  6
LTYPE1
 62
     2
 10
131.484083655
 20
98.9
 30
0.0
 11
138.884083655
 21
98.9
 31
0.0
  0
LINE
  8
0
  6
LTYPE1
 62
     2
 10
131.904083655
 20
163.91
 30
0.0
 11
139.304083655
 21
163.91
 31
0.0
  0
LINE
  8
0
  6
CONTINUOUS
 62
     2
 10
124.65
 20
169.859312093
 30
0.0
 11
124.740229302
 21
169.859312093
 31
0.0
  0
LINE
  8
0
  6
CONTINUOUS
 62
     2
 10
124.740229302
 20
170.336238405
 30
0.0
 11
124.6628899
 21
170.336238405
 31
0.0
  0
LINE
  8
0
  6
CONTINUOUS
 62
     2
 10
123.296560465
 20
92.359312093
 30
0.0
 11
123.386789768
 21
92.359312093
 31
0.0
  0
LINE
  8
0
  6
CONTINUOUS
 62
     2
 10
123.386789768
 20
92.836238405
 30
0.0
 11
123.309450366
 21
92.836238405
 31
0.0
  0
LINE
  8
0
  6
CONTINUOUS
 62
     2
 10
137.4
 20
167.15
 30
0.0
 11
153.85
 21
167.15
 31
0.0
  0
LINE
  8
0
  6
CONTINUOUS
 62
     2
 10
154.1
 20
167.15
 30
0.0
 11
154.3875
 21
167.15
 31
0.0
  0
LINE
  8
0
  6
CONTINUOUS
 62
     2
 10
137.4
 20
95.65
 30
0.0
 11
153.85
 21
95.65
 31
0.0
  0
LINE
  8
0
  6
CONTINUOUS
 62
     2
 10
154.1
 20
95.65
 30
0.0
 11
154.425
 21
95.65
 31
0.0
  0
LINE
  8
0
  6
CONTINUOUS
 62
     2
 10
153.85
 20
179.525
 30
0.0
 11
151.435185434
 21
180.172047613
 31
0.0
  0
LINE
  8
0
  6
CONTINUOUS
 62
     2
 10
153.85
 20
179.525
 30
0.0
 11
151.435185434
 21
178.877952387
 31
0.0
  0
LINE
  8
0
  6
CONTINUOUS
 62
     2
 10
153.85
 20
169.15
 30
0.0
 11
153.85
 21
181.525
 31
0.0
  0
LINE
  8
0
  6
CONTINUOUS
 62
     2
 10
153.85
 20
179.525
 30
0.0
 11
156.264814566
 21
178.877952387
 31
0.0
  0
LINE
  8
0
  6
CONTINUOUS
 62
     2
 10
153.85
 20
179.525
 30
0.0
 11
156.264814566
 21
180.172047613
 31
0.0
  0
LINE
  8
0
  6
CONTINUOUS
 62
     2
 10
153.85
 20
179.525
 30
0.0
 11
165.4
 21
179.525
 31
0.0
  0
LINE
  8
0
  6
CONTINUOUS
 62
     2
 10
165.4
 20
179.525
 30
0.0
 11
162.985185434
 21
180.172047613
 31
0.0
  0
LINE
  8
0
  6
CONTINUOUS
 62
     2
 10
165.4
 20
179.525
 30
0.0
 11
162.985185434
 21
178.877952387
 31
0.0
  0
LINE
  8
0
  6
CONTINUOUS
 62
     2
 10
165.4
 20
137.9
 30
0.0
 11
165.4
 21
181.525
 31
0.0
  0
TEXT
  8
0
  6
CONTINUOUS
 62
     2
 10
157.675
 20
180.525
 30
0.3
 40
3.0
  1
２３
 50
0.0
 41
0.6
 51
0.0
  7
KANJI3
  0
LINE
  8
0
  6
CONTINUOUS
 62
     2
 10
76.9
 20
154.319155043
 30
0.0
 11
76.9
 21
176.6
 31
0.0
  0
LINE
  8
0
  6
CONTINUOUS
 62
     2
 10
76.9
 20
174.6
 30
0.0
 11
135.15
 21
174.6
 31
0.0
  0
LINE
  8
0
  6
CONTINUOUS
 62
     2
 10
135.15
 20
174.6
 30
0.0
 11
132.735185434
 21
175.247047613
 31
0.0
  0
LINE
  8
0
  6
CONTINUOUS
 62
     2
 10
135.15
 20
174.6
 30
0.0
 11
132.735185434
 21
173.952952387
 31
0.0
  0
LINE
  8
0
  6
CONTINUOUS
 62
     2
 10
135.15
 20
173.15
 30
0.0
 11
135.15
 21
176.6
 31
0.0
  0
TEXT
  8
0
  6
CONTINUOUS
 62
     2
 10
103.025
 20
175.6
 30
0.3
 40
3.0
  1
１１８
 50
0.0
 41
0.6
 51
0.0
  7
KANJI3
  0
LINE
  8
0
  6
CONTINUOUS
 62
     2
 10
135.15
 20
174.6
 30
0.0
 11
137.564814566
 21
173.952952387
 31
0.0
  0
LINE
  8
0
  6
CONTINUOUS
 62
     2
 10
135.15
 20
174.6
 30
0.0
 11
137.564814566
 21
175.247047613
 31
0.0
  0
LINE
  8
0
  6
CONTINUOUS
 62
     2
 10
135.15
 20
174.6
 30
0.0
 11
153.825
 21
174.6
 31
0.0
  0
TEXT
  8
0
  6
CONTINUOUS
 62
     2
 10
142.5375
 20
175.6
 30
0.3
 40
3.0
  1
３６
 50
0.0
 41
0.6
 51
0.0
  7
KANJI3
  0
LINE
  8
0
  6
CONTINUOUS
 62
     2
 10
153.85
 20
174.6
 30
0.0
 11
151.435185434
 21
175.247047613
 31
0.0
  0
LINE
  8
0
  6
CONTINUOUS
 62
     2
 10
153.85
 20
174.6
 30
0.0
 11
151.435185434
 21
173.952952387
 31
0.0
  0
LINE
  8
0
  6
CONTINUOUS
 62
     2
 10
158.5
 20
174.6
 30
0.0
 11
160.914814566
 21
173.952952387
 31
0.0
  0
LINE
  8
0
  6
CONTINUOUS
 62
     2
 10
158.5
 20
174.6
 30
0.0
 11
160.914814566
 21
175.247047613
 31
0.0
  0
LINE
  8
0
  6
CONTINUOUS
 62
     2
 10
158.5
 20
169.4
 30
0.0
 11
158.5
 21
176.6
 31
0.0
  0
TEXT
  8
0
  6
CONTINUOUS
 62
     2
 10
155.275
 20
175.6
 30
0.3
 40
3.0
  1
９
 50
0.0
 41
0.6
 51
0.0
  7
KANJI3
  0
LINE
  8
0
  6
CONTINUOUS
 62
     2
 10
153.85
 20
174.6
 30
0.0
 11
163.5
 21
174.6
 31
0.0
  0
LINE
  8
0
  6
CONTINUOUS
 62
     2
 10
76.9
 20
174.6
 30
0.0
 11
79.314814566
 21
173.952952387
 31
0.0
  0
LINE
  8
0
  6
CONTINUOUS
 62
     2
 10
76.9
 20
174.6
 30
0.0
 11
79.314814566
 21
175.247047613
 31
0.0
  0
LINE
  8
0
  6
CONTINUOUS
 62
     2
 10
134.7
 20
160.17
 30
0.0
 11
124.1
 21
160.17
 31
0.0
  0
LINE
  8
0
  6
CONTINUOUS
 62
     2
 10
126.1
 20
160.17
 30
0.0
 11
125.452952387
 21
157.755185434
 31
0.0
  0
LINE
  8
0
  6
CONTINUOUS
 62
     2
 10
126.1
 20
160.17
 30
0.0
 11
126.747047613
 21
157.755185434
 31
0.0
  0
LINE
  8
0
  6
CONTINUOUS
 62
     2
 10
126.1
 20
160.17
 30
0.0
 11
126.1
 21
102.65
 31
0.0
  0
LINE
  8
0
  6
CONTINUOUS
 62
     2
 10
126.1
 20
102.65
 30
0.0
 11
126.747047613
 21
105.064814566
 31
0.0
  0
LINE
  8
0
  6
CONTINUOUS
 62
     2
 10
126.1
 20
102.65
 30
0.0
 11
125.452952387
 21
105.064814566
 31
0.0
  0
LINE
  8
0
  6
CONTINUOUS
 62
     2
 10
134.86
 20
102.65
 30
0.0
 11
124.1
 21
102.65
 31
0.0
  0
TEXT
  8
0
  6
CONTINUOUS
 62
     2
 10
125.1
 20
128.41
 30
0.3
 40
3.0
  1
１１５
 50
90.0
 41
0.6
 51
0.0
  7
KANJI3
  0
LINE
  8
0
  6
CONTINUOUS
 62
     2
 10
122.403439535
 20
170.15
 30
0.0
 11
113.1
 21
170.15
 31
0.0
  0
LINE
  8
0
  6
CONTINUOUS
 62
     2
 10
115.1
 20
170.15
 30
0.0
 11
114.452952387
 21
167.735185434
 31
0.0
  0
LINE
  8
0
  6
CONTINUOUS
 62
     2
 10
115.1
 20
170.15
 30
0.0
 11
115.747047613
 21
167.735185434
 31
0.0
  0
LINE
  8
0
  6
CONTINUOUS
 62
     2
 10
115.1
 20
170.15
 30
0.0
 11
115.1
 21
92.65
 31
0.0
  0
LINE
  8
0
  6
CONTINUOUS
 62
     2
 10
115.1
 20
92.65
 30
0.0
 11
115.747047613
 21
95.064814566
 31
0.0
  0
LINE
  8
0
  6
CONTINUOUS
 62
     2
 10
115.1
 20
92.65
 30
0.0
 11
114.452952387
 21
95.064814566
 31
0.0
  0
LINE
  8
0
  6
CONTINUOUS
 62
     2
 10
121.096560465
 20
92.65
 30
0.0
 11
113.1
 21
92.65
 31
0.0
  0
TEXT
  8
0
  6
CONTINUOUS
 62
     2
 10
114.1
 20
128.4
 30
0.3
 40
3.0
  1
１５６
 50
90.0
 41
0.6
 51
0.0
  7
KANJI3
  0
LINE
  8
0
  6
LTYPE1
 62
     2
 10
121.096560465
 20
92.65
 30
0.0
 11
153.096560465
 21
92.65
 31
0.0
  0
LINE
  8
0
  6
LTYPE1
 62
     2
 10
122.403439535
 20
170.15
 30
0.0
 11
152.403439535
 21
170.15
 31
0.0
  0
LINE
  8
0
  6
CONTINUOUS
 62
     2
 10
127.803439535
 20
91.85
 30
0.0
 11
125.843627995
 21
90.297859952
 31
0.0
  0
LINE
  8
0
  6
CONTINUOUS
 62
     2
 10
127.803439535
 20
91.85
 30
0.0
 11
126.882262978
 21
89.525901518
 31
0.0
  0
LINE
  8
0
  6
CONTINUOUS
 62
     2
 10
127.803439535
 20
91.85
 30
0.0
 11
122.303439535
 21
84.45
 31
0.0
  0
LINE
  8
0
  6
CONTINUOUS
 62
     2
 10
122.303439535
 20
84.45
 30
0.0
 11
101.603439535
 21
84.45
 31
0.0
  0
TEXT
  8
0
  6
CONTINUOUS
 62
     2
 10
101.603439535
 20
85.45
 30
0.3
 40
3.0
  1
取付用Ｍ４×４５ネジ
 50
0.0
 41
0.6
 51
0.0
  7
KANJI3
  0
LINE
  8
0
  6
CONTINUOUS
 62
     2
 10
159.0
 20
168.9
 30
0.0
 11
175.303439535
 21
168.9
 31
0.0
  0
LINE
  8
0
  6
CONTINUOUS
 62
     2
 10
173.303439535
 20
168.9
 30
0.0
 11
172.656391922
 21
166.485185434
 31
0.0
  0
LINE
  8
0
  6
CONTINUOUS
 62
     2
 10
173.303439535
 20
168.9
 30
0.0
 11
173.950487147
 21
166.485185434
 31
0.0
  0
LINE
  8
0
  6
CONTINUOUS
 62
     2
 10
173.303439535
 20
168.9
 30
0.0
 11
173.303439535
 21
93.933466152
 31
0.0
  0
LINE
  8
0
  6
CONTINUOUS
 62
     2
 10
173.303439535
 20
93.933466152
 30
0.0
 11
173.950487147
 21
96.348280717
 31
0.0
  0
LINE
  8
0
  6
CONTINUOUS
 62
     2
 10
173.303439535
 20
93.933466152
 30
0.0
 11
172.656391922
 21
96.348280717
 31
0.0
  0
LINE
  8
0
  6
CONTINUOUS
 62
     2
 10
158.924797589
 20
93.933466152
 30
0.0
 11
175.303439535
 21
93.933466152
 31
0.0
  0
TEXT
  8
0
  6
CONTINUOUS
 62
     2
 10
172.303439535
 20
127.246733076
 30
0.3
 40
3.0
  1
１５０
 50
90.0
 41
0.6
 51
0.0
  7
KANJI3
  0
TEXT
  8
0
  6
CONTINUOUS
 62
     2
 10
172.303439535
 20
133.246733076
 30
0.18
 40
1.8
  1
±１
 50
90.0
 41
0.6
 51
0.0
  7
KANJI4
  0
LINE
  8
0
  6
CONTINUOUS
 62
     2
 10
153.85
 20
43.5
 30
0.0
 11
154.1
 21
43.5
 31
0.0
  0
LINE
  8
0
  6
CONTINUOUS
 62
     2
 10
154.1
 20
43.5
 30
0.0
 11
154.1
 21
66.5
 31
0.0
  0
LINE
  8
0
  6
CONTINUOUS
 62
     2
 10
154.1
 20
66.5
 30
0.0
 11
153.85
 21
66.5
 31
0.0
  0
LINE
  8
0
  6
CONTINUOUS
 62
     2
 10
153.85
 20
66.5
 30
0.0
 11
153.85
 21
64.0
 31
0.0
  0
LINE
  8
0
  6
CONTINUOUS
 62
     2
 10
153.85
 20
64.0
 30
0.0
 11
149.1
 21
64.0
 31
0.0
  0
LINE
  8
0
  6
CONTINUOUS
 62
     2
 10
149.1
 20
64.0
 30
0.0
 11
149.1
 21
60.0
 31
0.0
  0
LINE
  8
0
  6
CONTINUOUS
 62
     2
 10
149.1
 20
60.0
 30
0.0
 11
153.85
 21
60.0
 31
0.0
  0
LINE
  8
0
  6
CONTINUOUS
 62
     2
 10
153.85
 20
64.0
 30
0.0
 11
153.85
 21
43.5
 31
0.0
  0
LINE
  8
0
  6
CONTINUOUS
 62
     2
 10
153.85
 20
46.0
 30
0.0
 11
149.1
 21
46.0
 31
0.0
  0
LINE
  8
0
  6
CONTINUOUS
 62
     2
 10
149.1
 20
46.0
 30
0.0
 11
149.1
 21
50.0
 31
0.0
  0
LINE
  8
0
  6
CONTINUOUS
 62
     2
 10
149.1
 20
50.0
 30
0.0
 11
153.85
 21
50.0
 31
0.0
  0
LINE
  8
0
  6
CONTINUOUS
 62
     2
 10
160.378206516
 20
65.0
 30
0.0
 11
160.378206516
 21
45.0
 31
0.0
  0
LINE
  8
0
  6
CONTINUOUS
 62
     2
 10
149.1
 20
46.0
 30
0.0
 11
149.1
 21
45.0
 31
0.0
  0
LINE
  8
0
  6
CONTINUOUS
 62
     2
 10
149.1
 20
64.0
 30
0.0
 11
149.1
 21
65.0
 31
0.0
  0
LINE
  8
0
  6
CONTINUOUS
 62
     2
 10
123.294560465
 20
54.709312093
 30
0.0
 11
123.384789768
 21
54.709312093
 31
0.0
  0
LINE
  8
0
  6
CONTINUOUS
 62
     2
 10
123.384789768
 20
55.186238405
 30
0.0
 11
123.307450366
 21
55.186238405
 31
0.0
  0
LINE
  8
0
  6
CONTINUOUS
 62
     2
 10
133.35
 20
54.5
 30
0.0
 11
131.970658121
 21
52.414954202
 31
0.0
  0
LINE
  8
0
  6
CONTINUOUS
 62
     2
 10
133.35
 20
54.5
 30
0.0
 11
133.197977792
 21
52.004626431
 31
0.0
  0
LINE
  8
0
  6
CONTINUOUS
 62
     2
 10
133.35
 20
54.5
 30
0.0
 11
127.75
 21
37.75
 31
0.0
  0
LINE
  8
0
  6
CONTINUOUS
 62
     2
 10
127.75
 20
37.75
 30
0.0
 11
100.75
 21
37.75
 31
0.0
  0
TEXT
  8
0
  6
CONTINUOUS
 62
     2
 10
100.75
 20
38.75
 30
1.0
 40
3.0
  1
Ｍ４ナット，ＳＷ
 50
0.0
 41
0.833333333
 51
0.0
  7
KANJI5
  0
LINE
  8
0
  6
CONTINUOUS
 62
     2
 10
147.4
 20
54.3
 30
0.0
 11
146.093591334
 21
52.168499027
 31
0.0
  0
LINE
  8
0
  6
CONTINUOUS
 62
     2
 10
147.4
 20
54.3
 30
0.0
 11
147.334367393
 21
51.800861676
 31
0.0
  0
LINE
  8
0
  6
CONTINUOUS
 62
     2
 10
147.4
 20
54.3
 30
0.0
 11
139.4
 21
27.3
 31
0.0
  0
LINE
  8
0
  6
CONTINUOUS
 62
     2
 10
139.4
 20
27.3
 30
0.0
 11
84.4
 21
27.3
 31
0.0
  0
TEXT
  8
0
  6
CONTINUOUS
 62
     2
 10
84.4
 20
28.3
 30
1.0
 40
3.0
  1
取付ネジキャップ（ナイロン６６）
 50
0.0
 41
0.833333333
 51
0.0
  7
KANJI5
  0
LINE
  8
0
  6
CONTINUOUS
 62
     2
 10
158.815479374
 20
53.77241894
 30
0.0
 11
158.815479374
 21
45.0
 31
0.0
  0
LINE
  8
0
  6
CONTINUOUS
 62
     2
 10
159.20616116
 20
45.0
 30
0.0
 11
159.20616116
 21
53.282485355
 31
0.0
  0
LINE
  8
0
  6
CONTINUOUS
 62
     2
 10
159.596842945
 20
53.347498211
 30
0.0
 11
159.596842945
 21
45.0
 31
0.0
  0
LINE
  8
0
  6
CONTINUOUS
 62
     2
 10
159.98752473
 20
45.0
 30
0.0
 11
159.98752473
 21
54.197498211
 31
0.0
  0
LINE
  8
0
  6
CONTINUOUS
 62
     2
 10
159.98752473
 20
55.921776587
 30
0.0
 11
159.98752473
 21
65.0
 31
0.0
  0
LINE
  8
0
  6
CONTINUOUS
 62
     2
 10
159.596842945
 20
65.0
 30
0.0
 11
159.596842945
 21
56.652501789
 31
0.0
  0
LINE
  8
0
  6
CONTINUOUS
 62
     2
 10
159.20616116
 20
56.717514645
 30
0.0
 11
159.20616116
 21
65.0
 31
0.0
  0
LINE
  8
0
  6
CONTINUOUS
 62
     2
 10
158.815479374
 20
65.0
 30
0.0
 11
158.815479374
 21
56.22758106
 31
0.0
  0
LINE
  8
0
  6
CONTINUOUS
 62
     2
 10
158.615479374
 20
55.27758106
 30
0.0
 11
160.065479374
 21
55.27758106
 31
0.0
  0
LINE
  8
0
  6
CONTINUOUS
 62
     2
 10
158.665479374
 20
54.77758106
 30
0.0
 11
160.065479374
 21
54.77758106
 31
0.0
  0
LINE
  8
0
  6
CONTINUOUS
 62
     2
 10
144.5
 20
167.7
 30
0.0
 11
143.852952387
 21
165.285185434
 31
0.0
  0
LINE
  8
0
  6
CONTINUOUS
 62
     2
 10
144.5
 20
167.7
 30
0.0
 11
145.147047613
 21
165.285185434
 31
0.0
  0
LINE
  8
0
  6
CONTINUOUS
 62
     2
 10
144.5
 20
167.7
 30
0.0
 11
144.5
 21
95.15
 31
0.0
  0
LINE
  8
0
  6
CONTINUOUS
 62
     2
 10
144.5
 20
95.15
 30
0.0
 11
145.147047613
 21
97.564814566
 31
0.0
  0
LINE
  8
0
  6
CONTINUOUS
 62
     2
 10
144.5
 20
95.15
 30
0.0
 11
143.852952387
 21
97.564814566
 31
0.0
  0
TEXT
  8
0
  6
CONTINUOUS
 62
     2
 10
143.5
 20
128.425
 30
0.3
 40
3.0
  1
１４５
 50
90.0
 41
0.6
 51
0.0
  7
KANJI3
  0
LINE
  8
0
  6
CONTINUOUS
 62
     2
 10
76.679932297
 20
154.218145715
 30
0.0
 11
70.1
 21
154.218145715
 31
0.0
  0
LINE
  8
0
  6
LTYPE1
 62
     2
 10
70.1
 20
125.15
 30
0.0
 11
79.393854352
 21
125.15
 31
0.0
  0
LINE
  8
0
  6
LTYPE1
 62
     2
 10
70.1
 20
137.65
 30
0.0
 11
79.393854352
 21
137.65
 31
0.0
  0
LINE
  8
0
  6
CONTINUOUS
 62
     2
 10
76.677932184
 20
109.180246512
 30
0.0
 11
70.1
 21
109.180246512
 31
0.0
  0
LINE
  8
0
  6
CONTINUOUS
 62
     2
 10
67.925
 20
137.65
 30
0.0
 11
67.277952387
 21
135.235185434
 31
0.0
  0
LINE
  8
0
  6
CONTINUOUS
 62
     2
 10
67.925
 20
137.65
 30
0.0
 11
68.572047613
 21
135.235185434
 31
0.0
  0
LINE
  8
0
  6
CONTINUOUS
 62
     2
 10
67.925
 20
137.65
 30
0.0
 11
67.925
 21
125.15
 31
0.0
  0
LINE
  8
0
  6
CONTINUOUS
 62
     2
 10
67.925
 20
125.15
 30
0.0
 11
68.572047613
 21
127.564814566
 31
0.0
  0
LINE
  8
0
  6
CONTINUOUS
 62
     2
 10
67.925
 20
125.15
 30
0.0
 11
67.277952387
 21
127.564814566
 31
0.0
  0
TEXT
  8
0
  6
CONTINUOUS
 62
     2
 10
66.925
 20
129.45
 30
0.3
 40
3.0
  1
２５
 50
90.0
 41
0.6
 51
0.0
  7
KANJI3
  0
LINE
  8
0
  6
CONTINUOUS
 62
     2
 10
61.9125
 20
154.218145715
 30
0.0
 11
61.9125
 21
109.180246512
 31
0.0
  0
LINE
  8
0
  6
CONTINUOUS
 62
     2
 10
61.9125
 20
109.180246512
 30
0.0
 11
62.559547613
 21
111.595061077
 31
0.0
  0
LINE
  8
0
  6
CONTINUOUS
 62
     2
 10
61.9125
 20
109.180246512
 30
0.0
 11
61.265452387
 21
111.595061077
 31
0.0
  0
TEXT
  8
0
  6
CONTINUOUS
 62
     2
 10
60.9125
 20
129.749196113
 30
0.3
 40
3.0
  1
９０
 50
90.0
 41
0.6
 51
0.0
  7
KANJI3
  0
LINE
  8
0
  6
CONTINUOUS
 62
     2
 10
70.1
 20
154.218145715
 30
0.0
 11
59.9125
 21
154.218145715
 31
0.0
  0
LINE
  8
0
  6
CONTINUOUS
 62
     2
 10
70.1
 20
137.65
 30
0.0
 11
65.925
 21
137.65
 31
0.0
  0
LINE
  8
0
  6
CONTINUOUS
 62
     2
 10
70.1
 20
125.15
 30
0.0
 11
65.925
 21
125.15
 31
0.0
  0
LINE
  8
0
  6
CONTINUOUS
 62
     2
 10
70.1
 20
109.180246512
 30
0.0
 11
59.9125
 21
109.180246512
 31
0.0
  0
LINE
  8
0
  6
CONTINUOUS
 62
     2
 10
169.3
 20
53.05
 30
0.0
 11
165.2
 21
35.75
 31
0.0
  0
LINE
  8
0
  6
CONTINUOUS
 62
     2
 10
165.2
 20
35.75
 30
0.0
 11
149.5
 21
35.75
 31
0.0
  0
TEXT
  8
0
  6
CONTINUOUS
 62
     2
 10
149.5
 20
36.75
 30
0.5
 40
3.0
  1
計器本体寸法
 50
0.0
 41
0.733333333
 51
0.0
  7
KANJI6
  0
CIRCLE
  8
0
  6
CONTINUOUS
 62
     2
 10
36.95
 20
137.65
 30
0.0
 40
1.5
  0
CIRCLE
  8
0
  6
CONTINUOUS
 62
     2
 10
36.95
 20
125.15
 30
0.0
 40
1.5
  0
CIRCLE
  8
0
  6
CONTINUOUS
 62
     2
 10
33.0
 20
92.65
 30
0.0
 40
1.75
  0
LINE
  8
0
  6
CONTINUOUS
 62
     2
 10
32.755
 20
91.6875
 30
0.0
 11
33.245
 21
91.6875
 31
0.0
  0
LINE
  8
0
  6
CONTINUOUS
 62
     2
 10
33.245
 20
93.6125
 30
0.0
 11
32.755
 21
93.6125
 31
0.0
  0
LINE
  8
0
  6
CONTINUOUS
 62
     2
 10
33.245
 20
91.6875
 30
0.0
 11
33.245
 21
91.88
 31
0.0
  0
ARC
  8
0
  6
CONTINUOUS
 62
     2
 10
33.77
 20
91.88
 30
0.0
 40
0.525
 50
90.0
 51
180.0
  0
LINE
  8
0
  6
CONTINUOUS
 62
     2
 10
32.755
 20
91.88
 30
0.0
 11
32.755
 21
91.6875
 31
0.0
  0
ARC
  8
0
  6
CONTINUOUS
 62
     2
 10
32.23
 20
91.88
 30
0.0
 40
0.525
 50
0.0
 51
90.0
  0
LINE
  8
0
  6
CONTINUOUS
 62
     2
 10
32.755
 20
93.6125
 30
0.0
 11
32.755
 21
93.42
 31
0.0
  0
ARC
  8
0
  6
CONTINUOUS
 62
     2
 10
32.23
 20
93.42
 30
0.0
 40
0.525
 50
270.0
 51
0.0
  0
LINE
  8
0
  6
CONTINUOUS
 62
     2
 10
33.245
 20
93.42
 30
0.0
 11
33.245
 21
93.6125
 31
0.0
  0
ARC
  8
0
  6
CONTINUOUS
 62
     2
 10
33.77
 20
93.42
 30
0.0
 40
0.525
 50
180.0
 51
270.0
  0
LINE
  8
0
  6
LTYPE1
 62
     2
 10
29.75
 20
92.65
 30
0.0
 11
36.0
 21
92.65
 31
0.0
  0
LINE
  8
0
  6
CONTINUOUS
 62
     2
 10
34.0
 20
92.895
 30
0.0
 11
34.0
 21
92.405
 31
0.0
  0
LINE
  8
0
  6
CONTINUOUS
 62
     2
 10
32.0
 20
92.895
 30
0.0
 11
32.0
 21
92.405
 31
0.0
  0
LINE
  8
0
  6
CONTINUOUS
 62
     2
 10
32.0
 20
92.405
 30
0.0
 11
32.23
 21
92.405
 31
0.0
  0
LINE
  8
0
  6
CONTINUOUS
 62
     2
 10
32.23
 20
92.895
 30
0.0
 11
32.0
 21
92.895
 31
0.0
  0
LINE
  8
0
  6
CONTINUOUS
 62
     2
 10
34.0
 20
92.895
 30
0.0
 11
33.77
 21
92.895
 31
0.0
  0
LINE
  8
0
  6
CONTINUOUS
 62
     2
 10
33.77
 20
92.405
 30
0.0
 11
34.0
 21
92.405
 31
0.0
  0
LINE
  8
0
  6
CONTINUOUS
 62
     2
 10
32.755
 20
97.9375
 30
0.0
 11
33.245
 21
97.9375
 31
0.0
  0
LINE
  8
0
  6
CONTINUOUS
 62
     2
 10
33.245
 20
99.8625
 30
0.0
 11
32.755
 21
99.8625
 31
0.0
  0
LINE
  8
0
  6
CONTINUOUS
 62
     2
 10
33.245
 20
97.9375
 30
0.0
 11
33.245
 21
98.13
 31
0.0
  0
LINE
  8
0
  6
CONTINUOUS
 62
     2
 10
32.755
 20
98.13
 30
0.0
 11
32.755
 21
97.9375
 31
0.0
  0
ARC
  8
0
  6
CONTINUOUS
 62
     2
 10
32.23
 20
98.13
 30
0.0
 40
0.525
 50
0.0
 51
90.0
  0
LINE
  8
0
  6
CONTINUOUS
 62
     2
 10
32.755
 20
99.8625
 30
0.0
 11
32.755
 21
99.67
 31
0.0
  0
ARC
  8
0
  6
CONTINUOUS
 62
     2
 10
32.23
 20
99.67
 30
0.0
 40
0.525
 50
270.0
 51
0.0
  0
LINE
  8
0
  6
CONTINUOUS
 62
     2
 10
33.245
 20
99.67
 30
0.0
 11
33.245
 21
99.8625
 31
0.0
  0
LINE
  8
0
  6
LTYPE1
 62
     2
 10
33.0
 20
102.15
 30
0.0
 11
33.0
 21
95.65
 31
0.0
  0
LINE
  8
0
  6
CONTINUOUS
 62
     2
 10
32.0
 20
98.655
 30
0.0
 11
32.23
 21
98.655
 31
0.0
  0
LINE
  8
0
  6
CONTINUOUS
 62
     2
 10
32.23
 20
99.145
 30
0.0
 11
32.0
 21
99.145
 31
0.0
  0
LINE
  8
0
  6
CONTINUOUS
 62
     2
 10
32.0
 20
98.655
 30
0.0
 11
32.0
 21
99.155
 31
0.0
  0
CIRCLE
  8
0
  6
CONTINUOUS
 62
     2
 10
33.0
 20
163.91
 30
0.0
 40
1.75
  0
LINE
  8
0
  6
CONTINUOUS
 62
     2
 10
32.755
 20
162.9475
 30
0.0
 11
33.245
 21
162.9475
 31
0.0
  0
LINE
  8
0
  6
CONTINUOUS
 62
     2
 10
33.245
 20
164.8725
 30
0.0
 11
32.755
 21
164.8725
 31
0.0
  0
LINE
  8
0
  6
CONTINUOUS
 62
     2
 10
33.245
 20
162.9475
 30
0.0
 11
33.245
 21
163.14
 31
0.0
  0
ARC
  8
0
  6
CONTINUOUS
 62
     2
 10
33.77
 20
163.14
 30
0.0
 40
0.525
 50
90.0
 51
180.0
  0
LINE
  8
0
  6
CONTINUOUS
 62
     2
 10
32.755
 20
163.14
 30
0.0
 11
32.755
 21
162.9475
 31
0.0
  0
ARC
  8
0
  6
CONTINUOUS
 62
     2
 10
32.23
 20
163.14
 30
0.0
 40
0.525
 50
0.0
 51
90.0
  0
LINE
  8
0
  6
CONTINUOUS
 62
     2
 10
32.755
 20
164.8725
 30
0.0
 11
32.755
 21
164.68
 31
0.0
  0
ARC
  8
0
  6
CONTINUOUS
 62
     2
 10
32.23
 20
164.68
 30
0.0
 40
0.525
 50
270.0
 51
0.0
  0
LINE
  8
0
  6
CONTINUOUS
 62
     2
 10
33.245
 20
164.68
 30
0.0
 11
33.245
 21
164.8725
 31
0.0
  0
ARC
  8
0
  6
CONTINUOUS
 62
     2
 10
33.77
 20
164.68
 30
0.0
 40
0.525
 50
180.0
 51
270.0
  0
LINE
  8
0
  6
LTYPE1
 62
     2
 10
33.0
 20
167.16
 30
0.0
 11
33.0
 21
160.66
 31
0.0
  0
LINE
  8
0
  6
LTYPE1
 62
     2
 10
29.75
 20
163.91
 30
0.0
 11
36.0
 21
163.91
 31
0.0
  0
LINE
  8
0
  6
CONTINUOUS
 62
     2
 10
32.0
 20
163.665
 30
0.0
 11
32.23
 21
163.665
 31
0.0
  0
LINE
  8
0
  6
CONTINUOUS
 62
     2
 10
32.23
 20
164.155
 30
0.0
 11
32.0
 21
164.155
 31
0.0
  0
LINE
  8
0
  6
CONTINUOUS
 62
     2
 10
34.0
 20
164.155
 30
0.0
 11
33.77
 21
164.155
 31
0.0
  0
LINE
  8
0
  6
CONTINUOUS
 62
     2
 10
33.77
 20
163.665
 30
0.0
 11
34.0
 21
163.665
 31
0.0
  0
LINE
  8
0
  6
CONTINUOUS
 62
     2
 10
32.0
 20
163.665
 30
0.0
 11
32.0
 21
164.165
 31
0.0
  0
LINE
  8
0
  6
CONTINUOUS
 62
     2
 10
34.0
 20
164.155
 30
0.0
 11
34.0
 21
163.665
 31
0.0
  0
CIRCLE
  8
0
  6
CONTINUOUS
 62
     2
 10
33.0
 20
170.15
 30
0.0
 40
1.75
  0
LINE
  8
0
  6
CONTINUOUS
 62
     2
 10
32.755
 20
169.1875
 30
0.0
 11
33.245
 21
169.1875
 31
0.0
  0
LINE
  8
0
  6
CONTINUOUS
 62
     2
 10
33.245
 20
171.1125
 30
0.0
 11
32.755
 21
171.1125
 31
0.0
  0
LINE
  8
0
  6
CONTINUOUS
 62
     2
 10
33.245
 20
169.1875
 30
0.0
 11
33.245
 21
169.38
 31
0.0
  0
ARC
  8
0
  6
CONTINUOUS
 62
     2
 10
33.77
 20
169.38
 30
0.0
 40
0.525
 50
90.0
 51
180.0
  0
LINE
  8
0
  6
CONTINUOUS
 62
     2
 10
32.755
 20
169.38
 30
0.0
 11
32.755
 21
169.1875
 31
0.0
  0
ARC
  8
0
  6
CONTINUOUS
 62
     2
 10
32.23
 20
169.38
 30
0.0
 40
0.525
 50
0.0
 51
90.0
  0
LINE
  8
0
  6
CONTINUOUS
 62
     2
 10
32.755
 20
171.1125
 30
0.0
 11
32.755
 21
170.92
 31
0.0
  0
ARC
  8
0
  6
CONTINUOUS
 62
     2
 10
32.23
 20
170.92
 30
0.0
 40
0.525
 50
270.0
 51
0.0
  0
LINE
  8
0
  6
CONTINUOUS
 62
     2
 10
33.245
 20
170.92
 30
0.0
 11
33.245
 21
171.1125
 31
0.0
  0
ARC
  8
0
  6
CONTINUOUS
 62
     2
 10
33.77
 20
170.92
 30
0.0
 40
0.525
 50
180.0
 51
270.0
  0
LINE
  8
0
  6
LTYPE1
 62
     2
 10
29.75
 20
170.15
 30
0.0
 11
36.0
 21
170.15
 31
0.0
  0
LINE
  8
0
  6
CONTINUOUS
 62
     2
 10
32.0
 20
169.905
 30
0.0
 11
32.23
 21
169.905
 31
0.0
  0
LINE
  8
0
  6
CONTINUOUS
 62
     2
 10
32.23
 20
170.395
 30
0.0
 11
32.0
 21
170.395
 31
0.0
  0
LINE
  8
0
  6
CONTINUOUS
 62
     2
 10
34.0
 20
170.395
 30
0.0
 11
33.77
 21
170.395
 31
0.0
  0
LINE
  8
0
  6
CONTINUOUS
 62
     2
 10
33.77
 20
169.905
 30
0.0
 11
34.0
 21
169.905
 31
0.0
  0
LINE
  8
0
  6
CONTINUOUS
 62
     2
 10
32.0
 20
169.905
 30
0.0
 11
32.0
 21
170.405
 31
0.0
  0
LINE
  8
0
  6
CONTINUOUS
 62
     2
 10
34.0
 20
170.395
 30
0.0
 11
34.0
 21
169.905
 31
0.0
  0
LINE
  8
0
  6
CONTINUOUS
 62
     2
 10
33.0
 20
94.675
 30
0.0
 11
31.246298557
 21
93.6625
 31
0.0
  0
LINE
  8
0
  6
CONTINUOUS
 62
     2
 10
31.246298557
 20
93.6625
 30
0.0
 11
31.246298557
 21
91.6375
 31
0.0
  0
LINE
  8
0
  6
CONTINUOUS
 62
     2
 10
31.246298557
 20
91.6375
 30
0.0
 11
33.0
 21
90.625
 31
0.0
  0
LINE
  8
0
  6
CONTINUOUS
 62
     2
 10
33.0
 20
90.625
 30
0.0
 11
34.753701443
 21
91.6375
 31
0.0
  0
LINE
  8
0
  6
CONTINUOUS
 62
     2
 10
34.753701443
 20
91.6375
 30
0.0
 11
34.753701443
 21
93.6625
 31
0.0
  0
LINE
  8
0
  6
CONTINUOUS
 62
     2
 10
34.753701443
 20
93.6625
 30
0.0
 11
33.0
 21
94.675
 31
0.0
  0
LINE
  8
0
  6
LTYPE2
 62
     2
 10
30.0
 20
92.65
 30
0.0
 11
36.0
 21
92.65
 31
0.0
  0
LINE
  8
0
  6
LTYPE2
 62
     2
 10
33.0
 20
95.65
 30
0.0
 11
33.0
 21
89.65
 31
0.0
  0
LINE
  8
0
  6
CONTINUOUS
 62
     2
 10
33.0
 20
172.175
 30
0.0
 11
31.246298557
 21
171.1625
 31
0.0
  0
LINE
  8
0
  6
CONTINUOUS
 62
     2
 10
31.246298557
 20
171.1625
 30
0.0
 11
31.246298557
 21
169.1375
 31
0.0
  0
LINE
  8
0
  6
CONTINUOUS
 62
     2
 10
31.246298557
 20
169.1375
 30
0.0
 11
33.0
 21
168.125
 31
0.0
  0
LINE
  8
0
  6
CONTINUOUS
 62
     2
 10
33.0
 20
168.125
 30
0.0
 11
34.753701443
 21
169.1375
 31
0.0
  0
LINE
  8
0
  6
CONTINUOUS
 62
     2
 10
34.753701443
 20
169.1375
 30
0.0
 11
34.753701443
 21
171.1625
 31
0.0
  0
LINE
  8
0
  6
CONTINUOUS
 62
     2
 10
34.753701443
 20
171.1625
 30
0.0
 11
33.0
 21
172.175
 31
0.0
  0
LINE
  8
0
  6
LTYPE2
 62
     2
 10
30.0
 20
170.15
 30
0.0
 11
36.0
 21
170.15
 31
0.0
  0
LINE
  8
0
  6
LTYPE2
 62
     2
 10
33.0
 20
173.15
 30
0.0
 11
33.0
 21
167.15
 31
0.0
  0
LINE
  8
0
  6
CONTINUOUS
 62
     2
 10
85.55
 20
45.0
 30
0.0
 11
86.197047613
 21
47.414814566
 31
0.0
  0
LINE
  8
0
  6
CONTINUOUS
 62
     2
 10
85.55
 20
45.0
 30
0.0
 11
84.902952387
 21
47.414814566
 31
0.0
  0
LINE
  8
0
  6
CONTINUOUS
 62
     2
 10
85.55
 20
45.0
 30
0.0
 11
85.55
 21
65.0
 31
0.0
  0
LINE
  8
0
  6
CONTINUOUS
 62
     2
 10
85.55
 20
65.0
 30
0.0
 11
84.902952387
 21
62.585185434
 31
0.0
  0
LINE
  8
0
  6
CONTINUOUS
 62
     2
 10
85.55
 20
65.0
 30
0.0
 11
86.197047613
 21
62.585185434
 31
0.0
  0
TEXT
  8
0
  6
CONTINUOUS
 62
     2
 10
84.55
 20
53.05
 30
0.3
 40
3.0
  1
４０
 50
90.0
 41
0.6
 51
0.0
  7
KANJI3
  0
LINE
  8
0
  6
CONTINUOUS
 62
     2
 10
30.879590662
 20
29.45
 30
0.0
 11
31.332523991
 21
31.140370196
 31
0.0
  0
LINE
  8
0
  6
CONTINUOUS
 62
     2
 10
30.879590662
 20
29.45
 30
0.0
 11
30.426657333
 21
31.140370196
 31
0.0
  0
LINE
  8
0
  6
CONTINUOUS
 62
     2
 10
30.879590662
 20
80.55
 30
0.0
 11
30.426657333
 21
78.859629804
 31
0.0
  0
LINE
  8
0
  6
CONTINUOUS
 62
     2
 10
30.879590662
 20
80.55
 30
0.0
 11
31.332523991
 21
78.859629804
 31
0.0
  0
LINE
  8
0
  6
CONTINUOUS
 62
     2
 10
25.699590662
 20
67.775
 30
0.0
 11
27.389960858
 21
67.322066671
 31
0.0
  0
LINE
  8
0
  6
CONTINUOUS
 62
     2
 10
25.699590662
 20
67.775
 30
0.0
 11
27.389960858
 21
68.227933329
 31
0.0
  0
LINE
  8
0
  6
CONTINUOUS
 62
     2
 10
25.699590662
 20
67.775
 30
0.0
 11
40.277090662
 21
67.775
 31
0.0
  0
LINE
  8
0
  6
CONTINUOUS
 62
     2
 10
40.277090662
 20
67.775
 30
0.0
 11
38.586720466
 21
68.227933329
 31
0.0
  0
LINE
  8
0
  6
CONTINUOUS
 62
     2
 10
40.277090662
 20
67.775
 30
0.0
 11
38.586720466
 21
67.322066671
 31
0.0
  0
LINE
  8
0
  6
LTYPE1
 62
     2
 10
155.975
 20
164.125
 30
0.0
 11
164.8
 21
166.925
 31
0.0
  0
LINE
  8
0
  6
CONTINUOUS
 62
     2
 10
164.302476363
 20
166.812312229
 30
0.0
 11
159.832510737
 21
165.359932356
 31
0.0
  0
LINE
  8
0
  6
CONTINUOUS
 62
     2
 10
164.572866233
 20
165.980137778
 30
0.0
 11
160.163398519
 21
164.1581206
 31
0.0
  0
LINE
  8
0
  6
CONTINUOUS
 62
     2
 10
164.687276948
 20
165.628017805
 30
0.0
 11
160.324266993
 21
163.684658823
 31
0.0
  0
LINE
  8
0
  6
CONTINUOUS
 62
     2
 10
164.764531197
 20
165.390253676
 30
0.0
 11
160.495426616
 21
163.319687067
 31
0.0
  0
LINE
  8
0
  6
CONTINUOUS
 62
     2
 10
164.162512267
 20
167.243077423
 30
0.0
 11
159.630743242
 21
165.980908853
 31
0.0
  0
LINE
  8
0
  6
CONTINUOUS
 62
     2
 10
163.991352644
 20
167.60804918
 30
0.0
 11
159.460783895
 21
166.503989937
 31
0.0
  0
LINE
  8
0
  6
CONTINUOUS
 62
     2
 10
163.867745846
 20
167.988471787
 30
0.0
 11
159.243271722
 21
167.011620171
 31
0.0
  0
LINE
  8
0
  6
CONTINUOUS
 62
     2
 10
163.838950872
 20
168.238897004
 30
0.0
 11
159.168124199
 21
167.404703866
 31
0.0
  0
LINE
  8
0
  6
CONTINUOUS
 62
     2
 10
164.442440459
 20
166.381547036
 30
0.0
 11
159.983338667
 21
164.733928319
 31
0.0
  0
LINE
  8
0
  6
LTYPE1
 62
     2
 10
166.1
 20
55.0
 30
0.0
 11
66.15
 21
55.0
 31
0.0
  0
LINE
  8
0
  6
CONTINUOUS
 62
     2
 10
177.4
 20
66.55
 30
0.0
 11
176.752952387
 21
64.135185434
 31
0.0
  0
LINE
  8
0
  6
CONTINUOUS
 62
     2
 10
177.4
 20
66.55
 30
0.0
 11
178.047047613
 21
64.135185434
 31
0.0
  0
LINE
  8
0
  6
CONTINUOUS
 62
     2
 10
177.4
 20
66.55
 30
0.0
 11
177.4
 21
43.5
 31
0.0
  0
LINE
  8
0
  6
CONTINUOUS
 62
     2
 10
177.4
 20
43.5
 30
0.0
 11
178.047047613
 21
45.914814566
 31
0.0
  0
LINE
  8
0
  6
CONTINUOUS
 62
     2
 10
177.4
 20
43.5
 30
0.0
 11
176.752952387
 21
45.914814566
 31
0.0
  0
TEXT
  8
0
  6
CONTINUOUS
 62
     2
 10
176.4
 20
53.075
 30
0.3
 40
3.0
  1
４６
 50
90.0
 41
0.6
 51
0.0
  7
KANJI3
  0
LINE
  8
0
  6
CONTINUOUS
 62
     2
 10
174.55
 20
52.85
 30
0.0
 11
173.409525415
 21
50.62529379
 31
0.0
  0
LINE
  8
0
  6
CONTINUOUS
 62
     2
 10
174.55
 20
52.85
 30
0.0
 11
174.674673142
 21
50.353110614
 31
0.0
  0
LINE
  8
0
  6
CONTINUOUS
 62
     2
 10
174.55
 20
52.85
 30
0.0
 11
169.15
 21
27.75
 31
0.0
  0
LINE
  8
0
  6
CONTINUOUS
 62
     2
 10
170.65
 20
65.0
 30
0.0
 11
170.002952387
 21
62.585185434
 31
0.0
  0
LINE
  8
0
  6
CONTINUOUS
 62
     2
 10
170.65
 20
65.0
 30
0.0
 11
171.297047613
 21
62.585185434
 31
0.0
  0
LINE
  8
0
  6
CONTINUOUS
 62
     2
 10
170.65
 20
65.0
 30
0.0
 11
170.65
 21
45.0
 31
0.0
  0
LINE
  8
0
  6
CONTINUOUS
 62
     2
 10
170.65
 20
45.0
 30
0.0
 11
171.297047613
 21
47.414814566
 31
0.0
  0
LINE
  8
0
  6
CONTINUOUS
 62
     2
 10
170.65
 20
45.0
 30
0.0
 11
170.002952387
 21
47.414814566
 31
0.0
  0
TEXT
  8
0
  6
CONTINUOUS
 62
     2
 10
169.65
 20
53.05
 30
0.3
 40
3.0
  1
４０
 50
90.0
 41
0.6
 51
0.0
  7
KANJI3
  0
LINE
  8
0
  6
CONTINUOUS
 62
     2
 10
154.55
 20
43.5
 30
0.0
 11
179.4
 21
43.5
 31
0.0
  0
LINE
  8
0
  6
CONTINUOUS
 62
     2
 10
154.55
 20
66.55
 30
0.0
 11
179.4
 21
66.55
 31
0.0
  0
LINE
  8
0
  6
CONTINUOUS
 62
     2
 10
169.3
 20
53.1
 30
0.0
 11
168.11352019
 21
50.899485137
 31
0.0
  0
LINE
  8
0
  6
CONTINUOUS
 62
     2
 10
169.3
 20
53.1
 30
0.0
 11
169.372735775
 21
50.601058323
 31
0.0
  0
LINE
  8
0
  6
CONTINUOUS
 62
     2
 10
166.05
 20
45.0
 30
0.0
 11
171.35
 21
45.0
 31
0.0
  0
LINE
  8
0
  6
CONTINUOUS
 62
     2
 10
165.85
 20
65.0
 30
0.0
 11
171.35
 21
65.0
 31
0.0
  0
LINE
  8
0
  6
CONTINUOUS
 62
     2
 10
169.15
 20
27.75
 30
0.0
 11
150.75
 21
27.75
 31
0.0
  0
TEXT
  8
0
  6
CONTINUOUS
 62
     2
 10
150.75
 20
28.75
 30
0.5
 40
3.0
  1
化粧枠実装寸法
 50
0.0
 41
0.733333333
 51
0.0
  7
KANJI6
  0
TEXT
  8
0
  6
CONTINUOUS
 62
     2
 10
181.377979374
 20
50.57758106
 30
0.3
 40
3.0
  1
１，パネルカット後，
 50
0.0
 41
0.9
 51
0.0
  7
KANJI7
  0
TEXT
  8
0
  6
CONTINUOUS
 62
     2
 10
186.95
 20
46.35
 30
0.3
 40
3.0
  1
計器をはめ込む。
 50
0.0
 41
0.9
 51
0.0
  7
KANJI7
  0
TEXT
  8
0
  6
CONTINUOUS
 62
     2
 10
181.527979374
 20
25.17758106
 30
0.3
 40
3.0
  1
４，Ｍ４ナットでロックする。
 50
0.0
 41
0.9
 51
0.0
  7
KANJI7
  0
TEXT
  8
0
  6
CONTINUOUS
 62
     2
 10
181.377979374
 20
41.57758106
 30
0.3
 40
3.0
  1
２，計器本体に取付金具を
 50
0.0
 41
0.9
 51
0.0
  7
KANJI7
  0
TEXT
  8
0
  6
CONTINUOUS
 62
     2
 10
187.279156198
 20
37.45
 30
0.3
 40
3.0
  1
Ｍ４ネジで止める。
 50
0.0
 41
0.9
 51
0.0
  7
KANJI7
  0
TEXT
  8
0
  6
CONTINUOUS
 62
     2
 10
181.527979374
 20
33.17758106
 30
0.3
 40
3.0
  1
３，Ｍ４×４５押しネジでパネル
 50
0.0
 41
0.9
 51
0.0
  7
KANJI7
  0
TEXT
  8
0
  6
CONTINUOUS
 62
     2
 10
187.677979374
 20
29.17758106
 30
0.3
 40
3.0
  1
面を押し付け固定する。
 50
0.0
 41
0.9
 51
0.0
  7
KANJI7
  0
TEXT
  8
0
  6
CONTINUOUS
 62
     2
 10
93.195766755
 20
52.3
 30
0.17
 40
1.7
  1
３
 50
0.0
 41
0.866666667
 51
0.0
  7
KANJI8
  0
CIRCLE
  8
0
  6
CONTINUOUS
 62
     2
 10
93.945766755
 20
53.15
 30
0.0
 40
1.5
  0
CIRCLE
  8
0
  6
CONTINUOUS
 62
     2
 10
97.673120338
 20
53.15
 30
0.0
 40
1.5
  0
CIRCLE
  8
0
  6
CONTINUOUS
 62
     2
 10
101.400473921
 20
53.15
 30
0.0
 40
1.5
  0
CIRCLE
  8
0
  6
CONTINUOUS
 62
     2
 10
105.127827504
 20
53.15
 30
0.0
 40
1.5
  0
CIRCLE
  8
0
  6
CONTINUOUS
 62
     2
 10
108.855181087
 20
53.15
 30
0.0
 40
1.5
  0
CIRCLE
  8
0
  6
CONTINUOUS
 62
     2
 10
112.58253467
 20
53.15
 30
0.0
 40
1.5
  0
CIRCLE
  8
0
  6
CONTINUOUS
 62
     2
 10
116.309888253
 20
53.15
 30
0.0
 40
1.5
  0
CIRCLE
  8
0
  6
CONTINUOUS
 62
     2
 10
120.037241836
 20
53.15
 30
0.0
 40
1.5
  0
TEXT
  8
0
  6
CONTINUOUS
 62
     2
 10
96.923120338
 20
52.3
 30
0.17
 40
1.7
  1
４
 50
0.0
 41
0.866666667
 51
0.0
  7
KANJI8
  0
TEXT
  8
0
  6
CONTINUOUS
 62
     2
 10
100.650473921
 20
52.3
 30
0.17
 40
1.7
  1
５
 50
0.0
 41
0.866666667
 51
0.0
  7
KANJI8
  0
TEXT
  8
0
  6
CONTINUOUS
 62
     2
 10
104.377827504
 20
52.3
 30
0.17
 40
1.7
  1
６
 50
0.0
 41
0.866666667
 51
0.0
  7
KANJI8
  0
TEXT
  8
0
  6
CONTINUOUS
 62
     2
 10
108.105181087
 20
52.3
 30
0.17
 40
1.7
  1
７
 50
0.0
 41
0.866666667
 51
0.0
  7
KANJI8
  0
TEXT
  8
0
  6
CONTINUOUS
 62
     2
 10
111.83253467
 20
52.3
 30
0.17
 40
1.7
  1
８
 50
0.0
 41
0.866666667
 51
0.0
  7
KANJI8
  0
TEXT
  8
0
  6
CONTINUOUS
 62
     2
 10
115.559888253
 20
52.3
 30
0.17
 40
1.7
  1
９
 50
0.0
 41
0.866666667
 51
0.0
  7
KANJI8
  0
TEXT
  8
0
  6
CONTINUOUS
 62
     2
 10
118.723120338
 20
52.35
 30
0.0
 40
1.7
  1
１０
 50
0.0
 41
0.764705882
 51
0.0
  7
KANJI9
  0
LINE
  8
0
  6
CONTINUOUS
 62
     2
 10
100.95
 20
58.15
 30
0.0
 11
99.533243775
 21
56.090193747
 31
0.0
  0
LINE
  8
0
  6
CONTINUOUS
 62
     2
 10
100.95
 20
58.15
 30
0.0
 11
100.752956245
 21
55.657777346
 31
0.0
  0
LINE
  8
0
  6
CONTINUOUS
 62
     2
 10
100.95
 20
58.15
 30
0.0
 11
93.7
 21
37.7
 31
0.0
  0
LINE
  8
0
  6
CONTINUOUS
 62
     2
 10
93.7
 20
37.7
 30
0.0
 11
71.9
 21
37.7
 31
0.0
  0
TEXT
  8
0
  6
CONTINUOUS
 62
     2
 10
107.837241836
 20
66.425
 30
0.0
 40
2.55
  1
ｃ
 50
0.0
 41
0.764705882
 51
0.0
  7
KANJI10
  0
TEXT
  8
0
  6
CONTINUOUS
 62
     2
 10
115.237241836
 20
66.425
 30
0.0
 40
2.55
  1
＋
 50
0.0
 41
0.764705882
 51
0.0
  7
KANJI10
  0
LINE
  8
0
  6
CONTINUOUS
 62
     2
 10
93.945766755
 20
69.2
 30
0.0
 11
93.945766755
 21
70.4
 31
0.0
  0
LINE
  8
0
  6
CONTINUOUS
 62
     2
 10
93.945766755
 20
70.4
 30
0.0
 11
101.445766755
 21
70.4
 31
0.0
  0
LINE
  8
0
  6
CONTINUOUS
 62
     2
 10
101.400473921
 20
70.4
 30
0.0
 11
101.400473921
 21
69.2
 31
0.0
  0
LINE
  8
0
  6
CONTINUOUS
 62
     2
 10
105.127827504
 20
69.2
 30
0.0
 11
105.127827504
 21
70.4
 31
0.0
  0
LINE
  8
0
  6
CONTINUOUS
 62
     2
 10
105.127827504
 20
70.4
 30
0.0
 11
112.58253467
 21
70.4
 31
0.0
  0
LINE
  8
0
  6
CONTINUOUS
 62
     2
 10
112.58253467
 20
70.4
 30
0.0
 11
112.58253467
 21
69.2
 31
0.0
  0
LINE
  8
0
  6
CONTINUOUS
 62
     2
 10
116.309888253
 20
69.2
 30
0.0
 11
116.309888253
 21
70.4
 31
0.0
  0
LINE
  8
0
  6
CONTINUOUS
 62
     2
 10
116.309888253
 20
70.4
 30
0.0
 11
120.037241836
 21
70.4
 31
0.0
  0
LINE
  8
0
  6
CONTINUOUS
 62
     2
 10
120.037241836
 20
70.4
 30
0.0
 11
120.037241836
 21
69.2
 31
0.0
  0
LINE
  8
0
  6
CONTINUOUS
 62
     2
 10
109.927827504
 20
72.4
 30
0.0
 11
109.927827504
 21
71.2
 31
0.0
  0
LINE
  8
0
  6
CONTINUOUS
 62
     2
 10
98.727827504
 20
72.45
 30
0.0
 11
98.727827504
 21
71.2
 31
0.0
  0
LINE
  8
0
  6
CONTINUOUS
 62
     2
 10
76.037241836
 20
75.85
 30
0.0
 11
91.187241836
 21
75.85
 31
0.0
  0
LINE
  8
0
  6
CONTINUOUS
 62
     2
 10
32.287241836
 20
124.1
 30
0.0
 11
33.033668661
 21
121.714031225
 31
0.0
  0
LINE
  8
0
  6
CONTINUOUS
 62
     2
 10
32.287241836
 20
124.1
 30
0.0
 11
34.126650816
 21
122.406903841
 31
0.0
  0
LINE
  8
0
  6
CONTINUOUS
 62
     2
 10
32.287241836
 20
124.1
 30
0.0
 11
50.037241836
 21
96.1
 31
0.0
  0
LINE
  8
0
  6
CONTINUOUS
 62
     2
 10
50.037241836
 20
96.1
 30
0.0
 11
65.837241836
 21
96.1
 31
0.0
  0
TEXT
  8
0
  6
CONTINUOUS
 62
     2
 10
50.037241836
 20
97.1
 30
0.2
 40
3.0
  1
計器入力端子ネジ
 50
0.0
 41
0.6
 51
0.0
  7
KANJI11
  0
TEXT
  8
0
  6
CONTINUOUS
 62
     2
 10
95.437241836
 20
83.1
 30
0.125
 40
2.5
  1
Ｈ側　　　　
 50
0.0
 41
0.8
 51
0.0
  7
KANJI12
  0
TEXT
  8
0
  6
CONTINUOUS
 62
     2
 10
98.937241836
 20
83.3
 30
0.125
 40
2.5
  1
負荷リレ　　
 50
0.0
 41
0.8
 51
0.0
  7
KANJI12
  0
TEXT
  8
0
  6
CONTINUOUS
 62
     2
 10
106.619302585
 20
83.1
 30
0.125
 40
2.5
  1
Ｌ側　　　　
 50
0.0
 41
0.8
 51
0.0
  7
KANJI12
  0
TEXT
  8
0
  6
CONTINUOUS
 62
     2
 10
110.119302585
 20
82.85
 30
0.125
 40
2.5
  1
負荷リレ　　
 50
0.0
 41
0.8
 51
0.0
  7
KANJI12
  0
TEXT
  8
0
  6
CONTINUOUS
 62
     2
 10
118.277827504
 20
82.35
 30
0.125
 40
2.5
  1
制御電源　　
 50
0.0
 41
0.8
 51
0.0
  7
KANJI12
  0
TEXT
  8
0
  6
CONTINUOUS
 62
     2
 10
36.1
 20
138.35
 30
0.18
 40
1.8
  1
１
 50
270.0
 41
0.866666667
 51
0.0
  7
KANJI13
  0
TEXT
  8
0
  6
CONTINUOUS
 62
     2
 10
36.1
 20
125.85
 30
0.18
 40
1.8
  1
２
 50
270.0
 41
0.866666667
 51
0.0
  7
KANJI13
  0
LINE
  8
0
  6
LTYPE1
 62
     2
 10
71.3
 20
131.4
 30
0.0
 11
108.8
 21
131.4
 31
0.0
  0
LINE
  8
0
  6
LTYPE1
 62
     2
 10
128.8
 20
131.4
 30
0.0
 11
138.8
 21
131.4
 31
0.0
  0
LINE
  8
0
  6
LTYPE1
 62
     2
 10
147.3
 20
131.4
 30
0.0
 11
167.3
 21
131.4
 31
0.0
  0
LINE
  8
0
  6
LTYPE1
 62
     2
 10
116.8
 20
131.4
 30
0.0
 11
120.3
 21
131.4
 31
0.0
  0
TEXT
  8
0
  6
CONTINUOUS
 62
     2
 10
44.829187817
 20
38.65
 30
0.2
 40
3.0
  1
２－Ｍ４ターミナルネジ
 50
0.0
 41
0.666666667
 51
0.0
  7
KANJI14
  0
TEXT
  8
0
  6
CONTINUOUS
 62
     2
 10
71.9
 20
38.7
 30
0.2
 40
3.0
  1
８－Ｍ３ターミナルネジ
 50
0.0
 41
0.6
 51
0.0
  7
KANJI11
  0
TEXT
  8
0
  6
CONTINUOUS
 62
     2
 10
122.994690203
 20
71.043950698
 30
0.24
 40
2.4
  1
注）ＡＣ電源の場合，極性は、表示しません。
 50
0.0
 41
0.8
 51
0.0
  7
KANJI15
  0
TEXT
  8
0
  6
CONTINUOUS
 62
     2
 10
49.714690203
 20
92.733950698
 30
0.24
 40
2.4
  1
１（＋），２（－），交流の場合、極性は関係ありません。
 50
0.0
 41
0.8
 51
0.0
  7
KANJI15
  0
TEXT
  8
0
  6
CONTINUOUS
 62
     2
 10
43.659508794
 20
63.537950698
 30
0.252
 40
2.52
  1
Ｎ；連結計器個数
 50
0.0
 41
0.9
 51
0.0
  7
KANJI16
  0
LINE
  8
0
  6
CONTINUOUS
 62
     2
 10
43.491508794
 20
62.781950698
 30
0.0
 11
64.491508794
 21
62.781950698
 31
0.0
  0
TEXT
  8
0
  6
CONTINUOUS
 62
     2
 10
29.745508794
 20
51.991150698
 30
0.252
 40
2.52
  1
１４６
 50
90.0
 41
0.6
 51
0.0
  7
KANJI17
  0
TEXT
  8
0
  6
CONTINUOUS
 62
     2
 10
29.745508794
 20
57.391150698
 30
0.1512
 40
1.512
  1
－０
 50
90.0
 41
0.6
 51
0.0
  7
KANJI18
  0
TEXT
  8
0
  6
CONTINUOUS
 62
     2
 10
27.873508794
 20
57.391150698
 30
0.1512
 40
1.512
  1
＋１
 50
90.0
 41
0.6
 51
0.0
  7
KANJI18
  0
TEXT
  8
0
  6
CONTINUOUS
 62
     2
 10
25.202008794
 20
68.943950698
 30
0.252
 40
2.52
  1
（４０．２　　Ｎ）＋
 50
0.0
 41
0.6
 51
0.0
  7
KANJI17
  0
TEXT
  8
0
  6
CONTINUOUS
 62
     2
 10
34.137508794
 20
68.775950698
 30
0.252
 40
2.52
  1
×
 50
0.0
 41
0.9
 51
0.0
  7
KANJI16
  0
TEXT
  8
0
  6
CONTINUOUS
 62
     2
 10
42.957508794
 20
69.027950698
 30
0.252
 40
2.52
  1
１．５
 50
0.0
 41
0.9
 51
0.0
  7
KANJI16
  0
LINE
  8
0
  6
CONTINUOUS
 62
     1
 10
88.380647618
 20
55.725
 30
0.0
 11
91.480647618
 21
55.725
 31
0.0
  0
LINE
  8
0
  6
CONTINUOUS
 62
     1
 10
91.480647618
 20
55.725
 30
0.0
 11
91.480647618
 21
61.975
 31
0.0
  0
LINE
  8
0
  6
CONTINUOUS
 62
     1
 10
91.480647618
 20
61.975
 30
0.0
 11
88.380647618
 21
61.975
 31
0.0
  0
LINE
  8
0
  6
CONTINUOUS
 62
     1
 10
88.380647618
 20
61.975
 30
0.0
 11
88.380647618
 21
55.725
 31
0.0
  0
LINE
  8
0
  6
CONTINUOUS
 62
     1
 10
88.380647618
 20
61.275
 30
0.0
 11
91.480647618
 21
61.275
 31
0.0
  0
LINE
  8
0
  6
CONTINUOUS
 62
     1
 10
88.380647618
 20
56.425
 30
0.0
 11
91.480647618
 21
56.425
 31
0.0
  0
LINE
  8
0
  6
CONTINUOUS
 62
     1
 10
91.480647618
 20
61.975
 30
0.0
 11
92.190647618
 21
61.975
 31
0.0
  0
LINE
  8
0
  6
CONTINUOUS
 62
     1
 10
91.480647618
 20
55.725
 30
0.0
 11
92.190647618
 21
55.725
 31
0.0
  0
LINE
  8
0
  6
CONTINUOUS
 62
     1
 10
92.190647618
 20
61.975
 30
0.0
 11
92.190647618
 21
55.725
 31
0.0
  0
LINE
  8
0
  6
CONTINUOUS
 62
     1
 10
89.055647618
 20
56.8
 30
0.0
 11
90.805647618
 21
56.8
 31
0.0
  0
LINE
  8
0
  6
CONTINUOUS
 62
     1
 10
89.055647618
 20
60.9
 30
0.0
 11
90.805647618
 21
60.9
 31
0.0
  0
LINE
  8
0
  6
CONTINUOUS
 62
     1
 10
95.290647618
 20
61.975
 30
0.0
 11
92.190647618
 21
61.975
 31
0.0
  0
LINE
  8
0
  6
CONTINUOUS
 62
     1
 10
92.190647618
 20
55.725
 30
0.0
 11
95.290647618
 21
55.725
 31
0.0
  0
LINE
  8
0
  6
CONTINUOUS
 62
     1
 10
95.290647618
 20
61.975
 30
0.0
 11
95.290647618
 21
55.725
 31
0.0
  0
LINE
  8
0
  6
CONTINUOUS
 62
     1
 10
96.000647618
 20
61.975
 30
0.0
 11
96.000647618
 21
55.725
 31
0.0
  0
LINE
  8
0
  6
CONTINUOUS
 62
     1
 10
95.290647618
 20
55.725
 30
0.0
 11
96.000647618
 21
55.725
 31
0.0
  0
LINE
  8
0
  6
CONTINUOUS
 62
     1
 10
95.290647618
 20
61.975
 30
0.0
 11
96.000647618
 21
61.975
 31
0.0
  0
LINE
  8
0
  6
CONTINUOUS
 62
     1
 10
92.190647618
 20
61.275
 30
0.0
 11
95.290647618
 21
61.275
 31
0.0
  0
LINE
  8
0
  6
CONTINUOUS
 62
     1
 10
92.190647618
 20
56.425
 30
0.0
 11
95.290647618
 21
56.425
 31
0.0
  0
LINE
  8
0
  6
CONTINUOUS
 62
     1
 10
92.190647618
 20
57.075
 30
0.0
 11
95.290647618
 21
57.075
 31
0.0
  0
LINE
  8
0
  6
CONTINUOUS
 62
     1
 10
92.190647618
 20
60.625
 30
0.0
 11
95.290647618
 21
60.625
 31
0.0
  0
LINE
  8
0
  6
CONTINUOUS
 62
     1
 10
90.805647618
 20
60.9
 30
0.0
 11
90.805647618
 21
60.625
 31
0.0
  0
LINE
  8
0
  6
CONTINUOUS
 62
     1
 10
90.805647618
 20
60.625
 30
0.0
 11
91.480647618
 21
60.625
 31
0.0
  0
LINE
  8
0
  6
CONTINUOUS
 62
     1
 10
89.055647618
 20
60.625
 30
0.0
 11
89.055647618
 21
60.9
 31
0.0
  0
LINE
  8
0
  6
CONTINUOUS
 62
     1
 10
88.380647618
 20
60.625
 30
0.0
 11
89.055647618
 21
60.625
 31
0.0
  0
LINE
  8
0
  6
CONTINUOUS
 62
     1
 10
89.055647618
 20
57.075
 30
0.0
 11
89.055647618
 21
56.8
 31
0.0
  0
LINE
  8
0
  6
CONTINUOUS
 62
     1
 10
90.805647618
 20
56.8
 30
0.0
 11
90.805647618
 21
57.075
 31
0.0
  0
LINE
  8
0
  6
CONTINUOUS
 62
     1
 10
88.380647618
 20
57.075
 30
0.0
 11
89.055647618
 21
57.075
 31
0.0
  0
LINE
  8
0
  6
CONTINUOUS
 62
     1
 10
90.805647618
 20
57.075
 30
0.0
 11
91.480647618
 21
57.075
 31
0.0
  0
CIRCLE
  8
0
  6
CONTINUOUS
 62
     2
 10
93.740647618
 20
58.85
 30
0.0
 40
1.249999975
  0
LINE
  8
0
  6
CONTINUOUS
 62
     2
 10
93.562076193
 20
58.117857157
 30
0.0
 11
93.919219043
 21
58.117857157
 31
0.0
  0
LINE
  8
0
  6
CONTINUOUS
 62
     2
 10
93.919219043
 20
59.582142842
 30
0.0
 11
93.562076193
 21
59.582142842
 31
0.0
  0
LINE
  8
0
  6
CONTINUOUS
 62
     2
 10
93.562076193
 20
59.582142842
 30
0.0
 11
93.562076193
 21
59.20714285
 31
0.0
  0
ARC
  8
0
  6
CONTINUOUS
 62
     2
 10
93.383504768
 20
59.20714285
 30
0.0
 40
0.178571425
 50
270.0
 51
0.0
  0
LINE
  8
0
  6
CONTINUOUS
 62
     2
 10
93.919219043
 20
59.20714285
 30
0.0
 11
93.919219043
 21
59.582142842
 31
0.0
  0
ARC
  8
0
  6
CONTINUOUS
 62
     2
 10
94.097790468
 20
59.20714285
 30
0.0
 40
0.178571425
 50
180.0
 51
270.0
  0
LINE
  8
0
  6
CONTINUOUS
 62
     2
 10
93.919219043
 20
58.117857157
 30
0.0
 11
93.919219043
 21
58.49285715
 31
0.0
  0
ARC
  8
0
  6
CONTINUOUS
 62
     2
 10
94.097790468
 20
58.49285715
 30
0.0
 40
0.178571425
 50
90.0
 51
180.0
  0
LINE
  8
0
  6
CONTINUOUS
 62
     2
 10
93.562076193
 20
58.49285715
 30
0.0
 11
93.562076193
 21
58.117857157
 31
0.0
  0
ARC
  8
0
  6
CONTINUOUS
 62
     2
 10
93.383504768
 20
58.49285715
 30
0.0
 40
0.178571425
 50
0.0
 51
90.0
  0
LINE
  8
0
  6
CONTINUOUS
 62
     2
 10
93.383504768
 20
59.028571425
 30
0.0
 11
92.503468495
 21
59.028571425
 31
0.0
  0
LINE
  8
0
  6
CONTINUOUS
 62
     2
 10
94.977826742
 20
59.028571425
 30
0.0
 11
94.097790468
 21
59.028571425
 31
0.0
  0
LINE
  8
0
  6
CONTINUOUS
 62
     2
 10
93.383504768
 20
58.671428575
 30
0.0
 11
92.503468495
 21
58.671428575
 31
0.0
  0
LINE
  8
0
  6
CONTINUOUS
 62
     2
 10
94.977826742
 20
58.671428575
 30
0.0
 11
94.097790468
 21
58.671428575
 31
0.0
  0
LINE
  8
0
  6
CONTINUOUS
 62
     2
 10
92.190647618
 20
58.075
 30
0.0
 11
92.690647618
 21
58.075
 31
0.0
  0
LINE
  8
0
  6
CONTINUOUS
 62
     2
 10
92.690647618
 20
58.075
 30
0.0
 11
92.690647618
 21
57.575
 31
0.0
  0
LINE
  8
0
  6
CONTINUOUS
 62
     2
 10
92.690647618
 20
57.575
 30
0.0
 11
92.190647618
 21
57.575
 31
0.0
  0
LINE
  8
0
  6
CONTINUOUS
 62
     2
 10
92.190647618
 20
59.625
 30
0.0
 11
92.690647618
 21
59.625
 31
0.0
  0
LINE
  8
0
  6
CONTINUOUS
 62
     2
 10
92.690647618
 20
59.625
 30
0.0
 11
92.690647618
 21
60.125
 31
0.0
  0
LINE
  8
0
  6
CONTINUOUS
 62
     2
 10
92.690647618
 20
60.125
 30
0.0
 11
92.190647618
 21
60.125
 31
0.0
  0
LINE
  8
0
  6
CONTINUOUS
 62
     2
 10
95.290647618
 20
58.075
 30
0.0
 11
94.790647618
 21
58.075
 31
0.0
  0
LINE
  8
0
  6
CONTINUOUS
 62
     2
 10
94.790647618
 20
58.075
 30
0.0
 11
94.790647618
 21
57.575
 31
0.0
  0
LINE
  8
0
  6
CONTINUOUS
 62
     2
 10
94.790647618
 20
57.575
 30
0.0
 11
95.290647618
 21
57.575
 31
0.0
  0
LINE
  8
0
  6
CONTINUOUS
 62
     2
 10
95.290647618
 20
59.625
 30
0.0
 11
94.790647618
 21
59.625
 31
0.0
  0
LINE
  8
0
  6
CONTINUOUS
 62
     2
 10
94.790647618
 20
59.625
 30
0.0
 11
94.790647618
 21
60.125
 31
0.0
  0
LINE
  8
0
  6
CONTINUOUS
 62
     2
 10
94.790647618
 20
60.125
 30
0.0
 11
95.290647618
 21
60.125
 31
0.0
  0
LINE
  8
0
  6
CONTINUOUS
 62
     1
 10
99.100647618
 20
61.975
 30
0.0
 11
96.000647618
 21
61.975
 31
0.0
  0
LINE
  8
0
  6
CONTINUOUS
 62
     1
 10
96.000647618
 20
55.725
 30
0.0
 11
99.100647618
 21
55.725
 31
0.0
  0
LINE
  8
0
  6
CONTINUOUS
 62
     1
 10
99.100647618
 20
61.975
 30
0.0
 11
99.100647618
 21
55.725
 31
0.0
  0
LINE
  8
0
  6
CONTINUOUS
 62
     1
 10
99.810647618
 20
61.975
 30
0.0
 11
99.810647618
 21
55.725
 31
0.0
  0
LINE
  8
0
  6
CONTINUOUS
 62
     1
 10
99.100647618
 20
55.725
 30
0.0
 11
99.810647618
 21
55.725
 31
0.0
  0
LINE
  8
0
  6
CONTINUOUS
 62
     1
 10
99.100647618
 20
61.975
 30
0.0
 11
99.810647618
 21
61.975
 31
0.0
  0
LINE
  8
0
  6
CONTINUOUS
 62
     1
 10
96.000647618
 20
61.275
 30
0.0
 11
99.100647618
 21
61.275
 31
0.0
  0
LINE
  8
0
  6
CONTINUOUS
 62
     1
 10
96.000647618
 20
56.425
 30
0.0
 11
99.100647618
 21
56.425
 31
0.0
  0
LINE
  8
0
  6
CONTINUOUS
 62
     1
 10
96.000647618
 20
57.075
 30
0.0
 11
99.100647618
 21
57.075
 31
0.0
  0
LINE
  8
0
  6
CONTINUOUS
 62
     1
 10
96.000647618
 20
60.625
 30
0.0
 11
99.100647618
 21
60.625
 31
0.0
  0
CIRCLE
  8
0
  6
CONTINUOUS
 62
     2
 10
97.550647618
 20
58.85
 30
0.0
 40
1.249999975
  0
LINE
  8
0
  6
CONTINUOUS
 62
     2
 10
97.372076193
 20
58.117857157
 30
0.0
 11
97.729219043
 21
58.117857157
 31
0.0
  0
LINE
  8
0
  6
CONTINUOUS
 62
     2
 10
97.729219043
 20
59.582142842
 30
0.0
 11
97.372076193
 21
59.582142842
 31
0.0
  0
LINE
  8
0
  6
CONTINUOUS
 62
     2
 10
97.372076193
 20
59.582142842
 30
0.0
 11
97.372076193
 21
59.20714285
 31
0.0
  0
ARC
  8
0
  6
CONTINUOUS
 62
     2
 10
97.193504768
 20
59.20714285
 30
0.0
 40
0.178571425
 50
270.0
 51
0.0
  0
LINE
  8
0
  6
CONTINUOUS
 62
     2
 10
97.729219043
 20
59.20714285
 30
0.0
 11
97.729219043
 21
59.582142842
 31
0.0
  0
ARC
  8
0
  6
CONTINUOUS
 62
     2
 10
97.907790468
 20
59.20714285
 30
0.0
 40
0.178571425
 50
180.0
 51
270.0
  0
LINE
  8
0
  6
CONTINUOUS
 62
     2
 10
97.729219043
 20
58.117857157
 30
0.0
 11
97.729219043
 21
58.49285715
 31
0.0
  0
ARC
  8
0
  6
CONTINUOUS
 62
     2
 10
97.907790468
 20
58.49285715
 30
0.0
 40
0.178571425
 50
90.0
 51
180.0
  0
LINE
  8
0
  6
CONTINUOUS
 62
     2
 10
97.372076193
 20
58.49285715
 30
0.0
 11
97.372076193
 21
58.117857157
 31
0.0
  0
ARC
  8
0
  6
CONTINUOUS
 62
     2
 10
97.193504768
 20
58.49285715
 30
0.0
 40
0.178571425
 50
0.0
 51
90.0
  0
LINE
  8
0
  6
CONTINUOUS
 62
     2
 10
97.193504768
 20
59.028571425
 30
0.0
 11
96.313468495
 21
59.028571425
 31
0.0
  0
LINE
  8
0
  6
CONTINUOUS
 62
     2
 10
98.787826742
 20
59.028571425
 30
0.0
 11
97.907790468
 21
59.028571425
 31
0.0
  0
LINE
  8
0
  6
CONTINUOUS
 62
     2
 10
97.193504768
 20
58.671428575
 30
0.0
 11
96.313468495
 21
58.671428575
 31
0.0
  0
LINE
  8
0
  6
CONTINUOUS
 62
     2
 10
98.787826742
 20
58.671428575
 30
0.0
 11
97.907790468
 21
58.671428575
 31
0.0
  0
LINE
  8
0
  6
CONTINUOUS
 62
     2
 10
96.000647618
 20
58.075
 30
0.0
 11
96.500647618
 21
58.075
 31
0.0
  0
LINE
  8
0
  6
CONTINUOUS
 62
     2
 10
96.500647618
 20
58.075
 30
0.0
 11
96.500647618
 21
57.575
 31
0.0
  0
LINE
  8
0
  6
CONTINUOUS
 62
     2
 10
96.500647618
 20
57.575
 30
0.0
 11
96.000647618
 21
57.575
 31
0.0
  0
LINE
  8
0
  6
CONTINUOUS
 62
     2
 10
96.000647618
 20
59.625
 30
0.0
 11
96.500647618
 21
59.625
 31
0.0
  0
LINE
  8
0
  6
CONTINUOUS
 62
     2
 10
96.500647618
 20
59.625
 30
0.0
 11
96.500647618
 21
60.125
 31
0.0
  0
LINE
  8
0
  6
CONTINUOUS
 62
     2
 10
96.500647618
 20
60.125
 30
0.0
 11
96.000647618
 21
60.125
 31
0.0
  0
LINE
  8
0
  6
CONTINUOUS
 62
     2
 10
99.100647618
 20
58.075
 30
0.0
 11
98.600647618
 21
58.075
 31
0.0
  0
LINE
  8
0
  6
CONTINUOUS
 62
     2
 10
98.600647618
 20
58.075
 30
0.0
 11
98.600647618
 21
57.575
 31
0.0
  0
LINE
  8
0
  6
CONTINUOUS
 62
     2
 10
98.600647618
 20
57.575
 30
0.0
 11
99.100647618
 21
57.575
 31
0.0
  0
LINE
  8
0
  6
CONTINUOUS
 62
     2
 10
99.100647618
 20
59.625
 30
0.0
 11
98.600647618
 21
59.625
 31
0.0
  0
LINE
  8
0
  6
CONTINUOUS
 62
     2
 10
98.600647618
 20
59.625
 30
0.0
 11
98.600647618
 21
60.125
 31
0.0
  0
LINE
  8
0
  6
CONTINUOUS
 62
     2
 10
98.600647618
 20
60.125
 30
0.0
 11
99.100647618
 21
60.125
 31
0.0
  0
LINE
  8
0
  6
CONTINUOUS
 62
     1
 10
102.910647618
 20
61.975
 30
0.0
 11
99.810647618
 21
61.975
 31
0.0
  0
LINE
  8
0
  6
CONTINUOUS
 62
     1
 10
99.810647618
 20
55.725
 30
0.0
 11
102.910647618
 21
55.725
 31
0.0
  0
LINE
  8
0
  6
CONTINUOUS
 62
     1
 10
102.910647618
 20
61.975
 30
0.0
 11
102.910647618
 21
55.725
 31
0.0
  0
LINE
  8
0
  6
CONTINUOUS
 62
     1
 10
103.620647618
 20
61.975
 30
0.0
 11
103.620647618
 21
55.725
 31
0.0
  0
LINE
  8
0
  6
CONTINUOUS
 62
     1
 10
102.910647618
 20
55.725
 30
0.0
 11
103.620647618
 21
55.725
 31
0.0
  0
LINE
  8
0
  6
CONTINUOUS
 62
     1
 10
102.910647618
 20
61.975
 30
0.0
 11
103.620647618
 21
61.975
 31
0.0
  0
LINE
  8
0
  6
CONTINUOUS
 62
     1
 10
99.810647618
 20
61.275
 30
0.0
 11
102.910647618
 21
61.275
 31
0.0
  0
LINE
  8
0
  6
CONTINUOUS
 62
     1
 10
99.810647618
 20
56.425
 30
0.0
 11
102.910647618
 21
56.425
 31
0.0
  0
LINE
  8
0
  6
CONTINUOUS
 62
     1
 10
99.810647618
 20
57.075
 30
0.0
 11
102.910647618
 21
57.075
 31
0.0
  0
LINE
  8
0
  6
CONTINUOUS
 62
     1
 10
99.810647618
 20
60.625
 30
0.0
 11
102.910647618
 21
60.625
 31
0.0
  0
CIRCLE
  8
0
  6
CONTINUOUS
 62
     2
 10
101.360647618
 20
58.85
 30
0.0
 40
1.249999975
  0
LINE
  8
0
  6
CONTINUOUS
 62
     2
 10
101.182076193
 20
58.117857157
 30
0.0
 11
101.539219043
 21
58.117857157
 31
0.0
  0
LINE
  8
0
  6
CONTINUOUS
 62
     2
 10
101.539219043
 20
59.582142842
 30
0.0
 11
101.182076193
 21
59.582142842
 31
0.0
  0
LINE
  8
0
  6
CONTINUOUS
 62
     2
 10
101.182076193
 20
59.582142842
 30
0.0
 11
101.182076193
 21
59.20714285
 31
0.0
  0
ARC
  8
0
  6
CONTINUOUS
 62
     2
 10
101.003504768
 20
59.20714285
 30
0.0
 40
0.178571425
 50
270.0
 51
0.0
  0
LINE
  8
0
  6
CONTINUOUS
 62
     2
 10
101.539219043
 20
59.20714285
 30
0.0
 11
101.539219043
 21
59.582142842
 31
0.0
  0
ARC
  8
0
  6
CONTINUOUS
 62
     2
 10
101.717790468
 20
59.20714285
 30
0.0
 40
0.178571425
 50
180.0
 51
270.0
  0
LINE
  8
0
  6
CONTINUOUS
 62
     2
 10
101.539219043
 20
58.117857157
 30
0.0
 11
101.539219043
 21
58.49285715
 31
0.0
  0
ARC
  8
0
  6
CONTINUOUS
 62
     2
 10
101.717790468
 20
58.49285715
 30
0.0
 40
0.178571425
 50
90.0
 51
180.0
  0
LINE
  8
0
  6
CONTINUOUS
 62
     2
 10
101.182076193
 20
58.49285715
 30
0.0
 11
101.182076193
 21
58.117857157
 31
0.0
  0
ARC
  8
0
  6
CONTINUOUS
 62
     2
 10
101.003504768
 20
58.49285715
 30
0.0
 40
0.178571425
 50
0.0
 51
90.0
  0
LINE
  8
0
  6
CONTINUOUS
 62
     2
 10
101.003504768
 20
59.028571425
 30
0.0
 11
100.123468495
 21
59.028571425
 31
0.0
  0
LINE
  8
0
  6
CONTINUOUS
 62
     2
 10
102.597826742
 20
59.028571425
 30
0.0
 11
101.717790468
 21
59.028571425
 31
0.0
  0
LINE
  8
0
  6
CONTINUOUS
 62
     2
 10
101.003504768
 20
58.671428575
 30
0.0
 11
100.123468495
 21
58.671428575
 31
0.0
  0
LINE
  8
0
  6
CONTINUOUS
 62
     2
 10
102.597826742
 20
58.671428575
 30
0.0
 11
101.717790468
 21
58.671428575
 31
0.0
  0
LINE
  8
0
  6
CONTINUOUS
 62
     2
 10
99.810647618
 20
58.075
 30
0.0
 11
100.310647618
 21
58.075
 31
0.0
  0
LINE
  8
0
  6
CONTINUOUS
 62
     2
 10
100.310647618
 20
58.075
 30
0.0
 11
100.310647618
 21
57.575
 31
0.0
  0
LINE
  8
0
  6
CONTINUOUS
 62
     2
 10
100.310647618
 20
57.575
 30
0.0
 11
99.810647618
 21
57.575
 31
0.0
  0
LINE
  8
0
  6
CONTINUOUS
 62
     2
 10
99.810647618
 20
59.625
 30
0.0
 11
100.310647618
 21
59.625
 31
0.0
  0
LINE
  8
0
  6
CONTINUOUS
 62
     2
 10
100.310647618
 20
59.625
 30
0.0
 11
100.310647618
 21
60.125
 31
0.0
  0
LINE
  8
0
  6
CONTINUOUS
 62
     2
 10
100.310647618
 20
60.125
 30
0.0
 11
99.810647618
 21
60.125
 31
0.0
  0
LINE
  8
0
  6
CONTINUOUS
 62
     2
 10
102.910647618
 20
58.075
 30
0.0
 11
102.410647618
 21
58.075
 31
0.0
  0
LINE
  8
0
  6
CONTINUOUS
 62
     2
 10
102.410647618
 20
58.075
 30
0.0
 11
102.410647618
 21
57.575
 31
0.0
  0
LINE
  8
0
  6
CONTINUOUS
 62
     2
 10
102.410647618
 20
57.575
 30
0.0
 11
102.910647618
 21
57.575
 31
0.0
  0
LINE
  8
0
  6
CONTINUOUS
 62
     2
 10
102.910647618
 20
59.625
 30
0.0
 11
102.410647618
 21
59.625
 31
0.0
  0
LINE
  8
0
  6
CONTINUOUS
 62
     2
 10
102.410647618
 20
59.625
 30
0.0
 11
102.410647618
 21
60.125
 31
0.0
  0
LINE
  8
0
  6
CONTINUOUS
 62
     2
 10
102.410647618
 20
60.125
 30
0.0
 11
102.910647618
 21
60.125
 31
0.0
  0
LINE
  8
0
  6
CONTINUOUS
 62
     1
 10
106.720647618
 20
61.975
 30
0.0
 11
103.620647618
 21
61.975
 31
0.0
  0
LINE
  8
0
  6
CONTINUOUS
 62
     1
 10
103.620647618
 20
55.725
 30
0.0
 11
106.720647618
 21
55.725
 31
0.0
  0
LINE
  8
0
  6
CONTINUOUS
 62
     1
 10
106.720647618
 20
61.975
 30
0.0
 11
106.720647618
 21
55.725
 31
0.0
  0
LINE
  8
0
  6
CONTINUOUS
 62
     1
 10
107.430647618
 20
61.975
 30
0.0
 11
107.430647618
 21
55.725
 31
0.0
  0
LINE
  8
0
  6
CONTINUOUS
 62
     1
 10
106.720647618
 20
55.725
 30
0.0
 11
107.430647618
 21
55.725
 31
0.0
  0
LINE
  8
0
  6
CONTINUOUS
 62
     1
 10
106.720647618
 20
61.975
 30
0.0
 11
107.430647618
 21
61.975
 31
0.0
  0
LINE
  8
0
  6
CONTINUOUS
 62
     1
 10
103.620647618
 20
61.275
 30
0.0
 11
106.720647618
 21
61.275
 31
0.0
  0
LINE
  8
0
  6
CONTINUOUS
 62
     1
 10
103.620647618
 20
56.425
 30
0.0
 11
106.720647618
 21
56.425
 31
0.0
  0
LINE
  8
0
  6
CONTINUOUS
 62
     1
 10
103.620647618
 20
57.075
 30
0.0
 11
106.720647618
 21
57.075
 31
0.0
  0
LINE
  8
0
  6
CONTINUOUS
 62
     1
 10
103.620647618
 20
60.625
 30
0.0
 11
106.720647618
 21
60.625
 31
0.0
  0
CIRCLE
  8
0
  6
CONTINUOUS
 62
     2
 10
105.170647618
 20
58.85
 30
0.0
 40
1.249999975
  0
LINE
  8
0
  6
CONTINUOUS
 62
     2
 10
104.992076193
 20
58.117857157
 30
0.0
 11
105.349219043
 21
58.117857157
 31
0.0
  0
LINE
  8
0
  6
CONTINUOUS
 62
     2
 10
105.349219043
 20
59.582142842
 30
0.0
 11
104.992076193
 21
59.582142842
 31
0.0
  0
LINE
  8
0
  6
CONTINUOUS
 62
     2
 10
104.992076193
 20
59.582142842
 30
0.0
 11
104.992076193
 21
59.20714285
 31
0.0
  0
ARC
  8
0
  6
CONTINUOUS
 62
     2
 10
104.813504768
 20
59.20714285
 30
0.0
 40
0.178571425
 50
270.0
 51
0.0
  0
LINE
  8
0
  6
CONTINUOUS
 62
     2
 10
105.349219043
 20
59.20714285
 30
0.0
 11
105.349219043
 21
59.582142842
 31
0.0
  0
ARC
  8
0
  6
CONTINUOUS
 62
     2
 10
105.527790468
 20
59.20714285
 30
0.0
 40
0.178571425
 50
180.0
 51
270.0
  0
LINE
  8
0
  6
CONTINUOUS
 62
     2
 10
105.349219043
 20
58.117857157
 30
0.0
 11
105.349219043
 21
58.49285715
 31
0.0
  0
ARC
  8
0
  6
CONTINUOUS
 62
     2
 10
105.527790468
 20
58.49285715
 30
0.0
 40
0.178571425
 50
90.0
 51
180.0
  0
LINE
  8
0
  6
CONTINUOUS
 62
     2
 10
104.992076193
 20
58.49285715
 30
0.0
 11
104.992076193
 21
58.117857157
 31
0.0
  0
ARC
  8
0
  6
CONTINUOUS
 62
     2
 10
104.813504768
 20
58.49285715
 30
0.0
 40
0.178571425
 50
0.0
 51
90.0
  0
LINE
  8
0
  6
CONTINUOUS
 62
     2
 10
104.813504768
 20
59.028571425
 30
0.0
 11
103.933468495
 21
59.028571425
 31
0.0
  0
LINE
  8
0
  6
CONTINUOUS
 62
     2
 10
106.407826742
 20
59.028571425
 30
0.0
 11
105.527790468
 21
59.028571425
 31
0.0
  0
LINE
  8
0
  6
CONTINUOUS
 62
     2
 10
104.813504768
 20
58.671428575
 30
0.0
 11
103.933468495
 21
58.671428575
 31
0.0
  0
LINE
  8
0
  6
CONTINUOUS
 62
     2
 10
106.407826742
 20
58.671428575
 30
0.0
 11
105.527790468
 21
58.671428575
 31
0.0
  0
LINE
  8
0
  6
CONTINUOUS
 62
     2
 10
103.620647618
 20
58.075
 30
0.0
 11
104.120647618
 21
58.075
 31
0.0
  0
LINE
  8
0
  6
CONTINUOUS
 62
     2
 10
104.120647618
 20
58.075
 30
0.0
 11
104.120647618
 21
57.575
 31
0.0
  0
LINE
  8
0
  6
CONTINUOUS
 62
     2
 10
104.120647618
 20
57.575
 30
0.0
 11
103.620647618
 21
57.575
 31
0.0
  0
LINE
  8
0
  6
CONTINUOUS
 62
     2
 10
103.620647618
 20
59.625
 30
0.0
 11
104.120647618
 21
59.625
 31
0.0
  0
LINE
  8
0
  6
CONTINUOUS
 62
     2
 10
104.120647618
 20
59.625
 30
0.0
 11
104.120647618
 21
60.125
 31
0.0
  0
LINE
  8
0
  6
CONTINUOUS
 62
     2
 10
104.120647618
 20
60.125
 30
0.0
 11
103.620647618
 21
60.125
 31
0.0
  0
LINE
  8
0
  6
CONTINUOUS
 62
     2
 10
106.720647618
 20
58.075
 30
0.0
 11
106.220647618
 21
58.075
 31
0.0
  0
LINE
  8
0
  6
CONTINUOUS
 62
     2
 10
106.220647618
 20
58.075
 30
0.0
 11
106.220647618
 21
57.575
 31
0.0
  0
LINE
  8
0
  6
CONTINUOUS
 62
     2
 10
106.220647618
 20
57.575
 30
0.0
 11
106.720647618
 21
57.575
 31
0.0
  0
LINE
  8
0
  6
CONTINUOUS
 62
     2
 10
106.720647618
 20
59.625
 30
0.0
 11
106.220647618
 21
59.625
 31
0.0
  0
LINE
  8
0
  6
CONTINUOUS
 62
     2
 10
106.220647618
 20
59.625
 30
0.0
 11
106.220647618
 21
60.125
 31
0.0
  0
LINE
  8
0
  6
CONTINUOUS
 62
     2
 10
106.220647618
 20
60.125
 30
0.0
 11
106.720647618
 21
60.125
 31
0.0
  0
LINE
  8
0
  6
CONTINUOUS
 62
     1
 10
110.530647618
 20
61.975
 30
0.0
 11
107.430647618
 21
61.975
 31
0.0
  0
LINE
  8
0
  6
CONTINUOUS
 62
     1
 10
107.430647618
 20
55.725
 30
0.0
 11
110.530647618
 21
55.725
 31
0.0
  0
LINE
  8
0
  6
CONTINUOUS
 62
     1
 10
110.530647618
 20
61.975
 30
0.0
 11
110.530647618
 21
55.725
 31
0.0
  0
LINE
  8
0
  6
CONTINUOUS
 62
     1
 10
111.240647618
 20
61.975
 30
0.0
 11
111.240647618
 21
55.725
 31
0.0
  0
LINE
  8
0
  6
CONTINUOUS
 62
     1
 10
110.530647618
 20
55.725
 30
0.0
 11
111.240647618
 21
55.725
 31
0.0
  0
LINE
  8
0
  6
CONTINUOUS
 62
     1
 10
110.530647618
 20
61.975
 30
0.0
 11
111.240647618
 21
61.975
 31
0.0
  0
LINE
  8
0
  6
CONTINUOUS
 62
     1
 10
107.430647618
 20
61.275
 30
0.0
 11
110.530647618
 21
61.275
 31
0.0
  0
LINE
  8
0
  6
CONTINUOUS
 62
     1
 10
107.430647618
 20
56.425
 30
0.0
 11
110.530647618
 21
56.425
 31
0.0
  0
LINE
  8
0
  6
CONTINUOUS
 62
     1
 10
107.430647618
 20
57.075
 30
0.0
 11
110.530647618
 21
57.075
 31
0.0
  0
LINE
  8
0
  6
CONTINUOUS
 62
     1
 10
107.430647618
 20
60.625
 30
0.0
 11
110.530647618
 21
60.625
 31
0.0
  0
CIRCLE
  8
0
  6
CONTINUOUS
 62
     2
 10
108.980647618
 20
58.85
 30
0.0
 40
1.249999975
  0
LINE
  8
0
  6
CONTINUOUS
 62
     2
 10
108.802076193
 20
58.117857157
 30
0.0
 11
109.159219043
 21
58.117857157
 31
0.0
  0
LINE
  8
0
  6
CONTINUOUS
 62
     2
 10
109.159219043
 20
59.582142842
 30
0.0
 11
108.802076193
 21
59.582142842
 31
0.0
  0
LINE
  8
0
  6
CONTINUOUS
 62
     2
 10
108.802076193
 20
59.582142842
 30
0.0
 11
108.802076193
 21
59.20714285
 31
0.0
  0
ARC
  8
0
  6
CONTINUOUS
 62
     2
 10
108.623504768
 20
59.20714285
 30
0.0
 40
0.178571425
 50
270.0
 51
0.0
  0
LINE
  8
0
  6
CONTINUOUS
 62
     2
 10
109.159219043
 20
59.20714285
 30
0.0
 11
109.159219043
 21
59.582142842
 31
0.0
  0
ARC
  8
0
  6
CONTINUOUS
 62
     2
 10
109.337790468
 20
59.20714285
 30
0.0
 40
0.178571425
 50
180.0
 51
270.0
  0
LINE
  8
0
  6
CONTINUOUS
 62
     2
 10
109.159219043
 20
58.117857157
 30
0.0
 11
109.159219043
 21
58.49285715
 31
0.0
  0
ARC
  8
0
  6
CONTINUOUS
 62
     2
 10
109.337790468
 20
58.49285715
 30
0.0
 40
0.178571425
 50
90.0
 51
180.0
  0
LINE
  8
0
  6
CONTINUOUS
 62
     2
 10
108.802076193
 20
58.49285715
 30
0.0
 11
108.802076193
 21
58.117857157
 31
0.0
  0
ARC
  8
0
  6
CONTINUOUS
 62
     2
 10
108.623504768
 20
58.49285715
 30
0.0
 40
0.178571425
 50
0.0
 51
90.0
  0
LINE
  8
0
  6
CONTINUOUS
 62
     2
 10
108.623504768
 20
59.028571425
 30
0.0
 11
107.743468495
 21
59.028571425
 31
0.0
  0
LINE
  8
0
  6
CONTINUOUS
 62
     2
 10
110.217826742
 20
59.028571425
 30
0.0
 11
109.337790468
 21
59.028571425
 31
0.0
  0
LINE
  8
0
  6
CONTINUOUS
 62
     2
 10
108.623504768
 20
58.671428575
 30
0.0
 11
107.743468495
 21
58.671428575
 31
0.0
  0
LINE
  8
0
  6
CONTINUOUS
 62
     2
 10
110.217826742
 20
58.671428575
 30
0.0
 11
109.337790468
 21
58.671428575
 31
0.0
  0
LINE
  8
0
  6
CONTINUOUS
 62
     2
 10
107.430647618
 20
58.075
 30
0.0
 11
107.930647618
 21
58.075
 31
0.0
  0
LINE
  8
0
  6
CONTINUOUS
 62
     2
 10
107.930647618
 20
58.075
 30
0.0
 11
107.930647618
 21
57.575
 31
0.0
  0
LINE
  8
0
  6
CONTINUOUS
 62
     2
 10
107.930647618
 20
57.575
 30
0.0
 11
107.430647618
 21
57.575
 31
0.0
  0
LINE
  8
0
  6
CONTINUOUS
 62
     2
 10
107.430647618
 20
59.625
 30
0.0
 11
107.930647618
 21
59.625
 31
0.0
  0
LINE
  8
0
  6
CONTINUOUS
 62
     2
 10
107.930647618
 20
59.625
 30
0.0
 11
107.930647618
 21
60.125
 31
0.0
  0
LINE
  8
0
  6
CONTINUOUS
 62
     2
 10
107.930647618
 20
60.125
 30
0.0
 11
107.430647618
 21
60.125
 31
0.0
  0
LINE
  8
0
  6
CONTINUOUS
 62
     2
 10
110.530647618
 20
58.075
 30
0.0
 11
110.030647618
 21
58.075
 31
0.0
  0
LINE
  8
0
  6
CONTINUOUS
 62
     2
 10
110.030647618
 20
58.075
 30
0.0
 11
110.030647618
 21
57.575
 31
0.0
  0
LINE
  8
0
  6
CONTINUOUS
 62
     2
 10
110.030647618
 20
57.575
 30
0.0
 11
110.530647618
 21
57.575
 31
0.0
  0
LINE
  8
0
  6
CONTINUOUS
 62
     2
 10
110.530647618
 20
59.625
 30
0.0
 11
110.030647618
 21
59.625
 31
0.0
  0
LINE
  8
0
  6
CONTINUOUS
 62
     2
 10
110.030647618
 20
59.625
 30
0.0
 11
110.030647618
 21
60.125
 31
0.0
  0
LINE
  8
0
  6
CONTINUOUS
 62
     2
 10
110.030647618
 20
60.125
 30
0.0
 11
110.530647618
 21
60.125
 31
0.0
  0
LINE
  8
0
  6
CONTINUOUS
 62
     1
 10
114.340647618
 20
61.975
 30
0.0
 11
111.240647618
 21
61.975
 31
0.0
  0
LINE
  8
0
  6
CONTINUOUS
 62
     1
 10
111.240647618
 20
55.725
 30
0.0
 11
114.340647618
 21
55.725
 31
0.0
  0
LINE
  8
0
  6
CONTINUOUS
 62
     1
 10
114.340647618
 20
61.975
 30
0.0
 11
114.340647618
 21
55.725
 31
0.0
  0
LINE
  8
0
  6
CONTINUOUS
 62
     1
 10
115.050647618
 20
61.975
 30
0.0
 11
115.050647618
 21
55.725
 31
0.0
  0
LINE
  8
0
  6
CONTINUOUS
 62
     1
 10
114.340647618
 20
55.725
 30
0.0
 11
115.050647618
 21
55.725
 31
0.0
  0
LINE
  8
0
  6
CONTINUOUS
 62
     1
 10
114.340647618
 20
61.975
 30
0.0
 11
115.050647618
 21
61.975
 31
0.0
  0
LINE
  8
0
  6
CONTINUOUS
 62
     1
 10
111.240647618
 20
61.275
 30
0.0
 11
114.340647618
 21
61.275
 31
0.0
  0
LINE
  8
0
  6
CONTINUOUS
 62
     1
 10
111.240647618
 20
56.425
 30
0.0
 11
114.340647618
 21
56.425
 31
0.0
  0
LINE
  8
0
  6
CONTINUOUS
 62
     1
 10
111.240647618
 20
57.075
 30
0.0
 11
114.340647618
 21
57.075
 31
0.0
  0
LINE
  8
0
  6
CONTINUOUS
 62
     1
 10
111.240647618
 20
60.625
 30
0.0
 11
114.340647618
 21
60.625
 31
0.0
  0
CIRCLE
  8
0
  6
CONTINUOUS
 62
     2
 10
112.790647618
 20
58.85
 30
0.0
 40
1.249999975
  0
LINE
  8
0
  6
CONTINUOUS
 62
     2
 10
112.612076193
 20
58.117857157
 30
0.0
 11
112.969219043
 21
58.117857157
 31
0.0
  0
LINE
  8
0
  6
CONTINUOUS
 62
     2
 10
112.969219043
 20
59.582142842
 30
0.0
 11
112.612076193
 21
59.582142842
 31
0.0
  0
LINE
  8
0
  6
CONTINUOUS
 62
     2
 10
112.612076193
 20
59.582142842
 30
0.0
 11
112.612076193
 21
59.20714285
 31
0.0
  0
ARC
  8
0
  6
CONTINUOUS
 62
     2
 10
112.433504768
 20
59.20714285
 30
0.0
 40
0.178571425
 50
270.0
 51
0.0
  0
LINE
  8
0
  6
CONTINUOUS
 62
     2
 10
112.969219043
 20
59.20714285
 30
0.0
 11
112.969219043
 21
59.582142842
 31
0.0
  0
ARC
  8
0
  6
CONTINUOUS
 62
     2
 10
113.147790468
 20
59.20714285
 30
0.0
 40
0.178571425
 50
180.0
 51
270.0
  0
LINE
  8
0
  6
CONTINUOUS
 62
     2
 10
112.969219043
 20
58.117857157
 30
0.0
 11
112.969219043
 21
58.49285715
 31
0.0
  0
ARC
  8
0
  6
CONTINUOUS
 62
     2
 10
113.147790468
 20
58.49285715
 30
0.0
 40
0.178571425
 50
90.0
 51
180.0
  0
LINE
  8
0
  6
CONTINUOUS
 62
     2
 10
112.612076193
 20
58.49285715
 30
0.0
 11
112.612076193
 21
58.117857157
 31
0.0
  0
ARC
  8
0
  6
CONTINUOUS
 62
     2
 10
112.433504768
 20
58.49285715
 30
0.0
 40
0.178571425
 50
0.0
 51
90.0
  0
LINE
  8
0
  6
CONTINUOUS
 62
     2
 10
112.433504768
 20
59.028571425
 30
0.0
 11
111.553468495
 21
59.028571425
 31
0.0
  0
LINE
  8
0
  6
CONTINUOUS
 62
     2
 10
114.027826742
 20
59.028571425
 30
0.0
 11
113.147790468
 21
59.028571425
 31
0.0
  0
LINE
  8
0
  6
CONTINUOUS
 62
     2
 10
112.433504768
 20
58.671428575
 30
0.0
 11
111.553468495
 21
58.671428575
 31
0.0
  0
LINE
  8
0
  6
CONTINUOUS
 62
     2
 10
114.027826742
 20
58.671428575
 30
0.0
 11
113.147790468
 21
58.671428575
 31
0.0
  0
LINE
  8
0
  6
CONTINUOUS
 62
     2
 10
111.240647618
 20
58.075
 30
0.0
 11
111.740647618
 21
58.075
 31
0.0
  0
LINE
  8
0
  6
CONTINUOUS
 62
     2
 10
111.740647618
 20
58.075
 30
0.0
 11
111.740647618
 21
57.575
 31
0.0
  0
LINE
  8
0
  6
CONTINUOUS
 62
     2
 10
111.740647618
 20
57.575
 30
0.0
 11
111.240647618
 21
57.575
 31
0.0
  0
LINE
  8
0
  6
CONTINUOUS
 62
     2
 10
111.240647618
 20
59.625
 30
0.0
 11
111.740647618
 21
59.625
 31
0.0
  0
LINE
  8
0
  6
CONTINUOUS
 62
     2
 10
111.740647618
 20
59.625
 30
0.0
 11
111.740647618
 21
60.125
 31
0.0
  0
LINE
  8
0
  6
CONTINUOUS
 62
     2
 10
111.740647618
 20
60.125
 30
0.0
 11
111.240647618
 21
60.125
 31
0.0
  0
LINE
  8
0
  6
CONTINUOUS
 62
     2
 10
114.340647618
 20
58.075
 30
0.0
 11
113.840647618
 21
58.075
 31
0.0
  0
LINE
  8
0
  6
CONTINUOUS
 62
     2
 10
113.840647618
 20
58.075
 30
0.0
 11
113.840647618
 21
57.575
 31
0.0
  0
LINE
  8
0
  6
CONTINUOUS
 62
     2
 10
113.840647618
 20
57.575
 30
0.0
 11
114.340647618
 21
57.575
 31
0.0
  0
LINE
  8
0
  6
CONTINUOUS
 62
     2
 10
114.340647618
 20
59.625
 30
0.0
 11
113.840647618
 21
59.625
 31
0.0
  0
LINE
  8
0
  6
CONTINUOUS
 62
     2
 10
113.840647618
 20
59.625
 30
0.0
 11
113.840647618
 21
60.125
 31
0.0
  0
LINE
  8
0
  6
CONTINUOUS
 62
     2
 10
113.840647618
 20
60.125
 30
0.0
 11
114.340647618
 21
60.125
 31
0.0
  0
LINE
  8
0
  6
CONTINUOUS
 62
     1
 10
118.150647618
 20
61.975
 30
0.0
 11
115.050647618
 21
61.975
 31
0.0
  0
LINE
  8
0
  6
CONTINUOUS
 62
     1
 10
115.050647618
 20
55.725
 30
0.0
 11
118.150647618
 21
55.725
 31
0.0
  0
LINE
  8
0
  6
CONTINUOUS
 62
     1
 10
118.150647618
 20
61.975
 30
0.0
 11
118.150647618
 21
55.725
 31
0.0
  0
LINE
  8
0
  6
CONTINUOUS
 62
     1
 10
118.860647618
 20
61.975
 30
0.0
 11
118.860647618
 21
55.725
 31
0.0
  0
LINE
  8
0
  6
CONTINUOUS
 62
     1
 10
118.150647618
 20
55.725
 30
0.0
 11
118.860647618
 21
55.725
 31
0.0
  0
LINE
  8
0
  6
CONTINUOUS
 62
     1
 10
118.150647618
 20
61.975
 30
0.0
 11
118.860647618
 21
61.975
 31
0.0
  0
LINE
  8
0
  6
CONTINUOUS
 62
     1
 10
115.050647618
 20
61.275
 30
0.0
 11
118.150647618
 21
61.275
 31
0.0
  0
LINE
  8
0
  6
CONTINUOUS
 62
     1
 10
115.050647618
 20
56.425
 30
0.0
 11
118.150647618
 21
56.425
 31
0.0
  0
LINE
  8
0
  6
CONTINUOUS
 62
     1
 10
115.050647618
 20
57.075
 30
0.0
 11
118.150647618
 21
57.075
 31
0.0
  0
LINE
  8
0
  6
CONTINUOUS
 62
     1
 10
115.050647618
 20
60.625
 30
0.0
 11
118.150647618
 21
60.625
 31
0.0
  0
CIRCLE
  8
0
  6
CONTINUOUS
 62
     2
 10
116.600647618
 20
58.85
 30
0.0
 40
1.249999975
  0
LINE
  8
0
  6
CONTINUOUS
 62
     2
 10
116.422076193
 20
58.117857157
 30
0.0
 11
116.779219043
 21
58.117857157
 31
0.0
  0
LINE
  8
0
  6
CONTINUOUS
 62
     2
 10
116.779219043
 20
59.582142842
 30
0.0
 11
116.422076193
 21
59.582142842
 31
0.0
  0
LINE
  8
0
  6
CONTINUOUS
 62
     2
 10
116.422076193
 20
59.582142842
 30
0.0
 11
116.422076193
 21
59.20714285
 31
0.0
  0
ARC
  8
0
  6
CONTINUOUS
 62
     2
 10
116.243504768
 20
59.20714285
 30
0.0
 40
0.178571425
 50
270.0
 51
0.0
  0
LINE
  8
0
  6
CONTINUOUS
 62
     2
 10
116.779219043
 20
59.20714285
 30
0.0
 11
116.779219043
 21
59.582142842
 31
0.0
  0
ARC
  8
0
  6
CONTINUOUS
 62
     2
 10
116.957790468
 20
59.20714285
 30
0.0
 40
0.178571425
 50
180.0
 51
270.0
  0
LINE
  8
0
  6
CONTINUOUS
 62
     2
 10
116.779219043
 20
58.117857157
 30
0.0
 11
116.779219043
 21
58.49285715
 31
0.0
  0
ARC
  8
0
  6
CONTINUOUS
 62
     2
 10
116.957790468
 20
58.49285715
 30
0.0
 40
0.178571425
 50
90.0
 51
180.0
  0
LINE
  8
0
  6
CONTINUOUS
 62
     2
 10
116.422076193
 20
58.49285715
 30
0.0
 11
116.422076193
 21
58.117857157
 31
0.0
  0
ARC
  8
0
  6
CONTINUOUS
 62
     2
 10
116.243504768
 20
58.49285715
 30
0.0
 40
0.178571425
 50
0.0
 51
90.0
  0
LINE
  8
0
  6
CONTINUOUS
 62
     2
 10
116.243504768
 20
59.028571425
 30
0.0
 11
115.363468495
 21
59.028571425
 31
0.0
  0
LINE
  8
0
  6
CONTINUOUS
 62
     2
 10
117.837826742
 20
59.028571425
 30
0.0
 11
116.957790468
 21
59.028571425
 31
0.0
  0
LINE
  8
0
  6
CONTINUOUS
 62
     2
 10
116.243504768
 20
58.671428575
 30
0.0
 11
115.363468495
 21
58.671428575
 31
0.0
  0
LINE
  8
0
  6
CONTINUOUS
 62
     2
 10
117.837826742
 20
58.671428575
 30
0.0
 11
116.957790468
 21
58.671428575
 31
0.0
  0
LINE
  8
0
  6
CONTINUOUS
 62
     2
 10
115.050647618
 20
58.075
 30
0.0
 11
115.550647618
 21
58.075
 31
0.0
  0
LINE
  8
0
  6
CONTINUOUS
 62
     2
 10
115.550647618
 20
58.075
 30
0.0
 11
115.550647618
 21
57.575
 31
0.0
  0
LINE
  8
0
  6
CONTINUOUS
 62
     2
 10
115.550647618
 20
57.575
 30
0.0
 11
115.050647618
 21
57.575
 31
0.0
  0
LINE
  8
0
  6
CONTINUOUS
 62
     2
 10
115.050647618
 20
59.625
 30
0.0
 11
115.550647618
 21
59.625
 31
0.0
  0
LINE
  8
0
  6
CONTINUOUS
 62
     2
 10
115.550647618
 20
59.625
 30
0.0
 11
115.550647618
 21
60.125
 31
0.0
  0
LINE
  8
0
  6
CONTINUOUS
 62
     2
 10
115.550647618
 20
60.125
 30
0.0
 11
115.050647618
 21
60.125
 31
0.0
  0
LINE
  8
0
  6
CONTINUOUS
 62
     2
 10
118.150647618
 20
58.075
 30
0.0
 11
117.650647618
 21
58.075
 31
0.0
  0
LINE
  8
0
  6
CONTINUOUS
 62
     2
 10
117.650647618
 20
58.075
 30
0.0
 11
117.650647618
 21
57.575
 31
0.0
  0
LINE
  8
0
  6
CONTINUOUS
 62
     2
 10
117.650647618
 20
57.575
 30
0.0
 11
118.150647618
 21
57.575
 31
0.0
  0
LINE
  8
0
  6
CONTINUOUS
 62
     2
 10
118.150647618
 20
59.625
 30
0.0
 11
117.650647618
 21
59.625
 31
0.0
  0
LINE
  8
0
  6
CONTINUOUS
 62
     2
 10
117.650647618
 20
59.625
 30
0.0
 11
117.650647618
 21
60.125
 31
0.0
  0
LINE
  8
0
  6
CONTINUOUS
 62
     2
 10
117.650647618
 20
60.125
 30
0.0
 11
118.150647618
 21
60.125
 31
0.0
  0
LINE
  8
0
  6
CONTINUOUS
 62
     1
 10
121.960647618
 20
61.975
 30
0.0
 11
118.860647618
 21
61.975
 31
0.0
  0
LINE
  8
0
  6
CONTINUOUS
 62
     1
 10
118.860647618
 20
55.725
 30
0.0
 11
121.960647618
 21
55.725
 31
0.0
  0
LINE
  8
0
  6
CONTINUOUS
 62
     1
 10
121.960647618
 20
61.975
 30
0.0
 11
121.960647618
 21
55.725
 31
0.0
  0
LINE
  8
0
  6
CONTINUOUS
 62
     1
 10
122.670647618
 20
61.975
 30
0.0
 11
122.670647618
 21
55.725
 31
0.0
  0
LINE
  8
0
  6
CONTINUOUS
 62
     1
 10
121.960647618
 20
55.725
 30
0.0
 11
122.670647618
 21
55.725
 31
0.0
  0
LINE
  8
0
  6
CONTINUOUS
 62
     1
 10
121.960647618
 20
61.975
 30
0.0
 11
122.670647618
 21
61.975
 31
0.0
  0
LINE
  8
0
  6
CONTINUOUS
 62
     1
 10
118.860647618
 20
61.275
 30
0.0
 11
121.960647618
 21
61.275
 31
0.0
  0
LINE
  8
0
  6
CONTINUOUS
 62
     1
 10
118.860647618
 20
56.425
 30
0.0
 11
121.960647618
 21
56.425
 31
0.0
  0
LINE
  8
0
  6
CONTINUOUS
 62
     1
 10
118.860647618
 20
57.075
 30
0.0
 11
121.960647618
 21
57.075
 31
0.0
  0
LINE
  8
0
  6
CONTINUOUS
 62
     1
 10
118.860647618
 20
60.625
 30
0.0
 11
121.960647618
 21
60.625
 31
0.0
  0
CIRCLE
  8
0
  6
CONTINUOUS
 62
     2
 10
120.410647618
 20
58.85
 30
0.0
 40
1.249999975
  0
LINE
  8
0
  6
CONTINUOUS
 62
     2
 10
120.232076193
 20
58.117857157
 30
0.0
 11
120.589219043
 21
58.117857157
 31
0.0
  0
LINE
  8
0
  6
CONTINUOUS
 62
     2
 10
120.589219043
 20
59.582142842
 30
0.0
 11
120.232076193
 21
59.582142842
 31
0.0
  0
LINE
  8
0
  6
CONTINUOUS
 62
     2
 10
120.232076193
 20
59.582142842
 30
0.0
 11
120.232076193
 21
59.20714285
 31
0.0
  0
ARC
  8
0
  6
CONTINUOUS
 62
     2
 10
120.053504768
 20
59.20714285
 30
0.0
 40
0.178571425
 50
270.0
 51
0.0
  0
LINE
  8
0
  6
CONTINUOUS
 62
     2
 10
120.589219043
 20
59.20714285
 30
0.0
 11
120.589219043
 21
59.582142842
 31
0.0
  0
ARC
  8
0
  6
CONTINUOUS
 62
     2
 10
120.767790468
 20
59.20714285
 30
0.0
 40
0.178571425
 50
180.0
 51
270.0
  0
LINE
  8
0
  6
CONTINUOUS
 62
     2
 10
120.589219043
 20
58.117857157
 30
0.0
 11
120.589219043
 21
58.49285715
 31
0.0
  0
ARC
  8
0
  6
CONTINUOUS
 62
     2
 10
120.767790468
 20
58.49285715
 30
0.0
 40
0.178571425
 50
90.0
 51
180.0
  0
LINE
  8
0
  6
CONTINUOUS
 62
     2
 10
120.232076193
 20
58.49285715
 30
0.0
 11
120.232076193
 21
58.117857157
 31
0.0
  0
ARC
  8
0
  6
CONTINUOUS
 62
     2
 10
120.053504768
 20
58.49285715
 30
0.0
 40
0.178571425
 50
0.0
 51
90.0
  0
LINE
  8
0
  6
CONTINUOUS
 62
     2
 10
120.053504768
 20
59.028571425
 30
0.0
 11
119.173468495
 21
59.028571425
 31
0.0
  0
LINE
  8
0
  6
CONTINUOUS
 62
     2
 10
121.647826742
 20
59.028571425
 30
0.0
 11
120.767790468
 21
59.028571425
 31
0.0
  0
LINE
  8
0
  6
CONTINUOUS
 62
     2
 10
120.053504768
 20
58.671428575
 30
0.0
 11
119.173468495
 21
58.671428575
 31
0.0
  0
LINE
  8
0
  6
CONTINUOUS
 62
     2
 10
121.647826742
 20
58.671428575
 30
0.0
 11
120.767790468
 21
58.671428575
 31
0.0
  0
LINE
  8
0
  6
CONTINUOUS
 62
     2
 10
118.860647618
 20
58.075
 30
0.0
 11
119.360647618
 21
58.075
 31
0.0
  0
LINE
  8
0
  6
CONTINUOUS
 62
     2
 10
119.360647618
 20
58.075
 30
0.0
 11
119.360647618
 21
57.575
 31
0.0
  0
LINE
  8
0
  6
CONTINUOUS
 62
     2
 10
119.360647618
 20
57.575
 30
0.0
 11
118.860647618
 21
57.575
 31
0.0
  0
LINE
  8
0
  6
CONTINUOUS
 62
     2
 10
118.860647618
 20
59.625
 30
0.0
 11
119.360647618
 21
59.625
 31
0.0
  0
LINE
  8
0
  6
CONTINUOUS
 62
     2
 10
119.360647618
 20
59.625
 30
0.0
 11
119.360647618
 21
60.125
 31
0.0
  0
LINE
  8
0
  6
CONTINUOUS
 62
     2
 10
119.360647618
 20
60.125
 30
0.0
 11
118.860647618
 21
60.125
 31
0.0
  0
LINE
  8
0
  6
CONTINUOUS
 62
     2
 10
121.960647618
 20
58.075
 30
0.0
 11
121.460647618
 21
58.075
 31
0.0
  0
LINE
  8
0
  6
CONTINUOUS
 62
     2
 10
121.460647618
 20
58.075
 30
0.0
 11
121.460647618
 21
57.575
 31
0.0
  0
LINE
  8
0
  6
CONTINUOUS
 62
     2
 10
121.460647618
 20
57.575
 30
0.0
 11
121.960647618
 21
57.575
 31
0.0
  0
LINE
  8
0
  6
CONTINUOUS
 62
     2
 10
121.960647618
 20
59.625
 30
0.0
 11
121.460647618
 21
59.625
 31
0.0
  0
LINE
  8
0
  6
CONTINUOUS
 62
     2
 10
121.460647618
 20
59.625
 30
0.0
 11
121.460647618
 21
60.125
 31
0.0
  0
LINE
  8
0
  6
CONTINUOUS
 62
     2
 10
121.460647618
 20
60.125
 30
0.0
 11
121.960647618
 21
60.125
 31
0.0
  0
LINE
  8
0
  6
CONTINUOUS
 62
     1
 10
122.670647618
 20
61.975
 30
0.0
 11
125.770647618
 21
61.975
 31
0.0
  0
LINE
  8
0
  6
CONTINUOUS
 62
     1
 10
125.770647618
 20
61.275
 30
0.0
 11
122.670647618
 21
61.275
 31
0.0
  0
LINE
  8
0
  6
CONTINUOUS
 62
     1
 10
125.095647618
 20
56.8
 30
0.0
 11
123.345647618
 21
56.8
 31
0.0
  0
LINE
  8
0
  6
CONTINUOUS
 62
     1
 10
125.095647618
 20
60.9
 30
0.0
 11
123.345647618
 21
60.9
 31
0.0
  0
LINE
  8
0
  6
CONTINUOUS
 62
     1
 10
123.345647618
 20
60.9
 30
0.0
 11
123.345647618
 21
60.625
 31
0.0
  0
LINE
  8
0
  6
CONTINUOUS
 62
     1
 10
123.345647618
 20
60.625
 30
0.0
 11
122.670647618
 21
60.625
 31
0.0
  0
LINE
  8
0
  6
CONTINUOUS
 62
     1
 10
125.095647618
 20
60.625
 30
0.0
 11
125.095647618
 21
60.9
 31
0.0
  0
LINE
  8
0
  6
CONTINUOUS
 62
     1
 10
125.770647618
 20
60.625
 30
0.0
 11
125.095647618
 21
60.625
 31
0.0
  0
LINE
  8
0
  6
CONTINUOUS
 62
     1
 10
125.095647618
 20
57.075
 30
0.0
 11
125.095647618
 21
56.8
 31
0.0
  0
LINE
  8
0
  6
CONTINUOUS
 62
     1
 10
123.345647618
 20
56.8
 30
0.0
 11
123.345647618
 21
57.075
 31
0.0
  0
LINE
  8
0
  6
CONTINUOUS
 62
     1
 10
125.770647618
 20
57.075
 30
0.0
 11
125.095647618
 21
57.075
 31
0.0
  0
LINE
  8
0
  6
CONTINUOUS
 62
     1
 10
123.345647618
 20
57.075
 30
0.0
 11
122.670647618
 21
57.075
 31
0.0
  0
LINE
  8
0
  6
CONTINUOUS
 62
     2
 10
91.450647618
 20
62.35
 30
0.0
 11
122.700647618
 21
62.35
 31
0.0
  0
LINE
  8
0
  6
CONTINUOUS
 62
     2
 10
91.450647618
 20
55.35
 30
0.0
 11
122.700647618
 21
55.35
 31
0.0
  0
LINE
  8
0
  6
CONTINUOUS
 62
     2
 10
91.450647618
 20
62.35
 30
0.0
 11
91.450647618
 21
55.35
 31
0.0
  0
LINE
  8
0
  6
CONTINUOUS
 62
     2
 10
122.700647618
 20
62.35
 30
0.0
 11
122.700647618
 21
55.35
 31
0.0
  0
CIRCLE
  8
0
  6
CONTINUOUS
 62
     2
 10
89.930647618
 20
58.85
 30
0.0
 40
1.249999975
  0
LINE
  8
0
  6
CONTINUOUS
 62
     2
 10
89.752076193
 20
58.117857157
 30
0.0
 11
90.109219043
 21
58.117857157
 31
0.0
  0
LINE
  8
0
  6
CONTINUOUS
 62
     2
 10
90.109219043
 20
59.582142842
 30
0.0
 11
89.752076193
 21
59.582142842
 31
0.0
  0
LINE
  8
0
  6
CONTINUOUS
 62
     2
 10
90.662790461
 20
58.671428575
 30
0.0
 11
90.662790461
 21
59.028571425
 31
0.0
  0
LINE
  8
0
  6
CONTINUOUS
 62
     2
 10
89.198504776
 20
59.028571425
 30
0.0
 11
89.198504776
 21
58.671428575
 31
0.0
  0
LINE
  8
0
  6
CONTINUOUS
 62
     2
 10
89.752076193
 20
59.582142842
 30
0.0
 11
89.752076193
 21
59.20714285
 31
0.0
  0
LINE
  8
0
  6
CONTINUOUS
 62
     2
 10
89.573504768
 20
59.028571425
 30
0.0
 11
89.198504776
 21
59.028571425
 31
0.0
  0
ARC
  8
0
  6
CONTINUOUS
 62
     2
 10
89.573504768
 20
59.20714285
 30
0.0
 40
0.178571425
 50
270.0
 51
0.0
  0
LINE
  8
0
  6
CONTINUOUS
 62
     2
 10
90.109219043
 20
59.20714285
 30
0.0
 11
90.109219043
 21
59.582142842
 31
0.0
  0
LINE
  8
0
  6
CONTINUOUS
 62
     2
 10
90.662790461
 20
59.028571425
 30
0.0
 11
90.287790468
 21
59.028571425
 31
0.0
  0
ARC
  8
0
  6
CONTINUOUS
 62
     2
 10
90.287790468
 20
59.20714285
 30
0.0
 40
0.178571425
 50
180.0
 51
270.0
  0
LINE
  8
0
  6
CONTINUOUS
 62
     2
 10
90.109219043
 20
58.117857157
 30
0.0
 11
90.109219043
 21
58.49285715
 31
0.0
  0
LINE
  8
0
  6
CONTINUOUS
 62
     2
 10
90.287790468
 20
58.671428575
 30
0.0
 11
90.662790461
 21
58.671428575
 31
0.0
  0
ARC
  8
0
  6
CONTINUOUS
 62
     2
 10
90.287790468
 20
58.49285715
 30
0.0
 40
0.178571425
 50
90.0
 51
180.0
  0
LINE
  8
0
  6
CONTINUOUS
 62
     2
 10
89.752076193
 20
58.49285715
 30
0.0
 11
89.752076193
 21
58.117857157
 31
0.0
  0
LINE
  8
0
  6
CONTINUOUS
 62
     2
 10
89.198504776
 20
58.671428575
 30
0.0
 11
89.573504768
 21
58.671428575
 31
0.0
  0
ARC
  8
0
  6
CONTINUOUS
 62
     2
 10
89.573504768
 20
58.49285715
 30
0.0
 40
0.178571425
 50
0.0
 51
90.0
  0
CIRCLE
  8
0
  6
CONTINUOUS
 62
     2
 10
124.220647618
 20
58.85
 30
0.0
 40
1.249999975
  0
LINE
  8
0
  6
CONTINUOUS
 62
     2
 10
124.042076193
 20
58.117857157
 30
0.0
 11
124.399219043
 21
58.117857157
 31
0.0
  0
LINE
  8
0
  6
CONTINUOUS
 62
     2
 10
124.399219043
 20
59.582142842
 30
0.0
 11
124.042076193
 21
59.582142842
 31
0.0
  0
LINE
  8
0
  6
CONTINUOUS
 62
     2
 10
124.952790461
 20
58.671428575
 30
0.0
 11
124.952790461
 21
59.028571425
 31
0.0
  0
LINE
  8
0
  6
CONTINUOUS
 62
     2
 10
123.488504776
 20
59.028571425
 30
0.0
 11
123.488504776
 21
58.671428575
 31
0.0
  0
LINE
  8
0
  6
CONTINUOUS
 62
     2
 10
124.042076193
 20
59.582142842
 30
0.0
 11
124.042076193
 21
59.20714285
 31
0.0
  0
LINE
  8
0
  6
CONTINUOUS
 62
     2
 10
123.863504768
 20
59.028571425
 30
0.0
 11
123.488504776
 21
59.028571425
 31
0.0
  0
ARC
  8
0
  6
CONTINUOUS
 62
     2
 10
123.863504768
 20
59.20714285
 30
0.0
 40
0.178571425
 50
270.0
 51
0.0
  0
LINE
  8
0
  6
CONTINUOUS
 62
     2
 10
124.399219043
 20
59.20714285
 30
0.0
 11
124.399219043
 21
59.582142842
 31
0.0
  0
LINE
  8
0
  6
CONTINUOUS
 62
     2
 10
124.952790461
 20
59.028571425
 30
0.0
 11
124.577790468
 21
59.028571425
 31
0.0
  0
ARC
  8
0
  6
CONTINUOUS
 62
     2
 10
124.577790468
 20
59.20714285
 30
0.0
 40
0.178571425
 50
180.0
 51
270.0
  0
LINE
  8
0
  6
CONTINUOUS
 62
     2
 10
124.399219043
 20
58.117857157
 30
0.0
 11
124.399219043
 21
58.49285715
 31
0.0
  0
LINE
  8
0
  6
CONTINUOUS
 62
     2
 10
124.577790468
 20
58.671428575
 30
0.0
 11
124.952790461
 21
58.671428575
 31
0.0
  0
ARC
  8
0
  6
CONTINUOUS
 62
     2
 10
124.577790468
 20
58.49285715
 30
0.0
 40
0.178571425
 50
90.0
 51
180.0
  0
LINE
  8
0
  6
CONTINUOUS
 62
     2
 10
124.042076193
 20
58.49285715
 30
0.0
 11
124.042076193
 21
58.117857157
 31
0.0
  0
LINE
  8
0
  6
CONTINUOUS
 62
     2
 10
123.488504776
 20
58.671428575
 30
0.0
 11
123.863504768
 21
58.671428575
 31
0.0
  0
ARC
  8
0
  6
CONTINUOUS
 62
     2
 10
123.863504768
 20
58.49285715
 30
0.0
 40
0.178571425
 50
0.0
 51
90.0
  0
LINE
  8
0
  6
LTYPE3
 62
     2
 10
89.930647618
 20
57.35
 30
0.0
 11
89.930647618
 21
60.35
 31
0.0
  0
LINE
  8
0
  6
LTYPE3
 62
     2
 10
88.430647618
 20
58.85
 30
0.0
 11
91.430647618
 21
58.85
 31
0.0
  0
LINE
  8
0
  6
LTYPE3
 62
     2
 10
93.740647618
 20
57.35
 30
0.0
 11
93.740647618
 21
60.35
 31
0.0
  0
LINE
  8
0
  6
LTYPE3
 62
     2
 10
92.240647618
 20
58.85
 30
0.0
 11
95.240647618
 21
58.85
 31
0.0
  0
LINE
  8
0
  6
LTYPE3
 62
     2
 10
97.550647618
 20
57.35
 30
0.0
 11
97.550647618
 21
60.35
 31
0.0
  0
LINE
  8
0
  6
LTYPE3
 62
     2
 10
96.050647618
 20
58.85
 30
0.0
 11
99.050647618
 21
58.85
 31
0.0
  0
LINE
  8
0
  6
LTYPE3
 62
     2
 10
101.360647618
 20
57.35
 30
0.0
 11
101.360647618
 21
60.35
 31
0.0
  0
LINE
  8
0
  6
LTYPE3
 62
     2
 10
99.860647618
 20
58.85
 30
0.0
 11
102.860647618
 21
58.85
 31
0.0
  0
LINE
  8
0
  6
LTYPE3
 62
     2
 10
105.170647618
 20
57.35
 30
0.0
 11
105.170647618
 21
60.35
 31
0.0
  0
LINE
  8
0
  6
LTYPE3
 62
     2
 10
103.670647618
 20
58.85
 30
0.0
 11
106.670647618
 21
58.85
 31
0.0
  0
LINE
  8
0
  6
LTYPE3
 62
     2
 10
108.980647618
 20
57.35
 30
0.0
 11
108.980647618
 21
60.35
 31
0.0
  0
LINE
  8
0
  6
LTYPE3
 62
     2
 10
107.480647618
 20
58.85
 30
0.0
 11
110.480647618
 21
58.85
 31
0.0
  0
LINE
  8
0
  6
LTYPE3
 62
     2
 10
112.790647618
 20
57.35
 30
0.0
 11
112.790647618
 21
60.35
 31
0.0
  0
LINE
  8
0
  6
LTYPE3
 62
     2
 10
111.290647618
 20
58.85
 30
0.0
 11
114.290647618
 21
58.85
 31
0.0
  0
LINE
  8
0
  6
LTYPE3
 62
     2
 10
116.600647618
 20
57.35
 30
0.0
 11
116.600647618
 21
60.35
 31
0.0
  0
LINE
  8
0
  6
LTYPE3
 62
     2
 10
115.100647618
 20
58.85
 30
0.0
 11
118.100647618
 21
58.85
 31
0.0
  0
LINE
  8
0
  6
LTYPE3
 62
     2
 10
120.410647618
 20
57.35
 30
0.0
 11
120.410647618
 21
60.35
 31
0.0
  0
LINE
  8
0
  6
LTYPE3
 62
     2
 10
118.910647618
 20
58.85
 30
0.0
 11
121.910647618
 21
58.85
 31
0.0
  0
LINE
  8
0
  6
LTYPE3
 62
     2
 10
124.220647618
 20
57.35
 30
0.0
 11
124.220647618
 21
60.35
 31
0.0
  0
LINE
  8
0
  6
LTYPE3
 62
     2
 10
122.720647618
 20
58.85
 30
0.0
 11
125.720647618
 21
58.85
 31
0.0
  0
TEXT
  8
0
  6
CONTINUOUS
 62
     2
 10
92.832122699
 20
66.43
 30
0.0
 40
2.55
  1
ａ
 50
0.0
 41
0.764705882
 51
0.0
  7
KANJI10
  0
LINE
  8
0
  6
LTYPE4
 62
     2
 10
93.740647618
 20
65.905
 30
0.0
 11
93.740647618
 21
62.655
 31
0.0
  0
LINE
  8
0
  6
LTYPE4
 62
     2
 10
97.550647618
 20
65.905
 30
0.0
 11
97.550647618
 21
62.655
 31
0.0
  0
LINE
  8
0
  6
LTYPE4
 62
     2
 10
101.360647618
 20
65.905
 30
0.0
 11
101.360647618
 21
62.655
 31
0.0
  0
LINE
  8
0
  6
LTYPE4
 62
     2
 10
105.170647618
 20
65.905
 30
0.0
 11
105.170647618
 21
62.655
 31
0.0
  0
LINE
  8
0
  6
LTYPE4
 62
     2
 10
108.980647618
 20
65.905
 30
0.0
 11
108.980647618
 21
62.655
 31
0.0
  0
LINE
  8
0
  6
LTYPE4
 62
     2
 10
112.790647618
 20
65.905
 30
0.0
 11
112.790647618
 21
62.655
 31
0.0
  0
LINE
  8
0
  6
LTYPE4
 62
     2
 10
116.600647618
 20
65.905
 30
0.0
 11
116.600647618
 21
62.655
 31
0.0
  0
LINE
  8
0
  6
LTYPE4
 62
     2
 10
120.410647618
 20
65.905
 30
0.0
 11
120.410647618
 21
62.655
 31
0.0
  0
TEXT
  8
0
  6
CONTINUOUS
 62
     2
 10
96.437241836
 20
66.425
 30
0.0
 40
2.55
  1
ｃ
 50
0.0
 41
0.764705882
 51
0.0
  7
KANJI10
  0
TEXT
  8
0
  6
CONTINUOUS
 62
     2
 10
100.137241836
 20
66.425
 30
0.0
 40
2.55
  1
ｂ
 50
0.0
 41
0.764705882
 51
0.0
  7
KANJI10
  0
TEXT
  8
0
  6
CONTINUOUS
 62
     2
 10
103.937241836
 20
66.425
 30
0.0
 40
2.55
  1
ａ
 50
0.0
 41
0.764705882
 51
0.0
  7
KANJI10
  0
TEXT
  8
0
  6
CONTINUOUS
 62
     2
 10
111.637241836
 20
66.425
 30
0.0
 40
2.55
  1
ｂ
 50
0.0
 41
0.764705882
 51
0.0
  7
KANJI10
  0
LINE
  8
0
  6
CONTINUOUS
 62
     1
 10
88.7266538
 20
107.887043904
 30
0.0
 11
88.434248913
 21
105.2532255
 31
0.0
  0
LINE
  8
0
  6
CONTINUOUS
 62
     1
 10
88.434248913
 20
105.2532255
 30
0.0
 11
91.515319498
 21
104.911166953
 31
0.0
  0
LINE
  8
0
  6
CONTINUOUS
 62
     1
 10
88.7266538
 20
107.887043904
 30
0.0
 11
125.898279568
 21
103.760273046
 31
0.0
  0
LINE
  8
0
  6
CONTINUOUS
 62
     1
 10
91.598075598
 20
105.656587256
 30
0.0
 11
91.156709731
 21
101.681012307
 31
0.0
  0
LINE
  8
0
  6
CONTINUOUS
 62
     1
 10
88.504253169
 20
106.000061505
 30
0.0
 11
91.598075598
 21
105.656587256
 31
0.0
  0
LINE
  8
0
  6
CONTINUOUS
 62
     1
 10
88.390112326
 20
104.855668005
 30
0.0
 11
91.471182911
 21
104.513609458
 31
0.0
  0
LINE
  8
0
  6
CONTINUOUS
 62
     1
 10
88.390112326
 20
104.855668005
 30
0.0
 11
88.434248913
 21
105.2532255
 31
0.0
  0
LINE
  8
0
  6
CONTINUOUS
 62
     1
 10
89.060990598
 20
104.781187515
 30
0.0
 11
89.105127185
 21
105.17874501
 31
0.0
  0
LINE
  8
0
  6
CONTINUOUS
 62
     1
 10
90.800304638
 20
104.588089948
 30
0.0
 11
90.844441225
 21
104.985647443
 31
0.0
  0
LINE
  8
0
  6
CONTINUOUS
 62
     1
 10
91.156709731
 20
101.681012307
 30
0.0
 11
91.862374284
 21
101.602669866
 31
0.0
  0
LINE
  8
0
  6
CONTINUOUS
 62
     1
 10
91.862374284
 20
101.602669866
 30
0.0
 11
92.303740151
 21
105.578244815
 31
0.0
  0
LINE
  8
0
  6
CONTINUOUS
 62
     1
 10
94.943444869
 20
101.260611319
 30
0.0
 11
95.649109423
 21
101.182268878
 31
0.0
  0
LINE
  8
0
  6
CONTINUOUS
 62
     1
 10
95.649109423
 20
101.182268878
 30
0.0
 11
96.09047529
 21
105.157843826
 31
0.0
  0
LINE
  8
0
  6
CONTINUOUS
 62
     1
 10
92.220984051
 20
104.832824512
 30
0.0
 11
95.302054636
 21
104.490765965
 31
0.0
  0
LINE
  8
0
  6
CONTINUOUS
 62
     1
 10
92.303740151
 20
105.578244815
 30
0.0
 11
95.384810736
 21
105.236186268
 31
0.0
  0
LINE
  8
0
  6
CONTINUOUS
 62
     1
 10
95.384810736
 20
105.236186268
 30
0.0
 11
94.943444869
 21
101.260611319
 31
0.0
  0
LINE
  8
0
  6
CONTINUOUS
 62
     1
 10
98.730180008
 20
100.840210331
 30
0.0
 11
99.435844561
 21
100.761867889
 31
0.0
  0
LINE
  8
0
  6
CONTINUOUS
 62
     1
 10
99.435844561
 20
100.761867889
 30
0.0
 11
99.877210428
 21
104.737442838
 31
0.0
  0
LINE
  8
0
  6
CONTINUOUS
 62
     1
 10
96.00771919
 20
104.412423523
 30
0.0
 11
99.088789775
 21
104.070364976
 31
0.0
  0
LINE
  8
0
  6
CONTINUOUS
 62
     1
 10
96.09047529
 20
105.157843826
 30
0.0
 11
99.171545875
 21
104.815785279
 31
0.0
  0
LINE
  8
0
  6
CONTINUOUS
 62
     1
 10
99.171545875
 20
104.815785279
 30
0.0
 11
98.730180008
 21
100.840210331
 31
0.0
  0
LINE
  8
0
  6
CONTINUOUS
 62
     1
 10
102.516915146
 20
100.419809342
 30
0.0
 11
103.2225797
 21
100.341466901
 31
0.0
  0
LINE
  8
0
  6
CONTINUOUS
 62
     1
 10
103.2225797
 20
100.341466901
 30
0.0
 11
103.663945567
 21
104.317041849
 31
0.0
  0
LINE
  8
0
  6
CONTINUOUS
 62
     1
 10
99.794454328
 20
103.992022535
 30
0.0
 11
102.875524913
 21
103.649963988
 31
0.0
  0
LINE
  8
0
  6
CONTINUOUS
 62
     1
 10
99.877210428
 20
104.737442838
 30
0.0
 11
102.958281013
 21
104.395384291
 31
0.0
  0
LINE
  8
0
  6
CONTINUOUS
 62
     1
 10
102.958281013
 20
104.395384291
 30
0.0
 11
102.516915146
 21
100.419809342
 31
0.0
  0
LINE
  8
0
  6
CONTINUOUS
 62
     1
 10
106.303650285
 20
99.999408354
 30
0.0
 11
107.009314838
 21
99.921065912
 31
0.0
  0
LINE
  8
0
  6
CONTINUOUS
 62
     1
 10
107.009314838
 20
99.921065912
 30
0.0
 11
107.450680705
 21
103.896640861
 31
0.0
  0
LINE
  8
0
  6
CONTINUOUS
 62
     1
 10
103.581189467
 20
103.571621547
 30
0.0
 11
106.662260052
 21
103.229563
 31
0.0
  0
LINE
  8
0
  6
CONTINUOUS
 62
     1
 10
103.663945567
 20
104.317041849
 30
0.0
 11
106.745016152
 21
103.974983302
 31
0.0
  0
LINE
  8
0
  6
CONTINUOUS
 62
     1
 10
106.745016152
 20
103.974983302
 30
0.0
 11
106.303650285
 21
99.999408354
 31
0.0
  0
LINE
  8
0
  6
CONTINUOUS
 62
     1
 10
110.090385423
 20
99.579007365
 30
0.0
 11
110.796049976
 21
99.500664924
 31
0.0
  0
LINE
  8
0
  6
CONTINUOUS
 62
     1
 10
110.796049976
 20
99.500664924
 30
0.0
 11
111.237415844
 21
103.476239873
 31
0.0
  0
LINE
  8
0
  6
CONTINUOUS
 62
     1
 10
107.367924605
 20
103.151220558
 30
0.0
 11
110.44899519
 21
102.809162011
 31
0.0
  0
LINE
  8
0
  6
CONTINUOUS
 62
     1
 10
107.450680705
 20
103.896640861
 30
0.0
 11
110.53175129
 21
103.554582314
 31
0.0
  0
LINE
  8
0
  6
CONTINUOUS
 62
     1
 10
110.53175129
 20
103.554582314
 30
0.0
 11
110.090385423
 21
99.579007365
 31
0.0
  0
LINE
  8
0
  6
CONTINUOUS
 62
     1
 10
113.877120562
 20
99.158606377
 30
0.0
 11
114.582785115
 21
99.080263936
 31
0.0
  0
LINE
  8
0
  6
CONTINUOUS
 62
     1
 10
114.582785115
 20
99.080263936
 30
0.0
 11
115.024150982
 21
103.055838884
 31
0.0
  0
LINE
  8
0
  6
CONTINUOUS
 62
     1
 10
111.154659743
 20
102.73081957
 30
0.0
 11
114.235730329
 21
102.388761023
 31
0.0
  0
LINE
  8
0
  6
CONTINUOUS
 62
     1
 10
111.237415844
 20
103.476239873
 30
0.0
 11
114.318486429
 21
103.134181326
 31
0.0
  0
LINE
  8
0
  6
CONTINUOUS
 62
     1
 10
114.318486429
 20
103.134181326
 30
0.0
 11
113.877120562
 21
99.158606377
 31
0.0
  0
LINE
  8
0
  6
CONTINUOUS
 62
     1
 10
117.6638557
 20
98.738205389
 30
0.0
 11
118.369520253
 21
98.659862947
 31
0.0
  0
LINE
  8
0
  6
CONTINUOUS
 62
     1
 10
118.369520253
 20
98.659862947
 30
0.0
 11
118.81088612
 21
102.635437896
 31
0.0
  0
LINE
  8
0
  6
CONTINUOUS
 62
     1
 10
114.941394882
 20
102.310418581
 30
0.0
 11
118.022465467
 21
101.968360034
 31
0.0
  0
LINE
  8
0
  6
CONTINUOUS
 62
     1
 10
115.024150982
 20
103.055838884
 30
0.0
 11
118.105221567
 21
102.713780337
 31
0.0
  0
LINE
  8
0
  6
CONTINUOUS
 62
     1
 10
118.105221567
 20
102.713780337
 30
0.0
 11
117.6638557
 21
98.738205389
 31
0.0
  0
LINE
  8
0
  6
CONTINUOUS
 62
     1
 10
121.450590839
 20
98.3178044
 30
0.0
 11
122.156255392
 21
98.239461959
 31
0.0
  0
LINE
  8
0
  6
CONTINUOUS
 62
     1
 10
122.156255392
 20
98.239461959
 30
0.0
 11
122.597621259
 21
102.215036907
 31
0.0
  0
LINE
  8
0
  6
CONTINUOUS
 62
     1
 10
118.72813002
 20
101.890017593
 30
0.0
 11
121.809200606
 21
101.547959046
 31
0.0
  0
LINE
  8
0
  6
CONTINUOUS
 62
     1
 10
118.81088612
 20
102.635437896
 30
0.0
 11
121.891956706
 21
102.293379349
 31
0.0
  0
LINE
  8
0
  6
CONTINUOUS
 62
     1
 10
121.891956706
 20
102.293379349
 30
0.0
 11
121.450590839
 21
98.3178044
 31
0.0
  0
LINE
  8
0
  6
CONTINUOUS
 62
     1
 10
122.514865159
 20
101.469616604
 30
0.0
 11
125.595935744
 21
101.127558057
 31
0.0
  0
LINE
  8
0
  6
CONTINUOUS
 62
     1
 10
122.597621259
 20
102.215036907
 30
0.0
 11
125.678691844
 21
101.87297836
 31
0.0
  0
LINE
  8
0
  6
CONTINUOUS
 62
     1
 10
125.888340631
 20
103.761376461
 30
0.0
 11
125.595935744
 21
101.127558057
 31
0.0
  0
LINE
  8
0
  6
CONTINUOUS
 62
     1
 10
92.176847464
 20
104.435267017
 30
0.0
 11
95.25791805
 21
104.09320847
 31
0.0
  0
LINE
  8
0
  6
CONTINUOUS
 62
     1
 10
92.176847464
 20
104.435267017
 30
0.0
 11
92.220984051
 21
104.832824512
 31
0.0
  0
LINE
  8
0
  6
CONTINUOUS
 62
     1
 10
92.847725737
 20
104.360786527
 30
0.0
 11
92.891862324
 21
104.758344022
 31
0.0
  0
LINE
  8
0
  6
CONTINUOUS
 62
     1
 10
94.587039777
 20
104.16768896
 30
0.0
 11
94.631176364
 21
104.565246455
 31
0.0
  0
LINE
  8
0
  6
CONTINUOUS
 62
     1
 10
95.963582603
 20
104.014866028
 30
0.0
 11
99.044653188
 21
103.672807481
 31
0.0
  0
LINE
  8
0
  6
CONTINUOUS
 62
     1
 10
95.963582603
 20
104.014866028
 30
0.0
 11
96.00771919
 21
104.412423523
 31
0.0
  0
LINE
  8
0
  6
CONTINUOUS
 62
     1
 10
96.634460875
 20
103.940385538
 30
0.0
 11
96.678597462
 21
104.337943033
 31
0.0
  0
LINE
  8
0
  6
CONTINUOUS
 62
     1
 10
98.373774915
 20
103.747287972
 30
0.0
 11
98.417911502
 21
104.144845466
 31
0.0
  0
LINE
  8
0
  6
CONTINUOUS
 62
     1
 10
99.750317741
 20
103.59446504
 30
0.0
 11
102.831388326
 21
103.252406493
 31
0.0
  0
LINE
  8
0
  6
CONTINUOUS
 62
     1
 10
99.750317741
 20
103.59446504
 30
0.0
 11
99.794454328
 21
103.992022535
 31
0.0
  0
LINE
  8
0
  6
CONTINUOUS
 62
     1
 10
100.421196014
 20
103.51998455
 30
0.0
 11
100.465332601
 21
103.917542045
 31
0.0
  0
LINE
  8
0
  6
CONTINUOUS
 62
     1
 10
102.160510054
 20
103.326886983
 30
0.0
 11
102.204646641
 21
103.724444478
 31
0.0
  0
LINE
  8
0
  6
CONTINUOUS
 62
     1
 10
103.53705288
 20
103.174064052
 30
0.0
 11
106.618123465
 21
102.832005505
 31
0.0
  0
LINE
  8
0
  6
CONTINUOUS
 62
     1
 10
103.53705288
 20
103.174064052
 30
0.0
 11
103.581189467
 21
103.571621547
 31
0.0
  0
LINE
  8
0
  6
CONTINUOUS
 62
     1
 10
104.207931152
 20
103.099583562
 30
0.0
 11
104.252067739
 21
103.497141056
 31
0.0
  0
LINE
  8
0
  6
CONTINUOUS
 62
     1
 10
105.947245192
 20
102.906485995
 30
0.0
 11
105.991381779
 21
103.30404349
 31
0.0
  0
LINE
  8
0
  6
CONTINUOUS
 62
     1
 10
107.323788018
 20
102.753663063
 30
0.0
 11
110.404858603
 21
102.411604516
 31
0.0
  0
LINE
  8
0
  6
CONTINUOUS
 62
     1
 10
107.323788018
 20
102.753663063
 30
0.0
 11
107.367924605
 21
103.151220558
 31
0.0
  0
LINE
  8
0
  6
CONTINUOUS
 62
     1
 10
107.994666291
 20
102.679182573
 30
0.0
 11
108.038802878
 21
103.076740068
 31
0.0
  0
LINE
  8
0
  6
CONTINUOUS
 62
     1
 10
109.733980331
 20
102.486085006
 30
0.0
 11
109.778116918
 21
102.883642501
 31
0.0
  0
LINE
  8
0
  6
CONTINUOUS
 62
     1
 10
111.110523157
 20
102.333262075
 30
0.0
 11
114.191593742
 21
101.991203528
 31
0.0
  0
LINE
  8
0
  6
CONTINUOUS
 62
     1
 10
111.110523157
 20
102.333262075
 30
0.0
 11
111.154659743
 21
102.73081957
 31
0.0
  0
LINE
  8
0
  6
CONTINUOUS
 62
     1
 10
111.781401429
 20
102.258781585
 30
0.0
 11
111.825538016
 21
102.65633908
 31
0.0
  0
LINE
  8
0
  6
CONTINUOUS
 62
     1
 10
113.520715469
 20
102.065684018
 30
0.0
 11
113.564852056
 21
102.463241513
 31
0.0
  0
LINE
  8
0
  6
CONTINUOUS
 62
     1
 10
114.897258295
 20
101.912861086
 30
0.0
 11
117.97832888
 21
101.570802539
 31
0.0
  0
LINE
  8
0
  6
CONTINUOUS
 62
     1
 10
114.897258295
 20
101.912861086
 30
0.0
 11
114.941394882
 21
102.310418581
 31
0.0
  0
LINE
  8
0
  6
CONTINUOUS
 62
     1
 10
115.568136568
 20
101.838380596
 30
0.0
 11
115.612273155
 21
102.235938091
 31
0.0
  0
LINE
  8
0
  6
CONTINUOUS
 62
     1
 10
117.307450608
 20
101.645283029
 30
0.0
 11
117.351587194
 21
102.042840524
 31
0.0
  0
LINE
  8
0
  6
CONTINUOUS
 62
     1
 10
118.683993434
 20
101.492460098
 30
0.0
 11
121.765064019
 21
101.150401551
 31
0.0
  0
LINE
  8
0
  6
CONTINUOUS
 62
     1
 10
118.683993434
 20
101.492460098
 30
0.0
 11
118.72813002
 21
101.890017593
 31
0.0
  0
LINE
  8
0
  6
CONTINUOUS
 62
     1
 10
119.354871706
 20
101.417979608
 30
0.0
 11
119.399008293
 21
101.815537103
 31
0.0
  0
LINE
  8
0
  6
CONTINUOUS
 62
     1
 10
121.094185746
 20
101.224882041
 30
0.0
 11
121.138322333
 21
101.622439536
 31
0.0
  0
LINE
  8
0
  6
CONTINUOUS
 62
     1
 10
122.470728572
 20
101.07205911
 30
0.0
 11
125.551799157
 21
100.730000563
 31
0.0
  0
LINE
  8
0
  6
CONTINUOUS
 62
     1
 10
123.141606845
 20
100.99757862
 30
0.0
 11
123.185743431
 21
101.395136114
 31
0.0
  0
LINE
  8
0
  6
CONTINUOUS
 62
     1
 10
124.880920885
 20
100.804481053
 30
0.0
 11
124.925057471
 21
101.202038548
 31
0.0
  0
LINE
  8
0
  6
CONTINUOUS
 62
     1
 10
125.551799157
 20
100.730000563
 30
0.0
 11
125.595935744
 21
101.127558057
 31
0.0
  0
LINE
  8
0
  6
CONTINUOUS
 62
     1
 10
92.160296244
 20
104.286182956
 30
0.0
 11
95.241366829
 21
103.944124409
 31
0.0
  0
LINE
  8
0
  6
CONTINUOUS
 62
     1
 10
95.186196096
 20
103.447177541
 30
0.0
 11
92.105125511
 21
103.789236088
 31
0.0
  0
ARC
  8
0
  6
CONTINUOUS
 62
     2
 10
92.828240788
 20
103.325663793
 30
0.0
 40
0.4523805
 50
173.665
 51
233.839305425
  0
LINE
  8
0
  6
CONTINUOUS
 62
     2
 10
92.403294875
 20
103.75613351
 30
0.0
 11
92.378329027
 21
103.327701158
 31
0.0
  0
LINE
  8
0
  6
CONTINUOUS
 62
     2
 10
94.888026733
 20
103.480280119
 30
0.0
 11
94.818414275
 21
103.056804405
 31
0.0
  0
LINE
  8
0
  6
CONTINUOUS
 62
     2
 10
92.403294875
 20
103.75613351
 30
0.0
 11
94.888026733
 21
103.480280119
 31
0.0
  0
ARC
  8
0
  6
CONTINUOUS
 62
     2
 10
94.379011214
 20
103.153498222
 30
0.0
 40
0.4523805
 50
293.490694575
 51
353.665
  0
LINE
  8
0
  6
CONTINUOUS
 62
     2
 10
93.401216295
 20
102.711069461
 30
0.0
 11
93.456386973
 21
103.208015832
 31
0.0
  0
LINE
  8
0
  6
CONTINUOUS
 62
     2
 10
93.456386973
 20
103.208015832
 30
0.0
 11
93.740356328
 21
103.176489731
 31
0.0
  0
LINE
  8
0
  6
CONTINUOUS
 62
     2
 10
93.740356328
 20
103.176489731
 30
0.0
 11
93.68518565
 21
102.679543359
 31
0.0
  0
ARC
  8
0
  6
CONTINUOUS
 62
     2
 10
93.911005494
 20
106.008282221
 30
0.0
 40
3.33333
 50
246.11462445
 51
261.210968325
  0
ARC
  8
0
  6
CONTINUOUS
 62
     2
 10
93.911005494
 20
106.008282221
 30
0.0
 40
3.33333
 50
266.119031675
 51
281.21537555
  0
LINE
  8
0
  6
CONTINUOUS
 62
     1
 10
98.972931235
 20
103.026776552
 30
0.0
 11
95.891860649
 21
103.368835099
 31
0.0
  0
ARC
  8
0
  6
CONTINUOUS
 62
     2
 10
96.614975927
 20
102.905262805
 30
0.0
 40
0.4523805
 50
173.665
 51
233.839305425
  0
LINE
  8
0
  6
CONTINUOUS
 62
     2
 10
96.190030013
 20
103.335732521
 30
0.0
 11
96.165064165
 21
102.907300169
 31
0.0
  0
LINE
  8
0
  6
CONTINUOUS
 62
     2
 10
98.674761871
 20
103.05987913
 30
0.0
 11
98.605149413
 21
102.636403417
 31
0.0
  0
LINE
  8
0
  6
CONTINUOUS
 62
     2
 10
96.190030013
 20
103.335732521
 30
0.0
 11
98.674761871
 21
103.05987913
 31
0.0
  0
ARC
  8
0
  6
CONTINUOUS
 62
     2
 10
98.165746352
 20
102.733097233
 30
0.0
 40
0.4523805
 50
293.490694575
 51
353.665
  0
LINE
  8
0
  6
CONTINUOUS
 62
     2
 10
97.187951433
 20
102.290668472
 30
0.0
 11
97.243122112
 21
102.787614844
 31
0.0
  0
LINE
  8
0
  6
CONTINUOUS
 62
     2
 10
97.243122112
 20
102.787614844
 30
0.0
 11
97.527091467
 21
102.756088742
 31
0.0
  0
LINE
  8
0
  6
CONTINUOUS
 62
     2
 10
97.527091467
 20
102.756088742
 30
0.0
 11
97.471920789
 21
102.25914237
 31
0.0
  0
ARC
  8
0
  6
CONTINUOUS
 62
     2
 10
97.697740632
 20
105.587881232
 30
0.0
 40
3.33333
 50
246.11462445
 51
261.210968325
  0
ARC
  8
0
  6
CONTINUOUS
 62
     2
 10
97.697740632
 20
105.587881232
 30
0.0
 40
3.33333
 50
266.119031675
 51
281.21537555
  0
LINE
  8
0
  6
CONTINUOUS
 62
     1
 10
102.759666373
 20
102.606375564
 30
0.0
 11
99.678595788
 21
102.948434111
 31
0.0
  0
ARC
  8
0
  6
CONTINUOUS
 62
     2
 10
100.401711065
 20
102.484861816
 30
0.0
 40
0.4523805
 50
173.665
 51
233.839305425
  0
LINE
  8
0
  6
CONTINUOUS
 62
     2
 10
99.976765151
 20
102.915331533
 30
0.0
 11
99.951799304
 21
102.486899181
 31
0.0
  0
LINE
  8
0
  6
CONTINUOUS
 62
     2
 10
102.46149701
 20
102.639478142
 30
0.0
 11
102.391884552
 21
102.216002429
 31
0.0
  0
LINE
  8
0
  6
CONTINUOUS
 62
     2
 10
99.976765151
 20
102.915331533
 30
0.0
 11
102.46149701
 21
102.639478142
 31
0.0
  0
ARC
  8
0
  6
CONTINUOUS
 62
     2
 10
101.952481491
 20
102.312696245
 30
0.0
 40
0.4523805
 50
293.490694575
 51
353.665
  0
LINE
  8
0
  6
CONTINUOUS
 62
     2
 10
100.974686572
 20
101.870267484
 30
0.0
 11
101.02985725
 21
102.367213856
 31
0.0
  0
LINE
  8
0
  6
CONTINUOUS
 62
     2
 10
101.02985725
 20
102.367213856
 30
0.0
 11
101.313826605
 21
102.335687754
 31
0.0
  0
LINE
  8
0
  6
CONTINUOUS
 62
     2
 10
101.313826605
 20
102.335687754
 30
0.0
 11
101.258655927
 21
101.838741382
 31
0.0
  0
ARC
  8
0
  6
CONTINUOUS
 62
     2
 10
101.484475771
 20
105.167480244
 30
0.0
 40
3.33333
 50
246.11462445
 51
261.210968325
  0
ARC
  8
0
  6
CONTINUOUS
 62
     2
 10
101.484475771
 20
105.167480244
 30
0.0
 40
3.33333
 50
266.119031675
 51
281.21537555
  0
LINE
  8
0
  6
CONTINUOUS
 62
     1
 10
106.546401512
 20
102.185974576
 30
0.0
 11
103.465330926
 21
102.528033123
 31
0.0
  0
ARC
  8
0
  6
CONTINUOUS
 62
     2
 10
104.188446204
 20
102.064460828
 30
0.0
 40
0.4523805
 50
173.665
 51
233.839305425
  0
LINE
  8
0
  6
CONTINUOUS
 62
     2
 10
103.76350029
 20
102.494930545
 30
0.0
 11
103.738534442
 21
102.066498192
 31
0.0
  0
LINE
  8
0
  6
CONTINUOUS
 62
     2
 10
106.248232148
 20
102.219077153
 30
0.0
 11
106.17861969
 21
101.79560144
 31
0.0
  0
LINE
  8
0
  6
CONTINUOUS
 62
     2
 10
103.76350029
 20
102.494930545
 30
0.0
 11
106.248232148
 21
102.219077153
 31
0.0
  0
ARC
  8
0
  6
CONTINUOUS
 62
     2
 10
105.739216629
 20
101.892295256
 30
0.0
 40
0.4523805
 50
293.490694575
 51
353.665
  0
LINE
  8
0
  6
CONTINUOUS
 62
     2
 10
104.76142171
 20
101.449866496
 30
0.0
 11
104.816592389
 21
101.946812867
 31
0.0
  0
LINE
  8
0
  6
CONTINUOUS
 62
     2
 10
104.816592389
 20
101.946812867
 30
0.0
 11
105.100561744
 21
101.915286765
 31
0.0
  0
LINE
  8
0
  6
CONTINUOUS
 62
     2
 10
105.100561744
 20
101.915286765
 30
0.0
 11
105.045391066
 21
101.418340394
 31
0.0
  0
ARC
  8
0
  6
CONTINUOUS
 62
     2
 10
105.271210909
 20
104.747079255
 30
0.0
 40
3.33333
 50
246.11462445
 51
261.210968325
  0
ARC
  8
0
  6
CONTINUOUS
 62
     2
 10
105.271210909
 20
104.747079255
 30
0.0
 40
3.33333
 50
266.119031675
 51
281.21537555
  0
LINE
  8
0
  6
CONTINUOUS
 62
     1
 10
110.33313665
 20
101.765573587
 30
0.0
 11
107.252066065
 21
102.107632134
 31
0.0
  0
ARC
  8
0
  6
CONTINUOUS
 62
     2
 10
107.975181342
 20
101.644059839
 30
0.0
 40
0.4523805
 50
173.665
 51
233.839305425
  0
LINE
  8
0
  6
CONTINUOUS
 62
     2
 10
107.550235428
 20
102.074529556
 30
0.0
 11
107.525269581
 21
101.646097204
 31
0.0
  0
LINE
  8
0
  6
CONTINUOUS
 62
     2
 10
110.034967286
 20
101.798676165
 30
0.0
 11
109.965354829
 21
101.375200452
 31
0.0
  0
LINE
  8
0
  6
CONTINUOUS
 62
     2
 10
107.550235428
 20
102.074529556
 30
0.0
 11
110.034967286
 21
101.798676165
 31
0.0
  0
ARC
  8
0
  6
CONTINUOUS
 62
     2
 10
109.525951768
 20
101.471894268
 30
0.0
 40
0.4523805
 50
293.490694575
 51
353.665
  0
LINE
  8
0
  6
CONTINUOUS
 62
     2
 10
108.548156849
 20
101.029465507
 30
0.0
 11
108.603327527
 21
101.526411879
 31
0.0
  0
LINE
  8
0
  6
CONTINUOUS
 62
     2
 10
108.603327527
 20
101.526411879
 30
0.0
 11
108.887296882
 21
101.494885777
 31
0.0
  0
LINE
  8
0
  6
CONTINUOUS
 62
     2
 10
108.887296882
 20
101.494885777
 30
0.0
 11
108.832126204
 21
100.997939405
 31
0.0
  0
ARC
  8
0
  6
CONTINUOUS
 62
     2
 10
109.057946048
 20
104.326678267
 30
0.0
 40
3.33333
 50
246.11462445
 51
261.210968325
  0
ARC
  8
0
  6
CONTINUOUS
 62
     2
 10
109.057946048
 20
104.326678267
 30
0.0
 40
3.33333
 50
266.119031675
 51
281.21537555
  0
LINE
  8
0
  6
CONTINUOUS
 62
     1
 10
114.119871788
 20
101.345172599
 30
0.0
 11
111.038801203
 21
101.687231146
 31
0.0
  0
ARC
  8
0
  6
CONTINUOUS
 62
     2
 10
111.761916481
 20
101.223658851
 30
0.0
 40
0.4523805
 50
173.665
 51
233.839305425
  0
LINE
  8
0
  6
CONTINUOUS
 62
     2
 10
111.336970567
 20
101.654128568
 30
0.0
 11
111.312004719
 21
101.225696215
 31
0.0
  0
LINE
  8
0
  6
CONTINUOUS
 62
     2
 10
113.821702425
 20
101.378275177
 30
0.0
 11
113.752089967
 21
100.954799463
 31
0.0
  0
LINE
  8
0
  6
CONTINUOUS
 62
     2
 10
111.336970567
 20
101.654128568
 30
0.0
 11
113.821702425
 21
101.378275177
 31
0.0
  0
ARC
  8
0
  6
CONTINUOUS
 62
     2
 10
113.312686906
 20
101.051493279
 30
0.0
 40
0.4523805
 50
293.490694575
 51
353.665
  0
LINE
  8
0
  6
CONTINUOUS
 62
     2
 10
112.334891987
 20
100.609064519
 30
0.0
 11
112.390062666
 21
101.10601089
 31
0.0
  0
LINE
  8
0
  6
CONTINUOUS
 62
     2
 10
112.390062666
 20
101.10601089
 30
0.0
 11
112.674032021
 21
101.074484788
 31
0.0
  0
LINE
  8
0
  6
CONTINUOUS
 62
     2
 10
112.674032021
 20
101.074484788
 30
0.0
 11
112.618861343
 21
100.577538417
 31
0.0
  0
ARC
  8
0
  6
CONTINUOUS
 62
     2
 10
112.844681186
 20
103.906277279
 30
0.0
 40
3.33333
 50
246.11462445
 51
261.210968325
  0
ARC
  8
0
  6
CONTINUOUS
 62
     2
 10
112.844681186
 20
103.906277279
 30
0.0
 40
3.33333
 50
266.119031675
 51
281.21537555
  0
LINE
  8
0
  6
CONTINUOUS
 62
     1
 10
117.906606927
 20
100.92477161
 30
0.0
 11
114.825536342
 21
101.266830157
 31
0.0
  0
ARC
  8
0
  6
CONTINUOUS
 62
     2
 10
115.548651619
 20
100.803257863
 30
0.0
 40
0.4523805
 50
173.665
 51
233.839305425
  0
LINE
  8
0
  6
CONTINUOUS
 62
     2
 10
115.123705705
 20
101.233727579
 30
0.0
 11
115.098739858
 21
100.805295227
 31
0.0
  0
LINE
  8
0
  6
CONTINUOUS
 62
     2
 10
117.608437563
 20
100.957874188
 30
0.0
 11
117.538825106
 21
100.534398475
 31
0.0
  0
LINE
  8
0
  6
CONTINUOUS
 62
     2
 10
115.123705705
 20
101.233727579
 30
0.0
 11
117.608437563
 21
100.957874188
 31
0.0
  0
ARC
  8
0
  6
CONTINUOUS
 62
     2
 10
117.099422045
 20
100.631092291
 30
0.0
 40
0.4523805
 50
293.490694575
 51
353.665
  0
LINE
  8
0
  6
CONTINUOUS
 62
     2
 10
116.121627126
 20
100.18866353
 30
0.0
 11
116.176797804
 21
100.685609902
 31
0.0
  0
LINE
  8
0
  6
CONTINUOUS
 62
     2
 10
116.176797804
 20
100.685609902
 30
0.0
 11
116.460767159
 21
100.6540838
 31
0.0
  0
LINE
  8
0
  6
CONTINUOUS
 62
     2
 10
116.460767159
 20
100.6540838
 30
0.0
 11
116.405596481
 21
100.157137428
 31
0.0
  0
ARC
  8
0
  6
CONTINUOUS
 62
     2
 10
116.631416325
 20
103.48587629
 30
0.0
 40
3.33333
 50
246.11462445
 51
261.210968325
  0
ARC
  8
0
  6
CONTINUOUS
 62
     2
 10
116.631416325
 20
103.48587629
 30
0.0
 40
3.33333
 50
266.119031675
 51
281.21537555
  0
LINE
  8
0
  6
CONTINUOUS
 62
     1
 10
121.693342065
 20
100.504370622
 30
0.0
 11
118.61227148
 21
100.846429169
 31
0.0
  0
ARC
  8
0
  6
CONTINUOUS
 62
     2
 10
119.335386758
 20
100.382856874
 30
0.0
 40
0.4523805
 50
173.665
 51
233.839305425
  0
LINE
  8
0
  6
CONTINUOUS
 62
     2
 10
118.910440844
 20
100.813326591
 30
0.0
 11
118.885474996
 21
100.384894239
 31
0.0
  0
LINE
  8
0
  6
CONTINUOUS
 62
     2
 10
121.395172702
 20
100.5374732
 30
0.0
 11
121.325560244
 21
100.113997486
 31
0.0
  0
LINE
  8
0
  6
CONTINUOUS
 62
     2
 10
118.910440844
 20
100.813326591
 30
0.0
 11
121.395172702
 21
100.5374732
 31
0.0
  0
ARC
  8
0
  6
CONTINUOUS
 62
     2
 10
120.886157183
 20
100.210691303
 30
0.0
 40
0.4523805
 50
293.490694575
 51
353.665
  0
LINE
  8
0
  6
CONTINUOUS
 62
     2
 10
119.908362264
 20
99.768262542
 30
0.0
 11
119.963532942
 21
100.265208913
 31
0.0
  0
LINE
  8
0
  6
CONTINUOUS
 62
     2
 10
119.963532942
 20
100.265208913
 30
0.0
 11
120.247502298
 21
100.233682812
 31
0.0
  0
LINE
  8
0
  6
CONTINUOUS
 62
     2
 10
120.247502298
 20
100.233682812
 30
0.0
 11
120.192331619
 21
99.73673644
 31
0.0
  0
ARC
  8
0
  6
CONTINUOUS
 62
     2
 10
120.418151463
 20
103.065475302
 30
0.0
 40
3.33333
 50
246.11462445
 51
261.210968325
  0
ARC
  8
0
  6
CONTINUOUS
 62
     2
 10
120.418151463
 20
103.065475302
 30
0.0
 40
3.33333
 50
266.119031675
 51
281.21537555
  0
LINE
  8
0
  6
CONTINUOUS
 62
     1
 10
91.917545017
 20
102.099616735
 30
0.0
 11
91.211880464
 21
102.177959176
 31
0.0
  0
LINE
  8
0
  6
CONTINUOUS
 62
     1
 10
95.704280156
 20
101.679215746
 30
0.0
 11
94.998615603
 21
101.757558188
 31
0.0
  0
LINE
  8
0
  6
CONTINUOUS
 62
     1
 10
99.491015294
 20
101.258814758
 30
0.0
 11
98.785350741
 21
101.337157199
 31
0.0
  0
LINE
  8
0
  6
CONTINUOUS
 62
     1
 10
103.277750433
 20
100.838413769
 30
0.0
 11
102.57208588
 21
100.916756211
 31
0.0
  0
LINE
  8
0
  6
CONTINUOUS
 62
     1
 10
107.064485571
 20
100.418012781
 30
0.0
 11
106.358821018
 21
100.496355222
 31
0.0
  0
LINE
  8
0
  6
CONTINUOUS
 62
     1
 10
110.85122071
 20
99.997611793
 30
0.0
 11
110.145556156
 21
100.075954234
 31
0.0
  0
LINE
  8
0
  6
CONTINUOUS
 62
     1
 10
114.637955848
 20
99.577210804
 30
0.0
 11
113.932291295
 21
99.655553246
 31
0.0
  0
LINE
  8
0
  6
CONTINUOUS
 62
     1
 10
118.424690987
 20
99.156809816
 30
0.0
 11
117.719026433
 21
99.235152257
 31
0.0
  0
LINE
  8
0
  6
CONTINUOUS
 62
     1
 10
122.211426125
 20
98.736408827
 30
0.0
 11
121.505761572
 21
98.814751269
 31
0.0
  0
LINE
  8
0
  6
CONTINUOUS
 62
     1
 10
91.294636564
 20
102.923379479
 30
0.0
 11
92.000301118
 21
102.845037037
 31
0.0
  0
LINE
  8
0
  6
CONTINUOUS
 62
     1
 10
95.081371703
 20
102.50297849
 30
0.0
 11
95.787036256
 21
102.424636049
 31
0.0
  0
LINE
  8
0
  6
CONTINUOUS
 62
     1
 10
98.868106841
 20
102.082577502
 30
0.0
 11
99.573771395
 21
102.004235061
 31
0.0
  0
LINE
  8
0
  6
CONTINUOUS
 62
     1
 10
102.65484198
 20
101.662176514
 30
0.0
 11
103.360506533
 21
101.583834072
 31
0.0
  0
LINE
  8
0
  6
CONTINUOUS
 62
     1
 10
106.441577118
 20
101.241775525
 30
0.0
 11
107.147241671
 21
101.163433084
 31
0.0
  0
LINE
  8
0
  6
CONTINUOUS
 62
     1
 10
110.228312257
 20
100.821374537
 30
0.0
 11
110.93397681
 21
100.743032095
 31
0.0
  0
LINE
  8
0
  6
CONTINUOUS
 62
     1
 10
114.015047395
 20
100.400973548
 30
0.0
 11
114.720711948
 21
100.322631107
 31
0.0
  0
LINE
  8
0
  6
CONTINUOUS
 62
     1
 10
117.801782534
 20
99.98057256
 30
0.0
 11
118.507447087
 21
99.902230119
 31
0.0
  0
LINE
  8
0
  6
CONTINUOUS
 62
     1
 10
121.588517672
 20
99.560171572
 30
0.0
 11
122.294182225
 21
99.48182913
 31
0.0
  0
LINE
  8
0
  6
CONTINUOUS
 62
     2
 10
91.088273405
 20
101.336459743
 30
0.0
 11
122.147452691
 21
97.888288907
 31
0.0
  0
LINE
  8
0
  6
CONTINUOUS
 62
     2
 10
122.147452691
 20
97.888288907
 30
0.0
 11
122.290896597
 21
99.180350765
 31
0.0
  0
LINE
  8
0
  6
CONTINUOUS
 62
     2
 10
91.231717312
 20
102.628521602
 30
0.0
 11
122.290896597
 21
99.180350765
 31
0.0
  0
LINE
  8
0
  6
CONTINUOUS
 62
     2
 10
91.088273405
 20
101.336459743
 30
0.0
 11
91.231717312
 21
102.628521602
 31
0.0
  0
ARC
  8
0
  6
CONTINUOUS
 62
     2
 10
89.113227603
 20
104.392095711
 30
0.0
 40
0.4523805
 50
173.665
 51
233.839305425
  0
LINE
  8
0
  6
CONTINUOUS
 62
     2
 10
88.688281689
 20
104.822565427
 30
0.0
 11
88.663315842
 21
104.394133075
 31
0.0
  0
LINE
  8
0
  6
CONTINUOUS
 62
     2
 10
91.173013548
 20
104.546712036
 30
0.0
 11
91.10340109
 21
104.123236323
 31
0.0
  0
LINE
  8
0
  6
CONTINUOUS
 62
     2
 10
88.688281689
 20
104.822565427
 30
0.0
 11
91.173013548
 21
104.546712036
 31
0.0
  0
ARC
  8
0
  6
CONTINUOUS
 62
     2
 10
90.663998029
 20
104.219930139
 30
0.0
 40
0.4523805
 50
293.490694575
 51
353.665
  0
LINE
  8
0
  6
CONTINUOUS
 62
     2
 10
89.68620311
 20
103.777501378
 30
0.0
 11
89.741373788
 21
104.27444775
 31
0.0
  0
LINE
  8
0
  6
CONTINUOUS
 62
     2
 10
89.741373788
 20
104.27444775
 30
0.0
 11
90.025343143
 21
104.242921648
 31
0.0
  0
LINE
  8
0
  6
CONTINUOUS
 62
     2
 10
90.025343143
 20
104.242921648
 30
0.0
 11
89.970172465
 21
103.745975276
 31
0.0
  0
ARC
  8
0
  6
CONTINUOUS
 62
     2
 10
90.195992309
 20
107.074714138
 30
0.0
 40
3.33333
 50
246.11462445
 51
261.210968325
  0
ARC
  8
0
  6
CONTINUOUS
 62
     2
 10
90.195992309
 20
107.074714138
 30
0.0
 40
3.33333
 50
266.119031675
 51
281.21537555
  0
ARC
  8
0
  6
CONTINUOUS
 62
     2
 10
123.193843849
 20
100.608486815
 30
0.0
 40
0.4523805
 50
173.665
 51
233.839305425
  0
LINE
  8
0
  6
CONTINUOUS
 62
     2
 10
122.768897936
 20
101.038956532
 30
0.0
 11
122.743932088
 21
100.610524179
 31
0.0
  0
LINE
  8
0
  6
CONTINUOUS
 62
     2
 10
125.253629794
 20
100.763103141
 30
0.0
 11
125.184017336
 21
100.339627427
 31
0.0
  0
LINE
  8
0
  6
CONTINUOUS
 62
     2
 10
122.768897936
 20
101.038956532
 30
0.0
 11
125.253629794
 21
100.763103141
 31
0.0
  0
ARC
  8
0
  6
CONTINUOUS
 62
     2
 10
124.744614275
 20
100.436321243
 30
0.0
 40
0.4523805
 50
293.490694575
 51
353.665
  0
LINE
  8
0
  6
CONTINUOUS
 62
     2
 10
123.766819356
 20
99.993892483
 30
0.0
 11
123.821990034
 21
100.490838854
 31
0.0
  0
LINE
  8
0
  6
CONTINUOUS
 62
     2
 10
123.821990034
 20
100.490838854
 30
0.0
 11
124.10595939
 21
100.459312752
 31
0.0
  0
LINE
  8
0
  6
CONTINUOUS
 62
     2
 10
124.10595939
 20
100.459312752
 30
0.0
 11
124.050788711
 21
99.962366381
 31
0.0
  0
ARC
  8
0
  6
CONTINUOUS
 62
     2
 10
124.276608555
 20
103.291105242
 30
0.0
 40
3.33333
 50
246.11462445
 51
261.210968325
  0
ARC
  8
0
  6
CONTINUOUS
 62
     2
 10
124.276608555
 20
103.291105242
 30
0.0
 40
3.33333
 50
266.119031675
 51
281.21537555
  0
LINE
  8
0
  6
LTYPE3
 62
     2
 10
93.645660804
 20
103.618206814
 30
0.0
 11
93.480148603
 21
102.127366209
 31
0.0
  0
LINE
  8
0
  6
LTYPE3
 62
     2
 10
89.930647618
 20
104.684638732
 30
0.0
 11
89.765135418
 21
103.193798126
 31
0.0
  0
LINE
  8
0
  6
LTYPE3
 62
     2
 10
97.432395942
 20
103.197805826
 30
0.0
 11
97.266883742
 21
101.70696522
 31
0.0
  0
LINE
  8
0
  6
LTYPE3
 62
     2
 10
101.21913108
 20
102.777404837
 30
0.0
 11
101.05361888
 21
101.286564232
 31
0.0
  0
LINE
  8
0
  6
LTYPE3
 62
     2
 10
105.005866219
 20
102.357003849
 30
0.0
 11
104.840354019
 21
100.866163243
 31
0.0
  0
LINE
  8
0
  6
LTYPE3
 62
     2
 10
108.792601357
 20
101.936602861
 30
0.0
 11
108.627089157
 21
100.445762255
 31
0.0
  0
LINE
  8
0
  6
LTYPE3
 62
     2
 10
112.579336496
 20
101.516201872
 30
0.0
 11
112.413824296
 21
100.025361267
 31
0.0
  0
LINE
  8
0
  6
LTYPE3
 62
     2
 10
116.366071634
 20
101.095800884
 30
0.0
 11
116.200559434
 21
99.604960278
 31
0.0
  0
LINE
  8
0
  6
LTYPE3
 62
     2
 10
120.152806773
 20
100.675399895
 30
0.0
 11
119.987294573
 21
99.18455929
 31
0.0
  0
LINE
  8
0
  6
LTYPE3
 62
     2
 10
124.011263865
 20
100.901029836
 30
0.0
 11
123.845751665
 21
99.41018923
 31
0.0
  0
LINE
  8
0
  6
CONTINUOUS
 62
     1
 10
33.95
 20
108.180246512
 30
0.0
 11
40.2
 21
108.180246512
 31
0.0
  0
ARC
  8
0
  6
CONTINUOUS
 62
     1
 10
34.4
 20
103.065397472
 30
0.0
 40
0.25
 50
0.0
 51
66.801409486
  0
LINE
  8
0
  6
CONTINUOUS
 62
     1
 10
34.65
 20
102.880246512
 30
0.0
 11
34.65
 21
103.065397472
 31
0.0
  0
ARC
  8
0
  6
CONTINUOUS
 62
     1
 10
34.55
 20
102.880246512
 30
0.0
 40
0.1
 50
270.0
 51
0.0
  0
LINE
  8
0
  6
CONTINUOUS
 62
     1
 10
33.95
 20
103.530246512
 30
0.0
 11
34.498479825
 21
103.29518373
 31
0.0
  0
ARC
  8
0
  6
CONTINUOUS
 62
     1
 10
34.05
 20
102.380246512
 30
0.0
 40
0.1
 50
180.0
 51
270.0
  0
LINE
  8
0
  6
CONTINUOUS
 62
     1
 10
34.05
 20
102.780246512
 30
0.0
 11
34.55
 21
102.780246512
 31
0.0
  0
LINE
  8
0
  6
CONTINUOUS
 62
     1
 10
33.95
 20
102.380246512
 30
0.0
 11
33.95
 21
102.680246512
 31
0.0
  0
ARC
  8
0
  6
CONTINUOUS
 62
     1
 10
34.05
 20
102.680246512
 30
0.0
 40
0.1
 50
90.0
 51
180.0
  0
ARC
  8
0
  6
CONTINUOUS
 62
     1
 10
39.75
 20
103.065397472
 30
0.0
 40
0.25
 50
113.198590514
 51
180.0
  0
LINE
  8
0
  6
CONTINUOUS
 62
     1
 10
39.5
 20
102.880246512
 30
0.0
 11
39.5
 21
103.065397472
 31
0.0
  0
ARC
  8
0
  6
CONTINUOUS
 62
     1
 10
39.6
 20
102.880246512
 30
0.0
 40
0.1
 50
180.0
 51
270.0
  0
ARC
  8
0
  6
CONTINUOUS
 62
     1
 10
40.1
 20
102.380246512
 30
0.0
 40
0.1
 50
270.0
 51
0.0
  0
LINE
  8
0
  6
CONTINUOUS
 62
     1
 10
40.1
 20
102.780246512
 30
0.0
 11
39.6
 21
102.780246512
 31
0.0
  0
LINE
  8
0
  6
CONTINUOUS
 62
     1
 10
40.2
 20
102.380246512
 30
0.0
 11
40.2
 21
102.680246512
 31
0.0
  0
ARC
  8
0
  6
CONTINUOUS
 62
     1
 10
40.1
 20
102.680246512
 30
0.0
 40
0.1
 50
0.0
 51
90.0
  0
LINE
  8
0
  6
CONTINUOUS
 62
     1
 10
40.2
 20
103.530246512
 30
0.0
 11
39.651520175
 21
103.29518373
 31
0.0
  0
LINE
  8
0
  6
CONTINUOUS
 62
     1
 10
40.1
 20
102.280246512
 30
0.0
 11
34.05
 21
102.280246512
 31
0.0
  0
LINE
  8
0
  6
CONTINUOUS
 62
     1
 10
39.5
 20
105.680246512
 30
0.0
 11
39.5
 21
106.280246512
 31
0.0
  0
ARC
  8
0
  6
CONTINUOUS
 62
     1
 10
39.35
 20
105.680246512
 30
0.0
 40
0.15
 50
270.0
 51
0.0
  0
LINE
  8
0
  6
CONTINUOUS
 62
     1
 10
34.65
 20
106.280246512
 30
0.0
 11
34.65
 21
105.680246512
 31
0.0
  0
LINE
  8
0
  6
CONTINUOUS
 62
     1
 10
34.8
 20
105.530246512
 30
0.0
 11
39.35
 21
105.530246512
 31
0.0
  0
ARC
  8
0
  6
CONTINUOUS
 62
     1
 10
34.8
 20
105.680246512
 30
0.0
 40
0.15
 50
180.0
 51
270.0
  0
LINE
  8
0
  6
CONTINUOUS
 62
     1
 10
34.1
 20
106.280246512
 30
0.0
 11
34.65
 21
106.280246512
 31
0.0
  0
LINE
  8
0
  6
CONTINUOUS
 62
     1
 10
33.95
 20
106.430246512
 30
0.0
 11
33.95
 21
108.180246512
 31
0.0
  0
ARC
  8
0
  6
CONTINUOUS
 62
     1
 10
34.1
 20
106.430246512
 30
0.0
 40
0.15
 50
180.0
 51
270.0
  0
LINE
  8
0
  6
CONTINUOUS
 62
     1
 10
39.5
 20
106.280246512
 30
0.0
 11
40.05
 21
106.280246512
 31
0.0
  0
LINE
  8
0
  6
CONTINUOUS
 62
     1
 10
40.2
 20
108.180246512
 30
0.0
 11
40.2
 21
106.430246512
 31
0.0
  0
ARC
  8
0
  6
CONTINUOUS
 62
     1
 10
40.05
 20
106.430246512
 30
0.0
 40
0.15
 50
270.0
 51
0.0
  0
LINE
  8
0
  6
CONTINUOUS
 62
     1
 10
33.95
 20
103.530246512
 30
0.0
 11
33.95
 21
106.430246512
 31
0.0
  0
LINE
  8
0
  6
CONTINUOUS
 62
     1
 10
40.2
 20
106.430246512
 30
0.0
 11
40.2
 21
103.530246512
 31
0.0
  0
LINE
  8
0
  6
CONTINUOUS
 62
     1
 10
35.025
 20
105.530246512
 30
0.0
 11
35.025
 21
105.430246512
 31
0.0
  0
ARC
  8
0
  6
CONTINUOUS
 62
     1
 10
35.325
 20
105.430246512
 30
0.0
 40
0.3
 50
180.0
 51
270.0
  0
LINE
  8
0
  6
CONTINUOUS
 62
     1
 10
39.125
 20
105.430246512
 30
0.0
 11
39.125
 21
105.530246512
 31
0.0
  0
LINE
  8
0
  6
CONTINUOUS
 62
     1
 10
35.325
 20
105.130246512
 30
0.0
 11
38.825
 21
105.130246512
 31
0.0
  0
ARC
  8
0
  6
CONTINUOUS
 62
     1
 10
38.825
 20
105.430246512
 30
0.0
 40
0.3
 50
270.0
 51
0.0
  0
ARC
  8
0
  6
CONTINUOUS
 62
     2
 10
33.775
 20
103.030246512
 30
0.0
 40
0.2
 50
90.0
 51
180.0
  0
LINE
  8
0
  6
CONTINUOUS
 62
     2
 10
33.575
 20
103.030246512
 30
0.0
 11
33.575
 21
102.19164817
 31
0.0
  0
ARC
  8
0
  6
CONTINUOUS
 62
     2
 10
33.875
 20
102.19164817
 30
0.0
 40
0.3
 50
180.0
 51
262.440720035
  0
ARC
  8
0
  6
CONTINUOUS
 62
     2
 10
37.075
 20
126.305246512
 30
0.0
 40
24.625
 50
262.440720035
 51
277.559279965
  0
ARC
  8
0
  6
CONTINUOUS
 62
     2
 10
40.275
 20
102.19164817
 30
0.0
 40
0.3
 50
277.559279965
 51
0.0
  0
LINE
  8
0
  6
CONTINUOUS
 62
     2
 10
40.575
 20
102.19164817
 30
0.0
 11
40.575
 21
103.030246512
 31
0.0
  0
ARC
  8
0
  6
CONTINUOUS
 62
     2
 10
40.375
 20
103.030246512
 30
0.0
 40
0.2
 50
0.0
 51
90.0
  0
ARC
  8
0
  6
CONTINUOUS
 62
     2
 10
37.075
 20
126.305246512
 30
0.0
 40
24.275
 50
262.508387688
 51
277.491612312
  0
LINE
  8
0
  6
CONTINUOUS
 62
     2
 10
40.375
 20
103.230246512
 30
0.0
 11
40.198738541
 21
103.166151436
 31
0.0
  0
ARC
  8
0
  6
CONTINUOUS
 62
     2
 10
40.25
 20
103.025182422
 30
0.0
 40
0.15
 50
109.983106522
 51
180.0
  0
LINE
  8
0
  6
CONTINUOUS
 62
     2
 10
40.1
 20
103.025182422
 30
0.0
 11
40.1
 21
102.930246512
 31
0.0
  0
ARC
  8
0
  6
CONTINUOUS
 62
     2
 10
40.15
 20
102.930246512
 30
0.0
 40
0.05
 50
180.0
 51
270.0
  0
LINE
  8
0
  6
CONTINUOUS
 62
     2
 10
40.24
 20
102.237458911
 30
0.0
 11
40.24
 21
102.830246512
 31
0.0
  0
LINE
  8
0
  6
CONTINUOUS
 62
     2
 10
40.19
 20
102.880246512
 30
0.0
 11
40.15
 21
102.880246512
 31
0.0
  0
ARC
  8
0
  6
CONTINUOUS
 62
     2
 10
40.19
 20
102.830246512
 30
0.0
 40
0.05
 50
0.0
 51
90.0
  0
ARC
  8
0
  6
CONTINUOUS
 62
     2
 10
34.0
 20
102.930246512
 30
0.0
 40
0.05
 50
270.0
 51
0.0
  0
LINE
  8
0
  6
CONTINUOUS
 62
     2
 10
33.91
 20
102.830246512
 30
0.0
 11
33.91
 21
102.237458911
 31
0.0
  0
LINE
  8
0
  6
CONTINUOUS
 62
     2
 10
34.0
 20
102.880246512
 30
0.0
 11
33.96
 21
102.880246512
 31
0.0
  0
ARC
  8
0
  6
CONTINUOUS
 62
     2
 10
33.96
 20
102.830246512
 30
0.0
 40
0.05
 50
90.0
 51
180.0
  0
LINE
  8
0
  6
CONTINUOUS
 62
     2
 10
33.775001572
 20
103.230246512
 30
0.0
 11
33.951261718
 21
103.166151547
 31
0.0
  0
LINE
  8
0
  6
CONTINUOUS
 62
     2
 10
34.05
 20
103.025182627
 30
0.0
 11
34.05
 21
102.930246512
 31
0.0
  0
ARC
  8
0
  6
CONTINUOUS
 62
     2
 10
33.9
 20
103.025182627
 30
0.0
 40
0.15
 50
0.0
 51
70.016788284
  0
ARC
  8
0
  6
CONTINUOUS
 62
     2
 10
36.294850992
 20
104.749294512
 30
0.0
 40
0.4523805
 50
180.0
 51
240.174305425
  0
LINE
  8
0
  6
CONTINUOUS
 62
     2
 10
35.82500125
 20
105.130246512
 30
0.0
 11
35.847461704
 21
104.701675512
 31
0.0
  0
LINE
  8
0
  6
CONTINUOUS
 62
     2
 10
38.32499875
 20
105.130246512
 30
0.0
 11
38.302538296
 21
104.701675512
 31
0.0
  0
LINE
  8
0
  6
CONTINUOUS
 62
     2
 10
35.82500125
 20
105.130246512
 30
0.0
 11
38.32499875
 21
105.130246512
 31
0.0
  0
ARC
  8
0
  6
CONTINUOUS
 62
     2
 10
37.855149008
 20
104.749294512
 30
0.0
 40
0.4523805
 50
299.825694575
 51
0.0
  0
LINE
  8
0
  6
CONTINUOUS
 62
     2
 10
36.932143
 20
104.201676012
 30
0.0
 11
36.932143
 21
104.701675512
 31
0.0
  0
LINE
  8
0
  6
CONTINUOUS
 62
     2
 10
36.932143
 20
104.701675512
 30
0.0
 11
37.217857
 21
104.701675512
 31
0.0
  0
LINE
  8
0
  6
CONTINUOUS
 62
     2
 10
37.217857
 20
104.701675512
 30
0.0
 11
37.217857
 21
104.201676012
 31
0.0
  0
ARC
  8
0
  6
CONTINUOUS
 62
     2
 10
37.075
 20
107.535006012
 30
0.0
 40
3.33333
 50
252.44962445
 51
267.545968325
  0
ARC
  8
0
  6
CONTINUOUS
 62
     2
 10
37.075
 20
107.535006012
 30
0.0
 40
3.33333
 50
272.454031675
 51
287.55037555
  0
ARC
  8
0
  6
CONTINUOUS
 62
     2
 10
33.875
 20
98.161547117
 30
0.0
 40
0.3
 50
180.0
 51
262.440720035
  0
ARC
  8
0
  6
CONTINUOUS
 62
     2
 10
37.075
 20
122.275145459
 30
0.0
 40
24.625
 50
262.440720035
 51
277.559279965
  0
ARC
  8
0
  6
CONTINUOUS
 62
     2
 10
40.275
 20
98.161547117
 30
0.0
 40
0.3
 50
277.559279965
 51
0.0
  0
LINE
  8
0
  6
CONTINUOUS
 62
     2
 10
33.575
 20
102.19164817
 30
0.0
 11
33.575
 21
98.161547117
 31
0.0
  0
LINE
  8
0
  6
CONTINUOUS
 62
     2
 10
40.575
 20
102.19164817
 30
0.0
 11
40.575
 21
98.161547117
 31
0.0
  0
ARC
  8
0
  6
CONTINUOUS
 62
     2
 10
33.77
 20
98.13
 30
0.0
 40
0.525
 50
111.80374799
 51
180.0
  0
LINE
  8
0
  6
LTYPE1
 62
     2
 10
29.75
 20
98.9
 30
0.0
 11
33.575
 21
98.9
 31
0.0
  0
ARC
  8
0
  6
CONTINUOUS
 62
     2
 10
33.77
 20
99.67
 30
0.0
 40
0.525
 50
180.0
 51
255.788808131
  0
ARC
  8
0
  6
CONTINUOUS
 62
     2
 10
33.0
 20
98.9
 30
0.0
 40
1.75
 50
70.817910057
 51
321.061162414
  0
LINE
  8
0
  6
CONTINUOUS
 62
     1
 10
35.5
 20
96.45
 30
0.0
 11
35.5
 21
97.719354839
 31
0.0
  0
LINE
  8
0
  6
CONTINUOUS
 62
     1
 10
40.575
 20
101.15
 30
0.0
 11
43.0
 21
101.15
 31
0.0
  0
LINE
  8
0
  6
CONTINUOUS
 62
     1
 10
40.575
 20
100.195241935
 30
0.0
 11
43.0
 21
100.25
 31
0.0
  0
LINE
  8
0
  6
CONTINUOUS
 62
     2
 10
92.975
 20
100.995241935
 30
0.0
 11
91.332372356
 21
99.110626743
 31
0.0
  0
LINE
  8
0
  6
CONTINUOUS
 62
     2
 10
92.975
 20
100.995241935
 30
0.0
 11
92.494750327
 21
98.541803481
 31
0.0
  0
LINE
  8
0
  6
CONTINUOUS
 62
     2
 10
92.975
 20
100.995241935
 30
0.0
 11
90.675
 21
96.295241935
 31
0.0
  0
LINE
  8
0
  6
CONTINUOUS
 62
     2
 10
90.675
 20
96.295241935
 30
0.0
 11
75.975
 21
96.295241935
 31
0.0
  0
TEXT
  8
0
  6
CONTINUOUS
 62
     2
 10
75.975
 20
97.295241935
 30
0.3
 40
3.0
  1
端子カバー
 50
0.0
 41
0.9
 51
0.0
  7
KANJI7
  0
LINE
  8
0
  6
CONTINUOUS
 62
     1
 10
123.294560465
 20
55.725
 30
0.0
 11
122.670647618
 21
55.725
 31
0.0
  0
LINE
  8
0
  6
CONTINUOUS
 62
     1
 10
123.591792586
 20
56.425
 30
0.0
 11
122.670647618
 21
56.425
 31
0.0
  0
LINE
  8
0
  6
CONTINUOUS
 62
     1
 10
125.770647618
 20
56.425
 30
0.0
 11
124.648
 21
56.425
 31
0.0
  0
LINE
  8
0
  6
CONTINUOUS
 62
     1
 10
125.770647618
 20
61.975
 30
0.0
 11
125.770647618
 21
56.0
 31
0.0
  0
TEXT
  8
0
  6
CONTINUOUS
 62
     3
 10
235.0
 20
17.0
 30
0.6
 40
6.0
  1
ＭＳ－１２６５９
 50
0.0
 41
0.9
 51
0.0
  7
KANJI19
  0
LINE
  8
0
  6
LTYPE2
 62
     2
 10
78.2
 20
137.65
 30
0.0
 11
69.2
 21
137.65
 31
0.0
  0
LINE
  8
0
  6
CONTINUOUS
 62
     2
 10
76.9
 20
135.6
 30
0.0
 11
76.4
 21
135.6
 31
0.0
  0
LINE
  8
0
  6
CONTINUOUS
 62
     2
 10
76.4
 20
139.6
 30
0.0
 11
76.9
 21
139.6
 31
0.0
  0
LINE
  8
0
  6
CONTINUOUS
 62
     2
 10
76.4
 20
135.6
 30
0.0
 11
76.4
 21
139.6
 31
0.0
  0
LINE
  8
0
  6
CONTINUOUS
 62
     2
 10
76.4
 20
135.8
 30
0.0
 11
76.4
 21
135.675
 31
0.0
  0
LINE
  8
0
  6
CONTINUOUS
 62
     2
 10
73.077746097
 20
135.55
 30
0.0
 11
74.327746097
 21
135.55
 31
0.0
  0
LINE
  8
0
  6
CONTINUOUS
 62
     2
 10
73.077746097
 20
135.55
 30
0.0
 11
72.827746097
 21
135.8
 31
0.0
  0
LINE
  8
0
  6
CONTINUOUS
 62
     2
 10
75.0
 20
135.8
 30
0.0
 11
74.5
 21
135.8
 31
0.0
  0
LINE
  8
0
  6
CONTINUOUS
 62
     2
 10
74.5
 20
135.8
 30
0.0
 11
74.8
 21
137.45
 31
0.0
  0
LINE
  8
0
  6
CONTINUOUS
 62
     2
 10
74.8
 20
137.45
 30
0.0
 11
75.3
 21
137.45
 31
0.0
  0
LINE
  8
0
  6
CONTINUOUS
 62
     2
 10
75.3
 20
137.45
 30
0.0
 11
75.0
 21
135.8
 31
0.0
  0
LINE
  8
0
  6
CONTINUOUS
 62
     2
 10
73.087746097
 20
136.615
 30
0.0
 11
72.827746097
 21
136.315
 31
0.0
  0
LINE
  8
0
  6
CONTINUOUS
 62
     2
 10
74.686363636
 20
136.825
 30
0.0
 11
74.327746097
 21
136.825
 31
0.0
  0
LINE
  8
0
  6
CONTINUOUS
 62
     2
 10
74.55
 20
137.75
 30
0.0
 11
75.05
 21
137.75
 31
0.0
  0
LINE
  8
0
  6
CONTINUOUS
 62
     2
 10
72.827746097
 20
138.325
 30
0.0
 11
73.127746097
 21
138.595
 31
0.0
  0
LINE
  8
0
  6
CONTINUOUS
 62
     2
 10
74.327746097
 20
138.325
 30
0.0
 11
74.627746097
 21
138.325
 31
0.0
  0
LINE
  8
0
  6
CONTINUOUS
 62
     2
 10
73.127746097
 20
139.625
 30
0.0
 11
72.827746097
 21
139.325
 31
0.0
  0
LINE
  8
0
  6
CONTINUOUS
 62
     2
 10
74.327746097
 20
139.6
 30
0.0
 11
73.077746097
 21
139.6
 31
0.0
  0
LINE
  8
0
  6
CONTINUOUS
 62
     2
 10
75.3
 20
139.35
 30
0.0
 11
74.8
 21
139.35
 31
0.0
  0
LINE
  8
0
  6
CONTINUOUS
 62
     2
 10
75.05
 20
137.75
 30
0.0
 11
75.3
 21
139.35
 31
0.0
  0
LINE
  8
0
  6
CONTINUOUS
 62
     2
 10
74.8
 20
139.35
 30
0.0
 11
74.55
 21
137.75
 31
0.0
  0
LINE
  8
0
  6
CONTINUOUS
 62
     2
 10
74.327746097
 20
135.55
 30
0.0
 11
74.327746097
 21
139.6
 31
0.0
  0
LINE
  8
0
  6
CONTINUOUS
 62
     2
 10
72.827746097
 20
139.345
 30
0.0
 11
72.827746097
 21
135.8
 31
0.0
  0
LINE
  8
0
  6
CONTINUOUS
 62
     2
 10
73.074746097
 20
136.6
 30
0.0
 11
72.824746097
 21
136.8
 31
0.0
  0
LINE
  8
0
  6
CONTINUOUS
 62
     2
 10
73.227746097
 20
136.6
 30
0.0
 11
73.074746097
 21
136.6
 31
0.0
  0
LINE
  8
0
  6
CONTINUOUS
 62
     2
 10
74.645454545
 20
136.6
 30
0.0
 11
73.074746097
 21
136.6
 31
0.0
  0
LINE
  8
0
  6
CONTINUOUS
 62
     2
 10
72.827746097
 20
138.9
 30
0.0
 11
73.127746097
 21
138.63
 31
0.0
  0
LINE
  8
0
  6
CONTINUOUS
 62
     2
 10
73.133301652
 20
138.6
 30
0.0
 11
74.6828125
 21
138.6
 31
0.0
  0
LINE
  8
0
  6
CONTINUOUS
 62
     2
 10
70.95
 20
136.825
 30
0.0
 11
72.827746097
 21
136.825
 31
0.0
  0
LINE
  8
0
  6
CONTINUOUS
 62
     2
 10
72.827746097
 20
136.6
 30
0.0
 11
70.95
 21
136.6
 31
0.0
  0
LINE
  8
0
  6
CONTINUOUS
 62
     2
 10
72.827746097
 20
138.325
 30
0.0
 11
70.95
 21
138.325
 31
0.0
  0
LINE
  8
0
  6
CONTINUOUS
 62
     2
 10
70.95
 20
138.6
 30
0.0
 11
72.827746097
 21
138.6
 31
0.0
  0
LINE
  8
0
  6
CONTINUOUS
 62
     2
 10
70.85
 20
136.6
 30
0.0
 11
70.85
 21
138.6
 31
0.0
  0
LINE
  8
0
  6
CONTINUOUS
 62
     2
 10
76.0
 20
139.9
 30
0.0
 11
75.775
 21
139.9
 31
0.0
  0
LINE
  8
0
  6
CONTINUOUS
 62
     2
 10
75.775
 20
139.9
 30
0.0
 11
75.775
 21
135.4
 31
0.0
  0
LINE
  8
0
  6
CONTINUOUS
 62
     2
 10
75.775
 20
135.4
 30
0.0
 11
76.0
 21
135.4
 31
0.0
  0
LINE
  8
0
  6
CONTINUOUS
 62
     2
 10
76.0
 20
135.4
 30
0.0
 11
76.0
 21
139.9
 31
0.0
  0
LINE
  8
0
  6
CONTINUOUS
 62
     2
 10
76.0
 20
136.6
 30
0.0
 11
76.4
 21
136.6
 31
0.0
  0
LINE
  8
0
  6
CONTINUOUS
 62
     2
 10
75.1456
 20
136.6
 30
0.0
 11
75.775
 21
136.6
 31
0.0
  0
LINE
  8
0
  6
CONTINUOUS
 62
     2
 10
76.0
 20
136.825
 30
0.0
 11
76.4
 21
136.825
 31
0.0
  0
LINE
  8
0
  6
CONTINUOUS
 62
     2
 10
75.1456
 20
136.825
 30
0.0
 11
75.775
 21
136.825
 31
0.0
  0
LINE
  8
0
  6
CONTINUOUS
 62
     2
 10
76.0
 20
138.325
 30
0.0
 11
76.4
 21
138.325
 31
0.0
  0
LINE
  8
0
  6
CONTINUOUS
 62
     2
 10
75.1456
 20
138.325
 30
0.0
 11
75.775
 21
138.325
 31
0.0
  0
LINE
  8
0
  6
CONTINUOUS
 62
     2
 10
76.0
 20
138.6
 30
0.0
 11
76.4
 21
138.6
 31
0.0
  0
LINE
  8
0
  6
CONTINUOUS
 62
     2
 10
75.2456
 20
138.6
 30
0.0
 11
75.775
 21
138.6
 31
0.0
  0
LINE
  8
0
  6
LTYPE2
 62
     2
 10
78.2
 20
125.15
 30
0.0
 11
69.2
 21
125.15
 31
0.0
  0
LINE
  8
0
  6
CONTINUOUS
 62
     2
 10
76.9
 20
123.1
 30
0.0
 11
76.4
 21
123.1
 31
0.0
  0
LINE
  8
0
  6
CONTINUOUS
 62
     2
 10
76.4
 20
127.1
 30
0.0
 11
76.9
 21
127.1
 31
0.0
  0
LINE
  8
0
  6
CONTINUOUS
 62
     2
 10
76.4
 20
123.1
 30
0.0
 11
76.4
 21
127.1
 31
0.0
  0
LINE
  8
0
  6
CONTINUOUS
 62
     2
 10
76.4
 20
123.3
 30
0.0
 11
76.4
 21
123.175
 31
0.0
  0
LINE
  8
0
  6
CONTINUOUS
 62
     2
 10
73.077746097
 20
123.05
 30
0.0
 11
74.327746097
 21
123.05
 31
0.0
  0
LINE
  8
0
  6
CONTINUOUS
 62
     2
 10
73.077746097
 20
123.05
 30
0.0
 11
72.827746097
 21
123.3
 31
0.0
  0
LINE
  8
0
  6
CONTINUOUS
 62
     2
 10
75.0
 20
123.3
 30
0.0
 11
74.5
 21
123.3
 31
0.0
  0
LINE
  8
0
  6
CONTINUOUS
 62
     2
 10
74.5
 20
123.3
 30
0.0
 11
74.8
 21
124.95
 31
0.0
  0
LINE
  8
0
  6
CONTINUOUS
 62
     2
 10
74.8
 20
124.95
 30
0.0
 11
75.3
 21
124.95
 31
0.0
  0
LINE
  8
0
  6
CONTINUOUS
 62
     2
 10
75.3
 20
124.95
 30
0.0
 11
75.0
 21
123.3
 31
0.0
  0
LINE
  8
0
  6
CONTINUOUS
 62
     2
 10
73.087746097
 20
124.115
 30
0.0
 11
72.827746097
 21
123.815
 31
0.0
  0
LINE
  8
0
  6
CONTINUOUS
 62
     2
 10
74.686363636
 20
124.325
 30
0.0
 11
74.327746097
 21
124.325
 31
0.0
  0
LINE
  8
0
  6
CONTINUOUS
 62
     2
 10
74.55
 20
125.25
 30
0.0
 11
75.05
 21
125.25
 31
0.0
  0
LINE
  8
0
  6
CONTINUOUS
 62
     2
 10
72.827746097
 20
125.825
 30
0.0
 11
73.127746097
 21
126.095
 31
0.0
  0
LINE
  8
0
  6
CONTINUOUS
 62
     2
 10
74.327746097
 20
125.825
 30
0.0
 11
74.627746097
 21
125.825
 31
0.0
  0
LINE
  8
0
  6
CONTINUOUS
 62
     2
 10
73.127746097
 20
127.125
 30
0.0
 11
72.827746097
 21
126.825
 31
0.0
  0
LINE
  8
0
  6
CONTINUOUS
 62
     2
 10
74.327746097
 20
127.1
 30
0.0
 11
73.077746097
 21
127.1
 31
0.0
  0
LINE
  8
0
  6
CONTINUOUS
 62
     2
 10
75.3
 20
126.85
 30
0.0
 11
74.8
 21
126.85
 31
0.0
  0
LINE
  8
0
  6
CONTINUOUS
 62
     2
 10
75.05
 20
125.25
 30
0.0
 11
75.3
 21
126.85
 31
0.0
  0
LINE
  8
0
  6
CONTINUOUS
 62
     2
 10
74.8
 20
126.85
 30
0.0
 11
74.55
 21
125.25
 31
0.0
  0
LINE
  8
0
  6
CONTINUOUS
 62
     2
 10
74.327746097
 20
123.05
 30
0.0
 11
74.327746097
 21
127.1
 31
0.0
  0
LINE
  8
0
  6
CONTINUOUS
 62
     2
 10
72.827746097
 20
126.845
 30
0.0
 11
72.827746097
 21
123.3
 31
0.0
  0
LINE
  8
0
  6
CONTINUOUS
 62
     2
 10
73.074746097
 20
124.1
 30
0.0
 11
72.824746097
 21
124.3
 31
0.0
  0
LINE
  8
0
  6
CONTINUOUS
 62
     2
 10
73.227746097
 20
124.1
 30
0.0
 11
73.074746097
 21
124.1
 31
0.0
  0
LINE
  8
0
  6
CONTINUOUS
 62
     2
 10
74.645454545
 20
124.1
 30
0.0
 11
73.074746097
 21
124.1
 31
0.0
  0
LINE
  8
0
  6
CONTINUOUS
 62
     2
 10
72.827746097
 20
126.4
 30
0.0
 11
73.127746097
 21
126.13
 31
0.0
  0
LINE
  8
0
  6
CONTINUOUS
 62
     2
 10
73.133301652
 20
126.1
 30
0.0
 11
74.6828125
 21
126.1
 31
0.0
  0
LINE
  8
0
  6
CONTINUOUS
 62
     2
 10
70.95
 20
124.325
 30
0.0
 11
72.827746097
 21
124.325
 31
0.0
  0
LINE
  8
0
  6
CONTINUOUS
 62
     2
 10
72.827746097
 20
124.1
 30
0.0
 11
70.95
 21
124.1
 31
0.0
  0
LINE
  8
0
  6
CONTINUOUS
 62
     2
 10
72.827746097
 20
125.825
 30
0.0
 11
70.95
 21
125.825
 31
0.0
  0
LINE
  8
0
  6
CONTINUOUS
 62
     2
 10
70.95
 20
126.1
 30
0.0
 11
72.827746097
 21
126.1
 31
0.0
  0
LINE
  8
0
  6
CONTINUOUS
 62
     2
 10
70.85
 20
124.1
 30
0.0
 11
70.85
 21
126.1
 31
0.0
  0
LINE
  8
0
  6
CONTINUOUS
 62
     2
 10
76.0
 20
127.4
 30
0.0
 11
75.775
 21
127.4
 31
0.0
  0
LINE
  8
0
  6
CONTINUOUS
 62
     2
 10
75.775
 20
127.4
 30
0.0
 11
75.775
 21
122.9
 31
0.0
  0
LINE
  8
0
  6
CONTINUOUS
 62
     2
 10
75.775
 20
122.9
 30
0.0
 11
76.0
 21
122.9
 31
0.0
  0
LINE
  8
0
  6
CONTINUOUS
 62
     2
 10
76.0
 20
122.9
 30
0.0
 11
76.0
 21
127.4
 31
0.0
  0
LINE
  8
0
  6
CONTINUOUS
 62
     2
 10
76.0
 20
124.1
 30
0.0
 11
76.4
 21
124.1
 31
0.0
  0
LINE
  8
0
  6
CONTINUOUS
 62
     2
 10
75.1456
 20
124.1
 30
0.0
 11
75.775
 21
124.1
 31
0.0
  0
LINE
  8
0
  6
CONTINUOUS
 62
     2
 10
76.0
 20
124.325
 30
0.0
 11
76.4
 21
124.325
 31
0.0
  0
LINE
  8
0
  6
CONTINUOUS
 62
     2
 10
75.1456
 20
124.325
 30
0.0
 11
75.775
 21
124.325
 31
0.0
  0
LINE
  8
0
  6
CONTINUOUS
 62
     2
 10
76.0
 20
125.825
 30
0.0
 11
76.4
 21
125.825
 31
0.0
  0
LINE
  8
0
  6
CONTINUOUS
 62
     2
 10
75.1456
 20
125.825
 30
0.0
 11
75.775
 21
125.825
 31
0.0
  0
LINE
  8
0
  6
CONTINUOUS
 62
     2
 10
76.0
 20
126.1
 30
0.0
 11
76.4
 21
126.1
 31
0.0
  0
LINE
  8
0
  6
CONTINUOUS
 62
     2
 10
75.2456
 20
126.1
 30
0.0
 11
75.775
 21
126.1
 31
0.0
  0
ARC
  8
0
  6
LTYPE5
 62
     2
 10
71.15
 20
130.525
 30
0.0
 40
0.5
 50
90.0
 51
180.0
  0
ARC
  8
0
  6
LTYPE5
 62
     2
 10
71.15
 20
132.275
 30
0.0
 40
0.5
 50
180.0
 51
270.0
  0
LINE
  8
0
  6
LTYPE5
 62
     2
 10
71.15
 20
131.025
 30
0.0
 11
76.65
 21
131.025
 31
0.0
  0
LINE
  8
0
  6
LTYPE5
 62
     2
 10
71.149999523
 20
131.775
 30
0.0
 11
76.65
 21
131.775
 31
0.0
  0
LINE
  8
0
  6
LTYPE6
 62
     2
 10
76.9
 20
139.65
 30
0.0
 11
72.9
 21
139.65
 31
0.0
  0
ARC
  8
0
  6
LTYPE6
 62
     2
 10
72.9
 20
138.65
 30
0.0
 40
1.0
 50
90.0
 51
180.0
  0
ARC
  8
0
  6
LTYPE6
 62
     2
 10
72.9
 20
138.15
 30
0.0
 40
3.0
 50
90.0
 51
180.0
  0
LINE
  8
0
  6
LTYPE6
 62
     2
 10
72.9
 20
141.15
 30
0.0
 11
76.9
 21
141.15
 31
0.0
  0
LINE
  8
0
  6
LTYPE6
 62
     2
 10
75.7
 20
139.55
 30
0.0
 11
72.464110106
 21
139.55
 31
0.0
  0
LINE
  8
0
  6
LTYPE6
 62
     2
 10
75.745
 20
139.65
 30
0.0
 11
75.7
 21
139.55
 31
0.0
  0
LINE
  8
0
  6
LTYPE6
 62
     2
 10
72.1
 20
139.25
 30
0.0
 11
73.3
 21
139.25
 31
0.0
  0
LINE
  8
0
  6
LTYPE6
 62
     2
 10
72.9
 20
140.4
 30
0.0
 11
76.9
 21
140.4
 31
0.0
  0
LINE
  8
0
  6
LTYPE6
 62
     2
 10
75.745
 20
139.65
 30
0.0
 11
76.15
 21
140.4
 31
0.0
  0
ARC
  8
0
  6
LTYPE6
 62
     2
 10
72.9
 20
138.15
 30
0.0
 40
2.25
 50
90.0
 51
180.0
  0
LINE
  8
0
  6
LTYPE6
 62
     2
 10
72.464110106
 20
139.55
 30
0.0
 11
71.138608505
 21
139.55
 31
0.0
  0
ARC
  8
0
  6
LTYPE6
 62
     2
 10
71.65
 20
140.25
 30
0.0
 40
1.0
 50
233.765367437
 51
270.0
  0
LINE
  8
0
  6
LTYPE6
 62
     2
 10
71.65
 20
139.25
 30
0.0
 11
72.1
 21
139.25
 31
0.0
  0
ARC
  8
0
  6
LTYPE6
 62
     2
 10
72.9
 20
136.65
 30
0.0
 40
1.0
 50
180.0
 51
270.0
  0
LINE
  8
0
  6
LTYPE6
 62
     2
 10
72.9
 20
135.65
 30
0.0
 11
76.65
 21
135.65
 31
0.0
  0
LINE
  8
0
  6
LTYPE6
 62
     2
 10
75.7
 20
135.75
 30
0.0
 11
72.464110106
 21
135.75
 31
0.0
  0
LINE
  8
0
  6
LTYPE6
 62
     2
 10
75.745
 20
135.65
 30
0.0
 11
75.7
 21
135.75
 31
0.0
  0
LINE
  8
0
  6
LTYPE6
 62
     2
 10
72.1
 20
136.05
 30
0.0
 11
73.3
 21
136.05
 31
0.0
  0
LINE
  8
0
  6
LTYPE6
 62
     2
 10
71.65
 20
136.05
 30
0.0
 11
72.1
 21
136.05
 31
0.0
  0
ARC
  8
0
  6
LTYPE6
 62
     2
 10
71.65
 20
135.05
 30
0.0
 40
1.0
 50
90.0
 51
180.0
  0
LINE
  8
0
  6
LTYPE6
 62
     2
 10
71.9
 20
138.65
 30
0.0
 11
71.9
 21
136.65
 31
0.0
  0
LINE
  8
0
  6
LTYPE6
 62
     2
 10
73.3
 20
136.05
 30
0.0
 11
73.3
 21
139.25
 31
0.0
  0
LINE
  8
0
  6
LTYPE6
 62
     2
 10
70.65
 20
132.275
 30
0.0
 11
70.65
 21
138.15
 31
0.0
  0
ARC
  8
0
  6
LTYPE6
 62
     2
 10
72.9
 20
126.15
 30
0.0
 40
1.0
 50
90.0
 51
180.0
  0
LINE
  8
0
  6
LTYPE6
 62
     2
 10
72.9
 20
127.15
 30
0.0
 11
76.65
 21
127.15
 31
0.0
  0
LINE
  8
0
  6
LTYPE6
 62
     2
 10
75.7
 20
127.05
 30
0.0
 11
72.464110106
 21
127.05
 31
0.0
  0
LINE
  8
0
  6
LTYPE6
 62
     2
 10
75.745
 20
127.15
 30
0.0
 11
75.7
 21
127.05
 31
0.0
  0
LINE
  8
0
  6
LTYPE6
 62
     2
 10
72.1
 20
126.75
 30
0.0
 11
73.3
 21
126.75
 31
0.0
  0
LINE
  8
0
  6
LTYPE6
 62
     2
 10
72.1
 20
126.75
 30
0.0
 11
71.65
 21
126.75
 31
0.0
  0
ARC
  8
0
  6
LTYPE6
 62
     2
 10
71.65
 20
127.75
 30
0.0
 40
1.0
 50
180.0
 51
270.0
  0
LINE
  8
0
  6
LTYPE6
 62
     2
 10
76.65
 20
127.15
 30
0.0
 11
76.65
 21
135.65
 31
0.0
  0
LINE
  8
0
  6
LTYPE6
 62
     2
 10
72.9
 20
123.15
 30
0.0
 11
76.9
 21
123.15
 31
0.0
  0
ARC
  8
0
  6
LTYPE6
 62
     2
 10
72.9
 20
124.15
 30
0.0
 40
1.0
 50
180.0
 51
270.0
  0
ARC
  8
0
  6
LTYPE6
 62
     2
 10
72.9
 20
124.65
 30
0.0
 40
3.0
 50
180.0
 51
270.0
  0
LINE
  8
0
  6
LTYPE6
 62
     2
 10
76.9
 20
121.65
 30
0.0
 11
72.9
 21
121.65
 31
0.0
  0
LINE
  8
0
  6
LTYPE6
 62
     2
 10
75.7
 20
123.25
 30
0.0
 11
72.464110106
 21
123.25
 31
0.0
  0
LINE
  8
0
  6
LTYPE6
 62
     2
 10
75.745
 20
123.15
 30
0.0
 11
75.7
 21
123.25
 31
0.0
  0
LINE
  8
0
  6
LTYPE6
 62
     2
 10
72.1
 20
123.55
 30
0.0
 11
73.3
 21
123.55
 31
0.0
  0
ARC
  8
0
  6
LTYPE6
 62
     2
 10
72.9
 20
124.65
 30
0.0
 40
2.25
 50
180.0
 51
270.0
  0
LINE
  8
0
  6
LTYPE6
 62
     2
 10
72.464110106
 20
123.25
 30
0.0
 11
71.138608505
 21
123.25
 31
0.0
  0
LINE
  8
0
  6
LTYPE6
 62
     2
 10
76.9
 20
122.4
 30
0.0
 11
72.9
 21
122.4
 31
0.0
  0
LINE
  8
0
  6
LTYPE6
 62
     2
 10
75.745
 20
123.15
 30
0.0
 11
76.15
 21
122.4
 31
0.0
  0
LINE
  8
0
  6
LTYPE6
 62
     2
 10
71.65
 20
123.55
 30
0.0
 11
72.1
 21
123.55
 31
0.0
  0
ARC
  8
0
  6
LTYPE6
 62
     2
 10
71.65
 20
122.55
 30
0.0
 40
1.0
 50
90.0
 51
126.234632563
  0
LINE
  8
0
  6
LTYPE6
 62
     2
 10
71.9
 20
126.15
 30
0.0
 11
71.9
 21
124.15
 31
0.0
  0
LINE
  8
0
  6
LTYPE6
 62
     2
 10
73.3
 20
123.55
 30
0.0
 11
73.3
 21
126.75
 31
0.0
  0
LINE
  8
0
  6
LTYPE6
 62
     2
 10
70.65
 20
124.65
 30
0.0
 11
70.65
 21
130.525
 31
0.0
  0
LINE
  8
0
  6
LTYPE6
 62
     2
 10
76.9
 20
141.15
 30
0.0
 11
76.9
 21
121.65
 31
0.0
  0
LINE
  8
0
  6
LTYPE6
 62
     2
 10
69.9
 20
124.65
 30
0.0
 11
69.9
 21
138.15
 31
0.0
  0
LINE
  8
0
  6
CONTINUOUS
 62
     2
 10
70.893854352
 20
138.75
 30
0.0
 11
70.893854352
 21
181.525
 31
0.0
  0
LINE
  8
0
  6
CONTINUOUS
 62
     2
 10
70.893854352
 20
179.525
 30
0.0
 11
73.308668918
 21
178.877952387
 31
0.0
  0
LINE
  8
0
  6
CONTINUOUS
 62
     2
 10
70.893854352
 20
179.525
 30
0.0
 11
73.308668918
 21
180.172047613
 31
0.0
  0
LINE
  8
0
  6
CONTINUOUS
 62
     2
 10
70.9
 20
174.6
 30
0.0
 11
68.485185434
 21
175.247047613
 31
0.0
  0
LINE
  8
0
  6
CONTINUOUS
 62
     2
 10
70.9
 20
174.6
 30
0.0
 11
68.485185434
 21
173.952952387
 31
0.0
  0
LINE
  8
0
  6
CONTINUOUS
 62
     2
 10
76.9
 20
174.6
 30
0.0
 11
65.9
 21
174.6
 31
0.0
  0
LINE
  8
0
  6
CONTINUOUS
 62
     2
 10
70.893854352
 20
179.525
 30
0.0
 11
153.85
 21
179.525
 31
0.0
  0
TEXT
  8
0
  6
CONTINUOUS
 62
     2
 10
109.621927176
 20
180.525
 30
0.3
 40
3.0
  1
１６６
 50
0.0
 41
0.6
 51
0.0
  7
KANJI3
  0
TEXT
  8
0
  6
CONTINUOUS
 62
     2
 10
71.9
 20
175.6
 30
0.3
 40
3.0
  1
１２
 50
0.0
 41
0.6
 51
0.0
  7
KANJI3
  0
LINE
  8
0
  6
LTYPE2
 62
     2
 10
78.2
 20
54.0
 30
0.0
 11
69.2
 21
54.0
 31
0.0
  0
LINE
  8
0
  6
CONTINUOUS
 62
     2
 10
76.9
 20
51.95
 30
0.0
 11
76.4
 21
51.95
 31
0.0
  0
LINE
  8
0
  6
CONTINUOUS
 62
     2
 10
76.4
 20
55.95
 30
0.0
 11
76.9
 21
55.95
 31
0.0
  0
LINE
  8
0
  6
CONTINUOUS
 62
     2
 10
76.4
 20
51.95
 30
0.0
 11
76.4
 21
55.95
 31
0.0
  0
LINE
  8
0
  6
CONTINUOUS
 62
     2
 10
76.4
 20
52.15
 30
0.0
 11
76.4
 21
52.025
 31
0.0
  0
LINE
  8
0
  6
CONTINUOUS
 62
     2
 10
73.077746097
 20
51.9
 30
0.0
 11
74.327746097
 21
51.9
 31
0.0
  0
LINE
  8
0
  6
CONTINUOUS
 62
     2
 10
73.077746097
 20
51.9
 30
0.0
 11
72.827746097
 21
52.15
 31
0.0
  0
LINE
  8
0
  6
CONTINUOUS
 62
     2
 10
75.0
 20
52.15
 30
0.0
 11
74.5
 21
52.15
 31
0.0
  0
LINE
  8
0
  6
CONTINUOUS
 62
     2
 10
74.5
 20
52.15
 30
0.0
 11
74.8
 21
53.8
 31
0.0
  0
LINE
  8
0
  6
CONTINUOUS
 62
     2
 10
74.8
 20
53.8
 30
0.0
 11
75.3
 21
53.8
 31
0.0
  0
LINE
  8
0
  6
CONTINUOUS
 62
     2
 10
75.3
 20
53.8
 30
0.0
 11
75.0
 21
52.15
 31
0.0
  0
LINE
  8
0
  6
CONTINUOUS
 62
     2
 10
73.087746097
 20
52.965
 30
0.0
 11
72.827746097
 21
52.665
 31
0.0
  0
LINE
  8
0
  6
CONTINUOUS
 62
     2
 10
74.686363636
 20
53.175
 30
0.0
 11
74.327746097
 21
53.175
 31
0.0
  0
LINE
  8
0
  6
CONTINUOUS
 62
     2
 10
74.55
 20
54.1
 30
0.0
 11
75.05
 21
54.1
 31
0.0
  0
LINE
  8
0
  6
CONTINUOUS
 62
     2
 10
72.827746097
 20
54.675
 30
0.0
 11
73.127746097
 21
54.945
 31
0.0
  0
LINE
  8
0
  6
CONTINUOUS
 62
     2
 10
74.327746097
 20
54.675
 30
0.0
 11
74.627746097
 21
54.675
 31
0.0
  0
LINE
  8
0
  6
CONTINUOUS
 62
     2
 10
73.127746097
 20
55.975
 30
0.0
 11
72.827746097
 21
55.675
 31
0.0
  0
LINE
  8
0
  6
CONTINUOUS
 62
     2
 10
74.327746097
 20
55.95
 30
0.0
 11
73.077746097
 21
55.95
 31
0.0
  0
LINE
  8
0
  6
CONTINUOUS
 62
     2
 10
75.3
 20
55.7
 30
0.0
 11
74.8
 21
55.7
 31
0.0
  0
LINE
  8
0
  6
CONTINUOUS
 62
     2
 10
75.05
 20
54.1
 30
0.0
 11
75.3
 21
55.7
 31
0.0
  0
LINE
  8
0
  6
CONTINUOUS
 62
     2
 10
74.8
 20
55.7
 30
0.0
 11
74.55
 21
54.1
 31
0.0
  0
LINE
  8
0
  6
CONTINUOUS
 62
     2
 10
74.327746097
 20
51.9
 30
0.0
 11
74.327746097
 21
55.95
 31
0.0
  0
LINE
  8
0
  6
CONTINUOUS
 62
     2
 10
72.827746097
 20
55.695
 30
0.0
 11
72.827746097
 21
52.15
 31
0.0
  0
LINE
  8
0
  6
CONTINUOUS
 62
     2
 10
73.074746097
 20
52.95
 30
0.0
 11
72.824746097
 21
53.15
 31
0.0
  0
LINE
  8
0
  6
CONTINUOUS
 62
     2
 10
73.227746097
 20
52.95
 30
0.0
 11
73.074746097
 21
52.95
 31
0.0
  0
LINE
  8
0
  6
CONTINUOUS
 62
     2
 10
74.645454545
 20
52.95
 30
0.0
 11
73.074746097
 21
52.95
 31
0.0
  0
LINE
  8
0
  6
CONTINUOUS
 62
     2
 10
72.827746097
 20
55.25
 30
0.0
 11
73.127746097
 21
54.98
 31
0.0
  0
LINE
  8
0
  6
CONTINUOUS
 62
     2
 10
73.133301652
 20
54.95
 30
0.0
 11
74.6828125
 21
54.95
 31
0.0
  0
LINE
  8
0
  6
CONTINUOUS
 62
     2
 10
70.95
 20
53.175
 30
0.0
 11
72.827746097
 21
53.175
 31
0.0
  0
LINE
  8
0
  6
CONTINUOUS
 62
     2
 10
72.827746097
 20
52.95
 30
0.0
 11
70.95
 21
52.95
 31
0.0
  0
LINE
  8
0
  6
CONTINUOUS
 62
     2
 10
72.827746097
 20
54.675
 30
0.0
 11
70.95
 21
54.675
 31
0.0
  0
LINE
  8
0
  6
CONTINUOUS
 62
     2
 10
70.95
 20
54.95
 30
0.0
 11
72.827746097
 21
54.95
 31
0.0
  0
LINE
  8
0
  6
CONTINUOUS
 62
     2
 10
70.85
 20
52.95
 30
0.0
 11
70.85
 21
54.95
 31
0.0
  0
LINE
  8
0
  6
CONTINUOUS
 62
     2
 10
76.0
 20
56.25
 30
0.0
 11
75.775
 21
56.25
 31
0.0
  0
LINE
  8
0
  6
CONTINUOUS
 62
     2
 10
75.775
 20
56.25
 30
0.0
 11
75.775
 21
51.75
 31
0.0
  0
LINE
  8
0
  6
CONTINUOUS
 62
     2
 10
75.775
 20
51.75
 30
0.0
 11
76.0
 21
51.75
 31
0.0
  0
LINE
  8
0
  6
CONTINUOUS
 62
     2
 10
76.0
 20
51.75
 30
0.0
 11
76.0
 21
56.25
 31
0.0
  0
LINE
  8
0
  6
CONTINUOUS
 62
     2
 10
76.0
 20
52.95
 30
0.0
 11
76.4
 21
52.95
 31
0.0
  0
LINE
  8
0
  6
CONTINUOUS
 62
     2
 10
75.1456
 20
52.95
 30
0.0
 11
75.775
 21
52.95
 31
0.0
  0
LINE
  8
0
  6
CONTINUOUS
 62
     2
 10
76.0
 20
53.175
 30
0.0
 11
76.4
 21
53.175
 31
0.0
  0
LINE
  8
0
  6
CONTINUOUS
 62
     2
 10
75.1456
 20
53.175
 30
0.0
 11
75.775
 21
53.175
 31
0.0
  0
LINE
  8
0
  6
CONTINUOUS
 62
     2
 10
76.0
 20
54.675
 30
0.0
 11
76.4
 21
54.675
 31
0.0
  0
LINE
  8
0
  6
CONTINUOUS
 62
     2
 10
75.1456
 20
54.675
 30
0.0
 11
75.775
 21
54.675
 31
0.0
  0
LINE
  8
0
  6
CONTINUOUS
 62
     2
 10
76.0
 20
54.95
 30
0.0
 11
76.4
 21
54.95
 31
0.0
  0
LINE
  8
0
  6
CONTINUOUS
 62
     2
 10
75.2456
 20
54.95
 30
0.0
 11
75.775
 21
54.95
 31
0.0
  0
ARC
  8
0
  6
LTYPE5
 62
     2
 10
70.65
 20
53.35
 30
0.0
 40
0.25
 50
180.0
 51
270.0
  0
LINE
  8
0
  6
LTYPE5
 62
     2
 10
70.4
 20
53.35
 30
0.0
 11
70.4
 21
54.65
 31
0.0
  0
LINE
  8
0
  6
LTYPE5
 62
     2
 10
73.3
 20
53.1
 30
0.0
 11
70.65
 21
53.1
 31
0.0
  0
ARC
  8
0
  6
LTYPE6
 62
     2
 10
72.9
 20
53.5
 30
0.0
 40
3.0
 50
180.0
 51
270.0
  0
LINE
  8
0
  6
LTYPE6
 62
     2
 10
76.9
 20
50.5
 30
0.0
 11
72.9
 21
50.5
 31
0.0
  0
LINE
  8
0
  6
LTYPE6
 62
     2
 10
76.9
 20
51.25
 30
0.0
 11
76.65
 21
51.25
 31
0.0
  0
ARC
  8
0
  6
LTYPE6
 62
     2
 10
72.9
 20
53.5
 30
0.0
 40
2.25
 50
183.012787504
 51
270.0
  0
LINE
  8
0
  6
LTYPE6
 62
     2
 10
72.9
 20
51.25
 30
0.0
 11
76.65
 21
51.25
 31
0.0
  0
ARC
  8
0
  6
LTYPE6
 62
     2
 10
71.65
 20
51.4
 30
0.0
 40
1.0
 50
90.0
 51
126.234632563
  0
LINE
  8
0
  6
LTYPE6
 62
     2
 10
71.65
 20
52.4
 30
0.0
 11
73.3
 21
52.4
 31
0.0
  0
LINE
  8
0
  6
LTYPE6
 62
     2
 10
69.9
 20
53.5
 30
0.0
 11
69.9
 21
59.0
 31
0.0
  0
ARC
  8
0
  6
LTYPE6
 62
     2
 10
72.9
 20
59.0
 30
0.0
 40
3.0
 50
90.0
 51
180.0
  0
LINE
  8
0
  6
LTYPE6
 62
     2
 10
72.9
 20
62.0
 30
0.0
 11
76.9
 21
62.0
 31
0.0
  0
LINE
  8
0
  6
LTYPE6
 62
     2
 10
76.9
 20
61.25
 30
0.0
 11
76.65
 21
61.25
 31
0.0
  0
ARC
  8
0
  6
LTYPE6
 62
     2
 10
70.65
 20
54.65
 30
0.0
 40
0.25
 50
90.0
 51
180.0
  0
LINE
  8
0
  6
LTYPE6
 62
     2
 10
72.9
 20
61.25
 30
0.0
 11
76.65
 21
61.25
 31
0.0
  0
ARC
  8
0
  6
LTYPE6
 62
     2
 10
72.9
 20
59.0
 30
0.0
 40
2.25
 50
86.734838817
 51
180.0
  0
LINE
  8
0
  6
LTYPE6
 62
     2
 10
71.9
 20
61.0
 30
0.0
 11
71.9
 21
61.828427125
 31
0.0
  0
LINE
  8
0
  6
LTYPE6
 62
     2
 10
71.65
 20
55.6
 30
0.0
 11
73.3
 21
55.6
 31
0.0
  0
LINE
  8
0
  6
LTYPE6
 62
     2
 10
70.65
 20
56.6
 30
0.0
 11
70.65
 21
59.0
 31
0.0
  0
ARC
  8
0
  6
LTYPE6
 62
     2
 10
71.65
 20
56.6
 30
0.0
 40
1.0
 50
180.0
 51
270.0
  0
LINE
  8
0
  6
LTYPE6
 62
     2
 10
70.65
 20
53.373858801
 30
0.0
 11
70.65
 21
56.6
 31
0.0
  0
LINE
  8
0
  6
LTYPE6
 62
     2
 10
70.65
 20
54.9
 30
0.0
 11
73.3
 21
54.9
 31
0.0
  0
LINE
  8
0
  6
LTYPE6
 62
     2
 10
76.9
 20
62.0
 30
0.0
 11
76.9
 21
50.5
 31
0.0
  0
LINE
  8
0
  6
LTYPE6
 62
     2
 10
76.65
 20
62.0
 30
0.0
 11
76.65
 21
51.25
 31
0.0
  0
LINE
  8
0
  6
LTYPE6
 62
     2
 10
73.3
 20
52.4
 30
0.0
 11
73.3
 21
55.6
 31
0.0
  0
LINE
  8
0
  6
CONTINUOUS
 62
     2
 10
72.429187817
 20
53.15
 30
0.0
 11
71.392579442
 21
50.875039983
 31
0.0
  0
LINE
  8
0
  6
CONTINUOUS
 62
     2
 10
72.429187817
 20
53.15
 30
0.0
 11
72.668938639
 21
50.661522646
 31
0.0
  0
LINE
  8
0
  6
CONTINUOUS
 62
     2
 10
43.329187817
 20
37.65
 30
0.0
 11
69.836251014
 21
37.65
 31
0.0
  0
LINE
  8
0
  6
CONTINUOUS
 62
     2
 10
72.429187817
 20
53.15
 30
0.0
 11
69.836251014
 21
37.65
 31
0.0
  0
TEXT
  8
0
  6
CONTINUOUS
 62
     2
 10
59.0
 20
70.5
 30
0.3
 40
3.0
  1
端子キャップ
 50
0.0
 41
0.6
 51
0.0
  7
KANJI3
  0
LINE
  8
0
  6
CONTINUOUS
 62
     2
 10
73.9
 20
62.0
 30
0.0
 11
73.720397879
 21
64.49354027
 31
0.0
  0
LINE
  8
0
  6
CONTINUOUS
 62
     2
 10
73.9
 20
62.0
 30
0.0
 11
72.497689866
 21
64.069668159
 31
0.0
  0
LINE
  8
0
  6
CONTINUOUS
 62
     2
 10
73.9
 20
62.0
 30
0.0
 11
71.3
 21
69.5
 31
0.0
  0
LINE
  8
0
  6
CONTINUOUS
 62
     2
 10
71.3
 20
69.5
 30
0.0
 11
59.0
 21
69.5
 31
0.0
  0
LINE
  8
0
  6
CONTINUOUS
 62
     1
 10
26.25
 20
108.180246512
 30
0.0
 11
26.25
 21
152.718145715
 31
0.0
  0
LINE
  8
0
  6
CONTINUOUS
 62
     2
 10
33.732050808
 20
136.65
 30
0.0
 11
33.732050808
 21
138.65
 31
0.0
  0
LINE
  8
0
  6
CONTINUOUS
 62
     2
 10
33.732050808
 20
138.65
 30
0.0
 11
32.0
 21
139.65
 31
0.0
  0
LINE
  8
0
  6
CONTINUOUS
 62
     2
 10
32.0
 20
139.65
 30
0.0
 11
30.267949192
 21
138.65
 31
0.0
  0
LINE
  8
0
  6
CONTINUOUS
 62
     2
 10
30.267949192
 20
138.65
 30
0.0
 11
30.267949192
 21
136.65
 31
0.0
  0
LINE
  8
0
  6
CONTINUOUS
 62
     2
 10
30.267949192
 20
136.65
 30
0.0
 11
32.0
 21
135.65
 31
0.0
  0
LINE
  8
0
  6
CONTINUOUS
 62
     2
 10
32.0
 20
135.65
 30
0.0
 11
33.732050808
 21
136.65
 31
0.0
  0
CIRCLE
  8
0
  6
CONTINUOUS
 62
     2
 10
32.0
 20
137.65
 30
0.0
 40
1.0
  0
CIRCLE
  8
0
  6
CONTINUOUS
 62
     2
 10
32.0
 20
137.65
 30
0.0
 40
0.8
  0
LINE
  8
0
  6
CONTINUOUS
 62
     2
 10
61.9125
 20
154.218145715
 30
0.0
 11
62.559547613
 21
151.803331149
 31
0.0
  0
LINE
  8
0
  6
CONTINUOUS
 62
     2
 10
61.9125
 20
154.218145715
 30
0.0
 11
61.265452387
 21
151.803331149
 31
0.0
  0
LINE
  8
0
  6
CONTINUOUS
 62
     2
 10
33.732050808
 20
124.15
 30
0.0
 11
33.732050808
 21
126.15
 31
0.0
  0
LINE
  8
0
  6
CONTINUOUS
 62
     2
 10
33.732050808
 20
126.15
 30
0.0
 11
32.0
 21
127.15
 31
0.0
  0
LINE
  8
0
  6
CONTINUOUS
 62
     2
 10
32.0
 20
127.15
 30
0.0
 11
30.267949192
 21
126.15
 31
0.0
  0
LINE
  8
0
  6
CONTINUOUS
 62
     2
 10
30.267949192
 20
126.15
 30
0.0
 11
30.267949192
 21
124.15
 31
0.0
  0
LINE
  8
0
  6
CONTINUOUS
 62
     2
 10
30.267949192
 20
124.15
 30
0.0
 11
32.0
 21
123.15
 31
0.0
  0
LINE
  8
0
  6
CONTINUOUS
 62
     2
 10
32.0
 20
123.15
 30
0.0
 11
33.732050808
 21
124.15
 31
0.0
  0
CIRCLE
  8
0
  6
CONTINUOUS
 62
     2
 10
32.0
 20
125.15
 30
0.0
 40
1.0
  0
CIRCLE
  8
0
  6
CONTINUOUS
 62
     2
 10
32.0
 20
125.15
 30
0.0
 40
0.8
  0
LINE
  8
0
  6
LTYPE1
 62
     2
 10
32.0
 20
135.65
 30
0.0
 11
32.0
 21
139.65
 31
0.0
  0
LINE
  8
0
  6
LTYPE1
 62
     2
 10
30.0
 20
137.65
 30
0.0
 11
34.0
 21
137.65
 31
0.0
  0
LINE
  8
0
  6
LTYPE1
 62
     2
 10
32.0
 20
123.15
 30
0.0
 11
32.0
 21
127.15
 31
0.0
  0
LINE
  8
0
  6
LTYPE1
 62
     2
 10
30.0
 20
125.15
 30
0.0
 11
34.0
 21
125.15
 31
0.0
  0
LINE
  8
0
  6
LTYPE4
 62
     2
 10
39.25
 20
124.65
 30
0.0
 11
39.25
 21
138.15
 31
0.0
  0
LINE
  8
0
  6
LTYPE4
 62
     2
 10
40.0
 20
127.15
 30
0.0
 11
39.25
 21
127.15
 31
0.0
  0
LINE
  8
0
  6
LTYPE4
 62
     2
 10
40.0
 20
135.65
 30
0.0
 11
39.25
 21
135.65
 31
0.0
  0
LINE
  8
0
  6
LTYPE4
 62
     2
 10
29.25
 20
124.675
 30
0.0
 11
29.25
 21
138.15
 31
0.0
  0
ARC
  8
0
  6
LTYPE4
 62
     2
 10
31.5
 20
124.65
 30
0.0
 40
2.25
 50
180.0
 51
270.0
  0
LINE
  8
0
  6
LTYPE4
 62
     2
 10
37.0
 20
122.4
 30
0.0
 11
31.5
 21
122.4
 31
0.0
  0
ARC
  8
0
  6
LTYPE4
 62
     2
 10
37.0
 20
124.65
 30
0.0
 40
2.25
 50
270.0
 51
0.0
  0
LINE
  8
0
  6
LTYPE4
 62
     2
 10
31.5
 20
140.4
 30
0.0
 11
37.0
 21
140.4
 31
0.0
  0
ARC
  8
0
  6
LTYPE4
 62
     2
 10
31.5
 20
138.15
 30
0.0
 40
2.25
 50
90.0
 51
180.0
  0
ARC
  8
0
  6
LTYPE4
 62
     2
 10
37.0
 20
138.15
 30
0.0
 40
2.25
 50
0.0
 51
90.0
  0
LINE
  8
0
  6
LTYPE4
 62
     2
 10
39.583481179
 20
139.65
 30
0.0
 11
38.677050983
 21
139.65
 31
0.0
  0
LINE
  8
0
  6
LTYPE4
 62
     2
 10
30.1
 20
124.65
 30
0.0
 11
30.1
 21
125.65
 31
0.0
  0
LINE
  8
0
  6
LTYPE4
 62
     2
 10
30.1
 20
125.65
 30
0.0
 11
29.25
 21
126.15
 31
0.0
  0
LINE
  8
0
  6
LTYPE4
 62
     2
 10
30.1
 20
124.65
 30
0.0
 11
29.29978871
 21
124.179287477
 31
0.0
  0
LINE
  8
0
  6
LTYPE4
 62
     2
 10
31.5
 20
123.25
 30
0.0
 11
32.5
 21
123.25
 31
0.0
  0
LINE
  8
0
  6
LTYPE4
 62
     2
 10
32.5
 20
123.25
 30
0.0
 11
33.0
 21
122.4
 31
0.0
  0
LINE
  8
0
  6
LTYPE4
 62
     2
 10
31.5
 20
123.25
 30
0.0
 11
31.029287477
 21
122.44978871
 31
0.0
  0
LINE
  8
0
  6
LTYPE4
 62
     2
 10
31.5
 20
127.05
 30
0.0
 11
32.5
 21
127.05
 31
0.0
  0
LINE
  8
0
  6
LTYPE4
 62
     2
 10
31.5
 20
127.05
 30
0.0
 11
31.0
 21
127.9
 31
0.0
  0
LINE
  8
0
  6
LTYPE4
 62
     2
 10
32.5
 20
127.05
 30
0.0
 11
33.0
 21
127.9
 31
0.0
  0
ARC
  8
0
  6
LTYPE4
 62
     2
 10
29.75
 20
132.275
 30
0.0
 40
0.5
 50
180.0
 51
270.0
  0
ARC
  8
0
  6
LTYPE4
 62
     2
 10
38.75
 20
132.275
 30
0.0
 40
0.5
 50
270.0
 51
0.0
  0
ARC
  8
0
  6
LTYPE4
 62
     2
 10
29.75
 20
130.525
 30
0.0
 40
0.5
 50
90.0
 51
180.0
  0
ARC
  8
0
  6
LTYPE4
 62
     2
 10
38.75
 20
130.525
 30
0.0
 40
0.5
 50
0.0
 51
90.0
  0
LINE
  8
0
  6
LTYPE4
 62
     2
 10
31.5
 20
135.75
 30
0.0
 11
32.5
 21
135.75
 31
0.0
  0
LINE
  8
0
  6
LTYPE4
 62
     2
 10
31.5
 20
135.75
 30
0.0
 11
31.0
 21
134.9
 31
0.0
  0
LINE
  8
0
  6
LTYPE4
 62
     2
 10
32.5
 20
135.75
 30
0.0
 11
33.0
 21
134.9
 31
0.0
  0
LINE
  8
0
  6
LTYPE4
 62
     2
 10
30.1
 20
138.15
 30
0.0
 11
30.1
 21
137.15
 31
0.0
  0
LINE
  8
0
  6
LTYPE4
 62
     2
 10
30.1
 20
137.15
 30
0.0
 11
29.25
 21
136.65
 31
0.0
  0
LINE
  8
0
  6
LTYPE4
 62
     2
 10
30.1
 20
138.15
 30
0.0
 11
29.29978871
 21
138.620712523
 31
0.0
  0
LINE
  8
0
  6
LTYPE4
 62
     2
 10
31.5
 20
139.55
 30
0.0
 11
32.5
 21
139.55
 31
0.0
  0
LINE
  8
0
  6
LTYPE4
 62
     2
 10
32.5
 20
139.55
 30
0.0
 11
33.0
 21
140.4
 31
0.0
  0
LINE
  8
0
  6
LTYPE4
 62
     2
 10
31.5
 20
139.55
 30
0.0
 11
31.029287477
 21
140.35021129
 31
0.0
  0
LINE
  8
0
  6
LTYPE4
 62
     2
 10
38.75
 20
131.775
 30
0.0
 11
29.75
 21
131.775
 31
0.0
  0
LINE
  8
0
  6
LTYPE4
 62
     2
 10
38.75
 20
131.025
 30
0.0
 11
29.75
 21
131.025
 31
0.0
  0
LINE
  8
0
  6
LTYPE4
 62
     2
 10
31.0
 20
134.9
 30
0.0
 11
31.0
 21
134.5
 31
0.0
  0
LINE
  8
0
  6
LTYPE4
 62
     2
 10
31.0
 20
134.5
 30
0.0
 11
31.625
 21
134.5
 31
0.0
  0
LINE
  8
0
  6
LTYPE4
 62
     2
 10
33.0
 20
134.9
 30
0.0
 11
33.0
 21
134.5
 31
0.0
  0
LINE
  8
0
  6
LTYPE4
 62
     2
 10
32.375
 20
134.5
 30
0.0
 11
33.0
 21
134.5
 31
0.0
  0
LINE
  8
0
  6
LTYPE4
 62
     2
 10
31.625
 20
134.5
 30
0.0
 11
32.375
 21
134.5
 31
0.0
  0
LINE
  8
0
  6
LTYPE4
 62
     2
 10
31.625
 20
134.5
 30
0.0
 11
31.625
 21
133.75
 31
0.0
  0
LINE
  8
0
  6
LTYPE4
 62
     2
 10
32.375
 20
134.5
 30
0.0
 11
32.375
 21
133.75
 31
0.0
  0
LINE
  8
0
  6
LTYPE4
 62
     2
 10
31.625
 20
133.75
 30
0.0
 11
32.375
 21
133.75
 31
0.0
  0
LINE
  8
0
  6
LTYPE4
 62
     2
 10
31.0
 20
128.3
 30
0.0
 11
31.625
 21
128.3
 31
0.0
  0
LINE
  8
0
  6
LTYPE4
 62
     2
 10
32.375
 20
128.3
 30
0.0
 11
33.0
 21
128.3
 31
0.0
  0
LINE
  8
0
  6
LTYPE4
 62
     2
 10
31.625
 20
128.3
 30
0.0
 11
32.375
 21
128.3
 31
0.0
  0
LINE
  8
0
  6
LTYPE4
 62
     2
 10
31.625
 20
128.3
 30
0.0
 11
31.625
 21
129.05
 31
0.0
  0
LINE
  8
0
  6
LTYPE4
 62
     2
 10
32.375
 20
128.3
 30
0.0
 11
32.375
 21
129.05
 31
0.0
  0
LINE
  8
0
  6
LTYPE4
 62
     2
 10
31.625
 20
129.05
 30
0.0
 11
32.375
 21
129.05
 31
0.0
  0
LINE
  8
0
  6
LTYPE4
 62
     2
 10
31.0
 20
127.9
 30
0.0
 11
31.0
 21
128.3
 31
0.0
  0
LINE
  8
0
  6
LTYPE4
 62
     2
 10
33.0
 20
127.9
 30
0.0
 11
33.0
 21
128.3
 31
0.0
  0
CIRCLE
  8
0
  6
LTYPE4
 62
     2
 10
32.0
 20
137.65
 30
0.0
 40
1.6
  0
CIRCLE
  8
0
  6
LTYPE4
 62
     2
 10
32.0
 20
137.65
 30
0.0
 40
0.9
  0
CIRCLE
  8
0
  6
LTYPE4
 62
     2
 10
32.0
 20
125.15
 30
0.0
 40
1.6
  0
CIRCLE
  8
0
  6
LTYPE4
 62
     2
 10
32.0
 20
125.15
 30
0.0
 40
0.9
  0
CIRCLE
  8
0
  6
LTYPE4
 62
     2
 10
32.0
 20
137.65
 30
0.0
 40
0.95
  0
CIRCLE
  8
0
  6
LTYPE4
 62
     2
 10
32.0
 20
125.15
 30
0.0
 40
0.95
  0
LINE
  8
0
  6
LTYPE4
 62
     2
 10
39.583481179
 20
123.15
 30
0.0
 11
38.677050983
 21
123.15
 31
0.0
  0
LINE
  8
0
  6
LTYPE6
 62
     2
 10
31.5
 20
141.15
 30
0.0
 11
37.0
 21
141.15
 31
0.0
  0
ARC
  8
0
  6
LTYPE6
 62
     2
 10
37.0
 20
138.15
 30
0.0
 40
3.0
 50
0.0
 51
90.0
  0
ARC
  8
0
  6
LTYPE6
 62
     2
 10
31.5
 20
138.15
 30
0.0
 40
3.0
 50
90.0
 51
180.0
  0
LINE
  8
0
  6
LTYPE6
 62
     2
 10
40.0
 20
138.15
 30
0.0
 11
40.0
 21
124.65
 31
0.0
  0
LINE
  8
0
  6
LTYPE6
 62
     2
 10
28.5
 20
124.675
 30
0.0
 11
28.5
 21
138.15
 31
0.0
  0
ARC
  8
0
  6
LTYPE6
 62
     2
 10
31.5
 20
124.65
 30
0.0
 40
3.0
 50
180.0
 51
270.0
  0
ARC
  8
0
  6
LTYPE6
 62
     2
 10
37.0
 20
124.65
 30
0.0
 40
3.0
 50
270.0
 51
0.0
  0
LINE
  8
0
  6
LTYPE6
 62
     2
 10
37.0
 20
121.65
 30
0.0
 11
31.5
 21
121.65
 31
0.0
  0
TEXT
  8
0
  6
CONTINUOUS
 62
     1
 10
235.0
 20
39.0
 30
0.4
 40
4.0
  1
ＭＰＥ－１５０Ｔ　ｏｒ　Ｙ
 50
0.0
 41
0.9
 51
0.0
  7
KANJI20
  0
TEXT
  8
0
  6
CONTINUOUS
 62
     1
 10
235.0
 20
28.0
 30
0.1
 40
4.0
  1
無接点式メータリレー　外形図
 50
0.0
 41
0.8
 51
0.0
  7
KANJI21
  0
TEXT
  8
0
  6
CONTINUOUS
 62
     2
 10
235.0
 20
33.0
 30
0.3
 40
3.0
  1
端子カバー，キャップ付
 50
0.0
 41
0.9
 51
0.0
  7
KANJI7
  0
LINE
  8
0
  6
LTYPE1
 62
     2
 10
19.0
 20
131.4
 30
0.0
 11
46.3
 21
131.4
 31
0.0
  0
LINE
  8
0
  6
LTYPE1
 62
     2
 10
33.0
 20
82.0
 30
0.0
 11
33.0
 21
80.9
 31
0.0
  0
LINE
  8
0
  6
LTYPE1
 62
     2
 10
33.0
 20
174.0
 30
0.0
 11
33.0
 21
87.0
 31
0.0
  0
LINE
  8
0
  6
LTYPE1
 62
     2
 10
24.0
 20
55.0
 30
0.0
 11
26.25
 21
55.0
 31
0.0
  0
LINE
  8
0
  6
LTYPE1
 62
     2
 10
31.35
 20
55.0
 30
0.0
 11
41.0
 21
55.0
 31
0.0
  0
LINE
  8
0
  6
CONTINUOUS
 62
     2
 10
30.879590662
 20
73.0
 30
0.0
 11
30.879590662
 21
80.55
 31
0.0
  0
LINE
  8
0
  6
CONTINUOUS
 62
     2
 10
30.879590662
 20
29.45
 30
0.0
 11
30.879590662
 21
66.0
 31
0.0
  0
LINE
  8
0
  6
LTYPE1
 62
     2
 10
33.0
 20
68.0
 30
0.0
 11
33.0
 21
28.0
 31
0.0
  0
LINE
  8
0
  6
LTYPE1
 62
     2
 10
33.0
 20
81.85355682
 30
0.0
 11
33.0
 21
73.0
 31
0.0
  0
POLYLINE
  8
0
  6
CONTINUOUS
 62
     1
 66
     1
  0
VERTEX
  8
0
  6
CONTINUOUS
 62
     1
 10
189.4
 20
93.9
 30
0.0
  0
VERTEX
  8
0
  6
CONTINUOUS
 62
     1
 10
209.4
 20
93.9
 30
0.0
  0
VERTEX
  8
0
  6
CONTINUOUS
 62
     1
 10
209.4
 20
168.9
 30
0.0
  0
VERTEX
  8
0
  6
CONTINUOUS
 62
     1
 10
189.4
 20
168.9
 30
0.0
  0
VERTEX
  8
0
  6
CONTINUOUS
 62
     1
 10
189.4
 20
93.9
 30
0.0
  0
SEQEND
  0
LINE
  8
0
  6
CONTINUOUS
 62
     1
 10
188.9
 20
93.9
 30
0.0
 11
189.4
 21
93.9
 31
0.0
  0
ARC
  8
0
  6
CONTINUOUS
 62
     1
 10
188.9
 20
94.9
 30
0.0
 40
1.0
 50
180.0
 51
270.0
  0
LINE
  8
0
  6
CONTINUOUS
 62
     1
 10
189.4
 20
168.9
 30
0.0
 11
188.9
 21
168.9
 31
0.0
  0
LINE
  8
0
  6
CONTINUOUS
 62
     1
 10
187.9
 20
167.9
 30
0.0
 11
187.9
 21
94.9
 31
0.0
  0
ARC
  8
0
  6
CONTINUOUS
 62
     1
 10
188.9
 20
167.9
 30
0.0
 40
1.0
 50
90.0
 51
180.0
  0
LINE
  8
0
  6
CONTINUOUS
 62
     1
 10
209.9
 20
168.9
 30
0.0
 11
209.4
 21
168.9
 31
0.0
  0
ARC
  8
0
  6
CONTINUOUS
 62
     1
 10
209.9
 20
167.9
 30
0.0
 40
1.0
 50
0.0
 51
90.0
  0
LINE
  8
0
  6
CONTINUOUS
 62
     1
 10
209.4
 20
93.9
 30
0.0
 11
209.9
 21
93.9
 31
0.0
  0
LINE
  8
0
  6
CONTINUOUS
 62
     1
 10
210.9
 20
94.9
 30
0.0
 11
210.9
 21
167.9
 31
0.0
  0
ARC
  8
0
  6
CONTINUOUS
 62
     1
 10
209.9
 20
94.9
 30
0.0
 40
1.0
 50
270.0
 51
0.0
  0
LINE
  8
0
  6
CONTINUOUS
 62
     1
 10
189.4
 20
161.4
 30
0.0
 11
209.4
 21
161.4
 31
0.0
  0
LINE
  8
0
  6
CONTINUOUS
 62
     1
 10
189.4
 20
101.4
 30
0.0
 11
209.4
 21
101.4
 31
0.0
  0
CIRCLE
  8
0
  6
CONTINUOUS
 62
     1
 10
199.4
 20
96.9
 30
0.0
 40
1.75
  0
LINE
  8
0
  6
CONTINUOUS
 62
     1
 10
191.625
 20
106.55
 30
0.0
 11
191.725
 21
106.55
 31
0.0
  0
LINE
  8
0
  6
CONTINUOUS
 62
     1
 10
191.625
 20
109.55
 30
0.0
 11
191.75
 21
109.55
 31
0.0
  0
LINE
  8
0
  6
CONTINUOUS
 62
     1
 10
191.25
 20
108.05
 30
0.0
 11
191.625
 21
109.55
 31
0.0
  0
LINE
  8
0
  6
CONTINUOUS
 62
     1
 10
191.625
 20
106.55
 30
0.0
 11
191.25
 21
108.05
 31
0.0
  0
POLYLINE
  8
0
  6
CONTINUOUS
 62
     1
 66
     1
  0
VERTEX
  8
0
  6
CONTINUOUS
 62
     1
 10
191.75
 20
109.55
 30
0.0
  0
VERTEX
  8
0
  6
CONTINUOUS
 62
     1
 10
195.25
 20
108.05
 30
0.0
  0
VERTEX
  8
0
  6
CONTINUOUS
 62
     1
 10
191.75
 20
106.55
 30
0.0
  0
SEQEND
  0
LINE
  8
0
  6
CONTINUOUS
 62
     1
 10
196.9
 20
168.9
 30
0.0
 11
196.9
 21
172.65
 31
0.0
  0
POLYLINE
  8
0
  6
CONTINUOUS
 62
     1
 66
     1
  0
VERTEX
  8
0
  6
CONTINUOUS
 62
     1
 10
196.9
 20
172.65
 30
0.0
  0
VERTEX
  8
0
  6
CONTINUOUS
 62
     1
 10
201.9
 20
172.65
 30
0.0
  0
VERTEX
  8
0
  6
CONTINUOUS
 62
     1
 10
201.9
 20
168.9
 30
0.0
  0
SEQEND
  0
LINE
  8
0
  6
CONTINUOUS
 62
     1
 10
196.9
 20
93.9
 30
0.0
 11
196.9
 21
90.15
 31
0.0
  0
LINE
  8
0
  6
CONTINUOUS
 62
     1
 10
196.9
 20
90.15
 30
0.0
 11
201.9
 21
90.15
 31
0.0
  0
LINE
  8
0
  6
CONTINUOUS
 62
     1
 10
201.9
 20
90.15
 30
0.0
 11
201.9
 21
93.9
 31
0.0
  0
ARC
  8
0
  6
CONTINUOUS
 62
     1
 10
199.4
 20
92.65
 30
0.0
 40
1.5
 50
120.256079127
 51
0.0
  0
ARC
  8
0
  6
CONTINUOUS
 62
     1
 10
199.4
 20
92.65
 30
0.0
 40
1.5
 50
0.0
 51
56.442690238
  0
ARC
  8
0
  6
CONTINUOUS
 62
     1
 10
199.4
 20
170.15
 30
0.0
 40
1.5
 50
0.0
 51
236.442690238
  0
ARC
  8
0
  6
CONTINUOUS
 62
     1
 10
199.4
 20
170.15
 30
0.0
 40
1.5
 50
303.557309762
 51
0.0
  0
POLYLINE
  8
0
  6
CONTINUOUS
 62
     1
 66
     1
  0
VERTEX
  8
0
  6
CONTINUOUS
 62
     1
 10
203.25
 20
118.8
 30
0.0
  0
VERTEX
  8
0
  6
CONTINUOUS
 62
     1
 10
203.25
 20
118.3
 30
0.0
  0
VERTEX
  8
0
  6
CONTINUOUS
 62
     1
 10
208.25
 20
116.3
 30
0.0
  0
VERTEX
  8
0
  6
CONTINUOUS
 62
     1
 10
208.25
 20
118.8
 30
0.0
  0
VERTEX
  8
0
  6
CONTINUOUS
 62
     1
 10
203.25
 20
118.8
 30
0.0
  0
SEQEND
  0
LINE
  8
0
  6
CONTINUOUS
 62
     1
 10
203.25
 20
145.0
 30
0.0
 11
208.25
 21
145.0
 31
0.0
  0
LINE
  8
0
  6
CONTINUOUS
 62
     1
 10
208.25
 20
145.0
 30
0.0
 11
208.25
 21
147.5
 31
0.0
  0
LINE
  8
0
  6
CONTINUOUS
 62
     1
 10
208.25
 20
147.5
 30
0.0
 11
203.25
 21
145.5
 31
0.0
  0
LINE
  8
0
  6
CONTINUOUS
 62
     1
 10
203.25
 20
145.5
 30
0.0
 11
203.25
 21
145.0
 31
0.0
  0
CIRCLE
  8
0
  6
CONTINUOUS
 62
     1
 10
203.9
 20
166.701661133
 30
0.0
 40
1.5
  0
ARC
  8
0
  6
CONTINUOUS
 62
     1
 10
203.9
 20
165.313127281
 30
0.0
 40
2.5
 50
132.777367028
 51
0.0
  0
ARC
  8
0
  6
CONTINUOUS
 62
     1
 10
203.9
 20
165.313127281
 30
0.0
 40
2.5
 50
0.0
 51
44.768347402
  0
LINE
  8
0
  6
CONTINUOUS
 62
     1
 10
206.017066671
 20
166.511290937
 30
0.0
 11
205.337066671
 21
167.671290937
 31
0.0
  0
LINE
  8
0
  6
CONTINUOUS
 62
     1
 10
201.797066671
 20
166.611290937
 30
0.0
 11
202.427066671
 21
167.651290937
 31
0.0
  0
CIRCLE
  8
0
  6
CONTINUOUS
 62
     1
 10
194.9
 20
166.701661133
 30
0.0
 40
1.5
  0
ARC
  8
0
  6
CONTINUOUS
 62
     1
 10
194.9
 20
165.313127281
 30
0.0
 40
2.5
 50
132.777367028
 51
0.0
  0
ARC
  8
0
  6
CONTINUOUS
 62
     1
 10
194.9
 20
165.313127281
 30
0.0
 40
2.5
 50
0.0
 51
44.768347402
  0
LINE
  8
0
  6
CONTINUOUS
 62
     1
 10
197.017066671
 20
166.511290937
 30
0.0
 11
196.337066671
 21
167.671290937
 31
0.0
  0
LINE
  8
0
  6
CONTINUOUS
 62
     1
 10
192.797066671
 20
166.611290937
 30
0.0
 11
193.427066671
 21
167.651290937
 31
0.0
  0
LINE
  8
0
  6
CONTINUOUS
 62
     2
 10
189.4
 20
95.101167948
 30
0.0
 11
209.4
 21
95.101167948
 31
0.0
  0
LINE
  8
0
  6
CONTINUOUS
 62
     2
 10
189.4
 20
99.618650104
 30
0.0
 11
209.4
 21
99.618650104
 31
0.0
  0
LINE
  8
0
  6
CONTINUOUS
 62
     2
 10
209.4
 20
100.753272395
 30
0.0
 11
189.4
 21
100.753272395
 31
0.0
  0
LINE
  8
0
  6
CONTINUOUS
 62
     2
 10
209.4
 20
162.078695414
 30
0.0
 11
189.4
 21
162.078695414
 31
0.0
  0
LINE
  8
0
  6
CONTINUOUS
 62
     2
 10
197.797189125
 20
96.197506371
 30
0.0
 11
189.4
 21
96.197506371
 31
0.0
  0
LINE
  8
0
  6
CONTINUOUS
 62
     2
 10
209.4
 20
96.197506371
 30
0.0
 11
201.002810875
 21
96.197506371
 31
0.0
  0
LINE
  8
0
  6
CONTINUOUS
 62
     2
 10
201.091311525
 20
97.349405523
 30
0.0
 11
209.4
 21
97.349405523
 31
0.0
  0
LINE
  8
0
  6
CONTINUOUS
 62
     2
 10
189.4
 20
97.349405523
 30
0.0
 11
197.708688475
 21
97.349405523
 31
0.0
  0
LINE
  8
0
  6
CONTINUOUS
 62
     2
 10
198.858688475
 20
98.484027814
 30
0.0
 11
189.4
 21
98.484027814
 31
0.0
  0
LINE
  8
0
  6
CONTINUOUS
 62
     2
 10
209.4
 20
98.484027814
 30
0.0
 11
199.908688475
 21
98.484027814
 31
0.0
  0
LINE
  8
0
  6
CONTINUOUS
 62
     2
 10
199.15
 20
95.201167948
 30
0.0
 11
199.15
 21
98.632050808
 31
0.0
  0
LINE
  8
0
  6
CONTINUOUS
 62
     2
 10
199.65
 20
98.632050808
 30
0.0
 11
199.65
 21
95.251167948
 31
0.0
  0
LINE
  8
0
  6
CONTINUOUS
 62
     2
 10
190.9
 20
161.4
 30
0.0
 11
190.9
 21
101.4
 31
0.0
  0
LINE
  8
0
  6
CONTINUOUS
 62
     2
 10
192.4
 20
159.4
 30
0.0
 11
195.4
 21
159.4
 31
0.0
  0
POLYLINE
  8
0
  6
CONTINUOUS
 62
     2
 66
     1
  0
VERTEX
  8
0
  6
CONTINUOUS
 62
     2
 10
195.4
 20
159.4
 30
0.0
  0
VERTEX
  8
0
  6
CONTINUOUS
 62
     2
 10
196.4
 20
159.9
 30
0.0
  0
VERTEX
  8
0
  6
CONTINUOUS
 62
     2
 10
207.9
 20
159.9
 30
0.0
  0
SEQEND
  0
LINE
  8
0
  6
CONTINUOUS
 62
     2
 10
191.75
 20
108.05
 30
0.0
 11
195.15
 21
108.05
 31
0.0
  0
POLYLINE
  8
0
  6
CONTINUOUS
 62
     2
 66
     1
  0
VERTEX
  8
0
  6
CONTINUOUS
 62
     2
 10
191.625
 20
109.55
 30
0.0
  0
VERTEX
  8
0
  6
CONTINUOUS
 62
     2
 10
191.75
 20
108.05
 30
0.0
  0
VERTEX
  8
0
  6
CONTINUOUS
 62
     2
 10
191.625
 20
106.55
 30
0.0
  0
SEQEND
  0
LINE
  8
0
  6
CONTINUOUS
 62
     2
 10
192.4
 20
101.4
 30
0.0
 11
192.4
 21
106.85
 31
0.0
  0
LINE
  8
0
  6
CONTINUOUS
 62
     2
 10
192.4
 20
109.271428571
 30
0.0
 11
192.4
 21
161.4
 31
0.0
  0
LINE
  8
0
  6
CONTINUOUS
 62
     2
 10
202.3
 20
90.15
 30
0.0
 11
221.679156198
 21
90.15
 31
0.0
  0
LINE
  8
0
  6
CONTINUOUS
 62
     2
 10
219.679156198
 20
90.15
 30
0.0
 11
220.32620381
 21
92.564814566
 31
0.0
  0
LINE
  8
0
  6
CONTINUOUS
 62
     2
 10
219.679156198
 20
90.15
 30
0.0
 11
219.032108585
 21
92.564814566
 31
0.0
  0
POLYLINE
  8
0
  6
CONTINUOUS
 62
     2
 66
     1
  0
VERTEX
  8
0
  6
CONTINUOUS
 62
     2
 10
219.679156198
 20
90.15
 30
0.0
  0
VERTEX
  8
0
  6
CONTINUOUS
 62
     2
 10
219.679156198
 20
172.65
 30
0.0
  0
VERTEX
  8
0
  6
CONTINUOUS
 62
     2
 10
219.032108585
 20
170.235185434
 30
0.0
  0
SEQEND
  0
LINE
  8
0
  6
CONTINUOUS
 62
     2
 10
219.679156198
 20
172.65
 30
0.0
 11
220.32620381
 21
170.235185434
 31
0.0
  0
LINE
  8
0
  6
CONTINUOUS
 62
     2
 10
202.5
 20
172.65
 30
0.0
 11
221.679156198
 21
172.65
 31
0.0
  0
TEXT
  8
0
  6
CONTINUOUS
 62
     2
 10
218.679156198
 20
128.4
 30
0.3
 40
3.0
  1
１６６
 50
90.0
 41
0.6
 51
0.0
  7
KANJI3
  0
LINE
  8
0
  6
CONTINUOUS
 62
     2
 10
191.95
 20
107.65
 30
0.0
 11
190.178056494
 21
105.886419491
 31
0.0
  0
LINE
  8
0
  6
CONTINUOUS
 62
     2
 10
191.95
 20
107.65
 30
0.0
 11
191.297242165
 21
105.236722725
 31
0.0
  0
LINE
  8
0
  6
CONTINUOUS
 62
     2
 10
191.95
 20
107.65
 30
0.0
 11
178.25
 21
84.05
 31
0.0
  0
LINE
  8
0
  6
CONTINUOUS
 62
     2
 10
199.05
 20
95.95
 30
0.0
 11
197.259503695
 21
94.205258478
 31
0.0
  0
LINE
  8
0
  6
CONTINUOUS
 62
     2
 10
199.05
 20
95.95
 30
0.0
 11
198.371755475
 21
93.543761366
 31
0.0
  0
LINE
  8
0
  6
CONTINUOUS
 62
     2
 10
199.05
 20
95.95
 30
0.0
 11
187.75
 21
76.95
 31
0.0
  0
LINE
  8
0
  6
CONTINUOUS
 62
     2
 10
187.75
 20
76.95
 30
0.0
 11
171.25
 21
76.95
 31
0.0
  0
TEXT
  8
0
  6
CONTINUOUS
 62
     2
 10
171.25
 20
77.95
 30
1.0
 40
3.0
  1
零位調整器
 50
0.0
 41
0.833333333
 51
0.0
  7
KANJI5
  0
LINE
  8
0
  6
CONTINUOUS
 62
     2
 10
207.9
 20
147.36
 30
0.0
 11
207.9
 21
161.4
 31
0.0
  0
LINE
  8
0
  6
CONTINUOUS
 62
     2
 10
207.9
 20
101.4
 30
0.0
 11
207.9
 21
116.44
 31
0.0
  0
LINE
  8
0
  6
CONTINUOUS
 62
     2
 10
207.9
 20
118.8
 30
0.0
 11
207.9
 21
145.0
 31
0.0
  0
LINE
  8
0
  6
CONTINUOUS
 62
     2
 10
189.4
 20
163.213317705
 30
0.0
 11
193.55
 21
163.213317705
 31
0.0
  0
LINE
  8
0
  6
CONTINUOUS
 62
     2
 10
192.65
 20
164.339158351
 30
0.0
 11
189.4
 21
164.339158351
 31
0.0
  0
LINE
  8
0
  6
CONTINUOUS
 62
     2
 10
189.4
 20
165.503303433
 30
0.0
 11
192.392756111
 21
165.503303433
 31
0.0
  0
LINE
  8
0
  6
CONTINUOUS
 62
     2
 10
192.792756111
 20
166.637925724
 30
0.0
 11
189.4
 21
166.637925724
 31
0.0
  0
LINE
  8
0
  6
CONTINUOUS
 62
     2
 10
196.256760754
 20
163.213317705
 30
0.0
 11
202.55
 21
163.213317705
 31
0.0
  0
LINE
  8
0
  6
CONTINUOUS
 62
     2
 10
205.25
 20
163.213317705
 30
0.0
 11
209.4
 21
163.213317705
 31
0.0
  0
LINE
  8
0
  6
CONTINUOUS
 62
     2
 10
209.4
 20
164.339158351
 30
0.0
 11
206.2
 21
164.339158351
 31
0.0
  0
LINE
  8
0
  6
CONTINUOUS
 62
     2
 10
201.6
 20
164.339158351
 30
0.0
 11
197.202473566
 21
164.339158351
 31
0.0
  0
LINE
  8
0
  6
CONTINUOUS
 62
     2
 10
197.392756111
 20
165.503303433
 30
0.0
 11
201.4
 21
165.503303433
 31
0.0
  0
LINE
  8
0
  6
CONTINUOUS
 62
     2
 10
206.35
 20
165.503303433
 30
0.0
 11
209.4
 21
165.503303433
 31
0.0
  0
LINE
  8
0
  6
CONTINUOUS
 62
     2
 10
209.4
 20
166.637925724
 30
0.0
 11
206.05
 21
166.637925724
 31
0.0
  0
LINE
  8
0
  6
CONTINUOUS
 62
     2
 10
201.85
 20
166.637925724
 30
0.0
 11
197.042756111
 21
166.637925724
 31
0.0
  0
CIRCLE
  8
0
  6
CONTINUOUS
 62
     2
 10
203.9
 20
166.701661133
 30
0.0
 40
1.75
  0
TEXT
  8
0
  6
CONTINUOUS
 62
     2
 10
203.05
 20
165.701661133
 30
0.2
 40
2.0
  1
Ｈ
 50
0.0
 41
0.9
 51
0.0
  7
KANJI22
  0
LINE
  8
0
  6
CONTINUOUS
 62
     2
 10
205.298718749
 20
167.772548015
 30
0.0
 11
209.4
 21
167.772548015
 31
0.0
  0
LINE
  8
0
  6
CONTINUOUS
 62
     2
 10
203.9
 20
164.997762404
 30
0.0
 11
203.9
 21
162.813127281
 31
0.0
  0
LINE
  8
0
  6
CONTINUOUS
 62
     2
 10
202.167914844
 20
163.610358084
 30
0.0
 11
203.027914844
 21
165.180358084
 31
0.0
  0
LINE
  8
0
  6
CONTINUOUS
 62
     2
 10
201.607914844
 20
164.390358084
 30
0.0
 11
202.647914844
 21
165.450358084
 31
0.0
  0
LINE
  8
0
  6
CONTINUOUS
 62
     2
 10
201.397914844
 20
165.270358084
 30
0.0
 11
202.367914844
 21
165.830358084
 31
0.0
  0
LINE
  8
0
  6
CONTINUOUS
 62
     2
 10
201.527914844
 20
166.080358084
 30
0.0
 11
202.197914844
 21
166.250358084
 31
0.0
  0
LINE
  8
0
  6
CONTINUOUS
 62
     2
 10
201.861064276
 20
166.701661133
 30
0.0
 11
202.131064276
 21
166.711661133
 31
0.0
  0
LINE
  8
0
  6
CONTINUOUS
 62
     2
 10
204.881064276
 20
163.065358084
 30
0.0
 11
204.363010802
 21
165.022963326
 31
0.0
  0
LINE
  8
0
  6
CONTINUOUS
 62
     2
 10
202.932539289
 20
163.026407589
 30
0.0
 11
203.477066671
 21
165.011290937
 31
0.0
  0
LINE
  8
0
  6
CONTINUOUS
 62
     2
 10
205.687066671
 20
163.601290937
 30
0.0
 11
204.787066671
 21
165.191290937
 31
0.0
  0
LINE
  8
0
  6
CONTINUOUS
 62
     2
 10
206.217066671
 20
164.441290937
 30
0.0
 11
205.147066671
 21
165.471290937
 31
0.0
  0
LINE
  8
0
  6
CONTINUOUS
 62
     2
 10
206.367066671
 20
165.281290937
 30
0.0
 11
205.417066671
 21
165.831290937
 31
0.0
  0
LINE
  8
0
  6
CONTINUOUS
 62
     2
 10
206.257066671
 20
166.091290937
 30
0.0
 11
205.567066671
 21
166.261290937
 31
0.0
  0
LINE
  8
0
  6
CONTINUOUS
 62
     2
 10
205.917066671
 20
166.701290937
 30
0.0
 11
205.647066671
 21
166.701290937
 31
0.0
  0
CIRCLE
  8
0
  6
CONTINUOUS
 62
     2
 10
194.9
 20
166.701661133
 30
0.0
 40
1.75
  0
LINE
  8
0
  6
CONTINUOUS
 62
     2
 10
194.9
 20
164.997762404
 30
0.0
 11
194.9
 21
162.813127281
 31
0.0
  0
LINE
  8
0
  6
CONTINUOUS
 62
     2
 10
193.167914844
 20
163.610358084
 30
0.0
 11
194.027914844
 21
165.180358084
 31
0.0
  0
LINE
  8
0
  6
CONTINUOUS
 62
     2
 10
192.607914844
 20
164.390358084
 30
0.0
 11
193.647914844
 21
165.450358084
 31
0.0
  0
LINE
  8
0
  6
CONTINUOUS
 62
     2
 10
192.397914844
 20
165.270358084
 30
0.0
 11
193.367914844
 21
165.830358084
 31
0.0
  0
LINE
  8
0
  6
CONTINUOUS
 62
     2
 10
192.527914844
 20
166.080358084
 30
0.0
 11
193.197914844
 21
166.250358084
 31
0.0
  0
LINE
  8
0
  6
CONTINUOUS
 62
     2
 10
192.861064276
 20
166.701661133
 30
0.0
 11
193.131064276
 21
166.711661133
 31
0.0
  0
LINE
  8
0
  6
CONTINUOUS
 62
     2
 10
195.881064276
 20
163.065358084
 30
0.0
 11
195.363010802
 21
165.022963326
 31
0.0
  0
LINE
  8
0
  6
CONTINUOUS
 62
     2
 10
193.932539289
 20
163.026407589
 30
0.0
 11
194.477066671
 21
165.011290937
 31
0.0
  0
LINE
  8
0
  6
CONTINUOUS
 62
     2
 10
196.687066671
 20
163.601290937
 30
0.0
 11
195.787066671
 21
165.191290937
 31
0.0
  0
LINE
  8
0
  6
CONTINUOUS
 62
     2
 10
197.217066671
 20
164.441290937
 30
0.0
 11
196.147066671
 21
165.471290937
 31
0.0
  0
LINE
  8
0
  6
CONTINUOUS
 62
     2
 10
197.367066671
 20
165.281290937
 30
0.0
 11
196.417066671
 21
165.831290937
 31
0.0
  0
LINE
  8
0
  6
CONTINUOUS
 62
     2
 10
197.257066671
 20
166.091290937
 30
0.0
 11
196.567066671
 21
166.261290937
 31
0.0
  0
LINE
  8
0
  6
CONTINUOUS
 62
     2
 10
196.917066671
 20
166.701290937
 30
0.0
 11
196.647066671
 21
166.701290937
 31
0.0
  0
LINE
  8
0
  6
CONTINUOUS
 62
     2
 10
189.4
 20
167.772548015
 30
0.0
 11
193.515911388
 21
167.772548015
 31
0.0
  0
LINE
  8
0
  6
CONTINUOUS
 62
     2
 10
196.259531498
 20
167.772548015
 30
0.0
 11
202.498718749
 21
167.772548015
 31
0.0
  0
TEXT
  8
0
  6
CONTINUOUS
 62
     2
 10
194.05
 20
165.701661133
 30
0.2
 40
2.0
  1
Ｌ
 50
0.0
 41
0.9
 51
0.0
  7
KANJI22
  0
LINE
  8
0
  6
CONTINUOUS
 62
     2
 10
188.599531498
 20
167.64355682
 30
0.0
 11
187.425339017
 21
169.850652653
 31
0.0
  0
LINE
  8
0
  6
CONTINUOUS
 62
     2
 10
188.599531498
 20
167.64355682
 30
0.0
 11
186.479103064
 21
168.96786164
 31
0.0
  0
LINE
  8
0
  6
CONTINUOUS
 62
     2
 10
204.489531498
 20
167.20355682
 30
0.0
 11
206.857696106
 21
168.004678777
 31
0.0
  0
LINE
  8
0
  6
CONTINUOUS
 62
     2
 10
204.489531498
 20
167.20355682
 30
0.0
 11
206.139861231
 21
169.08143109
 31
0.0
  0
LINE
  8
0
  6
CONTINUOUS
 62
     2
 10
204.489531498
 20
167.20355682
 30
0.0
 11
216.789531498
 21
175.40355682
 31
0.0
  0
LINE
  8
0
  6
CONTINUOUS
 62
     2
 10
216.789531498
 20
175.40355682
 30
0.0
 11
237.189531498
 21
175.40355682
 31
0.0
  0
TEXT
  8
0
  6
CONTINUOUS
 62
     2
 10
216.789531498
 20
176.40355682
 30
0.3
 40
3.0
  1
Ｈ設定ツマミ（赤）
 50
0.0
 41
0.666666667
 51
0.0
  7
KANJI23
  0
LINE
  8
0
  6
CONTINUOUS
 62
     2
 10
194.989531498
 20
167.20355682
 30
0.0
 11
195.909839512
 21
169.527999368
 31
0.0
  0
LINE
  8
0
  6
CONTINUOUS
 62
     2
 10
194.989531498
 20
167.20355682
 30
0.0
 11
194.624320343
 21
169.676737123
 31
0.0
  0
LINE
  8
0
  6
CONTINUOUS
 62
     2
 10
194.989531498
 20
167.20355682
 30
0.0
 11
196.389531498
 21
179.30355682
 31
0.0
  0
LINE
  8
0
  6
CONTINUOUS
 62
     2
 10
196.389531498
 20
179.30355682
 30
0.0
 11
216.789531498
 21
179.30355682
 31
0.0
  0
TEXT
  8
0
  6
CONTINUOUS
 62
     2
 10
196.389531498
 20
180.30355682
 30
0.3
 40
3.0
  1
Ｌ設定ツマミ（黄）
 50
0.0
 41
0.666666667
 51
0.0
  7
KANJI23
  0
LINE
  8
0
  6
CONTINUOUS
 62
     2
 10
188.599531498
 20
167.64355682
 30
0.0
 11
172.590106211
 21
184.80355682
 31
0.0
  0
LINE
  8
0
  6
CONTINUOUS
 62
     2
 10
172.590106211
 20
184.80355682
 30
0.0
 11
204.490106211
 21
184.80355682
 31
0.0
  0
TEXT
  8
0
  6
CONTINUOUS
 62
     2
 10
172.590106211
 20
185.80355682
 30
0.5
 40
3.0
  1
化粧枠（エスカッション）
 50
0.0
 41
0.733333333
 51
0.0
  7
KANJI6
  0
LINE
  8
0
  6
LTYPE1
 62
     2
 10
196.4
 20
170.15
 30
0.0
 11
203.4
 21
170.15
 31
0.0
  0
LINE
  8
0
  6
LTYPE1
 62
     2
 10
196.0
 20
92.65
 30
0.0
 11
202.5
 21
92.65
 31
0.0
  0
POLYLINE
  8
0
  6
CONTINUOUS
 62
     2
 66
     1
  0
VERTEX
  8
0
  6
CONTINUOUS
 62
     2
 10
192.4
 20
103.4
 30
0.0
  0
VERTEX
  8
0
  6
CONTINUOUS
 62
     2
 10
195.4
 20
103.4
 30
0.0
  0
VERTEX
  8
0
  6
CONTINUOUS
 62
     2
 10
196.4
 20
102.9
 30
0.0
  0
SEQEND
  0
LINE
  8
0
  6
CONTINUOUS
 62
     2
 10
195.4
 20
159.4
 30
0.0
 11
195.4
 21
103.4
 31
0.0
  0
LINE
  8
0
  6
CONTINUOUS
 62
     2
 10
196.4
 20
102.9
 30
0.0
 11
207.9
 21
102.9
 31
0.0
  0
LINE
  8
0
  6
CONTINUOUS
 62
     2
 10
196.4
 20
102.9
 30
0.0
 11
196.4
 21
159.9
 31
0.0
  0
TEXT
  8
0
  6
CONTINUOUS
 62
     2
 10
222.540106211
 20
105.10355682
 30
0.2
 40
3.0
  1
Ｌ設定指針（黄）
 50
0.0
 41
0.666666667
 51
0.0
  7
KANJI14
  0
LINE
  8
0
  6
CONTINUOUS
 62
     2
 10
206.740106211
 20
117.90355682
 30
0.0
 11
208.031268568
 21
115.762785985
 31
0.0
  0
LINE
  8
0
  6
CONTINUOUS
 62
     2
 10
206.740106211
 20
117.90355682
 30
0.0
 11
208.92867103
 21
116.695176072
 31
0.0
  0
LINE
  8
0
  6
CONTINUOUS
 62
     2
 10
221.078135956
 20
104.10355682
 30
0.0
 11
239.015106211
 21
104.10355682
 31
0.0
  0
LINE
  8
0
  6
CONTINUOUS
 62
     2
 10
206.740106211
 20
117.90355682
 30
0.0
 11
221.078135956
 21
104.10355682
 31
0.0
  0
LINE
  8
0
  6
CONTINUOUS
 62
     2
 10
207.590800157
 20
146.110613289
 30
0.0
 11
209.950497834
 21
146.936341377
 31
0.0
  0
LINE
  8
0
  6
CONTINUOUS
 62
     2
 10
207.590800157
 20
146.110613289
 30
0.0
 11
209.221494246
 21
148.005563628
 31
0.0
  0
TEXT
  8
0
  6
CONTINUOUS
 62
     2
 10
222.109531498
 20
156.84355682
 30
0.3
 40
3.0
  1
Ｈ設定指針（赤）
 50
0.0
 41
0.666666667
 51
0.0
  7
KANJI23
  0
POLYLINE
  8
0
  6
CONTINUOUS
 62
     2
 66
     1
  0
VERTEX
  8
0
  6
CONTINUOUS
 62
     2
 10
207.590800157
 20
146.110613289
 30
0.0
  0
VERTEX
  8
0
  6
CONTINUOUS
 62
     2
 10
221.86601083
 20
155.84355682
 30
0.0
  0
VERTEX
  8
0
  6
CONTINUOUS
 62
     2
 10
239.090106211
 20
155.84355682
 30
0.0
  0
SEQEND
  0
LINE
  8
0
  6
CONTINUOUS
 62
     2
 10
178.25
 20
84.05
 30
0.0
 11
172.25
 21
84.05
 31
0.0
  0
TEXT
  8
0
  6
CONTINUOUS
 62
     2
 10
172.25
 20
85.05
 30
1.0
 40
3.0
  1
指針
 50
0.0
 41
0.833333333
 51
0.0
  7
KANJI5
  0
LINE
  8
0
  6
LTYPE1
 62
     2
 10
184.85
 20
131.4
 30
0.0
 11
214.165106211
 21
131.4
 31
0.0
  0
LINE
  8
0
  6
LTYPE1
 62
     2
 10
199.4
 20
177.4
 30
0.0
 11
199.4
 21
86.35
 31
0.0
  0
ENDSEC
  0
EOF
