  0
SECTION
  2
HEADER
  9
$ACADVER
  1
AC1009
  9
$DWGCODEPAGE
  3
dos932
  9
$EXTMIN
 10
0.0
 20
0.0
 30
0.0
  9
$EXTMAX
 10
297.0
 20
210.0
 30
0.0
  9
$LIMMIN
 10
0.0
 20
0.0
  9
$LIMMAX
 10
297.0
 20
210.0
  9
$LTSCALE
 40
1.0
  9
$PDMODE
 70
     0
  0
ENDSEC
  0
SECTION
  2
TABLES
  0
TABLE
  2
VPORT
 70
     1
  0
VPORT
  2
*ACTIVE
 70
     0
 10
0.0
 20
0.0
 11
1.0
 21
1.0
 12
148.5
 22
105.0
 13
0.0
 23
0.0
 14
10.0
 24
10.0
 15
10.0
 25
10.0
 16
0.0
 26
0.0
 36
1.0
 17
0.0
 27
0.0
 37
0.0
 40
297.0
 41
1.414285714
 42
50.0
 43
0.0
 44
0.0
 50
0.0
 51
0.0
 71
     0
 72
  1000
 73
     1
 74
     3
 75
     0
 76
     0
 77
     0
 78
     0
  0
ENDTAB
  0
TABLE
  2
LTYPE
 70
     7
  0
LTYPE
  2
CONTINUOUS
 70
    64
  3
Solid line
 72
    65
 73
     0
 40
0.0
  0
LTYPE
  2
LTYPE1
 70
    64
  3
CENTER
 72
    65
 73
     4
 40
5.0
 49
3.5
 49
-0.5
 49
0.5
 49
-0.5
  0
LTYPE
  2
LTYPE2
 70
    64
  3
CENTER
 72
    65
 73
     4
 40
3.0
 49
2.1
 49
-0.3
 49
0.3
 49
-0.3
  0
LTYPE
  2
LTYPE3
 70
    64
  3
CENTER
 72
    65
 73
     4
 40
15.0
 49
10.5
 49
-1.5
 49
1.5
 49
-1.5
  0
LTYPE
  2
LTYPE4
 70
    64
  3
HIDDEN
 72
    65
 73
     2
 40
2.0
 49
1.2
 49
-0.8
  0
LTYPE
  2
LTYPE5
 70
    64
  3
CENTER
 72
    65
 73
     4
 40
8.0
 49
5.6
 49
-0.8
 49
0.8
 49
-0.8
  0
LTYPE
  2
LTYPE6
 70
    64
  3
HIDDEN
 72
    65
 73
     2
 40
1.0
 49
0.6
 49
-0.4
  0
ENDTAB
  0
TABLE
  2
LAYER
 70
   128
  0
LAYER
  2
0
 70
     0
 62
     7
  6
CONTINUOUS
  0
LAYER
  2
2
 70
     0
 62
     7
  6
CONTINUOUS
  0
LAYER
  2
3
 70
     0
 62
     7
  6
CONTINUOUS
  0
LAYER
  2
4
 70
     0
 62
     7
  6
CONTINUOUS
  0
LAYER
  2
5
 70
     0
 62
     7
  6
CONTINUOUS
  0
LAYER
  2
6
 70
     0
 62
     7
  6
CONTINUOUS
  0
LAYER
  2
7
 70
     0
 62
     7
  6
CONTINUOUS
  0
LAYER
  2
8
 70
     0
 62
     7
  6
CONTINUOUS
  0
LAYER
  2
9
 70
     0
 62
     7
  6
CONTINUOUS
  0
LAYER
  2
10
 70
     0
 62
     7
  6
CONTINUOUS
  0
LAYER
  2
11
 70
     0
 62
     7
  6
CONTINUOUS
  0
LAYER
  2
12
 70
     0
 62
     7
  6
CONTINUOUS
  0
LAYER
  2
13
 70
     0
 62
     7
  6
CONTINUOUS
  0
LAYER
  2
14
 70
     0
 62
     7
  6
CONTINUOUS
  0
LAYER
  2
15
 70
     0
 62
     7
  6
CONTINUOUS
  0
LAYER
  2
16
 70
     0
 62
     7
  6
CONTINUOUS
  0
LAYER
  2
17
 70
     0
 62
     7
  6
CONTINUOUS
  0
LAYER
  2
18
 70
     0
 62
     7
  6
CONTINUOUS
  0
LAYER
  2
19
 70
     0
 62
     7
  6
CONTINUOUS
  0
LAYER
  2
20
 70
     0
 62
     7
  6
CONTINUOUS
  0
LAYER
  2
21
 70
     0
 62
     7
  6
CONTINUOUS
  0
LAYER
  2
22
 70
     0
 62
     7
  6
CONTINUOUS
  0
LAYER
  2
23
 70
     0
 62
     7
  6
CONTINUOUS
  0
LAYER
  2
24
 70
     0
 62
     7
  6
CONTINUOUS
  0
LAYER
  2
25
 70
     0
 62
     7
  6
CONTINUOUS
  0
LAYER
  2
26
 70
     0
 62
     7
  6
CONTINUOUS
  0
LAYER
  2
27
 70
     0
 62
     7
  6
CONTINUOUS
  0
LAYER
  2
28
 70
     0
 62
     7
  6
CONTINUOUS
  0
LAYER
  2
29
 70
     0
 62
     7
  6
CONTINUOUS
  0
LAYER
  2
30
 70
     0
 62
     7
  6
CONTINUOUS
  0
LAYER
  2
31
 70
     0
 62
     7
  6
CONTINUOUS
  0
LAYER
  2
32
 70
     0
 62
     7
  6
CONTINUOUS
  0
LAYER
  2
33
 70
     0
 62
     7
  6
CONTINUOUS
  0
LAYER
  2
34
 70
     0
 62
     7
  6
CONTINUOUS
  0
LAYER
  2
35
 70
     0
 62
     7
  6
CONTINUOUS
  0
LAYER
  2
36
 70
     0
 62
     7
  6
CONTINUOUS
  0
LAYER
  2
37
 70
     0
 62
     7
  6
CONTINUOUS
  0
LAYER
  2
38
 70
     0
 62
     7
  6
CONTINUOUS
  0
LAYER
  2
39
 70
     0
 62
     7
  6
CONTINUOUS
  0
LAYER
  2
40
 70
     0
 62
     7
  6
CONTINUOUS
  0
LAYER
  2
41
 70
     0
 62
     7
  6
CONTINUOUS
  0
LAYER
  2
42
 70
     0
 62
     7
  6
CONTINUOUS
  0
LAYER
  2
43
 70
     0
 62
     7
  6
CONTINUOUS
  0
LAYER
  2
44
 70
     0
 62
     7
  6
CONTINUOUS
  0
LAYER
  2
45
 70
     0
 62
     7
  6
CONTINUOUS
  0
LAYER
  2
46
 70
     0
 62
     7
  6
CONTINUOUS
  0
LAYER
  2
47
 70
     0
 62
     7
  6
CONTINUOUS
  0
LAYER
  2
48
 70
     0
 62
     7
  6
CONTINUOUS
  0
LAYER
  2
49
 70
     0
 62
     7
  6
CONTINUOUS
  0
LAYER
  2
50
 70
     0
 62
     7
  6
CONTINUOUS
  0
LAYER
  2
51
 70
     0
 62
     7
  6
CONTINUOUS
  0
LAYER
  2
52
 70
     0
 62
     7
  6
CONTINUOUS
  0
LAYER
  2
53
 70
     0
 62
     7
  6
CONTINUOUS
  0
LAYER
  2
54
 70
     0
 62
     7
  6
CONTINUOUS
  0
LAYER
  2
55
 70
     0
 62
     7
  6
CONTINUOUS
  0
LAYER
  2
56
 70
     0
 62
     7
  6
CONTINUOUS
  0
LAYER
  2
57
 70
     0
 62
     7
  6
CONTINUOUS
  0
LAYER
  2
58
 70
     0
 62
     7
  6
CONTINUOUS
  0
LAYER
  2
59
 70
     0
 62
     7
  6
CONTINUOUS
  0
LAYER
  2
60
 70
     0
 62
     7
  6
CONTINUOUS
  0
LAYER
  2
61
 70
     0
 62
     7
  6
CONTINUOUS
  0
LAYER
  2
62
 70
     0
 62
     7
  6
CONTINUOUS
  0
LAYER
  2
63
 70
     0
 62
     7
  6
CONTINUOUS
  0
LAYER
  2
64
 70
     0
 62
     7
  6
CONTINUOUS
  0
LAYER
  2
65
 70
     0
 62
     7
  6
CONTINUOUS
  0
LAYER
  2
66
 70
     0
 62
     7
  6
CONTINUOUS
  0
LAYER
  2
67
 70
     0
 62
     7
  6
CONTINUOUS
  0
LAYER
  2
68
 70
     0
 62
     7
  6
CONTINUOUS
  0
LAYER
  2
69
 70
     0
 62
     7
  6
CONTINUOUS
  0
LAYER
  2
70
 70
     0
 62
     7
  6
CONTINUOUS
  0
LAYER
  2
71
 70
     0
 62
     7
  6
CONTINUOUS
  0
LAYER
  2
72
 70
     0
 62
     7
  6
CONTINUOUS
  0
LAYER
  2
73
 70
     0
 62
     7
  6
CONTINUOUS
  0
LAYER
  2
74
 70
     0
 62
     7
  6
CONTINUOUS
  0
LAYER
  2
75
 70
     0
 62
     7
  6
CONTINUOUS
  0
LAYER
  2
76
 70
     0
 62
     7
  6
CONTINUOUS
  0
LAYER
  2
77
 70
     0
 62
     7
  6
CONTINUOUS
  0
LAYER
  2
78
 70
     0
 62
     7
  6
CONTINUOUS
  0
LAYER
  2
79
 70
     0
 62
     7
  6
CONTINUOUS
  0
LAYER
  2
80
 70
     0
 62
     7
  6
CONTINUOUS
  0
LAYER
  2
81
 70
     0
 62
     7
  6
CONTINUOUS
  0
LAYER
  2
82
 70
     0
 62
     7
  6
CONTINUOUS
  0
LAYER
  2
83
 70
     0
 62
     7
  6
CONTINUOUS
  0
LAYER
  2
84
 70
     0
 62
     7
  6
CONTINUOUS
  0
LAYER
  2
85
 70
     0
 62
     7
  6
CONTINUOUS
  0
LAYER
  2
86
 70
     0
 62
     7
  6
CONTINUOUS
  0
LAYER
  2
87
 70
     0
 62
     7
  6
CONTINUOUS
  0
LAYER
  2
88
 70
     0
 62
     7
  6
CONTINUOUS
  0
LAYER
  2
89
 70
     0
 62
     7
  6
CONTINUOUS
  0
LAYER
  2
90
 70
     0
 62
     7
  6
CONTINUOUS
  0
LAYER
  2
91
 70
     0
 62
     7
  6
CONTINUOUS
  0
LAYER
  2
92
 70
     0
 62
     7
  6
CONTINUOUS
  0
LAYER
  2
93
 70
     0
 62
     7
  6
CONTINUOUS
  0
LAYER
  2
94
 70
     0
 62
     7
  6
CONTINUOUS
  0
LAYER
  2
95
 70
     0
 62
     7
  6
CONTINUOUS
  0
LAYER
  2
96
 70
     0
 62
     7
  6
CONTINUOUS
  0
LAYER
  2
97
 70
     0
 62
     7
  6
CONTINUOUS
  0
LAYER
  2
98
 70
     0
 62
     7
  6
CONTINUOUS
  0
LAYER
  2
99
 70
     0
 62
     7
  6
CONTINUOUS
  0
LAYER
  2
100
 70
     0
 62
     7
  6
CONTINUOUS
  0
LAYER
  2
101
 70
     0
 62
     7
  6
CONTINUOUS
  0
LAYER
  2
102
 70
     0
 62
     7
  6
CONTINUOUS
  0
LAYER
  2
103
 70
     0
 62
     7
  6
CONTINUOUS
  0
LAYER
  2
104
 70
     0
 62
     7
  6
CONTINUOUS
  0
LAYER
  2
105
 70
     0
 62
     7
  6
CONTINUOUS
  0
LAYER
  2
106
 70
     0
 62
     7
  6
CONTINUOUS
  0
LAYER
  2
107
 70
     0
 62
     7
  6
CONTINUOUS
  0
LAYER
  2
108
 70
     0
 62
     7
  6
CONTINUOUS
  0
LAYER
  2
109
 70
     0
 62
     7
  6
CONTINUOUS
  0
LAYER
  2
110
 70
     0
 62
     7
  6
CONTINUOUS
  0
LAYER
  2
111
 70
     0
 62
     7
  6
CONTINUOUS
  0
LAYER
  2
112
 70
     0
 62
     7
  6
CONTINUOUS
  0
LAYER
  2
113
 70
     0
 62
     7
  6
CONTINUOUS
  0
LAYER
  2
114
 70
     0
 62
     7
  6
CONTINUOUS
  0
LAYER
  2
115
 70
     0
 62
     7
  6
CONTINUOUS
  0
LAYER
  2
116
 70
     0
 62
     7
  6
CONTINUOUS
  0
LAYER
  2
117
 70
     0
 62
     7
  6
CONTINUOUS
  0
LAYER
  2
118
 70
     0
 62
     7
  6
CONTINUOUS
  0
LAYER
  2
119
 70
     0
 62
     7
  6
CONTINUOUS
  0
LAYER
  2
120
 70
     0
 62
     7
  6
CONTINUOUS
  0
LAYER
  2
121
 70
     0
 62
     7
  6
CONTINUOUS
  0
LAYER
  2
122
 70
     0
 62
     7
  6
CONTINUOUS
  0
LAYER
  2
123
 70
     0
 62
     7
  6
CONTINUOUS
  0
LAYER
  2
124
 70
     0
 62
     7
  6
CONTINUOUS
  0
LAYER
  2
125
 70
     0
 62
     7
  6
CONTINUOUS
  0
LAYER
  2
126
 70
     0
 62
     7
  6
CONTINUOUS
  0
LAYER
  2
127
 70
     0
 62
     7
  6
CONTINUOUS
  0
LAYER
  2
128
 70
     0
 62
     7
  6
CONTINUOUS
  0
ENDTAB
  0
TABLE
  2
STYLE
 70
    14
  0
STYLE
  2
STANDARD
 70
     0
 40
0.0
 41
1.0
 50
0.0
 71
     0
 42
0.2
  3
txt.shx
  4
extfont.shx
  0
STYLE
  2
KANJI0
 70
     0
 40
3.0
 41
0.6
 50
0.0
 71
     0
 42
3.0
  3
txt.shx
  4
extfont.shx
  0
STYLE
  2
KANJI1
 70
     0
 40
1.0
 41
0.9
 50
0.0
 71
     0
 42
1.0
  3
txt.shx
  4
extfont.shx
  0
STYLE
  2
KANJI2
 70
     0
 40
3.0
 41
0.9
 50
0.0
 71
     0
 42
3.0
  3
txt.shx
  4
extfont.shx
  0
STYLE
  2
KANJI3
 70
     0
 40
2.0
 41
0.9
 50
0.0
 71
     0
 42
2.0
  3
txt.shx
  4
extfont.shx
  0
STYLE
  2
KANJI4
 70
     0
 40
3.0
 41
0.7
 50
0.0
 71
     0
 42
3.0
  3
txt.shx
  4
extfont.shx
  0
STYLE
  2
KANJI5
 70
     0
 40
1.5
 41
0.9
 50
0.0
 71
     0
 42
1.5
  3
txt.shx
  4
extfont.shx
  0
STYLE
  2
KANJI6
 70
     0
 40
1.5
 41
0.45
 50
0.0
 71
     0
 42
1.5
  3
txt.shx
  4
extfont.shx
  0
STYLE
  2
KANJI7
 70
     0
 40
2.5
 41
0.6
 50
0.0
 71
     0
 42
2.5
  3
txt.shx
  4
extfont.shx
  0
STYLE
  2
KANJI8
 70
     0
 40
1.8
 41
0.6
 50
0.0
 71
     0
 42
1.8
  3
txt.shx
  4
extfont.shx
  0
STYLE
  2
KANJI9
 70
     0
 40
2.5
 41
0.6
 50
0.0
 71
     0
 42
2.5
  3
txt.shx
  4
extfont.shx
  0
STYLE
  2
KANJI10
 70
     0
 40
3.0
 41
0.666666667
 50
0.0
 71
     0
 42
3.0
  3
txt.shx
  4
extfont.shx
  0
STYLE
  2
KANJI11
 70
     0
 40
6.0
 41
0.9
 50
0.0
 71
     0
 42
6.0
  3
txt.shx
  4
extfont.shx
  0
STYLE
  2
KANJI12
 70
     0
 40
4.0
 41
0.9
 50
0.0
 71
     0
 42
4.0
  3
txt.shx
  4
extfont.shx
  0
ENDTAB
  0
TABLE
  2
VIEW
 70
     0
  0
ENDTAB
  0
ENDSEC
  0
SECTION
  2
BLOCKS
  0
ENDSEC
  0
SECTION
  2
ENTITIES
  0
CIRCLE
  8
0
  6
CONTINUOUS
 62
     1
 10
197.0
 20
103.0
 30
0.0
 40
1.0
  0
CIRCLE
  8
0
  6
CONTINUOUS
 62
     1
 10
173.0
 20
103.0
 30
0.0
 40
1.0
  0
CIRCLE
  8
0
  6
CONTINUOUS
 62
     1
 10
173.0
 20
79.0
 30
0.0
 40
1.0
  0
CIRCLE
  8
0
  6
CONTINUOUS
 62
     1
 10
197.0
 20
79.0
 30
0.0
 40
1.0
  0
CIRCLE
  8
0
  6
CONTINUOUS
 62
     1
 10
185.0
 20
90.0
 30
0.0
 40
13.375
  0
ARC
  8
0
  6
CONTINUOUS
 62
     1
 10
55.0
 20
163.75
 30
0.0
 40
1.25
 50
0.0
 51
90.0
  0
LINE
  8
0
  6
CONTINUOUS
 62
     1
 10
25.0
 20
165.0
 30
0.0
 11
55.0
 21
165.0
 31
0.0
  0
ARC
  8
0
  6
CONTINUOUS
 62
     1
 10
25.0
 20
163.75
 30
0.0
 40
1.25
 50
90.0
 51
180.0
  0
LINE
  8
0
  6
CONTINUOUS
 62
     1
 10
56.25
 20
163.75
 30
0.0
 11
56.25
 21
136.25
 31
0.0
  0
ARC
  8
0
  6
CONTINUOUS
 62
     1
 10
55.0
 20
136.25
 30
0.0
 40
1.25
 50
270.0
 51
0.0
  0
LINE
  8
0
  6
CONTINUOUS
 62
     1
 10
55.0
 20
135.0
 30
0.0
 11
25.0
 21
135.0
 31
0.0
  0
LINE
  8
0
  6
CONTINUOUS
 62
     1
 10
23.75
 20
136.25
 30
0.0
 11
23.75
 21
163.75
 31
0.0
  0
ARC
  8
0
  6
CONTINUOUS
 62
     1
 10
25.0
 20
136.25
 30
0.0
 40
1.25
 50
180.0
 51
270.0
  0
ARC
  8
0
  6
CONTINUOUS
 62
     1
 10
200.0
 20
163.75
 30
0.0
 40
1.25
 50
0.0
 51
90.0
  0
LINE
  8
0
  6
CONTINUOUS
 62
     1
 10
170.0
 20
165.0
 30
0.0
 11
200.0
 21
165.0
 31
0.0
  0
ARC
  8
0
  6
CONTINUOUS
 62
     1
 10
170.0
 20
163.75
 30
0.0
 40
1.25
 50
90.0
 51
180.0
  0
LINE
  8
0
  6
CONTINUOUS
 62
     1
 10
168.75
 20
136.25
 30
0.0
 11
168.75
 21
163.75
 31
0.0
  0
ARC
  8
0
  6
CONTINUOUS
 62
     1
 10
170.0
 20
136.25
 30
0.0
 40
1.25
 50
180.0
 51
270.0
  0
LINE
  8
0
  6
CONTINUOUS
 62
     1
 10
200.0
 20
135.0
 30
0.0
 11
170.0
 21
135.0
 31
0.0
  0
LINE
  8
0
  6
CONTINUOUS
 62
     1
 10
201.25
 20
163.75
 30
0.0
 11
201.25
 21
136.25
 31
0.0
  0
ARC
  8
0
  6
CONTINUOUS
 62
     1
 10
200.0
 20
136.25
 30
0.0
 40
1.25
 50
270.0
 51
0.0
  0
CIRCLE
  8
0
  6
CONTINUOUS
 62
     1
 10
185.0
 20
149.0
 30
0.0
 40
12.875
  0
CIRCLE
  8
0
  6
CONTINUOUS
 62
     1
 10
185.0
 20
149.0
 30
0.0
 40
12.75
  0
LINE
  8
0
  6
CONTINUOUS
 62
     1
 10
85.0
 20
165.0
 30
0.0
 11
85.0
 21
135.0
 31
0.0
  0
POINT
  8
0
  6
CONTINUOUS
 62
     1
 10
85.0
 20
135.0
 30
0.0
  0
LINE
  8
0
  6
CONTINUOUS
 62
     1
 10
79.437982633
 20
135.695252171
 30
0.0
 11
85.0
 21
135.0
 31
0.0
  0
ARC
  8
0
  6
CONTINUOUS
 62
     1
 10
79.5
 20
136.191391109
 30
0.0
 40
0.5
 50
180.0
 51
262.874983651
  0
LINE
  8
0
  6
CONTINUOUS
 62
     1
 10
85.0
 20
165.0
 30
0.0
 11
79.437982633
 21
164.304747829
 31
0.0
  0
LINE
  8
0
  6
CONTINUOUS
 62
     1
 10
79.0
 20
163.808608891
 30
0.0
 11
79.0
 21
136.191391109
 31
0.0
  0
ARC
  8
0
  6
CONTINUOUS
 62
     1
 10
79.5
 20
163.808608891
 30
0.0
 40
0.5
 50
97.125016349
 51
180.0
  0
LINE
  8
0
  6
CONTINUOUS
 62
     1
 10
90.25
 20
162.0
 30
0.0
 11
100.0
 21
162.0
 31
0.0
  0
LINE
  8
0
  6
CONTINUOUS
 62
     1
 10
100.0
 20
136.0
 30
0.0
 11
85.25
 21
136.0
 31
0.0
  0
LINE
  8
0
  6
CONTINUOUS
 62
     1
 10
99.75
 20
161.875
 30
0.0
 11
99.75
 21
136.125
 31
0.0
  0
LINE
  8
0
  6
CONTINUOUS
 62
     1
 10
118.504807594
 20
161.754776874
 30
0.0
 11
99.75
 21
161.875
 31
0.0
  0
ARC
  8
0
  6
CONTINUOUS
 62
     1
 10
118.5
 20
161.004792283
 30
0.0
 40
0.75
 50
0.0
 51
89.632724393
  0
LINE
  8
0
  6
CONTINUOUS
 62
     1
 10
119.25
 20
136.995207717
 30
0.0
 11
119.25
 21
161.004792283
 31
0.0
  0
LINE
  8
0
  6
CONTINUOUS
 62
     1
 10
99.75
 20
136.125
 30
0.0
 11
118.504807594
 21
136.245223126
 31
0.0
  0
ARC
  8
0
  6
CONTINUOUS
 62
     1
 10
118.5
 20
136.995207717
 30
0.0
 40
0.75
 50
270.367275607
 51
0.0
  0
ARC
  8
0
  6
CONTINUOUS
 62
     1
 10
100.0
 20
161.75
 30
0.0
 40
0.25
 50
29.208855671
 51
90.0
  0
ARC
  8
0
  6
CONTINUOUS
 62
     1
 10
100.0
 20
136.25
 30
0.0
 40
0.25
 50
270.0
 51
330.791144328
  0
LINE
  8
0
  6
CONTINUOUS
 62
     1
 10
185.0
 20
161.0
 30
0.0
 11
183.700961894
 21
160.25
 31
0.0
  0
LINE
  8
0
  6
CONTINUOUS
 62
     1
 10
183.700961894
 20
160.25
 30
0.0
 11
183.700961894
 21
158.75
 31
0.0
  0
LINE
  8
0
  6
CONTINUOUS
 62
     1
 10
183.700961894
 20
158.75
 30
0.0
 11
185.0
 21
158.0
 31
0.0
  0
LINE
  8
0
  6
CONTINUOUS
 62
     1
 10
185.0
 20
158.0
 30
0.0
 11
186.299038106
 21
158.75
 31
0.0
  0
LINE
  8
0
  6
CONTINUOUS
 62
     1
 10
186.299038106
 20
158.75
 30
0.0
 11
186.299038106
 21
160.25
 31
0.0
  0
LINE
  8
0
  6
CONTINUOUS
 62
     1
 10
186.299038106
 20
160.25
 30
0.0
 11
185.0
 21
161.0
 31
0.0
  0
LINE
  8
0
  6
CONTINUOUS
 62
     1
 10
185.0
 20
140.0
 30
0.0
 11
183.700961894
 21
139.25
 31
0.0
  0
LINE
  8
0
  6
CONTINUOUS
 62
     1
 10
183.700961894
 20
139.25
 30
0.0
 11
183.700961894
 21
137.75
 31
0.0
  0
LINE
  8
0
  6
CONTINUOUS
 62
     1
 10
183.700961894
 20
137.75
 30
0.0
 11
185.0
 21
137.0
 31
0.0
  0
LINE
  8
0
  6
CONTINUOUS
 62
     1
 10
185.0
 20
137.0
 30
0.0
 11
186.299038106
 21
137.75
 31
0.0
  0
LINE
  8
0
  6
CONTINUOUS
 62
     1
 10
186.299038106
 20
137.75
 30
0.0
 11
186.299038106
 21
139.25
 31
0.0
  0
LINE
  8
0
  6
CONTINUOUS
 62
     1
 10
186.299038106
 20
139.25
 30
0.0
 11
185.0
 21
140.0
 31
0.0
  0
ARC
  8
0
  6
CONTINUOUS
 62
     1
 10
180.0
 20
158.25
 30
0.0
 40
1.25
 50
90.0
 51
180.0
  0
ARC
  8
0
  6
CONTINUOUS
 62
     1
 10
190.0
 20
158.25
 30
0.0
 40
1.25
 50
360.0
 51
90.0
  0
LINE
  8
0
  6
CONTINUOUS
 62
     1
 10
191.25
 20
139.75
 30
0.0
 11
191.25
 21
158.25
 31
0.0
  0
ARC
  8
0
  6
CONTINUOUS
 62
     1
 10
190.0
 20
139.75
 30
0.0
 40
1.25
 50
270.0
 51
0.0
  0
LINE
  8
0
  6
CONTINUOUS
 62
     1
 10
178.75
 20
158.25
 30
0.0
 11
178.75
 21
139.75
 31
0.0
  0
ARC
  8
0
  6
CONTINUOUS
 62
     1
 10
180.0
 20
139.75
 30
0.0
 40
1.25
 50
180.0
 51
270.0
  0
LINE
  8
0
  6
CONTINUOUS
 62
     1
 10
190.0
 20
159.5
 30
0.0
 11
186.299038106
 21
159.5
 31
0.0
  0
LINE
  8
0
  6
CONTINUOUS
 62
     1
 10
183.700961894
 20
159.5
 30
0.0
 11
180.0
 21
159.5
 31
0.0
  0
LINE
  8
0
  6
CONTINUOUS
 62
     1
 10
180.0
 20
138.5
 30
0.0
 11
183.700961894
 21
138.5
 31
0.0
  0
LINE
  8
0
  6
CONTINUOUS
 62
     1
 10
186.299038106
 20
138.5
 30
0.0
 11
190.0
 21
138.5
 31
0.0
  0
LINE
  8
0
  6
CONTINUOUS
 62
     1
 10
122.05
 20
161.0
 30
0.0
 11
122.05
 21
158.0
 31
0.0
  0
LINE
  8
0
  6
CONTINUOUS
 62
     1
 10
122.55
 20
158.75
 30
0.0
 11
122.05
 21
158.75
 31
0.0
  0
LINE
  8
0
  6
CONTINUOUS
 62
     1
 10
122.05
 20
160.25
 30
0.0
 11
122.55
 21
160.25
 31
0.0
  0
LINE
  8
0
  6
CONTINUOUS
 62
     1
 10
122.05
 20
158.0
 30
0.0
 11
122.4
 21
158.0
 31
0.0
  0
LINE
  8
0
  6
CONTINUOUS
 62
     1
 10
122.4
 20
158.0
 30
0.0
 11
122.55
 21
158.15
 31
0.0
  0
LINE
  8
0
  6
CONTINUOUS
 62
     1
 10
122.4
 20
161.0
 30
0.0
 11
122.05
 21
161.0
 31
0.0
  0
LINE
  8
0
  6
CONTINUOUS
 62
     1
 10
122.55
 20
158.15
 30
0.0
 11
122.55
 21
160.85
 31
0.0
  0
LINE
  8
0
  6
CONTINUOUS
 62
     1
 10
122.4
 20
161.0
 30
0.0
 11
122.55
 21
160.85
 31
0.0
  0
LINE
  8
0
  6
CONTINUOUS
 62
     1
 10
121.6
 20
158.0
 30
0.0
 11
121.6
 21
161.0
 31
0.0
  0
LINE
  8
0
  6
CONTINUOUS
 62
     1
 10
121.6
 20
158.625
 30
0.0
 11
122.05
 21
158.625
 31
0.0
  0
LINE
  8
0
  6
CONTINUOUS
 62
     1
 10
122.05
 20
160.375
 30
0.0
 11
121.6
 21
160.375
 31
0.0
  0
LINE
  8
0
  6
CONTINUOUS
 62
     1
 10
119.25
 20
161.0
 30
0.0
 11
119.25
 21
158.0
 31
0.0
  0
LINE
  8
0
  6
CONTINUOUS
 62
     1
 10
119.25
 20
158.0
 30
0.0
 11
121.6
 21
158.0
 31
0.0
  0
LINE
  8
0
  6
CONTINUOUS
 62
     1
 10
119.25
 20
158.75
 30
0.0
 11
121.6
 21
158.75
 31
0.0
  0
LINE
  8
0
  6
CONTINUOUS
 62
     1
 10
119.25
 20
160.25
 30
0.0
 11
121.6
 21
160.25
 31
0.0
  0
LINE
  8
0
  6
CONTINUOUS
 62
     1
 10
121.6
 20
161.0
 30
0.0
 11
119.25
 21
161.0
 31
0.0
  0
LINE
  8
0
  6
CONTINUOUS
 62
     1
 10
122.05
 20
140.0
 30
0.0
 11
122.05
 21
137.0
 31
0.0
  0
LINE
  8
0
  6
CONTINUOUS
 62
     1
 10
122.55
 20
137.75
 30
0.0
 11
122.05
 21
137.75
 31
0.0
  0
LINE
  8
0
  6
CONTINUOUS
 62
     1
 10
122.05
 20
139.25
 30
0.0
 11
122.55
 21
139.25
 31
0.0
  0
LINE
  8
0
  6
CONTINUOUS
 62
     1
 10
122.05
 20
137.0
 30
0.0
 11
122.4
 21
137.0
 31
0.0
  0
LINE
  8
0
  6
CONTINUOUS
 62
     1
 10
122.4
 20
137.0
 30
0.0
 11
122.55
 21
137.15
 31
0.0
  0
LINE
  8
0
  6
CONTINUOUS
 62
     1
 10
122.4
 20
140.0
 30
0.0
 11
122.05
 21
140.0
 31
0.0
  0
LINE
  8
0
  6
CONTINUOUS
 62
     1
 10
122.55
 20
137.15
 30
0.0
 11
122.55
 21
139.85
 31
0.0
  0
LINE
  8
0
  6
CONTINUOUS
 62
     1
 10
122.4
 20
140.0
 30
0.0
 11
122.55
 21
139.85
 31
0.0
  0
LINE
  8
0
  6
CONTINUOUS
 62
     1
 10
121.6
 20
137.0
 30
0.0
 11
121.6
 21
140.0
 31
0.0
  0
LINE
  8
0
  6
CONTINUOUS
 62
     1
 10
121.6
 20
137.625
 30
0.0
 11
122.05
 21
137.625
 31
0.0
  0
LINE
  8
0
  6
CONTINUOUS
 62
     1
 10
122.05
 20
139.375
 30
0.0
 11
121.6
 21
139.375
 31
0.0
  0
LINE
  8
0
  6
CONTINUOUS
 62
     1
 10
119.25
 20
140.0
 30
0.0
 11
119.25
 21
137.0
 31
0.0
  0
LINE
  8
0
  6
CONTINUOUS
 62
     1
 10
119.25
 20
137.0
 30
0.0
 11
121.6
 21
137.0
 31
0.0
  0
LINE
  8
0
  6
CONTINUOUS
 62
     1
 10
119.25
 20
137.75
 30
0.0
 11
121.6
 21
137.75
 31
0.0
  0
LINE
  8
0
  6
CONTINUOUS
 62
     1
 10
119.25
 20
139.25
 30
0.0
 11
121.6
 21
139.25
 31
0.0
  0
LINE
  8
0
  6
CONTINUOUS
 62
     1
 10
121.6
 20
140.0
 30
0.0
 11
119.25
 21
140.0
 31
0.0
  0
CIRCLE
  8
0
  6
CONTINUOUS
 62
     2
 10
145.0
 20
84.75
 30
0.0
 40
1.8
  0
LINE
  8
0
  6
CONTINUOUS
 62
     2
 10
133.5
 20
94.25
 30
0.0
 11
156.5
 21
94.25
 31
0.0
  0
LINE
  8
0
  6
CONTINUOUS
 62
     2
 10
144.75
 20
86.532554347
 30
0.0
 11
144.75
 21
82.967445653
 31
0.0
  0
LINE
  8
0
  6
CONTINUOUS
 62
     2
 10
145.25
 20
82.967445653
 30
0.0
 11
145.25
 21
86.532554347
 31
0.0
  0
CIRCLE
  8
0
  6
CONTINUOUS
 62
     2
 10
141.25
 20
89.0
 30
0.0
 40
1.75
  0
CIRCLE
  8
0
  6
CONTINUOUS
 62
     2
 10
141.25
 20
89.0
 30
0.0
 40
0.75
  0
LINE
  8
0
  6
CONTINUOUS
 62
     2
 10
140.430143345
 20
86.904687358
 30
0.0
 11
140.365008209
 21
86.661883337
 31
0.0
  0
LINE
  8
0
  6
CONTINUOUS
 62
     2
 10
140.912360369
 20
86.775477696
 30
0.0
 11
140.847367041
 21
86.532635677
 31
0.0
  0
ARC
  8
0
  6
CONTINUOUS
 62
     2
 10
140.667657149
 20
86.826666891
 30
0.0
 40
0.25
 50
348.184738537
 51
161.815261463
  0
ARC
  8
0
  6
CONTINUOUS
 62
     2
 10
140.602952387
 20
86.585185434
 30
0.0
 40
0.25
 50
347.865983983
 51
162.134016018
  0
LINE
  8
0
  6
CONTINUOUS
 62
     2
 10
139.492326989
 20
87.595334351
 30
0.0
 11
139.314516296
 21
87.417627468
 31
0.0
  0
LINE
  8
0
  6
CONTINUOUS
 62
     2
 10
139.845334351
 20
87.242326989
 30
0.0
 11
139.667627468
 21
87.064516296
 31
0.0
  0
ARC
  8
0
  6
CONTINUOUS
 62
     2
 10
139.659009742
 20
87.409009742
 30
0.0
 40
0.25
 50
318.184738537
 51
131.815261463
  0
ARC
  8
0
  6
CONTINUOUS
 62
     2
 10
139.482233047
 20
87.232233047
 30
0.0
 40
0.25
 50
317.865983983
 51
132.134016018
  0
LINE
  8
0
  6
CONTINUOUS
 62
     2
 10
139.025477696
 20
88.662360369
 30
0.0
 11
138.782635677
 21
88.597367041
 31
0.0
  0
LINE
  8
0
  6
CONTINUOUS
 62
     2
 10
139.154687358
 20
88.180143345
 30
0.0
 11
138.911883337
 21
88.115008209
 31
0.0
  0
ARC
  8
0
  6
CONTINUOUS
 62
     2
 10
139.076666891
 20
88.417657149
 30
0.0
 40
0.25
 50
288.184738537
 51
101.815261463
  0
ARC
  8
0
  6
CONTINUOUS
 62
     2
 10
138.835185434
 20
88.352952387
 30
0.0
 40
0.25
 50
287.865983983
 51
102.134016018
  0
ARC
  8
0
  6
CONTINUOUS
 62
     2
 10
141.25
 20
89.0
 30
0.0
 40
2.5
 50
230.731967965
 51
249.268032035
  0
ARC
  8
0
  6
CONTINUOUS
 62
     2
 10
141.25
 20
89.0
 30
0.0
 40
2.25
 50
231.369477073
 51
248.630522927
  0
ARC
  8
0
  6
CONTINUOUS
 62
     2
 10
141.25
 20
89.0
 30
0.0
 40
2.5
 50
200.731967965
 51
219.268032035
  0
ARC
  8
0
  6
CONTINUOUS
 62
     2
 10
141.25
 20
89.0
 30
0.0
 40
2.25
 50
201.369477073
 51
218.630522927
  0
LINE
  8
0
  6
CONTINUOUS
 62
     2
 10
142.069856655
 20
86.904687358
 30
0.0
 11
142.134991791
 21
86.661883337
 31
0.0
  0
LINE
  8
0
  6
CONTINUOUS
 62
     2
 10
141.587639631
 20
86.775477696
 30
0.0
 11
141.652632959
 21
86.532635677
 31
0.0
  0
ARC
  8
0
  6
CONTINUOUS
 62
     2
 10
141.832342851
 20
86.826666891
 30
0.0
 40
0.25
 50
18.184738537
 51
191.815261463
  0
ARC
  8
0
  6
CONTINUOUS
 62
     2
 10
141.897047613
 20
86.585185434
 30
0.0
 40
0.25
 50
17.865983982
 51
192.134016017
  0
LINE
  8
0
  6
CONTINUOUS
 62
     2
 10
143.007673011
 20
87.595334351
 30
0.0
 11
143.185483704
 21
87.417627468
 31
0.0
  0
LINE
  8
0
  6
CONTINUOUS
 62
     2
 10
142.654665649
 20
87.242326989
 30
0.0
 11
142.832372532
 21
87.064516296
 31
0.0
  0
ARC
  8
0
  6
CONTINUOUS
 62
     2
 10
142.840990258
 20
87.409009742
 30
0.0
 40
0.25
 50
48.184738537
 51
221.815261463
  0
ARC
  8
0
  6
CONTINUOUS
 62
     2
 10
143.017766953
 20
87.232233047
 30
0.0
 40
0.25
 50
47.865983982
 51
222.134016017
  0
LINE
  8
0
  6
CONTINUOUS
 62
     2
 10
143.474522304
 20
88.662360369
 30
0.0
 11
143.717364323
 21
88.597367041
 31
0.0
  0
LINE
  8
0
  6
CONTINUOUS
 62
     2
 10
143.345312642
 20
88.180143345
 30
0.0
 11
143.588116663
 21
88.115008209
 31
0.0
  0
ARC
  8
0
  6
CONTINUOUS
 62
     2
 10
143.423333109
 20
88.417657149
 30
0.0
 40
0.25
 50
78.184738537
 51
251.815261463
  0
ARC
  8
0
  6
CONTINUOUS
 62
     2
 10
143.664814566
 20
88.352952387
 30
0.0
 40
0.25
 50
77.865983982
 51
252.134016017
  0
ARC
  8
0
  6
CONTINUOUS
 62
     2
 10
141.25
 20
89.0
 30
0.0
 40
2.5
 50
290.731967965
 51
309.268032035
  0
ARC
  8
0
  6
CONTINUOUS
 62
     2
 10
141.25
 20
89.0
 30
0.0
 40
2.25
 50
291.369477073
 51
308.630522927
  0
ARC
  8
0
  6
CONTINUOUS
 62
     2
 10
141.25
 20
89.0
 30
0.0
 40
2.5
 50
320.731967965
 51
339.268032035
  0
ARC
  8
0
  6
CONTINUOUS
 62
     2
 10
141.25
 20
89.0
 30
0.0
 40
2.25
 50
321.369477073
 51
338.630522927
  0
ARC
  8
0
  6
CONTINUOUS
 62
     2
 10
141.25
 20
89.0
 30
0.0
 40
2.25
 50
261.369477073
 51
278.630522927
  0
ARC
  8
0
  6
CONTINUOUS
 62
     2
 10
141.25
 20
89.0
 30
0.0
 40
2.5
 50
260.731967965
 51
279.268032035
  0
LINE
  8
0
  6
CONTINUOUS
 62
     2
 10
140.430143345
 20
91.095312642
 30
0.0
 11
140.365008209
 21
91.338116663
 31
0.0
  0
LINE
  8
0
  6
CONTINUOUS
 62
     2
 10
140.912360369
 20
91.224522304
 30
0.0
 11
140.847367041
 21
91.467364323
 31
0.0
  0
ARC
  8
0
  6
CONTINUOUS
 62
     2
 10
140.667657149
 20
91.173333109
 30
0.0
 40
0.25
 50
198.184738537
 51
11.815261463
  0
ARC
  8
0
  6
CONTINUOUS
 62
     2
 10
140.602952387
 20
91.414814566
 30
0.0
 40
0.25
 50
197.865983982
 51
12.134016017
  0
LINE
  8
0
  6
CONTINUOUS
 62
     2
 10
139.492326989
 20
90.404665649
 30
0.0
 11
139.314516296
 21
90.582372532
 31
0.0
  0
LINE
  8
0
  6
CONTINUOUS
 62
     2
 10
139.845334351
 20
90.757673011
 30
0.0
 11
139.667627468
 21
90.935483704
 31
0.0
  0
ARC
  8
0
  6
CONTINUOUS
 62
     2
 10
139.659009742
 20
90.590990258
 30
0.0
 40
0.25
 50
228.184738537
 51
41.815261463
  0
ARC
  8
0
  6
CONTINUOUS
 62
     2
 10
139.482233047
 20
90.767766953
 30
0.0
 40
0.25
 50
227.865983982
 51
42.134016017
  0
LINE
  8
0
  6
CONTINUOUS
 62
     2
 10
139.025477696
 20
89.337639631
 30
0.0
 11
138.782635677
 21
89.402632959
 31
0.0
  0
LINE
  8
0
  6
CONTINUOUS
 62
     2
 10
139.154687358
 20
89.819856655
 30
0.0
 11
138.911883337
 21
89.884991791
 31
0.0
  0
ARC
  8
0
  6
CONTINUOUS
 62
     2
 10
139.076666891
 20
89.582342851
 30
0.0
 40
0.25
 50
258.184738537
 51
71.815261463
  0
ARC
  8
0
  6
CONTINUOUS
 62
     2
 10
138.835185434
 20
89.647047613
 30
0.0
 40
0.25
 50
257.865983982
 51
72.134016017
  0
ARC
  8
0
  6
CONTINUOUS
 62
     2
 10
141.25
 20
89.0
 30
0.0
 40
2.5
 50
110.731967965
 51
129.268032035
  0
ARC
  8
0
  6
CONTINUOUS
 62
     2
 10
141.25
 20
89.0
 30
0.0
 40
2.25
 50
111.369477073
 51
128.630522927
  0
ARC
  8
0
  6
CONTINUOUS
 62
     2
 10
141.25
 20
89.0
 30
0.0
 40
2.5
 50
140.731967965
 51
159.268032035
  0
ARC
  8
0
  6
CONTINUOUS
 62
     2
 10
141.25
 20
89.0
 30
0.0
 40
2.25
 50
141.369477073
 51
158.630522927
  0
LINE
  8
0
  6
CONTINUOUS
 62
     2
 10
142.069856655
 20
91.095312642
 30
0.0
 11
142.134991791
 21
91.338116663
 31
0.0
  0
LINE
  8
0
  6
CONTINUOUS
 62
     2
 10
141.587639631
 20
91.224522304
 30
0.0
 11
141.652632959
 21
91.467364323
 31
0.0
  0
ARC
  8
0
  6
CONTINUOUS
 62
     2
 10
141.832342851
 20
91.173333109
 30
0.0
 40
0.25
 50
168.184738537
 51
341.815261463
  0
ARC
  8
0
  6
CONTINUOUS
 62
     2
 10
141.897047613
 20
91.414814566
 30
0.0
 40
0.25
 50
167.865983983
 51
342.134016018
  0
LINE
  8
0
  6
CONTINUOUS
 62
     2
 10
143.007673011
 20
90.404665649
 30
0.0
 11
143.185483704
 21
90.582372532
 31
0.0
  0
LINE
  8
0
  6
CONTINUOUS
 62
     2
 10
142.654665649
 20
90.757673011
 30
0.0
 11
142.832372532
 21
90.935483704
 31
0.0
  0
ARC
  8
0
  6
CONTINUOUS
 62
     2
 10
142.840990258
 20
90.590990258
 30
0.0
 40
0.25
 50
138.184738537
 51
311.815261463
  0
ARC
  8
0
  6
CONTINUOUS
 62
     2
 10
143.017766953
 20
90.767766953
 30
0.0
 40
0.25
 50
137.865983983
 51
312.134016018
  0
LINE
  8
0
  6
CONTINUOUS
 62
     2
 10
143.474522304
 20
89.337639631
 30
0.0
 11
143.717364323
 21
89.402632959
 31
0.0
  0
LINE
  8
0
  6
CONTINUOUS
 62
     2
 10
143.345312642
 20
89.819856655
 30
0.0
 11
143.588116663
 21
89.884991791
 31
0.0
  0
ARC
  8
0
  6
CONTINUOUS
 62
     2
 10
143.423333109
 20
89.582342851
 30
0.0
 40
0.25
 50
108.184738537
 51
281.815261463
  0
ARC
  8
0
  6
CONTINUOUS
 62
     2
 10
143.664814566
 20
89.647047613
 30
0.0
 40
0.25
 50
107.865983983
 51
282.134016018
  0
ARC
  8
0
  6
CONTINUOUS
 62
     2
 10
141.25
 20
89.0
 30
0.0
 40
2.5
 50
50.731967965
 51
69.268032035
  0
ARC
  8
0
  6
CONTINUOUS
 62
     2
 10
141.25
 20
89.0
 30
0.0
 40
2.25
 50
51.369477073
 51
68.630522927
  0
ARC
  8
0
  6
CONTINUOUS
 62
     2
 10
141.25
 20
89.0
 30
0.0
 40
2.5
 50
20.731967965
 51
39.268032035
  0
ARC
  8
0
  6
CONTINUOUS
 62
     2
 10
141.25
 20
89.0
 30
0.0
 40
2.25
 50
21.369477073
 51
38.630522927
  0
ARC
  8
0
  6
CONTINUOUS
 62
     2
 10
141.25
 20
89.0
 30
0.0
 40
2.25
 50
81.369477073
 51
98.630522927
  0
ARC
  8
0
  6
CONTINUOUS
 62
     2
 10
141.25
 20
89.0
 30
0.0
 40
2.5
 50
80.731967965
 51
99.268032035
  0
ARC
  8
0
  6
CONTINUOUS
 62
     2
 10
141.25
 20
89.0
 30
0.0
 40
2.5
 50
170.731967965
 51
189.268032035
  0
ARC
  8
0
  6
CONTINUOUS
 62
     2
 10
141.25
 20
89.0
 30
0.0
 40
2.5
 50
350.731967965
 51
9.268032035
  0
ARC
  8
0
  6
CONTINUOUS
 62
     2
 10
141.25
 20
89.0
 30
0.0
 40
2.25
 50
171.369477073
 51
188.630522927
  0
ARC
  8
0
  6
CONTINUOUS
 62
     2
 10
141.25
 20
89.0
 30
0.0
 40
2.25
 50
351.369477073
 51
8.630522927
  0
LINE
  8
0
  6
LTYPE1
 62
     2
 10
138.25
 20
89.0
 30
0.0
 11
144.25
 21
89.0
 31
0.0
  0
LINE
  8
0
  6
LTYPE1
 62
     2
 10
141.25
 20
92.0
 30
0.0
 11
141.25
 21
86.0
 31
0.0
  0
LINE
  8
0
  6
LTYPE1
 62
     2
 10
142.0
 20
84.75
 30
0.0
 11
148.0
 21
84.75
 31
0.0
  0
CIRCLE
  8
0
  6
CONTINUOUS
 62
     2
 10
141.25
 20
89.0
 30
0.0
 40
2.5
  0
LINE
  8
0
  6
CONTINUOUS
 62
     2
 10
140.0
 20
86.834936491
 30
0.0
 11
138.232233047
 21
85.067169538
 31
0.0
  0
LINE
  8
0
  6
CONTINUOUS
 62
     2
 10
140.0
 20
86.834936491
 30
0.0
 11
139.352952387
 21
84.420121925
 31
0.0
  0
LINE
  8
0
  6
CONTINUOUS
 62
     2
 10
130.0
 20
94.25
 30
0.0
 11
160.0
 21
94.25
 31
0.0
  0
LINE
  8
0
  6
CONTINUOUS
 62
     2
 10
136.053847577
 20
80.0
 30
0.0
 11
121.653847577
 21
80.0
 31
0.0
  0
TEXT
  8
0
  6
CONTINUOUS
 62
     2
 10
121.653847577
 20
81.0
 30
0.3
 40
3.0
  1
Ｌ側設定ツマミ
 50
0.0
 41
0.6
 51
0.0
  7
KANJI0
  0
TEXT
  8
0
  6
CONTINUOUS
 62
     2
 10
121.653847577
 20
76.0
 30
0.3
 40
3.0
  1
（中央黄色）
 50
0.0
 41
0.6
 51
0.0
  7
KANJI0
  0
LINE
  8
0
  6
CONTINUOUS
 62
     2
 10
140.0
 20
86.834936491
 30
0.0
 11
136.053847577
 21
80.0
 31
0.0
  0
CIRCLE
  8
0
  6
CONTINUOUS
 62
     2
 10
141.0
 20
58.0
 30
0.0
 40
1.375
  0
CIRCLE
  8
0
  6
CONTINUOUS
 62
     2
 10
141.0
 20
62.5
 30
0.0
 40
1.375
  0
CIRCLE
  8
0
  6
CONTINUOUS
 62
     2
 10
141.0
 20
67.0
 30
0.0
 40
1.375
  0
CIRCLE
  8
0
  6
CONTINUOUS
 62
     2
 10
141.0
 20
53.5
 30
0.0
 40
1.375
  0
CIRCLE
  8
0
  6
CONTINUOUS
 62
     2
 10
149.0
 20
58.0
 30
0.0
 40
1.375
  0
CIRCLE
  8
0
  6
CONTINUOUS
 62
     2
 10
149.0
 20
62.5
 30
0.0
 40
1.375
  0
CIRCLE
  8
0
  6
CONTINUOUS
 62
     2
 10
149.0
 20
67.0
 30
0.0
 40
1.375
  0
CIRCLE
  8
0
  6
CONTINUOUS
 62
     2
 10
149.0
 20
53.5
 30
0.0
 40
1.375
  0
LINE
  8
0
  6
CONTINUOUS
 62
     2
 10
133.0
 20
67.0
 30
0.0
 11
135.414814566
 21
66.352952387
 31
0.0
  0
LINE
  8
0
  6
CONTINUOUS
 62
     2
 10
133.0
 20
67.0
 30
0.0
 11
135.414814566
 21
67.647047613
 31
0.0
  0
LINE
  8
0
  6
CONTINUOUS
 62
     2
 10
133.0
 20
62.5
 30
0.0
 11
135.414814566
 21
61.852952387
 31
0.0
  0
LINE
  8
0
  6
CONTINUOUS
 62
     2
 10
133.0
 20
62.5
 30
0.0
 11
135.414814566
 21
63.147047613
 31
0.0
  0
LINE
  8
0
  6
CONTINUOUS
 62
     2
 10
139.625
 20
62.5
 30
0.0
 11
133.0
 21
62.5
 31
0.0
  0
LINE
  8
0
  6
CONTINUOUS
 62
     2
 10
137.5
 20
67.0
 30
0.0
 11
133.0
 21
67.0
 31
0.0
  0
TEXT
  8
0
  6
CONTINUOUS
 62
     2
 10
137.0
 20
66.5
 30
0.1
 40
1.0
  1
（＋）
 50
0.0
 41
0.9
 51
0.0
  7
KANJI1
  0
LINE
  8
0
  6
CONTINUOUS
 62
     2
 10
150.375
 20
62.5
 30
0.0
 11
157.0
 21
62.5
 31
0.0
  0
LINE
  8
0
  6
CONTINUOUS
 62
     2
 10
152.5
 20
67.0
 30
0.0
 11
157.0
 21
67.0
 31
0.0
  0
TEXT
  8
0
  6
CONTINUOUS
 62
     2
 10
150.1
 20
66.5
 30
0.1
 40
1.0
  1
（＋）
 50
0.0
 41
0.9
 51
0.0
  7
KANJI1
  0
TEXT
  8
0
  6
CONTINUOUS
 62
     2
 10
153.9
 20
63.3
 30
0.3
 40
3.0
  1
制御電源
 50
0.0
 41
0.9
 51
0.0
  7
KANJI2
  0
TEXT
  8
0
  6
CONTINUOUS
 62
     2
 10
120.9
 20
63.3
 30
0.3
 40
3.0
  1
計器入力
 50
0.0
 41
0.9
 51
0.0
  7
KANJI2
  0
CIRCLE
  8
0
  6
CONTINUOUS
 62
     2
 10
153.0
 20
58.0
 30
0.0
 40
1.0
  0
LINE
  8
0
  6
CONTINUOUS
 62
     2
 10
160.352952387
 20
55.585185434
 30
0.0
 11
159.705904774
 21
58.0
 31
0.0
  0
LINE
  8
0
  6
CONTINUOUS
 62
     2
 10
160.352952387
 20
55.585185434
 30
0.0
 11
161.0
 21
58.0
 31
0.0
  0
CIRCLE
  8
0
  6
CONTINUOUS
 62
     2
 10
153.0
 20
53.5
 30
0.0
 40
1.0
  0
LINE
  8
0
  6
CONTINUOUS
 62
     2
 10
154.0
 20
58.0
 30
0.0
 11
161.0
 21
58.0
 31
0.0
  0
TEXT
  8
0
  6
CONTINUOUS
 62
     2
 10
161.9
 20
55.3
 30
0.3
 40
3.0
  1
Ｌ側
 50
0.0
 41
0.9
 51
0.0
  7
KANJI2
  0
TEXT
  8
0
  6
CONTINUOUS
 62
     2
 10
161.9
 20
50.3
 30
0.3
 40
3.0
  1
負荷リレ－
 50
0.0
 41
0.9
 51
0.0
  7
KANJI2
  0
TEXT
  8
0
  6
CONTINUOUS
 62
     2
 10
150.275
 20
57.4
 30
0.2
 40
2.0
  1
ａ
 50
0.0
 41
0.9
 51
0.0
  7
KANJI3
  0
TEXT
  8
0
  6
CONTINUOUS
 62
     2
 10
150.275
 20
52.9
 30
0.2
 40
2.0
  1
ｃ
 50
0.0
 41
0.9
 51
0.0
  7
KANJI3
  0
CIRCLE
  8
0
  6
CONTINUOUS
 62
     2
 10
97.0
 20
84.75
 30
0.0
 40
1.8
  0
LINE
  8
0
  6
CONTINUOUS
 62
     2
 10
85.5
 20
94.25
 30
0.0
 11
108.5
 21
94.25
 31
0.0
  0
LINE
  8
0
  6
CONTINUOUS
 62
     2
 10
96.75
 20
86.532554347
 30
0.0
 11
96.75
 21
82.967445653
 31
0.0
  0
LINE
  8
0
  6
CONTINUOUS
 62
     2
 10
97.25
 20
82.967445653
 30
0.0
 11
97.25
 21
86.532554347
 31
0.0
  0
LINE
  8
0
  6
LTYPE1
 62
     2
 10
94.0
 20
84.75
 30
0.0
 11
100.0
 21
84.75
 31
0.0
  0
CIRCLE
  8
0
  6
CONTINUOUS
 62
     2
 10
100.75
 20
89.0
 30
0.0
 40
1.75
  0
CIRCLE
  8
0
  6
CONTINUOUS
 62
     2
 10
100.75
 20
89.0
 30
0.0
 40
0.75
  0
LINE
  8
0
  6
CONTINUOUS
 62
     2
 10
99.930143345
 20
86.904687358
 30
0.0
 11
99.865008209
 21
86.661883337
 31
0.0
  0
LINE
  8
0
  6
CONTINUOUS
 62
     2
 10
100.412360369
 20
86.775477696
 30
0.0
 11
100.347367041
 21
86.532635677
 31
0.0
  0
ARC
  8
0
  6
CONTINUOUS
 62
     2
 10
100.167657149
 20
86.826666891
 30
0.0
 40
0.25
 50
348.184738537
 51
161.815261463
  0
ARC
  8
0
  6
CONTINUOUS
 62
     2
 10
100.102952387
 20
86.585185434
 30
0.0
 40
0.25
 50
347.865983983
 51
162.134016018
  0
LINE
  8
0
  6
CONTINUOUS
 62
     2
 10
98.992326989
 20
87.595334351
 30
0.0
 11
98.814516296
 21
87.417627468
 31
0.0
  0
LINE
  8
0
  6
CONTINUOUS
 62
     2
 10
99.345334351
 20
87.242326989
 30
0.0
 11
99.167627468
 21
87.064516296
 31
0.0
  0
ARC
  8
0
  6
CONTINUOUS
 62
     2
 10
99.159009742
 20
87.409009742
 30
0.0
 40
0.25
 50
318.184738537
 51
131.815261463
  0
ARC
  8
0
  6
CONTINUOUS
 62
     2
 10
98.982233047
 20
87.232233047
 30
0.0
 40
0.25
 50
317.865983983
 51
132.134016018
  0
LINE
  8
0
  6
CONTINUOUS
 62
     2
 10
98.525477696
 20
88.662360369
 30
0.0
 11
98.282635677
 21
88.597367041
 31
0.0
  0
LINE
  8
0
  6
CONTINUOUS
 62
     2
 10
98.654687358
 20
88.180143345
 30
0.0
 11
98.411883337
 21
88.115008209
 31
0.0
  0
ARC
  8
0
  6
CONTINUOUS
 62
     2
 10
98.576666891
 20
88.417657149
 30
0.0
 40
0.25
 50
288.184738537
 51
101.815261463
  0
ARC
  8
0
  6
CONTINUOUS
 62
     2
 10
98.335185434
 20
88.352952387
 30
0.0
 40
0.25
 50
287.865983983
 51
102.134016018
  0
ARC
  8
0
  6
CONTINUOUS
 62
     2
 10
100.75
 20
89.0
 30
0.0
 40
2.5
 50
230.731967965
 51
249.268032035
  0
ARC
  8
0
  6
CONTINUOUS
 62
     2
 10
100.75
 20
89.0
 30
0.0
 40
2.25
 50
231.369477073
 51
248.630522927
  0
ARC
  8
0
  6
CONTINUOUS
 62
     2
 10
100.75
 20
89.0
 30
0.0
 40
2.5
 50
200.731967965
 51
219.268032035
  0
ARC
  8
0
  6
CONTINUOUS
 62
     2
 10
100.75
 20
89.0
 30
0.0
 40
2.25
 50
201.369477073
 51
218.630522927
  0
LINE
  8
0
  6
CONTINUOUS
 62
     2
 10
101.569856655
 20
86.904687358
 30
0.0
 11
101.634991791
 21
86.661883337
 31
0.0
  0
LINE
  8
0
  6
CONTINUOUS
 62
     2
 10
101.087639631
 20
86.775477696
 30
0.0
 11
101.152632959
 21
86.532635677
 31
0.0
  0
ARC
  8
0
  6
CONTINUOUS
 62
     2
 10
101.332342851
 20
86.826666891
 30
0.0
 40
0.25
 50
18.184738537
 51
191.815261463
  0
ARC
  8
0
  6
CONTINUOUS
 62
     2
 10
101.397047613
 20
86.585185434
 30
0.0
 40
0.25
 50
17.865983982
 51
192.134016017
  0
LINE
  8
0
  6
CONTINUOUS
 62
     2
 10
102.507673011
 20
87.595334351
 30
0.0
 11
102.685483704
 21
87.417627468
 31
0.0
  0
LINE
  8
0
  6
CONTINUOUS
 62
     2
 10
102.154665649
 20
87.242326989
 30
0.0
 11
102.332372532
 21
87.064516296
 31
0.0
  0
ARC
  8
0
  6
CONTINUOUS
 62
     2
 10
102.340990258
 20
87.409009742
 30
0.0
 40
0.25
 50
48.184738537
 51
221.815261463
  0
ARC
  8
0
  6
CONTINUOUS
 62
     2
 10
102.517766953
 20
87.232233047
 30
0.0
 40
0.25
 50
47.865983982
 51
222.134016017
  0
LINE
  8
0
  6
CONTINUOUS
 62
     2
 10
102.974522304
 20
88.662360369
 30
0.0
 11
103.217364323
 21
88.597367041
 31
0.0
  0
LINE
  8
0
  6
CONTINUOUS
 62
     2
 10
102.845312642
 20
88.180143345
 30
0.0
 11
103.088116663
 21
88.115008209
 31
0.0
  0
ARC
  8
0
  6
CONTINUOUS
 62
     2
 10
102.923333109
 20
88.417657149
 30
0.0
 40
0.25
 50
78.184738537
 51
251.815261463
  0
ARC
  8
0
  6
CONTINUOUS
 62
     2
 10
103.164814566
 20
88.352952387
 30
0.0
 40
0.25
 50
77.865983982
 51
252.134016017
  0
ARC
  8
0
  6
CONTINUOUS
 62
     2
 10
100.75
 20
89.0
 30
0.0
 40
2.5
 50
290.731967965
 51
309.268032035
  0
ARC
  8
0
  6
CONTINUOUS
 62
     2
 10
100.75
 20
89.0
 30
0.0
 40
2.25
 50
291.369477073
 51
308.630522927
  0
ARC
  8
0
  6
CONTINUOUS
 62
     2
 10
100.75
 20
89.0
 30
0.0
 40
2.5
 50
320.731967965
 51
339.268032035
  0
ARC
  8
0
  6
CONTINUOUS
 62
     2
 10
100.75
 20
89.0
 30
0.0
 40
2.25
 50
321.369477073
 51
338.630522927
  0
ARC
  8
0
  6
CONTINUOUS
 62
     2
 10
100.75
 20
89.0
 30
0.0
 40
2.25
 50
261.369477073
 51
278.630522927
  0
ARC
  8
0
  6
CONTINUOUS
 62
     2
 10
100.75
 20
89.0
 30
0.0
 40
2.5
 50
260.731967965
 51
279.268032035
  0
LINE
  8
0
  6
CONTINUOUS
 62
     2
 10
99.930143345
 20
91.095312642
 30
0.0
 11
99.865008209
 21
91.338116663
 31
0.0
  0
LINE
  8
0
  6
CONTINUOUS
 62
     2
 10
100.412360369
 20
91.224522304
 30
0.0
 11
100.347367041
 21
91.467364323
 31
0.0
  0
ARC
  8
0
  6
CONTINUOUS
 62
     2
 10
100.167657149
 20
91.173333109
 30
0.0
 40
0.25
 50
198.184738537
 51
11.815261463
  0
ARC
  8
0
  6
CONTINUOUS
 62
     2
 10
100.102952387
 20
91.414814566
 30
0.0
 40
0.25
 50
197.865983982
 51
12.134016017
  0
LINE
  8
0
  6
CONTINUOUS
 62
     2
 10
98.992326989
 20
90.404665649
 30
0.0
 11
98.814516296
 21
90.582372532
 31
0.0
  0
LINE
  8
0
  6
CONTINUOUS
 62
     2
 10
99.345334351
 20
90.757673011
 30
0.0
 11
99.167627468
 21
90.935483704
 31
0.0
  0
ARC
  8
0
  6
CONTINUOUS
 62
     2
 10
99.159009742
 20
90.590990258
 30
0.0
 40
0.25
 50
228.184738537
 51
41.815261463
  0
ARC
  8
0
  6
CONTINUOUS
 62
     2
 10
98.982233047
 20
90.767766953
 30
0.0
 40
0.25
 50
227.865983982
 51
42.134016017
  0
LINE
  8
0
  6
CONTINUOUS
 62
     2
 10
98.525477696
 20
89.337639631
 30
0.0
 11
98.282635677
 21
89.402632959
 31
0.0
  0
LINE
  8
0
  6
CONTINUOUS
 62
     2
 10
98.654687358
 20
89.819856655
 30
0.0
 11
98.411883337
 21
89.884991791
 31
0.0
  0
ARC
  8
0
  6
CONTINUOUS
 62
     2
 10
98.576666891
 20
89.582342851
 30
0.0
 40
0.25
 50
258.184738537
 51
71.815261463
  0
ARC
  8
0
  6
CONTINUOUS
 62
     2
 10
98.335185434
 20
89.647047613
 30
0.0
 40
0.25
 50
257.865983982
 51
72.134016017
  0
ARC
  8
0
  6
CONTINUOUS
 62
     2
 10
100.75
 20
89.0
 30
0.0
 40
2.5
 50
110.731967965
 51
129.268032035
  0
ARC
  8
0
  6
CONTINUOUS
 62
     2
 10
100.75
 20
89.0
 30
0.0
 40
2.25
 50
111.369477073
 51
128.630522927
  0
ARC
  8
0
  6
CONTINUOUS
 62
     2
 10
100.75
 20
89.0
 30
0.0
 40
2.5
 50
140.731967965
 51
159.268032035
  0
ARC
  8
0
  6
CONTINUOUS
 62
     2
 10
100.75
 20
89.0
 30
0.0
 40
2.25
 50
141.369477073
 51
158.630522927
  0
LINE
  8
0
  6
CONTINUOUS
 62
     2
 10
101.569856655
 20
91.095312642
 30
0.0
 11
101.634991791
 21
91.338116663
 31
0.0
  0
LINE
  8
0
  6
CONTINUOUS
 62
     2
 10
101.087639631
 20
91.224522304
 30
0.0
 11
101.152632959
 21
91.467364323
 31
0.0
  0
ARC
  8
0
  6
CONTINUOUS
 62
     2
 10
101.332342851
 20
91.173333109
 30
0.0
 40
0.25
 50
168.184738537
 51
341.815261463
  0
ARC
  8
0
  6
CONTINUOUS
 62
     2
 10
101.397047613
 20
91.414814566
 30
0.0
 40
0.25
 50
167.865983983
 51
342.134016018
  0
LINE
  8
0
  6
CONTINUOUS
 62
     2
 10
102.507673011
 20
90.404665649
 30
0.0
 11
102.685483704
 21
90.582372532
 31
0.0
  0
LINE
  8
0
  6
CONTINUOUS
 62
     2
 10
102.154665649
 20
90.757673011
 30
0.0
 11
102.332372532
 21
90.935483704
 31
0.0
  0
ARC
  8
0
  6
CONTINUOUS
 62
     2
 10
102.340990258
 20
90.590990258
 30
0.0
 40
0.25
 50
138.184738537
 51
311.815261463
  0
ARC
  8
0
  6
CONTINUOUS
 62
     2
 10
102.517766953
 20
90.767766953
 30
0.0
 40
0.25
 50
137.865983983
 51
312.134016018
  0
LINE
  8
0
  6
CONTINUOUS
 62
     2
 10
102.974522304
 20
89.337639631
 30
0.0
 11
103.217364323
 21
89.402632959
 31
0.0
  0
LINE
  8
0
  6
CONTINUOUS
 62
     2
 10
102.845312642
 20
89.819856655
 30
0.0
 11
103.088116663
 21
89.884991791
 31
0.0
  0
ARC
  8
0
  6
CONTINUOUS
 62
     2
 10
102.923333109
 20
89.582342851
 30
0.0
 40
0.25
 50
108.184738537
 51
281.815261463
  0
ARC
  8
0
  6
CONTINUOUS
 62
     2
 10
103.164814566
 20
89.647047613
 30
0.0
 40
0.25
 50
107.865983983
 51
282.134016018
  0
ARC
  8
0
  6
CONTINUOUS
 62
     2
 10
100.75
 20
89.0
 30
0.0
 40
2.5
 50
50.731967965
 51
69.268032035
  0
ARC
  8
0
  6
CONTINUOUS
 62
     2
 10
100.75
 20
89.0
 30
0.0
 40
2.25
 50
51.369477073
 51
68.630522927
  0
ARC
  8
0
  6
CONTINUOUS
 62
     2
 10
100.75
 20
89.0
 30
0.0
 40
2.5
 50
20.731967965
 51
39.268032035
  0
ARC
  8
0
  6
CONTINUOUS
 62
     2
 10
100.75
 20
89.0
 30
0.0
 40
2.25
 50
21.369477073
 51
38.630522927
  0
ARC
  8
0
  6
CONTINUOUS
 62
     2
 10
100.75
 20
89.0
 30
0.0
 40
2.25
 50
81.369477073
 51
98.630522927
  0
ARC
  8
0
  6
CONTINUOUS
 62
     2
 10
100.75
 20
89.0
 30
0.0
 40
2.5
 50
80.731967965
 51
99.268032035
  0
ARC
  8
0
  6
CONTINUOUS
 62
     2
 10
100.75
 20
89.0
 30
0.0
 40
2.5
 50
170.731967965
 51
189.268032035
  0
ARC
  8
0
  6
CONTINUOUS
 62
     2
 10
100.75
 20
89.0
 30
0.0
 40
2.5
 50
350.731967965
 51
9.268032035
  0
ARC
  8
0
  6
CONTINUOUS
 62
     2
 10
100.75
 20
89.0
 30
0.0
 40
2.25
 50
171.369477073
 51
188.630522927
  0
ARC
  8
0
  6
CONTINUOUS
 62
     2
 10
100.75
 20
89.0
 30
0.0
 40
2.25
 50
351.369477073
 51
8.630522927
  0
LINE
  8
0
  6
LTYPE1
 62
     2
 10
97.75
 20
89.0
 30
0.0
 11
103.75
 21
89.0
 31
0.0
  0
LINE
  8
0
  6
LTYPE1
 62
     2
 10
100.75
 20
92.0
 30
0.0
 11
100.75
 21
86.0
 31
0.0
  0
CIRCLE
  8
0
  6
CONTINUOUS
 62
     2
 10
100.75
 20
89.0
 30
0.0
 40
2.5
  0
LINE
  8
0
  6
CONTINUOUS
 62
     2
 10
102.0
 20
86.834936491
 30
0.0
 11
102.647047613
 21
84.420121925
 31
0.0
  0
LINE
  8
0
  6
CONTINUOUS
 62
     2
 10
102.0
 20
86.834936491
 30
0.0
 11
103.767766953
 21
85.067169538
 31
0.0
  0
LINE
  8
0
  6
CONTINUOUS
 62
     2
 10
82.0
 20
94.25
 30
0.0
 11
112.0
 21
94.25
 31
0.0
  0
TEXT
  8
0
  6
CONTINUOUS
 62
     2
 10
105.946152423
 20
81.0
 30
0.3
 40
3.0
  1
Ｈ側設定ツマミ
 50
0.0
 41
0.6
 51
0.0
  7
KANJI0
  0
TEXT
  8
0
  6
CONTINUOUS
 62
     2
 10
105.946152423
 20
76.0
 30
0.3
 40
3.0
  1
（中央赤色）
 50
0.0
 41
0.6
 51
0.0
  7
KANJI0
  0
LINE
  8
0
  6
CONTINUOUS
 62
     2
 10
105.946152423
 20
80.0
 30
0.0
 11
120.346152423
 21
80.0
 31
0.0
  0
LINE
  8
0
  6
CONTINUOUS
 62
     2
 10
102.0
 20
86.834936491
 30
0.0
 11
105.946152423
 21
80.0
 31
0.0
  0
CIRCLE
  8
0
  6
CONTINUOUS
 62
     2
 10
93.0
 20
58.0
 30
0.0
 40
1.375
  0
CIRCLE
  8
0
  6
CONTINUOUS
 62
     2
 10
93.0
 20
62.5
 30
0.0
 40
1.375
  0
CIRCLE
  8
0
  6
CONTINUOUS
 62
     2
 10
93.0
 20
67.0
 30
0.0
 40
1.375
  0
CIRCLE
  8
0
  6
CONTINUOUS
 62
     2
 10
93.0
 20
53.5
 30
0.0
 40
1.375
  0
CIRCLE
  8
0
  6
CONTINUOUS
 62
     2
 10
101.0
 20
58.0
 30
0.0
 40
1.375
  0
CIRCLE
  8
0
  6
CONTINUOUS
 62
     2
 10
101.0
 20
62.5
 30
0.0
 40
1.375
  0
CIRCLE
  8
0
  6
CONTINUOUS
 62
     2
 10
101.0
 20
67.0
 30
0.0
 40
1.375
  0
CIRCLE
  8
0
  6
CONTINUOUS
 62
     2
 10
101.0
 20
53.5
 30
0.0
 40
1.375
  0
LINE
  8
0
  6
CONTINUOUS
 62
     2
 10
85.0
 20
67.0
 30
0.0
 11
87.414814566
 21
66.352952387
 31
0.0
  0
LINE
  8
0
  6
CONTINUOUS
 62
     2
 10
85.0
 20
67.0
 30
0.0
 11
87.414814566
 21
67.647047613
 31
0.0
  0
LINE
  8
0
  6
CONTINUOUS
 62
     2
 10
85.0
 20
62.5
 30
0.0
 11
87.414814566
 21
61.852952387
 31
0.0
  0
LINE
  8
0
  6
CONTINUOUS
 62
     2
 10
85.0
 20
62.5
 30
0.0
 11
87.414814566
 21
63.147047613
 31
0.0
  0
LINE
  8
0
  6
CONTINUOUS
 62
     2
 10
91.625
 20
62.5
 30
0.0
 11
85.0
 21
62.5
 31
0.0
  0
LINE
  8
0
  6
CONTINUOUS
 62
     2
 10
89.5
 20
67.0
 30
0.0
 11
85.0
 21
67.0
 31
0.0
  0
TEXT
  8
0
  6
CONTINUOUS
 62
     2
 10
89.0
 20
66.5
 30
0.1
 40
1.0
  1
（＋）
 50
0.0
 41
0.9
 51
0.0
  7
KANJI1
  0
LINE
  8
0
  6
CONTINUOUS
 62
     2
 10
102.375
 20
62.5
 30
0.0
 11
109.0
 21
62.5
 31
0.0
  0
LINE
  8
0
  6
CONTINUOUS
 62
     2
 10
104.5
 20
67.0
 30
0.0
 11
109.0
 21
67.0
 31
0.0
  0
TEXT
  8
0
  6
CONTINUOUS
 62
     2
 10
102.1
 20
66.5
 30
0.1
 40
1.0
  1
（＋）
 50
0.0
 41
0.9
 51
0.0
  7
KANJI1
  0
TEXT
  8
0
  6
CONTINUOUS
 62
     2
 10
105.9
 20
63.3
 30
0.3
 40
3.0
  1
制御電源
 50
0.0
 41
0.9
 51
0.0
  7
KANJI2
  0
TEXT
  8
0
  6
CONTINUOUS
 62
     2
 10
72.9
 20
63.3
 30
0.3
 40
3.0
  1
計器入力
 50
0.0
 41
0.9
 51
0.0
  7
KANJI2
  0
CIRCLE
  8
0
  6
CONTINUOUS
 62
     2
 10
89.0
 20
58.0
 30
0.0
 40
1.0
  0
LINE
  8
0
  6
CONTINUOUS
 62
     2
 10
81.647047613
 20
55.585185434
 30
0.0
 11
82.294095226
 21
58.0
 31
0.0
  0
LINE
  8
0
  6
CONTINUOUS
 62
     2
 10
81.647047613
 20
55.585185434
 30
0.0
 11
81.0
 21
58.0
 31
0.0
  0
CIRCLE
  8
0
  6
CONTINUOUS
 62
     2
 10
89.0
 20
53.5
 30
0.0
 40
1.0
  0
LINE
  8
0
  6
CONTINUOUS
 62
     2
 10
88.0
 20
58.0
 30
0.0
 11
81.0
 21
58.0
 31
0.0
  0
TEXT
  8
0
  6
CONTINUOUS
 62
     2
 10
89.9
 20
57.4
 30
0.2
 40
2.0
  1
ａ
 50
0.0
 41
0.9
 51
0.0
  7
KANJI3
  0
TEXT
  8
0
  6
CONTINUOUS
 62
     2
 10
89.9
 20
52.9
 30
0.2
 40
2.0
  1
ｃ
 50
0.0
 41
0.9
 51
0.0
  7
KANJI3
  0
TEXT
  8
0
  6
CONTINUOUS
 62
     2
 10
71.9
 20
55.3
 30
0.3
 40
3.0
  1
Ｈ側
 50
0.0
 41
0.9
 51
0.0
  7
KANJI2
  0
CIRCLE
  8
0
  6
CONTINUOUS
 62
     2
 10
40.0
 20
84.75
 30
0.0
 40
1.8
  0
LINE
  8
0
  6
CONTINUOUS
 62
     2
 10
28.5
 20
94.25
 30
0.0
 11
51.5
 21
94.25
 31
0.0
  0
LINE
  8
0
  6
CONTINUOUS
 62
     2
 10
39.75
 20
86.532554347
 30
0.0
 11
39.75
 21
82.967445653
 31
0.0
  0
LINE
  8
0
  6
CONTINUOUS
 62
     2
 10
40.25
 20
82.967445653
 30
0.0
 11
40.25
 21
86.532554347
 31
0.0
  0
CIRCLE
  8
0
  6
CONTINUOUS
 62
     2
 10
36.25
 20
89.0
 30
0.0
 40
1.75
  0
CIRCLE
  8
0
  6
CONTINUOUS
 62
     2
 10
36.25
 20
89.0
 30
0.0
 40
0.75
  0
LINE
  8
0
  6
CONTINUOUS
 62
     2
 10
35.430143345
 20
86.904687358
 30
0.0
 11
35.365008209
 21
86.661883337
 31
0.0
  0
LINE
  8
0
  6
CONTINUOUS
 62
     2
 10
35.912360369
 20
86.775477696
 30
0.0
 11
35.847367041
 21
86.532635677
 31
0.0
  0
ARC
  8
0
  6
CONTINUOUS
 62
     2
 10
35.667657149
 20
86.826666891
 30
0.0
 40
0.25
 50
348.184738537
 51
161.815261463
  0
ARC
  8
0
  6
CONTINUOUS
 62
     2
 10
35.602952387
 20
86.585185434
 30
0.0
 40
0.25
 50
347.865983983
 51
162.134016018
  0
LINE
  8
0
  6
CONTINUOUS
 62
     2
 10
34.492326989
 20
87.595334351
 30
0.0
 11
34.314516296
 21
87.417627468
 31
0.0
  0
LINE
  8
0
  6
CONTINUOUS
 62
     2
 10
34.845334351
 20
87.242326989
 30
0.0
 11
34.667627468
 21
87.064516296
 31
0.0
  0
ARC
  8
0
  6
CONTINUOUS
 62
     2
 10
34.659009742
 20
87.409009742
 30
0.0
 40
0.25
 50
318.184738537
 51
131.815261463
  0
ARC
  8
0
  6
CONTINUOUS
 62
     2
 10
34.482233047
 20
87.232233047
 30
0.0
 40
0.25
 50
317.865983983
 51
132.134016018
  0
LINE
  8
0
  6
CONTINUOUS
 62
     2
 10
34.025477696
 20
88.662360369
 30
0.0
 11
33.782635677
 21
88.597367041
 31
0.0
  0
LINE
  8
0
  6
CONTINUOUS
 62
     2
 10
34.154687358
 20
88.180143345
 30
0.0
 11
33.911883337
 21
88.115008209
 31
0.0
  0
ARC
  8
0
  6
CONTINUOUS
 62
     2
 10
34.076666891
 20
88.417657149
 30
0.0
 40
0.25
 50
288.184738537
 51
101.815261463
  0
ARC
  8
0
  6
CONTINUOUS
 62
     2
 10
33.835185434
 20
88.352952387
 30
0.0
 40
0.25
 50
287.865983983
 51
102.134016018
  0
ARC
  8
0
  6
CONTINUOUS
 62
     2
 10
36.25
 20
89.0
 30
0.0
 40
2.5
 50
230.731967965
 51
249.268032035
  0
ARC
  8
0
  6
CONTINUOUS
 62
     2
 10
36.25
 20
89.0
 30
0.0
 40
2.25
 50
231.369477073
 51
248.630522927
  0
ARC
  8
0
  6
CONTINUOUS
 62
     2
 10
36.25
 20
89.0
 30
0.0
 40
2.5
 50
200.731967965
 51
219.268032035
  0
ARC
  8
0
  6
CONTINUOUS
 62
     2
 10
36.25
 20
89.0
 30
0.0
 40
2.25
 50
201.369477073
 51
218.630522927
  0
LINE
  8
0
  6
CONTINUOUS
 62
     2
 10
37.069856655
 20
86.904687358
 30
0.0
 11
37.134991791
 21
86.661883337
 31
0.0
  0
LINE
  8
0
  6
CONTINUOUS
 62
     2
 10
36.587639631
 20
86.775477696
 30
0.0
 11
36.652632959
 21
86.532635677
 31
0.0
  0
ARC
  8
0
  6
CONTINUOUS
 62
     2
 10
36.832342851
 20
86.826666891
 30
0.0
 40
0.25
 50
18.184738537
 51
191.815261463
  0
ARC
  8
0
  6
CONTINUOUS
 62
     2
 10
36.897047613
 20
86.585185434
 30
0.0
 40
0.25
 50
17.865983982
 51
192.134016017
  0
LINE
  8
0
  6
CONTINUOUS
 62
     2
 10
38.007673011
 20
87.595334351
 30
0.0
 11
38.185483704
 21
87.417627468
 31
0.0
  0
LINE
  8
0
  6
CONTINUOUS
 62
     2
 10
37.654665649
 20
87.242326989
 30
0.0
 11
37.832372532
 21
87.064516296
 31
0.0
  0
ARC
  8
0
  6
CONTINUOUS
 62
     2
 10
37.840990258
 20
87.409009742
 30
0.0
 40
0.25
 50
48.184738537
 51
221.815261463
  0
ARC
  8
0
  6
CONTINUOUS
 62
     2
 10
38.017766953
 20
87.232233047
 30
0.0
 40
0.25
 50
47.865983982
 51
222.134016017
  0
LINE
  8
0
  6
CONTINUOUS
 62
     2
 10
38.474522304
 20
88.662360369
 30
0.0
 11
38.717364323
 21
88.597367041
 31
0.0
  0
LINE
  8
0
  6
CONTINUOUS
 62
     2
 10
38.345312642
 20
88.180143345
 30
0.0
 11
38.588116663
 21
88.115008209
 31
0.0
  0
ARC
  8
0
  6
CONTINUOUS
 62
     2
 10
38.423333109
 20
88.417657149
 30
0.0
 40
0.25
 50
78.184738537
 51
251.815261463
  0
ARC
  8
0
  6
CONTINUOUS
 62
     2
 10
38.664814566
 20
88.352952387
 30
0.0
 40
0.25
 50
77.865983982
 51
252.134016017
  0
ARC
  8
0
  6
CONTINUOUS
 62
     2
 10
36.25
 20
89.0
 30
0.0
 40
2.5
 50
290.731967965
 51
309.268032035
  0
ARC
  8
0
  6
CONTINUOUS
 62
     2
 10
36.25
 20
89.0
 30
0.0
 40
2.25
 50
291.369477073
 51
308.630522927
  0
ARC
  8
0
  6
CONTINUOUS
 62
     2
 10
36.25
 20
89.0
 30
0.0
 40
2.5
 50
320.731967965
 51
339.268032035
  0
ARC
  8
0
  6
CONTINUOUS
 62
     2
 10
36.25
 20
89.0
 30
0.0
 40
2.25
 50
321.369477073
 51
338.630522927
  0
ARC
  8
0
  6
CONTINUOUS
 62
     2
 10
36.25
 20
89.0
 30
0.0
 40
2.25
 50
261.369477073
 51
278.630522927
  0
ARC
  8
0
  6
CONTINUOUS
 62
     2
 10
36.25
 20
89.0
 30
0.0
 40
2.5
 50
260.731967965
 51
279.268032035
  0
LINE
  8
0
  6
CONTINUOUS
 62
     2
 10
35.430143345
 20
91.095312642
 30
0.0
 11
35.365008209
 21
91.338116663
 31
0.0
  0
LINE
  8
0
  6
CONTINUOUS
 62
     2
 10
35.912360369
 20
91.224522304
 30
0.0
 11
35.847367041
 21
91.467364323
 31
0.0
  0
ARC
  8
0
  6
CONTINUOUS
 62
     2
 10
35.667657149
 20
91.173333109
 30
0.0
 40
0.25
 50
198.184738537
 51
11.815261463
  0
ARC
  8
0
  6
CONTINUOUS
 62
     2
 10
35.602952387
 20
91.414814566
 30
0.0
 40
0.25
 50
197.865983982
 51
12.134016017
  0
LINE
  8
0
  6
CONTINUOUS
 62
     2
 10
34.492326989
 20
90.404665649
 30
0.0
 11
34.314516296
 21
90.582372532
 31
0.0
  0
LINE
  8
0
  6
CONTINUOUS
 62
     2
 10
34.845334351
 20
90.757673011
 30
0.0
 11
34.667627468
 21
90.935483704
 31
0.0
  0
ARC
  8
0
  6
CONTINUOUS
 62
     2
 10
34.659009742
 20
90.590990258
 30
0.0
 40
0.25
 50
228.184738537
 51
41.815261463
  0
ARC
  8
0
  6
CONTINUOUS
 62
     2
 10
34.482233047
 20
90.767766953
 30
0.0
 40
0.25
 50
227.865983982
 51
42.134016017
  0
LINE
  8
0
  6
CONTINUOUS
 62
     2
 10
34.025477696
 20
89.337639631
 30
0.0
 11
33.782635677
 21
89.402632959
 31
0.0
  0
LINE
  8
0
  6
CONTINUOUS
 62
     2
 10
34.154687358
 20
89.819856655
 30
0.0
 11
33.911883337
 21
89.884991791
 31
0.0
  0
ARC
  8
0
  6
CONTINUOUS
 62
     2
 10
34.076666891
 20
89.582342851
 30
0.0
 40
0.25
 50
258.184738537
 51
71.815261463
  0
ARC
  8
0
  6
CONTINUOUS
 62
     2
 10
33.835185434
 20
89.647047613
 30
0.0
 40
0.25
 50
257.865983982
 51
72.134016017
  0
ARC
  8
0
  6
CONTINUOUS
 62
     2
 10
36.25
 20
89.0
 30
0.0
 40
2.5
 50
110.731967965
 51
129.268032035
  0
ARC
  8
0
  6
CONTINUOUS
 62
     2
 10
36.25
 20
89.0
 30
0.0
 40
2.25
 50
111.369477073
 51
128.630522927
  0
ARC
  8
0
  6
CONTINUOUS
 62
     2
 10
36.25
 20
89.0
 30
0.0
 40
2.5
 50
140.731967965
 51
159.268032035
  0
ARC
  8
0
  6
CONTINUOUS
 62
     2
 10
36.25
 20
89.0
 30
0.0
 40
2.25
 50
141.369477073
 51
158.630522927
  0
LINE
  8
0
  6
CONTINUOUS
 62
     2
 10
37.069856655
 20
91.095312642
 30
0.0
 11
37.134991791
 21
91.338116663
 31
0.0
  0
LINE
  8
0
  6
CONTINUOUS
 62
     2
 10
36.587639631
 20
91.224522304
 30
0.0
 11
36.652632959
 21
91.467364323
 31
0.0
  0
ARC
  8
0
  6
CONTINUOUS
 62
     2
 10
36.832342851
 20
91.173333109
 30
0.0
 40
0.25
 50
168.184738537
 51
341.815261463
  0
ARC
  8
0
  6
CONTINUOUS
 62
     2
 10
36.897047613
 20
91.414814566
 30
0.0
 40
0.25
 50
167.865983983
 51
342.134016018
  0
LINE
  8
0
  6
CONTINUOUS
 62
     2
 10
38.007673011
 20
90.404665649
 30
0.0
 11
38.185483704
 21
90.582372532
 31
0.0
  0
LINE
  8
0
  6
CONTINUOUS
 62
     2
 10
37.654665649
 20
90.757673011
 30
0.0
 11
37.832372532
 21
90.935483704
 31
0.0
  0
ARC
  8
0
  6
CONTINUOUS
 62
     2
 10
37.840990258
 20
90.590990258
 30
0.0
 40
0.25
 50
138.184738537
 51
311.815261463
  0
ARC
  8
0
  6
CONTINUOUS
 62
     2
 10
38.017766953
 20
90.767766953
 30
0.0
 40
0.25
 50
137.865983983
 51
312.134016018
  0
LINE
  8
0
  6
CONTINUOUS
 62
     2
 10
38.474522304
 20
89.337639631
 30
0.0
 11
38.717364323
 21
89.402632959
 31
0.0
  0
LINE
  8
0
  6
CONTINUOUS
 62
     2
 10
38.345312642
 20
89.819856655
 30
0.0
 11
38.588116663
 21
89.884991791
 31
0.0
  0
ARC
  8
0
  6
CONTINUOUS
 62
     2
 10
38.423333109
 20
89.582342851
 30
0.0
 40
0.25
 50
108.184738537
 51
281.815261463
  0
ARC
  8
0
  6
CONTINUOUS
 62
     2
 10
38.664814566
 20
89.647047613
 30
0.0
 40
0.25
 50
107.865983983
 51
282.134016018
  0
ARC
  8
0
  6
CONTINUOUS
 62
     2
 10
36.25
 20
89.0
 30
0.0
 40
2.5
 50
50.731967965
 51
69.268032035
  0
ARC
  8
0
  6
CONTINUOUS
 62
     2
 10
36.25
 20
89.0
 30
0.0
 40
2.25
 50
51.369477073
 51
68.630522927
  0
ARC
  8
0
  6
CONTINUOUS
 62
     2
 10
36.25
 20
89.0
 30
0.0
 40
2.5
 50
20.731967965
 51
39.268032035
  0
ARC
  8
0
  6
CONTINUOUS
 62
     2
 10
36.25
 20
89.0
 30
0.0
 40
2.25
 50
21.369477073
 51
38.630522927
  0
ARC
  8
0
  6
CONTINUOUS
 62
     2
 10
36.25
 20
89.0
 30
0.0
 40
2.25
 50
81.369477073
 51
98.630522927
  0
ARC
  8
0
  6
CONTINUOUS
 62
     2
 10
36.25
 20
89.0
 30
0.0
 40
2.5
 50
80.731967965
 51
99.268032035
  0
ARC
  8
0
  6
CONTINUOUS
 62
     2
 10
36.25
 20
89.0
 30
0.0
 40
2.5
 50
170.731967965
 51
189.268032035
  0
ARC
  8
0
  6
CONTINUOUS
 62
     2
 10
36.25
 20
89.0
 30
0.0
 40
2.5
 50
350.731967965
 51
9.268032035
  0
ARC
  8
0
  6
CONTINUOUS
 62
     2
 10
36.25
 20
89.0
 30
0.0
 40
2.25
 50
171.369477073
 51
188.630522927
  0
ARC
  8
0
  6
CONTINUOUS
 62
     2
 10
36.25
 20
89.0
 30
0.0
 40
2.25
 50
351.369477073
 51
8.630522927
  0
LINE
  8
0
  6
LTYPE1
 62
     2
 10
33.25
 20
89.0
 30
0.0
 11
39.25
 21
89.0
 31
0.0
  0
LINE
  8
0
  6
LTYPE1
 62
     2
 10
36.25
 20
92.0
 30
0.0
 11
36.25
 21
86.0
 31
0.0
  0
LINE
  8
0
  6
LTYPE1
 62
     2
 10
37.0
 20
84.75
 30
0.0
 11
43.0
 21
84.75
 31
0.0
  0
CIRCLE
  8
0
  6
CONTINUOUS
 62
     2
 10
43.75
 20
89.0
 30
0.0
 40
1.75
  0
CIRCLE
  8
0
  6
CONTINUOUS
 62
     2
 10
43.75
 20
89.0
 30
0.0
 40
0.75
  0
LINE
  8
0
  6
CONTINUOUS
 62
     2
 10
42.930143345
 20
86.904687358
 30
0.0
 11
42.865008209
 21
86.661883337
 31
0.0
  0
LINE
  8
0
  6
CONTINUOUS
 62
     2
 10
43.412360369
 20
86.775477696
 30
0.0
 11
43.347367041
 21
86.532635677
 31
0.0
  0
ARC
  8
0
  6
CONTINUOUS
 62
     2
 10
43.167657149
 20
86.826666891
 30
0.0
 40
0.25
 50
348.184738537
 51
161.815261463
  0
ARC
  8
0
  6
CONTINUOUS
 62
     2
 10
43.102952387
 20
86.585185434
 30
0.0
 40
0.25
 50
347.865983983
 51
162.134016018
  0
LINE
  8
0
  6
CONTINUOUS
 62
     2
 10
41.992326989
 20
87.595334351
 30
0.0
 11
41.814516296
 21
87.417627468
 31
0.0
  0
LINE
  8
0
  6
CONTINUOUS
 62
     2
 10
42.345334351
 20
87.242326989
 30
0.0
 11
42.167627468
 21
87.064516296
 31
0.0
  0
ARC
  8
0
  6
CONTINUOUS
 62
     2
 10
42.159009742
 20
87.409009742
 30
0.0
 40
0.25
 50
318.184738537
 51
131.815261463
  0
ARC
  8
0
  6
CONTINUOUS
 62
     2
 10
41.982233047
 20
87.232233047
 30
0.0
 40
0.25
 50
317.865983983
 51
132.134016018
  0
LINE
  8
0
  6
CONTINUOUS
 62
     2
 10
41.525477696
 20
88.662360369
 30
0.0
 11
41.282635677
 21
88.597367041
 31
0.0
  0
LINE
  8
0
  6
CONTINUOUS
 62
     2
 10
41.654687358
 20
88.180143345
 30
0.0
 11
41.411883337
 21
88.115008209
 31
0.0
  0
ARC
  8
0
  6
CONTINUOUS
 62
     2
 10
41.576666891
 20
88.417657149
 30
0.0
 40
0.25
 50
288.184738537
 51
101.815261463
  0
ARC
  8
0
  6
CONTINUOUS
 62
     2
 10
41.335185434
 20
88.352952387
 30
0.0
 40
0.25
 50
287.865983983
 51
102.134016018
  0
ARC
  8
0
  6
CONTINUOUS
 62
     2
 10
43.75
 20
89.0
 30
0.0
 40
2.5
 50
230.731967965
 51
249.268032035
  0
ARC
  8
0
  6
CONTINUOUS
 62
     2
 10
43.75
 20
89.0
 30
0.0
 40
2.25
 50
231.369477073
 51
248.630522927
  0
ARC
  8
0
  6
CONTINUOUS
 62
     2
 10
43.75
 20
89.0
 30
0.0
 40
2.5
 50
200.731967965
 51
219.268032035
  0
ARC
  8
0
  6
CONTINUOUS
 62
     2
 10
43.75
 20
89.0
 30
0.0
 40
2.25
 50
201.369477073
 51
218.630522927
  0
LINE
  8
0
  6
CONTINUOUS
 62
     2
 10
44.569856655
 20
86.904687358
 30
0.0
 11
44.634991791
 21
86.661883337
 31
0.0
  0
LINE
  8
0
  6
CONTINUOUS
 62
     2
 10
44.087639631
 20
86.775477696
 30
0.0
 11
44.152632959
 21
86.532635677
 31
0.0
  0
ARC
  8
0
  6
CONTINUOUS
 62
     2
 10
44.332342851
 20
86.826666891
 30
0.0
 40
0.25
 50
18.184738537
 51
191.815261463
  0
ARC
  8
0
  6
CONTINUOUS
 62
     2
 10
44.397047613
 20
86.585185434
 30
0.0
 40
0.25
 50
17.865983982
 51
192.134016017
  0
LINE
  8
0
  6
CONTINUOUS
 62
     2
 10
45.507673011
 20
87.595334351
 30
0.0
 11
45.685483704
 21
87.417627468
 31
0.0
  0
LINE
  8
0
  6
CONTINUOUS
 62
     2
 10
45.154665649
 20
87.242326989
 30
0.0
 11
45.332372532
 21
87.064516296
 31
0.0
  0
ARC
  8
0
  6
CONTINUOUS
 62
     2
 10
45.340990258
 20
87.409009742
 30
0.0
 40
0.25
 50
48.184738537
 51
221.815261463
  0
ARC
  8
0
  6
CONTINUOUS
 62
     2
 10
45.517766953
 20
87.232233047
 30
0.0
 40
0.25
 50
47.865983982
 51
222.134016017
  0
LINE
  8
0
  6
CONTINUOUS
 62
     2
 10
45.974522304
 20
88.662360369
 30
0.0
 11
46.217364323
 21
88.597367041
 31
0.0
  0
LINE
  8
0
  6
CONTINUOUS
 62
     2
 10
45.845312642
 20
88.180143345
 30
0.0
 11
46.088116663
 21
88.115008209
 31
0.0
  0
ARC
  8
0
  6
CONTINUOUS
 62
     2
 10
45.923333109
 20
88.417657149
 30
0.0
 40
0.25
 50
78.184738537
 51
251.815261463
  0
ARC
  8
0
  6
CONTINUOUS
 62
     2
 10
46.164814566
 20
88.352952387
 30
0.0
 40
0.25
 50
77.865983982
 51
252.134016017
  0
ARC
  8
0
  6
CONTINUOUS
 62
     2
 10
43.75
 20
89.0
 30
0.0
 40
2.5
 50
290.731967965
 51
309.268032035
  0
ARC
  8
0
  6
CONTINUOUS
 62
     2
 10
43.75
 20
89.0
 30
0.0
 40
2.25
 50
291.369477073
 51
308.630522927
  0
ARC
  8
0
  6
CONTINUOUS
 62
     2
 10
43.75
 20
89.0
 30
0.0
 40
2.5
 50
320.731967965
 51
339.268032035
  0
ARC
  8
0
  6
CONTINUOUS
 62
     2
 10
43.75
 20
89.0
 30
0.0
 40
2.25
 50
321.369477073
 51
338.630522927
  0
ARC
  8
0
  6
CONTINUOUS
 62
     2
 10
43.75
 20
89.0
 30
0.0
 40
2.25
 50
261.369477073
 51
278.630522927
  0
ARC
  8
0
  6
CONTINUOUS
 62
     2
 10
43.75
 20
89.0
 30
0.0
 40
2.5
 50
260.731967965
 51
279.268032035
  0
LINE
  8
0
  6
CONTINUOUS
 62
     2
 10
42.930143345
 20
91.095312642
 30
0.0
 11
42.865008209
 21
91.338116663
 31
0.0
  0
LINE
  8
0
  6
CONTINUOUS
 62
     2
 10
43.412360369
 20
91.224522304
 30
0.0
 11
43.347367041
 21
91.467364323
 31
0.0
  0
ARC
  8
0
  6
CONTINUOUS
 62
     2
 10
43.167657149
 20
91.173333109
 30
0.0
 40
0.25
 50
198.184738537
 51
11.815261463
  0
ARC
  8
0
  6
CONTINUOUS
 62
     2
 10
43.102952387
 20
91.414814566
 30
0.0
 40
0.25
 50
197.865983982
 51
12.134016017
  0
LINE
  8
0
  6
CONTINUOUS
 62
     2
 10
41.992326989
 20
90.404665649
 30
0.0
 11
41.814516296
 21
90.582372532
 31
0.0
  0
LINE
  8
0
  6
CONTINUOUS
 62
     2
 10
42.345334351
 20
90.757673011
 30
0.0
 11
42.167627468
 21
90.935483704
 31
0.0
  0
ARC
  8
0
  6
CONTINUOUS
 62
     2
 10
42.159009742
 20
90.590990258
 30
0.0
 40
0.25
 50
228.184738537
 51
41.815261463
  0
ARC
  8
0
  6
CONTINUOUS
 62
     2
 10
41.982233047
 20
90.767766953
 30
0.0
 40
0.25
 50
227.865983982
 51
42.134016017
  0
LINE
  8
0
  6
CONTINUOUS
 62
     2
 10
41.525477696
 20
89.337639631
 30
0.0
 11
41.282635677
 21
89.402632959
 31
0.0
  0
LINE
  8
0
  6
CONTINUOUS
 62
     2
 10
41.654687358
 20
89.819856655
 30
0.0
 11
41.411883337
 21
89.884991791
 31
0.0
  0
ARC
  8
0
  6
CONTINUOUS
 62
     2
 10
41.576666891
 20
89.582342851
 30
0.0
 40
0.25
 50
258.184738537
 51
71.815261463
  0
ARC
  8
0
  6
CONTINUOUS
 62
     2
 10
41.335185434
 20
89.647047613
 30
0.0
 40
0.25
 50
257.865983982
 51
72.134016017
  0
ARC
  8
0
  6
CONTINUOUS
 62
     2
 10
43.75
 20
89.0
 30
0.0
 40
2.5
 50
110.731967965
 51
129.268032035
  0
ARC
  8
0
  6
CONTINUOUS
 62
     2
 10
43.75
 20
89.0
 30
0.0
 40
2.25
 50
111.369477073
 51
128.630522927
  0
ARC
  8
0
  6
CONTINUOUS
 62
     2
 10
43.75
 20
89.0
 30
0.0
 40
2.5
 50
140.731967965
 51
159.268032035
  0
ARC
  8
0
  6
CONTINUOUS
 62
     2
 10
43.75
 20
89.0
 30
0.0
 40
2.25
 50
141.369477073
 51
158.630522927
  0
LINE
  8
0
  6
CONTINUOUS
 62
     2
 10
44.569856655
 20
91.095312642
 30
0.0
 11
44.634991791
 21
91.338116663
 31
0.0
  0
LINE
  8
0
  6
CONTINUOUS
 62
     2
 10
44.087639631
 20
91.224522304
 30
0.0
 11
44.152632959
 21
91.467364323
 31
0.0
  0
ARC
  8
0
  6
CONTINUOUS
 62
     2
 10
44.332342851
 20
91.173333109
 30
0.0
 40
0.25
 50
168.184738537
 51
341.815261463
  0
ARC
  8
0
  6
CONTINUOUS
 62
     2
 10
44.397047613
 20
91.414814566
 30
0.0
 40
0.25
 50
167.865983983
 51
342.134016018
  0
LINE
  8
0
  6
CONTINUOUS
 62
     2
 10
45.507673011
 20
90.404665649
 30
0.0
 11
45.685483704
 21
90.582372532
 31
0.0
  0
LINE
  8
0
  6
CONTINUOUS
 62
     2
 10
45.154665649
 20
90.757673011
 30
0.0
 11
45.332372532
 21
90.935483704
 31
0.0
  0
ARC
  8
0
  6
CONTINUOUS
 62
     2
 10
45.340990258
 20
90.590990258
 30
0.0
 40
0.25
 50
138.184738537
 51
311.815261463
  0
ARC
  8
0
  6
CONTINUOUS
 62
     2
 10
45.517766953
 20
90.767766953
 30
0.0
 40
0.25
 50
137.865983983
 51
312.134016018
  0
LINE
  8
0
  6
CONTINUOUS
 62
     2
 10
45.974522304
 20
89.337639631
 30
0.0
 11
46.217364323
 21
89.402632959
 31
0.0
  0
LINE
  8
0
  6
CONTINUOUS
 62
     2
 10
45.845312642
 20
89.819856655
 30
0.0
 11
46.088116663
 21
89.884991791
 31
0.0
  0
ARC
  8
0
  6
CONTINUOUS
 62
     2
 10
45.923333109
 20
89.582342851
 30
0.0
 40
0.25
 50
108.184738537
 51
281.815261463
  0
ARC
  8
0
  6
CONTINUOUS
 62
     2
 10
46.164814566
 20
89.647047613
 30
0.0
 40
0.25
 50
107.865983983
 51
282.134016018
  0
ARC
  8
0
  6
CONTINUOUS
 62
     2
 10
43.75
 20
89.0
 30
0.0
 40
2.5
 50
50.731967965
 51
69.268032035
  0
ARC
  8
0
  6
CONTINUOUS
 62
     2
 10
43.75
 20
89.0
 30
0.0
 40
2.25
 50
51.369477073
 51
68.630522927
  0
ARC
  8
0
  6
CONTINUOUS
 62
     2
 10
43.75
 20
89.0
 30
0.0
 40
2.5
 50
20.731967965
 51
39.268032035
  0
ARC
  8
0
  6
CONTINUOUS
 62
     2
 10
43.75
 20
89.0
 30
0.0
 40
2.25
 50
21.369477073
 51
38.630522927
  0
ARC
  8
0
  6
CONTINUOUS
 62
     2
 10
43.75
 20
89.0
 30
0.0
 40
2.25
 50
81.369477073
 51
98.630522927
  0
ARC
  8
0
  6
CONTINUOUS
 62
     2
 10
43.75
 20
89.0
 30
0.0
 40
2.5
 50
80.731967965
 51
99.268032035
  0
ARC
  8
0
  6
CONTINUOUS
 62
     2
 10
43.75
 20
89.0
 30
0.0
 40
2.5
 50
170.731967965
 51
189.268032035
  0
ARC
  8
0
  6
CONTINUOUS
 62
     2
 10
43.75
 20
89.0
 30
0.0
 40
2.5
 50
350.731967965
 51
9.268032035
  0
ARC
  8
0
  6
CONTINUOUS
 62
     2
 10
43.75
 20
89.0
 30
0.0
 40
2.25
 50
171.369477073
 51
188.630522927
  0
ARC
  8
0
  6
CONTINUOUS
 62
     2
 10
43.75
 20
89.0
 30
0.0
 40
2.25
 50
351.369477073
 51
8.630522927
  0
LINE
  8
0
  6
LTYPE1
 62
     2
 10
40.75
 20
89.0
 30
0.0
 11
46.75
 21
89.0
 31
0.0
  0
LINE
  8
0
  6
LTYPE1
 62
     2
 10
43.75
 20
92.0
 30
0.0
 11
43.75
 21
86.0
 31
0.0
  0
CIRCLE
  8
0
  6
CONTINUOUS
 62
     2
 10
43.75
 20
89.0
 30
0.0
 40
2.5
  0
CIRCLE
  8
0
  6
CONTINUOUS
 62
     2
 10
36.25
 20
89.0
 30
0.0
 40
2.5
  0
LINE
  8
0
  6
CONTINUOUS
 62
     2
 10
45.0
 20
86.834936491
 30
0.0
 11
45.647047613
 21
84.420121925
 31
0.0
  0
LINE
  8
0
  6
CONTINUOUS
 62
     2
 10
45.0
 20
86.834936491
 30
0.0
 11
46.767766953
 21
85.067169538
 31
0.0
  0
LINE
  8
0
  6
CONTINUOUS
 62
     2
 10
35.0
 20
86.834936491
 30
0.0
 11
33.232233047
 21
85.067169538
 31
0.0
  0
LINE
  8
0
  6
CONTINUOUS
 62
     2
 10
35.0
 20
86.834936491
 30
0.0
 11
34.352952387
 21
84.420121925
 31
0.0
  0
LINE
  8
0
  6
CONTINUOUS
 62
     2
 10
25.0
 20
94.25
 30
0.0
 11
55.0
 21
94.25
 31
0.0
  0
TEXT
  8
0
  6
CONTINUOUS
 62
     2
 10
48.946152423
 20
81.0
 30
0.3
 40
3.0
  1
Ｈ側設定ツマミ
 50
0.0
 41
0.6
 51
0.0
  7
KANJI0
  0
TEXT
  8
0
  6
CONTINUOUS
 62
     2
 10
48.946152423
 20
76.0
 30
0.3
 40
3.0
  1
（中央赤色）
 50
0.0
 41
0.6
 51
0.0
  7
KANJI0
  0
LINE
  8
0
  6
CONTINUOUS
 62
     2
 10
48.946152423
 20
80.0
 30
0.0
 11
63.346152423
 21
80.0
 31
0.0
  0
LINE
  8
0
  6
CONTINUOUS
 62
     2
 10
31.053847577
 20
80.0
 30
0.0
 11
16.653847577
 21
80.0
 31
0.0
  0
TEXT
  8
0
  6
CONTINUOUS
 62
     2
 10
16.653847577
 20
81.0
 30
0.3
 40
3.0
  1
Ｌ側設定ツマミ
 50
0.0
 41
0.6
 51
0.0
  7
KANJI0
  0
TEXT
  8
0
  6
CONTINUOUS
 62
     2
 10
16.653847577
 20
76.0
 30
0.3
 40
3.0
  1
（中央黄色）
 50
0.0
 41
0.6
 51
0.0
  7
KANJI0
  0
LINE
  8
0
  6
CONTINUOUS
 62
     2
 10
35.0
 20
86.834936491
 30
0.0
 11
31.053847577
 21
80.0
 31
0.0
  0
LINE
  8
0
  6
CONTINUOUS
 62
     2
 10
45.0
 20
86.834936491
 30
0.0
 11
48.946152423
 21
80.0
 31
0.0
  0
CIRCLE
  8
0
  6
CONTINUOUS
 62
     2
 10
36.0
 20
58.0
 30
0.0
 40
1.375
  0
CIRCLE
  8
0
  6
CONTINUOUS
 62
     2
 10
36.0
 20
62.5
 30
0.0
 40
1.375
  0
CIRCLE
  8
0
  6
CONTINUOUS
 62
     2
 10
36.0
 20
67.0
 30
0.0
 40
1.375
  0
CIRCLE
  8
0
  6
CONTINUOUS
 62
     2
 10
36.0
 20
53.5
 30
0.0
 40
1.375
  0
CIRCLE
  8
0
  6
CONTINUOUS
 62
     2
 10
44.0
 20
58.0
 30
0.0
 40
1.375
  0
CIRCLE
  8
0
  6
CONTINUOUS
 62
     2
 10
44.0
 20
62.5
 30
0.0
 40
1.375
  0
CIRCLE
  8
0
  6
CONTINUOUS
 62
     2
 10
44.0
 20
67.0
 30
0.0
 40
1.375
  0
CIRCLE
  8
0
  6
CONTINUOUS
 62
     2
 10
44.0
 20
53.5
 30
0.0
 40
1.375
  0
LINE
  8
0
  6
CONTINUOUS
 62
     2
 10
28.0
 20
67.0
 30
0.0
 11
30.414814566
 21
66.352952387
 31
0.0
  0
LINE
  8
0
  6
CONTINUOUS
 62
     2
 10
28.0
 20
67.0
 30
0.0
 11
30.414814566
 21
67.647047613
 31
0.0
  0
LINE
  8
0
  6
CONTINUOUS
 62
     2
 10
28.0
 20
62.5
 30
0.0
 11
30.414814566
 21
61.852952387
 31
0.0
  0
LINE
  8
0
  6
CONTINUOUS
 62
     2
 10
28.0
 20
62.5
 30
0.0
 11
30.414814566
 21
63.147047613
 31
0.0
  0
LINE
  8
0
  6
CONTINUOUS
 62
     2
 10
34.625
 20
62.5
 30
0.0
 11
28.0
 21
62.5
 31
0.0
  0
LINE
  8
0
  6
CONTINUOUS
 62
     2
 10
32.5
 20
67.0
 30
0.0
 11
28.0
 21
67.0
 31
0.0
  0
TEXT
  8
0
  6
CONTINUOUS
 62
     2
 10
32.0
 20
66.5
 30
0.1
 40
1.0
  1
（＋）
 50
0.0
 41
0.9
 51
0.0
  7
KANJI1
  0
LINE
  8
0
  6
CONTINUOUS
 62
     2
 10
45.375
 20
62.5
 30
0.0
 11
52.0
 21
62.5
 31
0.0
  0
LINE
  8
0
  6
CONTINUOUS
 62
     2
 10
47.5
 20
67.0
 30
0.0
 11
52.0
 21
67.0
 31
0.0
  0
TEXT
  8
0
  6
CONTINUOUS
 62
     2
 10
45.1
 20
66.5
 30
0.1
 40
1.0
  1
（＋）
 50
0.0
 41
0.9
 51
0.0
  7
KANJI1
  0
TEXT
  8
0
  6
CONTINUOUS
 62
     2
 10
48.9
 20
63.3
 30
0.3
 40
3.0
  1
制御電源
 50
0.0
 41
0.9
 51
0.0
  7
KANJI2
  0
TEXT
  8
0
  6
CONTINUOUS
 62
     2
 10
15.9
 20
63.3
 30
0.3
 40
3.0
  1
計器入力
 50
0.0
 41
0.9
 51
0.0
  7
KANJI2
  0
CIRCLE
  8
0
  6
CONTINUOUS
 62
     2
 10
32.0
 20
58.0
 30
0.0
 40
1.0
  0
LINE
  8
0
  6
CONTINUOUS
 62
     2
 10
24.647047613
 20
55.585185434
 30
0.0
 11
25.294095226
 21
58.0
 31
0.0
  0
LINE
  8
0
  6
CONTINUOUS
 62
     2
 10
24.647047613
 20
55.585185434
 30
0.0
 11
24.0
 21
58.0
 31
0.0
  0
CIRCLE
  8
0
  6
CONTINUOUS
 62
     2
 10
32.0
 20
53.5
 30
0.0
 40
1.0
  0
LINE
  8
0
  6
CONTINUOUS
 62
     2
 10
31.0
 20
58.0
 30
0.0
 11
24.0
 21
58.0
 31
0.0
  0
TEXT
  8
0
  6
CONTINUOUS
 62
     2
 10
32.9
 20
57.4
 30
0.2
 40
2.0
  1
ａ
 50
0.0
 41
0.9
 51
0.0
  7
KANJI3
  0
TEXT
  8
0
  6
CONTINUOUS
 62
     2
 10
32.9
 20
52.9
 30
0.2
 40
2.0
  1
ｃ
 50
0.0
 41
0.9
 51
0.0
  7
KANJI3
  0
CIRCLE
  8
0
  6
CONTINUOUS
 62
     2
 10
48.0
 20
58.0
 30
0.0
 40
1.0
  0
LINE
  8
0
  6
CONTINUOUS
 62
     2
 10
55.352952387
 20
55.585185434
 30
0.0
 11
54.705904774
 21
58.0
 31
0.0
  0
LINE
  8
0
  6
CONTINUOUS
 62
     2
 10
55.352952387
 20
55.585185434
 30
0.0
 11
56.0
 21
58.0
 31
0.0
  0
CIRCLE
  8
0
  6
CONTINUOUS
 62
     2
 10
48.0
 20
53.5
 30
0.0
 40
1.0
  0
LINE
  8
0
  6
CONTINUOUS
 62
     2
 10
49.0
 20
58.0
 30
0.0
 11
56.0
 21
58.0
 31
0.0
  0
TEXT
  8
0
  6
CONTINUOUS
 62
     2
 10
56.9
 20
55.3
 30
0.3
 40
3.0
  1
Ｌ側
 50
0.0
 41
0.9
 51
0.0
  7
KANJI2
  0
TEXT
  8
0
  6
CONTINUOUS
 62
     2
 10
45.275
 20
57.4
 30
0.2
 40
2.0
  1
ａ
 50
0.0
 41
0.9
 51
0.0
  7
KANJI3
  0
TEXT
  8
0
  6
CONTINUOUS
 62
     2
 10
45.275
 20
52.9
 30
0.2
 40
2.0
  1
ｃ
 50
0.0
 41
0.9
 51
0.0
  7
KANJI3
  0
TEXT
  8
0
  6
CONTINUOUS
 62
     2
 10
9.9
 20
50.3
 30
0.3
 40
3.0
  1
負荷リレ－
 50
0.0
 41
0.9
 51
0.0
  7
KANJI2
  0
TEXT
  8
0
  6
CONTINUOUS
 62
     2
 10
9.9
 20
55.3
 30
0.3
 40
3.0
  1
Ｈ側
 50
0.0
 41
0.9
 51
0.0
  7
KANJI2
  0
TEXT
  8
0
  6
CONTINUOUS
 62
     2
 10
56.9
 20
50.3
 30
0.2
 40
3.0
  1
負荷リレ－
 50
0.0
 41
0.7
 51
0.0
  7
KANJI4
  0
TEXT
  8
0
  6
CONTINUOUS
 62
     2
 10
69.9
 20
50.3
 30
0.2
 40
3.0
  1
負荷リレ－
 50
0.0
 41
0.7
 51
0.0
  7
KANJI4
  0
TEXT
  8
0
  6
CONTINUOUS
 62
     2
 10
19.0
 20
40.0
 30
0.3
 40
3.0
  1
Ｈ，Ｌ設定用端子構成及び設定部
 50
0.0
 41
0.9
 51
0.0
  7
KANJI2
  0
LINE
  8
0
  6
CONTINUOUS
 62
     2
 10
19.0
 20
39.0
 30
0.0
 11
62.0
 21
39.0
 31
0.0
  0
TEXT
  8
0
  6
CONTINUOUS
 62
     2
 10
78.5
 20
40.0
 30
0.3
 40
3.0
  1
Ｈ設定用端子構成及び設定部
 50
0.0
 41
0.9
 51
0.0
  7
KANJI2
  0
LINE
  8
0
  6
CONTINUOUS
 62
     2
 10
78.0
 20
39.0
 30
0.0
 11
117.0
 21
39.0
 31
0.0
  0
TEXT
  8
0
  6
CONTINUOUS
 62
     2
 10
126.5
 20
40.0
 30
0.3
 40
3.0
  1
Ｌ設定用端子構成及び設定部
 50
0.0
 41
0.9
 51
0.0
  7
KANJI2
  0
LINE
  8
0
  6
CONTINUOUS
 62
     2
 10
126.0
 20
39.0
 30
0.0
 11
165.0
 21
39.0
 31
0.0
  0
TEXT
  8
0
  6
CONTINUOUS
 62
     2
 10
37.9
 20
66.25
 30
0.15
 40
1.5
  1
１
 50
0.0
 41
0.9
 51
0.0
  7
KANJI5
  0
TEXT
  8
0
  6
CONTINUOUS
 62
     2
 10
37.9
 20
61.75
 30
0.15
 40
1.5
  1
２
 50
0.0
 41
0.9
 51
0.0
  7
KANJI5
  0
TEXT
  8
0
  6
CONTINUOUS
 62
     2
 10
37.9
 20
57.25
 30
0.15
 40
1.5
  1
３
 50
0.0
 41
0.9
 51
0.0
  7
KANJI5
  0
TEXT
  8
0
  6
CONTINUOUS
 62
     2
 10
37.9
 20
52.75
 30
0.15
 40
1.5
  1
４
 50
0.0
 41
0.9
 51
0.0
  7
KANJI5
  0
TEXT
  8
0
  6
CONTINUOUS
 62
     2
 10
40.9
 20
66.25
 30
0.15
 40
1.5
  1
９
 50
0.0
 41
0.9
 51
0.0
  7
KANJI5
  0
TEXT
  8
0
  6
CONTINUOUS
 62
     2
 10
40.9
 20
61.75
 30
0.15
 40
1.5
  1
１０
 50
0.0
 41
0.45
 51
0.0
  7
KANJI6
  0
TEXT
  8
0
  6
CONTINUOUS
 62
     2
 10
40.9
 20
57.25
 30
0.15
 40
1.5
  1
６
 50
0.0
 41
0.9
 51
0.0
  7
KANJI5
  0
TEXT
  8
0
  6
CONTINUOUS
 62
     2
 10
40.9
 20
52.75
 30
0.15
 40
1.5
  1
７
 50
0.0
 41
0.9
 51
0.0
  7
KANJI5
  0
TEXT
  8
0
  6
CONTINUOUS
 62
     2
 10
94.9
 20
66.25
 30
0.15
 40
1.5
  1
１
 50
0.0
 41
0.9
 51
0.0
  7
KANJI5
  0
TEXT
  8
0
  6
CONTINUOUS
 62
     2
 10
94.9
 20
61.75
 30
0.15
 40
1.5
  1
２
 50
0.0
 41
0.9
 51
0.0
  7
KANJI5
  0
TEXT
  8
0
  6
CONTINUOUS
 62
     2
 10
94.9
 20
57.25
 30
0.15
 40
1.5
  1
３
 50
0.0
 41
0.9
 51
0.0
  7
KANJI5
  0
TEXT
  8
0
  6
CONTINUOUS
 62
     2
 10
94.9
 20
52.75
 30
0.15
 40
1.5
  1
４
 50
0.0
 41
0.9
 51
0.0
  7
KANJI5
  0
TEXT
  8
0
  6
CONTINUOUS
 62
     2
 10
97.9
 20
66.25
 30
0.15
 40
1.5
  1
９
 50
0.0
 41
0.9
 51
0.0
  7
KANJI5
  0
TEXT
  8
0
  6
CONTINUOUS
 62
     2
 10
97.9
 20
61.75
 30
0.15
 40
1.5
  1
１０
 50
0.0
 41
0.45
 51
0.0
  7
KANJI6
  0
TEXT
  8
0
  6
CONTINUOUS
 62
     2
 10
97.9
 20
57.25
 30
0.15
 40
1.5
  1
６
 50
0.0
 41
0.9
 51
0.0
  7
KANJI5
  0
TEXT
  8
0
  6
CONTINUOUS
 62
     2
 10
97.9
 20
52.75
 30
0.15
 40
1.5
  1
７
 50
0.0
 41
0.9
 51
0.0
  7
KANJI5
  0
TEXT
  8
0
  6
CONTINUOUS
 62
     2
 10
142.9
 20
66.25
 30
0.15
 40
1.5
  1
１
 50
0.0
 41
0.9
 51
0.0
  7
KANJI5
  0
TEXT
  8
0
  6
CONTINUOUS
 62
     2
 10
142.9
 20
61.75
 30
0.15
 40
1.5
  1
２
 50
0.0
 41
0.9
 51
0.0
  7
KANJI5
  0
TEXT
  8
0
  6
CONTINUOUS
 62
     2
 10
142.9
 20
57.25
 30
0.15
 40
1.5
  1
３
 50
0.0
 41
0.9
 51
0.0
  7
KANJI5
  0
TEXT
  8
0
  6
CONTINUOUS
 62
     2
 10
142.9
 20
52.75
 30
0.15
 40
1.5
  1
４
 50
0.0
 41
0.9
 51
0.0
  7
KANJI5
  0
TEXT
  8
0
  6
CONTINUOUS
 62
     2
 10
145.9
 20
66.25
 30
0.15
 40
1.5
  1
９
 50
0.0
 41
0.9
 51
0.0
  7
KANJI5
  0
TEXT
  8
0
  6
CONTINUOUS
 62
     2
 10
145.9
 20
61.75
 30
0.15
 40
1.5
  1
１０
 50
0.0
 41
0.45
 51
0.0
  7
KANJI6
  0
TEXT
  8
0
  6
CONTINUOUS
 62
     2
 10
145.9
 20
57.25
 30
0.15
 40
1.5
  1
６
 50
0.0
 41
0.9
 51
0.0
  7
KANJI5
  0
TEXT
  8
0
  6
CONTINUOUS
 62
     2
 10
145.9
 20
52.75
 30
0.15
 40
1.5
  1
７
 50
0.0
 41
0.9
 51
0.0
  7
KANJI5
  0
TEXT
  8
0
  6
CONTINUOUS
 62
     2
 10
176.55
 20
65.45
 30
0.3
 40
3.0
  1
パネルカット
 50
0.0
 41
0.9
 51
0.0
  7
KANJI2
  0
LINE
  8
0
  6
CONTINUOUS
 62
     2
 10
173.882029223
 20
82.564857043
 30
0.0
 11
176.249037019
 21
83.369390505
 31
0.0
  0
LINE
  8
0
  6
CONTINUOUS
 62
     2
 10
173.882029223
 20
82.564857043
 30
0.0
 11
175.529651374
 21
84.445107358
 31
0.0
  0
LINE
  8
0
  6
CONTINUOUS
 62
     2
 10
173.882029223
 20
82.564857043
 30
0.0
 11
196.117970777
 21
97.435142957
 31
0.0
  0
LINE
  8
0
  6
CONTINUOUS
 62
     2
 10
196.117970777
 20
97.435142957
 30
0.0
 11
193.750962981
 21
96.630609495
 31
0.0
  0
LINE
  8
0
  6
CONTINUOUS
 62
     2
 10
196.117970777
 20
97.435142957
 30
0.0
 11
194.470348626
 21
95.554892642
 31
0.0
  0
TEXT
  8
0
  6
CONTINUOUS
 62
     2
 10
176.444101461
 20
85.481250152
 30
0.25
 40
2.5
  1
φ５３．５
 50
33.772626229
 41
0.6
 51
0.0
  7
KANJI7
  0
TEXT
  8
0
  6
CONTINUOUS
 62
     2
 10
184.422853007
 20
90.651415248
 30
0.18
 40
1.8
  1
－０
 50
33.772626229
 41
0.6
 51
0.0
  7
KANJI8
  0
TEXT
  8
0
  6
CONTINUOUS
 62
     2
 10
183.422235637
 20
92.147665521
 30
0.18
 40
1.8
  1
＋０．５
 50
33.772626229
 41
0.6
 51
0.0
  7
KANJI8
  0
TEXT
  8
0
  6
CONTINUOUS
 62
     2
 10
212.92
 20
70.75
 30
0.18
 40
1.8
  1
－０
 50
0.0
 41
0.6
 51
0.0
  7
KANJI8
  0
TEXT
  8
0
  6
CONTINUOUS
 62
     2
 10
212.92
 20
72.55
 30
0.18
 40
1.8
  1
＋０．５
 50
0.0
 41
0.6
 51
0.0
  7
KANJI8
  0
LINE
  8
0
  6
LTYPE1
 62
     2
 10
173.0
 20
82.5
 30
0.0
 11
173.0
 21
75.5
 31
0.0
  0
LINE
  8
0
  6
LTYPE1
 62
     2
 10
169.5
 20
79.0
 30
0.0
 11
176.5
 21
79.0
 31
0.0
  0
LINE
  8
0
  6
LTYPE1
 62
     2
 10
197.0
 20
99.5
 30
0.0
 11
197.0
 21
106.5
 31
0.0
  0
LINE
  8
0
  6
CONTINUOUS
 62
     2
 10
185.0
 20
109.0
 30
0.0
 11
182.585185434
 21
109.647047613
 31
0.0
  0
LINE
  8
0
  6
CONTINUOUS
 62
     2
 10
185.0
 20
109.0
 30
0.0
 11
182.585185434
 21
108.352952387
 31
0.0
  0
LINE
  8
0
  6
CONTINUOUS
 62
     2
 10
185.0
 20
109.0
 30
0.0
 11
173.0
 21
109.0
 31
0.0
  0
LINE
  8
0
  6
CONTINUOUS
 62
     2
 10
173.0
 20
109.0
 30
0.0
 11
175.414814566
 21
108.352952387
 31
0.0
  0
LINE
  8
0
  6
CONTINUOUS
 62
     2
 10
173.0
 20
109.0
 30
0.0
 11
175.414814566
 21
109.647047613
 31
0.0
  0
LINE
  8
0
  6
CONTINUOUS
 62
     2
 10
185.0
 20
109.0
 30
0.0
 11
187.414814566
 21
108.352952387
 31
0.0
  0
LINE
  8
0
  6
CONTINUOUS
 62
     2
 10
185.0
 20
109.0
 30
0.0
 11
187.414814566
 21
109.647047613
 31
0.0
  0
LINE
  8
0
  6
CONTINUOUS
 62
     2
 10
185.0
 20
109.0
 30
0.0
 11
197.0
 21
109.0
 31
0.0
  0
LINE
  8
0
  6
CONTINUOUS
 62
     2
 10
197.0
 20
109.0
 30
0.0
 11
194.585185434
 21
109.647047613
 31
0.0
  0
LINE
  8
0
  6
CONTINUOUS
 62
     2
 10
197.0
 20
109.0
 30
0.0
 11
194.585185434
 21
108.352952387
 31
0.0
  0
TEXT
  8
0
  6
CONTINUOUS
 62
     2
 10
179.02
 20
110.1
 30
0.18
 40
1.8
  1
±０．５
 50
0.0
 41
0.6
 51
0.0
  7
KANJI8
  0
TEXT
  8
0
  6
CONTINUOUS
 62
     2
 10
175.12
 20
110.1
 30
0.25
 40
2.5
  1
２４
 50
0.0
 41
0.6
 51
0.0
  7
KANJI7
  0
TEXT
  8
0
  6
CONTINUOUS
 62
     2
 10
190.92
 20
110.1
 30
0.18
 40
1.8
  1
±０．５
 50
0.0
 41
0.6
 51
0.0
  7
KANJI8
  0
TEXT
  8
0
  6
CONTINUOUS
 62
     2
 10
187.02
 20
110.1
 30
0.25
 40
2.5
  1
２４
 50
0.0
 41
0.6
 51
0.0
  7
KANJI7
  0
LINE
  8
0
  6
CONTINUOUS
 62
     2
 10
173.0
 20
111.0
 30
0.0
 11
173.0
 21
107.0
 31
0.0
  0
LINE
  8
0
  6
CONTINUOUS
 62
     2
 10
197.0
 20
107.0
 30
0.0
 11
197.0
 21
111.0
 31
0.0
  0
LINE
  8
0
  6
CONTINUOUS
 62
     2
 10
203.0
 20
90.0
 30
0.0
 11
203.647047613
 21
92.414814566
 31
0.0
  0
LINE
  8
0
  6
CONTINUOUS
 62
     2
 10
203.0
 20
90.0
 30
0.0
 11
202.352952387
 21
92.414814566
 31
0.0
  0
LINE
  8
0
  6
CONTINUOUS
 62
     2
 10
203.0
 20
90.0
 30
0.0
 11
203.0
 21
103.0
 31
0.0
  0
LINE
  8
0
  6
CONTINUOUS
 62
     2
 10
203.0
 20
103.0
 30
0.0
 11
202.352952387
 21
100.585185434
 31
0.0
  0
LINE
  8
0
  6
CONTINUOUS
 62
     2
 10
203.0
 20
103.0
 30
0.0
 11
203.647047613
 21
100.585185434
 31
0.0
  0
LINE
  8
0
  6
CONTINUOUS
 62
     2
 10
203.0
 20
90.0
 30
0.0
 11
202.352952387
 21
87.585185434
 31
0.0
  0
LINE
  8
0
  6
CONTINUOUS
 62
     2
 10
203.0
 20
90.0
 30
0.0
 11
203.647047613
 21
87.585185434
 31
0.0
  0
LINE
  8
0
  6
CONTINUOUS
 62
     2
 10
203.0
 20
90.0
 30
0.0
 11
203.0
 21
79.0
 31
0.0
  0
LINE
  8
0
  6
CONTINUOUS
 62
     2
 10
203.0
 20
79.0
 30
0.0
 11
203.647047613
 21
81.414814566
 31
0.0
  0
LINE
  8
0
  6
CONTINUOUS
 62
     2
 10
203.0
 20
79.0
 30
0.0
 11
202.352952387
 21
81.414814566
 31
0.0
  0
TEXT
  8
0
  6
CONTINUOUS
 62
     2
 10
202.0
 20
96.02
 30
0.18
 40
1.8
  1
±０．５
 50
90.0
 41
0.6
 51
0.0
  7
KANJI8
  0
TEXT
  8
0
  6
CONTINUOUS
 62
     2
 10
202.0
 20
92.12
 30
0.3
 40
3.0
  1
２６
 50
90.0
 41
0.6
 51
0.0
  7
KANJI0
  0
TEXT
  8
0
  6
CONTINUOUS
 62
     2
 10
202.0
 20
84.02
 30
0.18
 40
1.8
  1
±０．５
 50
90.0
 41
0.6
 51
0.0
  7
KANJI8
  0
TEXT
  8
0
  6
CONTINUOUS
 62
     2
 10
202.0
 20
80.12
 30
0.3
 40
3.0
  1
２２
 50
90.0
 41
0.6
 51
0.0
  7
KANJI0
  0
LINE
  8
0
  6
CONTINUOUS
 62
     2
 10
201.0
 20
79.0
 30
0.0
 11
205.0
 21
79.0
 31
0.0
  0
LINE
  8
0
  6
CONTINUOUS
 62
     2
 10
201.0
 20
103.0
 30
0.0
 11
205.0
 21
103.0
 31
0.0
  0
LINE
  8
0
  6
LTYPE1
 62
     2
 10
169.5
 20
103.0
 30
0.0
 11
176.5
 21
103.0
 31
0.0
  0
LINE
  8
0
  6
LTYPE1
 62
     2
 10
173.0
 20
106.5
 30
0.0
 11
173.0
 21
99.5
 31
0.0
  0
LINE
  8
0
  6
LTYPE1
 62
     2
 10
193.5
 20
103.0
 30
0.0
 11
200.5
 21
103.0
 31
0.0
  0
LINE
  8
0
  6
LTYPE1
 62
     2
 10
197.0
 20
75.5
 30
0.0
 11
197.0
 21
82.5
 31
0.0
  0
LINE
  8
0
  6
LTYPE1
 62
     2
 10
193.5
 20
79.0
 30
0.0
 11
200.5
 21
79.0
 31
0.0
  0
LINE
  8
0
  6
LTYPE1
 62
     2
 10
185.0
 20
111.0
 30
0.0
 11
185.0
 21
69.5
 31
0.0
  0
LINE
  8
0
  6
LTYPE1
 62
     2
 10
163.5
 20
90.0
 30
0.0
 11
205.0
 21
90.0
 31
0.0
  0
LINE
  8
0
  6
CONTINUOUS
 62
     2
 10
175.8
 20
64.9
 30
0.0
 11
194.3
 21
64.9
 31
0.0
  0
LINE
  8
0
  6
CONTINUOUS
 62
     2
 10
198.0
 20
78.0
 30
0.0
 11
198.630116473
 21
75.580712247
 31
0.0
  0
LINE
  8
0
  6
CONTINUOUS
 62
     2
 10
198.0
 20
78.0
 30
0.0
 11
199.755340749
 21
76.219893584
 31
0.0
  0
LINE
  8
0
  6
CONTINUOUS
 62
     2
 10
202.62959074
 20
69.85
 30
0.0
 11
215.62959074
 21
69.85
 31
0.0
  0
LINE
  8
0
  6
CONTINUOUS
 62
     2
 10
198.0
 20
78.0
 30
0.0
 11
202.62959074
 21
69.85
 31
0.0
  0
TEXT
  8
0
  6
CONTINUOUS
 62
     2
 10
202.62959074
 20
70.85
 30
0.416666667
 40
2.5
  1
４－φ４穴
 50
0.0
 41
0.6
 51
0.0
  7
KANJI9
  0
LINE
  8
0
  6
CONTINUOUS
 62
     2
 10
25.0
 20
135.75
 30
0.0
 11
55.0
 21
135.75
 31
0.0
  0
ARC
  8
0
  6
CONTINUOUS
 62
     2
 10
25.0
 20
136.25
 30
0.0
 40
0.5
 50
180.0
 51
270.0
  0
LINE
  8
0
  6
CONTINUOUS
 62
     2
 10
24.5
 20
163.75
 30
0.0
 11
24.5
 21
136.25
 31
0.0
  0
ARC
  8
0
  6
CONTINUOUS
 62
     2
 10
25.0
 20
163.75
 30
0.0
 40
0.5
 50
90.0
 51
180.0
  0
LINE
  8
0
  6
CONTINUOUS
 62
     2
 10
55.0
 20
164.25
 30
0.0
 11
25.0
 21
164.25
 31
0.0
  0
ARC
  8
0
  6
CONTINUOUS
 62
     2
 10
55.0
 20
163.75
 30
0.0
 40
0.5
 50
0.0
 51
90.0
  0
LINE
  8
0
  6
CONTINUOUS
 62
     2
 10
55.5
 20
136.25
 30
0.0
 11
55.5
 21
163.75
 31
0.0
  0
ARC
  8
0
  6
CONTINUOUS
 62
     2
 10
55.0
 20
136.25
 30
0.0
 40
0.5
 50
270.0
 51
360.0
  0
LINE
  8
0
  6
CONTINUOUS
 62
     2
 10
25.35
 20
162.9
 30
0.0
 11
25.35
 21
147.0
 31
0.0
  0
ARC
  8
0
  6
CONTINUOUS
 62
     2
 10
25.85
 20
162.9
 30
0.0
 40
0.5
 50
90.0
 51
180.0
  0
LINE
  8
0
  6
CONTINUOUS
 62
     2
 10
54.15
 20
163.4
 30
0.0
 11
25.85
 21
163.4
 31
0.0
  0
LINE
  8
0
  6
CONTINUOUS
 62
     2
 10
54.65
 20
147.0
 30
0.0
 11
54.65
 21
162.9
 31
0.0
  0
ARC
  8
0
  6
CONTINUOUS
 62
     2
 10
54.15
 20
162.9
 30
0.0
 40
0.5
 50
0.0
 51
90.0
  0
LINE
  8
0
  6
CONTINUOUS
 62
     2
 10
25.35
 20
147.0
 30
0.0
 11
54.65
 21
147.0
 31
0.0
  0
LINE
  8
0
  6
LTYPE1
 62
     2
 10
42.5
 20
138.25
 30
0.0
 11
37.5
 21
138.25
 31
0.0
  0
CIRCLE
  8
0
  6
CONTINUOUS
 62
     2
 10
40.0
 20
138.25
 30
0.0
 40
1.8
  0
LINE
  8
0
  6
CONTINUOUS
 62
     2
 10
39.75
 20
140.032554347
 30
0.0
 11
39.75
 21
136.467445653
 31
0.0
  0
LINE
  8
0
  6
CONTINUOUS
 62
     2
 10
40.25
 20
136.467445653
 30
0.0
 11
40.25
 21
140.032554347
 31
0.0
  0
CIRCLE
  8
0
  6
CONTINUOUS
 62
     2
 10
36.25
 20
142.5
 30
0.0
 40
1.75
  0
CIRCLE
  8
0
  6
CONTINUOUS
 62
     2
 10
36.25
 20
142.5
 30
0.0
 40
0.75
  0
LINE
  8
0
  6
CONTINUOUS
 62
     2
 10
35.430143345
 20
140.404687358
 30
0.0
 11
35.365008209
 21
140.161883337
 31
0.0
  0
LINE
  8
0
  6
CONTINUOUS
 62
     2
 10
35.912360369
 20
140.275477696
 30
0.0
 11
35.847367041
 21
140.032635677
 31
0.0
  0
ARC
  8
0
  6
CONTINUOUS
 62
     2
 10
35.667657149
 20
140.326666891
 30
0.0
 40
0.25
 50
348.184738537
 51
161.815261463
  0
ARC
  8
0
  6
CONTINUOUS
 62
     2
 10
35.602952387
 20
140.085185434
 30
0.0
 40
0.25
 50
347.865983983
 51
162.134016018
  0
LINE
  8
0
  6
CONTINUOUS
 62
     2
 10
34.492326989
 20
141.095334351
 30
0.0
 11
34.314516296
 21
140.917627468
 31
0.0
  0
LINE
  8
0
  6
CONTINUOUS
 62
     2
 10
34.845334351
 20
140.742326989
 30
0.0
 11
34.667627468
 21
140.564516296
 31
0.0
  0
ARC
  8
0
  6
CONTINUOUS
 62
     2
 10
34.659009742
 20
140.909009742
 30
0.0
 40
0.25
 50
318.184738537
 51
131.815261463
  0
ARC
  8
0
  6
CONTINUOUS
 62
     2
 10
34.482233047
 20
140.732233047
 30
0.0
 40
0.25
 50
317.865983983
 51
132.134016018
  0
LINE
  8
0
  6
CONTINUOUS
 62
     2
 10
34.025477696
 20
142.162360369
 30
0.0
 11
33.782635677
 21
142.097367041
 31
0.0
  0
LINE
  8
0
  6
CONTINUOUS
 62
     2
 10
34.154687358
 20
141.680143345
 30
0.0
 11
33.911883337
 21
141.615008209
 31
0.0
  0
ARC
  8
0
  6
CONTINUOUS
 62
     2
 10
34.076666891
 20
141.917657149
 30
0.0
 40
0.25
 50
288.184738537
 51
101.815261463
  0
ARC
  8
0
  6
CONTINUOUS
 62
     2
 10
33.835185434
 20
141.852952387
 30
0.0
 40
0.25
 50
287.865983983
 51
102.134016018
  0
ARC
  8
0
  6
CONTINUOUS
 62
     2
 10
36.25
 20
142.5
 30
0.0
 40
2.5
 50
230.731967965
 51
249.268032035
  0
ARC
  8
0
  6
CONTINUOUS
 62
     2
 10
36.25
 20
142.5
 30
0.0
 40
2.25
 50
231.369477073
 51
248.630522927
  0
ARC
  8
0
  6
CONTINUOUS
 62
     2
 10
36.25
 20
142.5
 30
0.0
 40
2.5
 50
200.731967965
 51
219.268032035
  0
ARC
  8
0
  6
CONTINUOUS
 62
     2
 10
36.25
 20
142.5
 30
0.0
 40
2.25
 50
201.369477073
 51
218.630522927
  0
LINE
  8
0
  6
CONTINUOUS
 62
     2
 10
37.069856655
 20
140.404687358
 30
0.0
 11
37.134991791
 21
140.161883337
 31
0.0
  0
LINE
  8
0
  6
CONTINUOUS
 62
     2
 10
36.587639631
 20
140.275477696
 30
0.0
 11
36.652632959
 21
140.032635677
 31
0.0
  0
ARC
  8
0
  6
CONTINUOUS
 62
     2
 10
36.832342851
 20
140.326666891
 30
0.0
 40
0.25
 50
18.184738537
 51
191.815261463
  0
ARC
  8
0
  6
CONTINUOUS
 62
     2
 10
36.897047613
 20
140.085185434
 30
0.0
 40
0.25
 50
17.865983982
 51
192.134016017
  0
LINE
  8
0
  6
CONTINUOUS
 62
     2
 10
38.007673011
 20
141.095334351
 30
0.0
 11
38.185483704
 21
140.917627468
 31
0.0
  0
LINE
  8
0
  6
CONTINUOUS
 62
     2
 10
37.654665649
 20
140.742326989
 30
0.0
 11
37.832372532
 21
140.564516296
 31
0.0
  0
ARC
  8
0
  6
CONTINUOUS
 62
     2
 10
37.840990258
 20
140.909009742
 30
0.0
 40
0.25
 50
48.184738537
 51
221.815261463
  0
ARC
  8
0
  6
CONTINUOUS
 62
     2
 10
38.017766953
 20
140.732233047
 30
0.0
 40
0.25
 50
47.865983982
 51
222.134016017
  0
LINE
  8
0
  6
CONTINUOUS
 62
     2
 10
38.474522304
 20
142.162360369
 30
0.0
 11
38.717364323
 21
142.097367041
 31
0.0
  0
LINE
  8
0
  6
CONTINUOUS
 62
     2
 10
38.345312642
 20
141.680143345
 30
0.0
 11
38.588116663
 21
141.615008209
 31
0.0
  0
ARC
  8
0
  6
CONTINUOUS
 62
     2
 10
38.423333109
 20
141.917657149
 30
0.0
 40
0.25
 50
78.184738537
 51
251.815261463
  0
ARC
  8
0
  6
CONTINUOUS
 62
     2
 10
38.664814566
 20
141.852952387
 30
0.0
 40
0.25
 50
77.865983982
 51
252.134016017
  0
ARC
  8
0
  6
CONTINUOUS
 62
     2
 10
36.25
 20
142.5
 30
0.0
 40
2.5
 50
290.731967965
 51
309.268032035
  0
ARC
  8
0
  6
CONTINUOUS
 62
     2
 10
36.25
 20
142.5
 30
0.0
 40
2.25
 50
291.369477073
 51
308.630522927
  0
ARC
  8
0
  6
CONTINUOUS
 62
     2
 10
36.25
 20
142.5
 30
0.0
 40
2.5
 50
320.731967965
 51
339.268032035
  0
ARC
  8
0
  6
CONTINUOUS
 62
     2
 10
36.25
 20
142.5
 30
0.0
 40
2.25
 50
321.369477073
 51
338.630522927
  0
ARC
  8
0
  6
CONTINUOUS
 62
     2
 10
36.25
 20
142.5
 30
0.0
 40
2.25
 50
261.369477073
 51
278.630522927
  0
ARC
  8
0
  6
CONTINUOUS
 62
     2
 10
36.25
 20
142.5
 30
0.0
 40
2.5
 50
260.731967965
 51
279.268032035
  0
LINE
  8
0
  6
CONTINUOUS
 62
     2
 10
35.430143345
 20
144.595312642
 30
0.0
 11
35.365008209
 21
144.838116663
 31
0.0
  0
LINE
  8
0
  6
CONTINUOUS
 62
     2
 10
35.912360369
 20
144.724522304
 30
0.0
 11
35.847367041
 21
144.967364323
 31
0.0
  0
ARC
  8
0
  6
CONTINUOUS
 62
     2
 10
35.667657149
 20
144.673333109
 30
0.0
 40
0.25
 50
198.184738537
 51
11.815261463
  0
ARC
  8
0
  6
CONTINUOUS
 62
     2
 10
35.602952387
 20
144.914814566
 30
0.0
 40
0.25
 50
197.865983982
 51
12.134016017
  0
LINE
  8
0
  6
CONTINUOUS
 62
     2
 10
34.492326989
 20
143.904665649
 30
0.0
 11
34.314516296
 21
144.082372532
 31
0.0
  0
LINE
  8
0
  6
CONTINUOUS
 62
     2
 10
34.845334351
 20
144.257673011
 30
0.0
 11
34.667627468
 21
144.435483704
 31
0.0
  0
ARC
  8
0
  6
CONTINUOUS
 62
     2
 10
34.659009742
 20
144.090990258
 30
0.0
 40
0.25
 50
228.184738537
 51
41.815261463
  0
ARC
  8
0
  6
CONTINUOUS
 62
     2
 10
34.482233047
 20
144.267766953
 30
0.0
 40
0.25
 50
227.865983982
 51
42.134016017
  0
LINE
  8
0
  6
CONTINUOUS
 62
     2
 10
34.025477696
 20
142.837639631
 30
0.0
 11
33.782635677
 21
142.902632959
 31
0.0
  0
LINE
  8
0
  6
CONTINUOUS
 62
     2
 10
34.154687358
 20
143.319856655
 30
0.0
 11
33.911883337
 21
143.384991791
 31
0.0
  0
ARC
  8
0
  6
CONTINUOUS
 62
     2
 10
34.076666891
 20
143.082342851
 30
0.0
 40
0.25
 50
258.184738537
 51
71.815261463
  0
ARC
  8
0
  6
CONTINUOUS
 62
     2
 10
33.835185434
 20
143.147047613
 30
0.0
 40
0.25
 50
257.865983982
 51
72.134016017
  0
ARC
  8
0
  6
CONTINUOUS
 62
     2
 10
36.25
 20
142.5
 30
0.0
 40
2.5
 50
110.731967965
 51
129.268032035
  0
ARC
  8
0
  6
CONTINUOUS
 62
     2
 10
36.25
 20
142.5
 30
0.0
 40
2.25
 50
111.369477073
 51
128.630522927
  0
ARC
  8
0
  6
CONTINUOUS
 62
     2
 10
36.25
 20
142.5
 30
0.0
 40
2.5
 50
140.731967965
 51
159.268032035
  0
ARC
  8
0
  6
CONTINUOUS
 62
     2
 10
36.25
 20
142.5
 30
0.0
 40
2.25
 50
141.369477073
 51
158.630522927
  0
LINE
  8
0
  6
CONTINUOUS
 62
     2
 10
37.069856655
 20
144.595312642
 30
0.0
 11
37.134991791
 21
144.838116663
 31
0.0
  0
LINE
  8
0
  6
CONTINUOUS
 62
     2
 10
36.587639631
 20
144.724522304
 30
0.0
 11
36.652632959
 21
144.967364323
 31
0.0
  0
ARC
  8
0
  6
CONTINUOUS
 62
     2
 10
36.832342851
 20
144.673333109
 30
0.0
 40
0.25
 50
168.184738537
 51
341.815261463
  0
ARC
  8
0
  6
CONTINUOUS
 62
     2
 10
36.897047613
 20
144.914814566
 30
0.0
 40
0.25
 50
167.865983983
 51
342.134016018
  0
LINE
  8
0
  6
CONTINUOUS
 62
     2
 10
38.007673011
 20
143.904665649
 30
0.0
 11
38.185483704
 21
144.082372532
 31
0.0
  0
LINE
  8
0
  6
CONTINUOUS
 62
     2
 10
37.654665649
 20
144.257673011
 30
0.0
 11
37.832372532
 21
144.435483704
 31
0.0
  0
ARC
  8
0
  6
CONTINUOUS
 62
     2
 10
37.840990258
 20
144.090990258
 30
0.0
 40
0.25
 50
138.184738537
 51
311.815261463
  0
ARC
  8
0
  6
CONTINUOUS
 62
     2
 10
38.017766953
 20
144.267766953
 30
0.0
 40
0.25
 50
137.865983983
 51
312.134016018
  0
LINE
  8
0
  6
CONTINUOUS
 62
     2
 10
38.474522304
 20
142.837639631
 30
0.0
 11
38.717364323
 21
142.902632959
 31
0.0
  0
LINE
  8
0
  6
CONTINUOUS
 62
     2
 10
38.345312642
 20
143.319856655
 30
0.0
 11
38.588116663
 21
143.384991791
 31
0.0
  0
ARC
  8
0
  6
CONTINUOUS
 62
     2
 10
38.423333109
 20
143.082342851
 30
0.0
 40
0.25
 50
108.184738537
 51
281.815261463
  0
ARC
  8
0
  6
CONTINUOUS
 62
     2
 10
38.664814566
 20
143.147047613
 30
0.0
 40
0.25
 50
107.865983983
 51
282.134016018
  0
ARC
  8
0
  6
CONTINUOUS
 62
     2
 10
36.25
 20
142.5
 30
0.0
 40
2.5
 50
50.731967965
 51
69.268032035
  0
ARC
  8
0
  6
CONTINUOUS
 62
     2
 10
36.25
 20
142.5
 30
0.0
 40
2.25
 50
51.369477073
 51
68.630522927
  0
ARC
  8
0
  6
CONTINUOUS
 62
     2
 10
36.25
 20
142.5
 30
0.0
 40
2.5
 50
20.731967965
 51
39.268032035
  0
ARC
  8
0
  6
CONTINUOUS
 62
     2
 10
36.25
 20
142.5
 30
0.0
 40
2.25
 50
21.369477073
 51
38.630522927
  0
ARC
  8
0
  6
CONTINUOUS
 62
     2
 10
36.25
 20
142.5
 30
0.0
 40
2.25
 50
81.369477073
 51
98.630522927
  0
ARC
  8
0
  6
CONTINUOUS
 62
     2
 10
36.25
 20
142.5
 30
0.0
 40
2.5
 50
80.731967965
 51
99.268032035
  0
ARC
  8
0
  6
CONTINUOUS
 62
     2
 10
36.25
 20
142.5
 30
0.0
 40
2.5
 50
170.731967965
 51
189.268032035
  0
ARC
  8
0
  6
CONTINUOUS
 62
     2
 10
36.25
 20
142.5
 30
0.0
 40
2.5
 50
350.731967965
 51
9.268032035
  0
ARC
  8
0
  6
CONTINUOUS
 62
     2
 10
36.25
 20
142.5
 30
0.0
 40
2.25
 50
171.369477073
 51
188.630522927
  0
ARC
  8
0
  6
CONTINUOUS
 62
     2
 10
36.25
 20
142.5
 30
0.0
 40
2.25
 50
351.369477073
 51
8.630522927
  0
LINE
  8
0
  6
LTYPE1
 62
     2
 10
33.25
 20
142.5
 30
0.0
 11
39.25
 21
142.5
 31
0.0
  0
LINE
  8
0
  6
LTYPE1
 62
     2
 10
36.25
 20
145.5
 30
0.0
 11
36.25
 21
139.5
 31
0.0
  0
LINE
  8
0
  6
LTYPE1
 62
     2
 10
37.0
 20
138.25
 30
0.0
 11
43.0
 21
138.25
 31
0.0
  0
CIRCLE
  8
0
  6
CONTINUOUS
 62
     2
 10
43.75
 20
142.5
 30
0.0
 40
1.75
  0
CIRCLE
  8
0
  6
CONTINUOUS
 62
     2
 10
43.75
 20
142.5
 30
0.0
 40
0.75
  0
LINE
  8
0
  6
CONTINUOUS
 62
     2
 10
42.930143345
 20
140.404687358
 30
0.0
 11
42.865008209
 21
140.161883337
 31
0.0
  0
LINE
  8
0
  6
CONTINUOUS
 62
     2
 10
43.412360369
 20
140.275477696
 30
0.0
 11
43.347367041
 21
140.032635677
 31
0.0
  0
ARC
  8
0
  6
CONTINUOUS
 62
     2
 10
43.167657149
 20
140.326666891
 30
0.0
 40
0.25
 50
348.184738537
 51
161.815261463
  0
ARC
  8
0
  6
CONTINUOUS
 62
     2
 10
43.102952387
 20
140.085185434
 30
0.0
 40
0.25
 50
347.865983983
 51
162.134016018
  0
LINE
  8
0
  6
CONTINUOUS
 62
     2
 10
41.992326989
 20
141.095334351
 30
0.0
 11
41.814516296
 21
140.917627468
 31
0.0
  0
LINE
  8
0
  6
CONTINUOUS
 62
     2
 10
42.345334351
 20
140.742326989
 30
0.0
 11
42.167627468
 21
140.564516296
 31
0.0
  0
ARC
  8
0
  6
CONTINUOUS
 62
     2
 10
42.159009742
 20
140.909009742
 30
0.0
 40
0.25
 50
318.184738537
 51
131.815261463
  0
ARC
  8
0
  6
CONTINUOUS
 62
     2
 10
41.982233047
 20
140.732233047
 30
0.0
 40
0.25
 50
317.865983983
 51
132.134016018
  0
LINE
  8
0
  6
CONTINUOUS
 62
     2
 10
41.525477696
 20
142.162360369
 30
0.0
 11
41.282635677
 21
142.097367041
 31
0.0
  0
LINE
  8
0
  6
CONTINUOUS
 62
     2
 10
41.654687358
 20
141.680143345
 30
0.0
 11
41.411883337
 21
141.615008209
 31
0.0
  0
ARC
  8
0
  6
CONTINUOUS
 62
     2
 10
41.576666891
 20
141.917657149
 30
0.0
 40
0.25
 50
288.184738537
 51
101.815261463
  0
ARC
  8
0
  6
CONTINUOUS
 62
     2
 10
41.335185434
 20
141.852952387
 30
0.0
 40
0.25
 50
287.865983983
 51
102.134016018
  0
ARC
  8
0
  6
CONTINUOUS
 62
     2
 10
43.75
 20
142.5
 30
0.0
 40
2.5
 50
230.731967965
 51
249.268032035
  0
ARC
  8
0
  6
CONTINUOUS
 62
     2
 10
43.75
 20
142.5
 30
0.0
 40
2.25
 50
231.369477073
 51
248.630522927
  0
ARC
  8
0
  6
CONTINUOUS
 62
     2
 10
43.75
 20
142.5
 30
0.0
 40
2.5
 50
200.731967965
 51
219.268032035
  0
ARC
  8
0
  6
CONTINUOUS
 62
     2
 10
43.75
 20
142.5
 30
0.0
 40
2.25
 50
201.369477073
 51
218.630522927
  0
LINE
  8
0
  6
CONTINUOUS
 62
     2
 10
44.569856655
 20
140.404687358
 30
0.0
 11
44.634991791
 21
140.161883337
 31
0.0
  0
LINE
  8
0
  6
CONTINUOUS
 62
     2
 10
44.087639631
 20
140.275477696
 30
0.0
 11
44.152632959
 21
140.032635677
 31
0.0
  0
ARC
  8
0
  6
CONTINUOUS
 62
     2
 10
44.332342851
 20
140.326666891
 30
0.0
 40
0.25
 50
18.184738537
 51
191.815261463
  0
ARC
  8
0
  6
CONTINUOUS
 62
     2
 10
44.397047613
 20
140.085185434
 30
0.0
 40
0.25
 50
17.865983982
 51
192.134016017
  0
LINE
  8
0
  6
CONTINUOUS
 62
     2
 10
45.507673011
 20
141.095334351
 30
0.0
 11
45.685483704
 21
140.917627468
 31
0.0
  0
LINE
  8
0
  6
CONTINUOUS
 62
     2
 10
45.154665649
 20
140.742326989
 30
0.0
 11
45.332372532
 21
140.564516296
 31
0.0
  0
ARC
  8
0
  6
CONTINUOUS
 62
     2
 10
45.340990258
 20
140.909009742
 30
0.0
 40
0.25
 50
48.184738537
 51
221.815261463
  0
ARC
  8
0
  6
CONTINUOUS
 62
     2
 10
45.517766953
 20
140.732233047
 30
0.0
 40
0.25
 50
47.865983982
 51
222.134016017
  0
LINE
  8
0
  6
CONTINUOUS
 62
     2
 10
45.974522304
 20
142.162360369
 30
0.0
 11
46.217364323
 21
142.097367041
 31
0.0
  0
LINE
  8
0
  6
CONTINUOUS
 62
     2
 10
45.845312642
 20
141.680143345
 30
0.0
 11
46.088116663
 21
141.615008209
 31
0.0
  0
ARC
  8
0
  6
CONTINUOUS
 62
     2
 10
45.923333109
 20
141.917657149
 30
0.0
 40
0.25
 50
78.184738537
 51
251.815261463
  0
ARC
  8
0
  6
CONTINUOUS
 62
     2
 10
46.164814566
 20
141.852952387
 30
0.0
 40
0.25
 50
77.865983982
 51
252.134016017
  0
ARC
  8
0
  6
CONTINUOUS
 62
     2
 10
43.75
 20
142.5
 30
0.0
 40
2.5
 50
290.731967965
 51
309.268032035
  0
ARC
  8
0
  6
CONTINUOUS
 62
     2
 10
43.75
 20
142.5
 30
0.0
 40
2.25
 50
291.369477073
 51
308.630522927
  0
ARC
  8
0
  6
CONTINUOUS
 62
     2
 10
43.75
 20
142.5
 30
0.0
 40
2.5
 50
320.731967965
 51
339.268032035
  0
ARC
  8
0
  6
CONTINUOUS
 62
     2
 10
43.75
 20
142.5
 30
0.0
 40
2.25
 50
321.369477073
 51
338.630522927
  0
ARC
  8
0
  6
CONTINUOUS
 62
     2
 10
43.75
 20
142.5
 30
0.0
 40
2.25
 50
261.369477073
 51
278.630522927
  0
ARC
  8
0
  6
CONTINUOUS
 62
     2
 10
43.75
 20
142.5
 30
0.0
 40
2.5
 50
260.731967965
 51
279.268032035
  0
LINE
  8
0
  6
CONTINUOUS
 62
     2
 10
42.930143345
 20
144.595312642
 30
0.0
 11
42.865008209
 21
144.838116663
 31
0.0
  0
LINE
  8
0
  6
CONTINUOUS
 62
     2
 10
43.412360369
 20
144.724522304
 30
0.0
 11
43.347367041
 21
144.967364323
 31
0.0
  0
ARC
  8
0
  6
CONTINUOUS
 62
     2
 10
43.167657149
 20
144.673333109
 30
0.0
 40
0.25
 50
198.184738537
 51
11.815261463
  0
ARC
  8
0
  6
CONTINUOUS
 62
     2
 10
43.102952387
 20
144.914814566
 30
0.0
 40
0.25
 50
197.865983982
 51
12.134016017
  0
LINE
  8
0
  6
CONTINUOUS
 62
     2
 10
41.992326989
 20
143.904665649
 30
0.0
 11
41.814516296
 21
144.082372532
 31
0.0
  0
LINE
  8
0
  6
CONTINUOUS
 62
     2
 10
42.345334351
 20
144.257673011
 30
0.0
 11
42.167627468
 21
144.435483704
 31
0.0
  0
ARC
  8
0
  6
CONTINUOUS
 62
     2
 10
42.159009742
 20
144.090990258
 30
0.0
 40
0.25
 50
228.184738537
 51
41.815261463
  0
ARC
  8
0
  6
CONTINUOUS
 62
     2
 10
41.982233047
 20
144.267766953
 30
0.0
 40
0.25
 50
227.865983982
 51
42.134016017
  0
LINE
  8
0
  6
CONTINUOUS
 62
     2
 10
41.525477696
 20
142.837639631
 30
0.0
 11
41.282635677
 21
142.902632959
 31
0.0
  0
LINE
  8
0
  6
CONTINUOUS
 62
     2
 10
41.654687358
 20
143.319856655
 30
0.0
 11
41.411883337
 21
143.384991791
 31
0.0
  0
ARC
  8
0
  6
CONTINUOUS
 62
     2
 10
41.576666891
 20
143.082342851
 30
0.0
 40
0.25
 50
258.184738537
 51
71.815261463
  0
ARC
  8
0
  6
CONTINUOUS
 62
     2
 10
41.335185434
 20
143.147047613
 30
0.0
 40
0.25
 50
257.865983982
 51
72.134016017
  0
ARC
  8
0
  6
CONTINUOUS
 62
     2
 10
43.75
 20
142.5
 30
0.0
 40
2.5
 50
110.731967965
 51
129.268032035
  0
ARC
  8
0
  6
CONTINUOUS
 62
     2
 10
43.75
 20
142.5
 30
0.0
 40
2.25
 50
111.369477073
 51
128.630522927
  0
ARC
  8
0
  6
CONTINUOUS
 62
     2
 10
43.75
 20
142.5
 30
0.0
 40
2.5
 50
140.731967965
 51
159.268032035
  0
ARC
  8
0
  6
CONTINUOUS
 62
     2
 10
43.75
 20
142.5
 30
0.0
 40
2.25
 50
141.369477073
 51
158.630522927
  0
LINE
  8
0
  6
CONTINUOUS
 62
     2
 10
44.569856655
 20
144.595312642
 30
0.0
 11
44.634991791
 21
144.838116663
 31
0.0
  0
LINE
  8
0
  6
CONTINUOUS
 62
     2
 10
44.087639631
 20
144.724522304
 30
0.0
 11
44.152632959
 21
144.967364323
 31
0.0
  0
ARC
  8
0
  6
CONTINUOUS
 62
     2
 10
44.332342851
 20
144.673333109
 30
0.0
 40
0.25
 50
168.184738537
 51
341.815261463
  0
ARC
  8
0
  6
CONTINUOUS
 62
     2
 10
44.397047613
 20
144.914814566
 30
0.0
 40
0.25
 50
167.865983983
 51
342.134016018
  0
LINE
  8
0
  6
CONTINUOUS
 62
     2
 10
45.507673011
 20
143.904665649
 30
0.0
 11
45.685483704
 21
144.082372532
 31
0.0
  0
LINE
  8
0
  6
CONTINUOUS
 62
     2
 10
45.154665649
 20
144.257673011
 30
0.0
 11
45.332372532
 21
144.435483704
 31
0.0
  0
ARC
  8
0
  6
CONTINUOUS
 62
     2
 10
45.340990258
 20
144.090990258
 30
0.0
 40
0.25
 50
138.184738537
 51
311.815261463
  0
ARC
  8
0
  6
CONTINUOUS
 62
     2
 10
45.517766953
 20
144.267766953
 30
0.0
 40
0.25
 50
137.865983983
 51
312.134016018
  0
LINE
  8
0
  6
CONTINUOUS
 62
     2
 10
45.974522304
 20
142.837639631
 30
0.0
 11
46.217364323
 21
142.902632959
 31
0.0
  0
LINE
  8
0
  6
CONTINUOUS
 62
     2
 10
45.845312642
 20
143.319856655
 30
0.0
 11
46.088116663
 21
143.384991791
 31
0.0
  0
ARC
  8
0
  6
CONTINUOUS
 62
     2
 10
45.923333109
 20
143.082342851
 30
0.0
 40
0.25
 50
108.184738537
 51
281.815261463
  0
ARC
  8
0
  6
CONTINUOUS
 62
     2
 10
46.164814566
 20
143.147047613
 30
0.0
 40
0.25
 50
107.865983983
 51
282.134016018
  0
ARC
  8
0
  6
CONTINUOUS
 62
     2
 10
43.75
 20
142.5
 30
0.0
 40
2.5
 50
50.731967965
 51
69.268032035
  0
ARC
  8
0
  6
CONTINUOUS
 62
     2
 10
43.75
 20
142.5
 30
0.0
 40
2.25
 50
51.369477073
 51
68.630522927
  0
ARC
  8
0
  6
CONTINUOUS
 62
     2
 10
43.75
 20
142.5
 30
0.0
 40
2.5
 50
20.731967965
 51
39.268032035
  0
ARC
  8
0
  6
CONTINUOUS
 62
     2
 10
43.75
 20
142.5
 30
0.0
 40
2.25
 50
21.369477073
 51
38.630522927
  0
ARC
  8
0
  6
CONTINUOUS
 62
     2
 10
43.75
 20
142.5
 30
0.0
 40
2.25
 50
81.369477073
 51
98.630522927
  0
ARC
  8
0
  6
CONTINUOUS
 62
     2
 10
43.75
 20
142.5
 30
0.0
 40
2.5
 50
80.731967965
 51
99.268032035
  0
ARC
  8
0
  6
CONTINUOUS
 62
     2
 10
43.75
 20
142.5
 30
0.0
 40
2.5
 50
170.731967965
 51
189.268032035
  0
ARC
  8
0
  6
CONTINUOUS
 62
     2
 10
43.75
 20
142.5
 30
0.0
 40
2.5
 50
350.731967965
 51
9.268032035
  0
ARC
  8
0
  6
CONTINUOUS
 62
     2
 10
43.75
 20
142.5
 30
0.0
 40
2.25
 50
171.369477073
 51
188.630522927
  0
ARC
  8
0
  6
CONTINUOUS
 62
     2
 10
43.75
 20
142.5
 30
0.0
 40
2.25
 50
351.369477073
 51
8.630522927
  0
LINE
  8
0
  6
LTYPE1
 62
     2
 10
40.75
 20
142.5
 30
0.0
 11
46.75
 21
142.5
 31
0.0
  0
LINE
  8
0
  6
LTYPE1
 62
     2
 10
43.75
 20
145.5
 30
0.0
 11
43.75
 21
139.5
 31
0.0
  0
CIRCLE
  8
0
  6
CONTINUOUS
 62
     2
 10
43.75
 20
142.5
 30
0.0
 40
2.5
  0
CIRCLE
  8
0
  6
CONTINUOUS
 62
     2
 10
36.25
 20
142.5
 30
0.0
 40
2.5
  0
LINE
  8
0
  6
CONTINUOUS
 62
     2
 10
40.9
 20
136.691154273
 30
0.0
 11
41.547047613
 21
134.276339707
 31
0.0
  0
LINE
  8
0
  6
CONTINUOUS
 62
     2
 10
40.9
 20
136.691154273
 30
0.0
 11
42.667766953
 21
134.92338732
 31
0.0
  0
LINE
  8
0
  6
CONTINUOUS
 62
     2
 10
47.301950515
 20
150.808420624
 30
0.0
 11
47.75
 21
147.0
 31
0.0
  0
ARC
  8
0
  6
CONTINUOUS
 62
     2
 10
46.805375213
 20
150.75
 30
0.0
 40
0.5
 50
6.709836808
 51
90.0
  0
LINE
  8
0
  6
CONTINUOUS
 62
     2
 10
33.194624787
 20
151.25
 30
0.0
 11
46.805375213
 21
151.25
 31
0.0
  0
LINE
  8
0
  6
CONTINUOUS
 62
     2
 10
32.25
 20
147.0
 30
0.0
 11
32.698049485
 21
150.808420624
 31
0.0
  0
ARC
  8
0
  6
CONTINUOUS
 62
     2
 10
33.194624787
 20
150.75
 30
0.0
 40
0.5
 50
90.0
 51
173.290163192
  0
LINE
  8
0
  6
CONTINUOUS
 62
     2
 10
35.0
 20
149.25
 30
0.0
 11
33.232233047
 21
147.482233047
 31
0.0
  0
LINE
  8
0
  6
CONTINUOUS
 62
     2
 10
35.0
 20
149.25
 30
0.0
 11
34.352952387
 21
146.835185434
 31
0.0
  0
LINE
  8
0
  6
CONTINUOUS
 62
     2
 10
52.30008
 20
141.013987768
 30
0.0
 11
52.30008
 21
142.10016
 31
0.0
  0
ARC
  8
0
  6
CONTINUOUS
 62
     2
 10
52.10016
 20
142.10016
 30
0.0
 40
0.19992
 50
0.0
 51
90.0
  0
LINE
  8
0
  6
CONTINUOUS
 62
     2
 10
52.10016
 20
142.30008
 30
0.0
 11
51.70032
 21
142.30008
 31
0.0
  0
LINE
  8
0
  6
CONTINUOUS
 62
     2
 10
51.70032
 20
142.30008
 30
0.0
 11
51.70032
 21
142.69992
 31
0.0
  0
LINE
  8
0
  6
CONTINUOUS
 62
     2
 10
51.70032
 20
142.69992
 30
0.0
 11
52.10016
 21
142.69992
 31
0.0
  0
ARC
  8
0
  6
CONTINUOUS
 62
     2
 10
52.10016
 20
142.89984
 30
0.0
 40
0.19992
 50
270.0
 51
0.0
  0
LINE
  8
0
  6
CONTINUOUS
 62
     2
 10
52.30008
 20
142.89984
 30
0.0
 11
52.30008
 21
143.986012232
 31
0.0
  0
LINE
  8
0
  6
CONTINUOUS
 62
     2
 10
52.69992
 20
143.986012232
 30
0.0
 11
52.69992
 21
142.89984
 31
0.0
  0
ARC
  8
0
  6
CONTINUOUS
 62
     2
 10
52.89984
 20
142.89984
 30
0.0
 40
0.19992
 50
180.0
 51
270.0
  0
LINE
  8
0
  6
CONTINUOUS
 62
     2
 10
52.899840005
 20
142.69992
 30
0.0
 11
53.299680005
 21
142.69992
 31
0.0
  0
LINE
  8
0
  6
CONTINUOUS
 62
     2
 10
53.299680005
 20
142.69992
 30
0.0
 11
53.299680005
 21
142.30008
 31
0.0
  0
LINE
  8
0
  6
CONTINUOUS
 62
     2
 10
53.299680005
 20
142.30008
 30
0.0
 11
52.89984
 21
142.30008
 31
0.0
  0
ARC
  8
0
  6
CONTINUOUS
 62
     2
 10
52.89984
 20
142.10016
 30
0.0
 40
0.19992
 50
90.0
 51
180.0
  0
LINE
  8
0
  6
CONTINUOUS
 62
     2
 10
52.69992
 20
142.10016
 30
0.0
 11
52.69992
 21
141.013987768
 31
0.0
  0
CIRCLE
  8
0
  6
CONTINUOUS
 62
     2
 10
52.5
 20
142.5
 30
0.0
 40
1.4994
  0
LINE
  8
0
  6
LTYPE1
 62
     2
 10
52.5
 20
144.5
 30
0.0
 11
52.5
 21
140.5
 31
0.0
  0
LINE
  8
0
  6
LTYPE1
 62
     2
 10
50.5
 20
142.5
 30
0.0
 11
54.4994
 21
142.5
 31
0.0
  0
LINE
  8
0
  6
CONTINUOUS
 62
     2
 10
27.30008
 20
141.013987768
 30
0.0
 11
27.30008
 21
142.10016
 31
0.0
  0
ARC
  8
0
  6
CONTINUOUS
 62
     2
 10
27.10016
 20
142.10016
 30
0.0
 40
0.19992
 50
0.0
 51
90.0
  0
LINE
  8
0
  6
CONTINUOUS
 62
     2
 10
27.10016
 20
142.30008
 30
0.0
 11
26.70032
 21
142.30008
 31
0.0
  0
LINE
  8
0
  6
CONTINUOUS
 62
     2
 10
26.70032
 20
142.30008
 30
0.0
 11
26.70032
 21
142.69992
 31
0.0
  0
LINE
  8
0
  6
CONTINUOUS
 62
     2
 10
26.70032
 20
142.69992
 30
0.0
 11
27.10016
 21
142.69992
 31
0.0
  0
ARC
  8
0
  6
CONTINUOUS
 62
     2
 10
27.10016
 20
142.89984
 30
0.0
 40
0.19992
 50
270.0
 51
0.0
  0
LINE
  8
0
  6
CONTINUOUS
 62
     2
 10
27.30008
 20
142.89984
 30
0.0
 11
27.30008
 21
143.986012232
 31
0.0
  0
LINE
  8
0
  6
CONTINUOUS
 62
     2
 10
27.69992
 20
143.986012232
 30
0.0
 11
27.69992
 21
142.89984
 31
0.0
  0
ARC
  8
0
  6
CONTINUOUS
 62
     2
 10
27.89984
 20
142.89984
 30
0.0
 40
0.19992
 50
180.0
 51
270.0
  0
LINE
  8
0
  6
CONTINUOUS
 62
     2
 10
27.899840005
 20
142.69992
 30
0.0
 11
28.299680005
 21
142.69992
 31
0.0
  0
LINE
  8
0
  6
CONTINUOUS
 62
     2
 10
28.299680005
 20
142.69992
 30
0.0
 11
28.299680005
 21
142.30008
 31
0.0
  0
LINE
  8
0
  6
CONTINUOUS
 62
     2
 10
28.299680005
 20
142.30008
 30
0.0
 11
27.89984
 21
142.30008
 31
0.0
  0
ARC
  8
0
  6
CONTINUOUS
 62
     2
 10
27.89984
 20
142.10016
 30
0.0
 40
0.19992
 50
90.0
 51
180.0
  0
LINE
  8
0
  6
CONTINUOUS
 62
     2
 10
27.69992
 20
142.10016
 30
0.0
 11
27.69992
 21
141.013987768
 31
0.0
  0
CIRCLE
  8
0
  6
CONTINUOUS
 62
     2
 10
27.5
 20
142.5
 30
0.0
 40
1.4994
  0
LINE
  8
0
  6
LTYPE1
 62
     2
 10
27.5
 20
144.5
 30
0.0
 11
27.5
 21
140.5
 31
0.0
  0
LINE
  8
0
  6
LTYPE1
 62
     2
 10
25.5
 20
142.5
 30
0.0
 11
29.4994
 21
142.5
 31
0.0
  0
ARC
  8
0
  6
CONTINUOUS
 62
     2
 10
169.85
 20
163.95
 30
0.0
 40
0.5
 50
90.0
 51
180.0
  0
LINE
  8
0
  6
CONTINUOUS
 62
     2
 10
200.15
 20
164.45
 30
0.0
 11
169.85
 21
164.45
 31
0.0
  0
ARC
  8
0
  6
CONTINUOUS
 62
     2
 10
200.15
 20
163.95
 30
0.0
 40
0.5
 50
0.0
 51
90.0
  0
LINE
  8
0
  6
CONTINUOUS
 62
     2
 10
200.65
 20
136.05
 30
0.0
 11
200.65
 21
163.95
 31
0.0
  0
ARC
  8
0
  6
CONTINUOUS
 62
     2
 10
200.15
 20
136.05
 30
0.0
 40
0.5
 50
270.0
 51
0.0
  0
LINE
  8
0
  6
CONTINUOUS
 62
     2
 10
169.85
 20
135.55
 30
0.0
 11
200.15
 21
135.55
 31
0.0
  0
ARC
  8
0
  6
CONTINUOUS
 62
     2
 10
169.85
 20
136.05
 30
0.0
 40
0.5
 50
180.0
 51
270.0
  0
LINE
  8
0
  6
CONTINUOUS
 62
     2
 10
169.35
 20
163.95
 30
0.0
 11
169.35
 21
136.05
 31
0.0
  0
LINE
  8
0
  6
CONTINUOUS
 62
     2
 10
173.0
 20
170.0
 30
0.0
 11
175.414814566
 21
169.352952387
 31
0.0
  0
LINE
  8
0
  6
CONTINUOUS
 62
     2
 10
173.0
 20
170.0
 30
0.0
 11
175.414814566
 21
170.647047613
 31
0.0
  0
LINE
  8
0
  6
CONTINUOUS
 62
     2
 10
173.0
 20
170.0
 30
0.0
 11
185.0
 21
170.0
 31
0.0
  0
LINE
  8
0
  6
CONTINUOUS
 62
     2
 10
185.0
 20
170.0
 30
0.0
 11
182.585185434
 21
170.647047613
 31
0.0
  0
LINE
  8
0
  6
CONTINUOUS
 62
     2
 10
185.0
 20
170.0
 30
0.0
 11
182.585185434
 21
169.352952387
 31
0.0
  0
LINE
  8
0
  6
CONTINUOUS
 62
     2
 10
185.0
 20
169.9
 30
0.0
 11
185.0
 21
172.0
 31
0.0
  0
TEXT
  8
0
  6
CONTINUOUS
 62
     2
 10
178.52
 20
171.0
 30
0.18
 40
1.8
  1
±０．５
 50
0.0
 41
0.6
 51
0.0
  7
KANJI8
  0
LINE
  8
0
  6
CONTINUOUS
 62
     2
 10
185.0
 20
170.0
 30
0.0
 11
187.414814566
 21
169.352952387
 31
0.0
  0
LINE
  8
0
  6
CONTINUOUS
 62
     2
 10
185.0
 20
170.0
 30
0.0
 11
187.414814566
 21
170.647047613
 31
0.0
  0
LINE
  8
0
  6
CONTINUOUS
 62
     2
 10
185.0
 20
170.0
 30
0.0
 11
197.0
 21
170.0
 31
0.0
  0
LINE
  8
0
  6
CONTINUOUS
 62
     2
 10
197.0
 20
170.0
 30
0.0
 11
194.585185434
 21
170.647047613
 31
0.0
  0
LINE
  8
0
  6
CONTINUOUS
 62
     2
 10
197.0
 20
170.0
 30
0.0
 11
194.585185434
 21
169.352952387
 31
0.0
  0
TEXT
  8
0
  6
CONTINUOUS
 62
     2
 10
190.52
 20
171.0
 30
0.18
 40
1.8
  1
±０．５
 50
0.0
 41
0.6
 51
0.0
  7
KANJI8
  0
LINE
  8
0
  6
CONTINUOUS
 62
     2
 10
168.75
 20
175.0
 30
0.0
 11
171.164814566
 21
174.352952387
 31
0.0
  0
LINE
  8
0
  6
CONTINUOUS
 62
     2
 10
168.75
 20
175.0
 30
0.0
 11
171.164814566
 21
175.647047613
 31
0.0
  0
LINE
  8
0
  6
CONTINUOUS
 62
     2
 10
168.75
 20
175.0
 30
0.0
 11
201.25
 21
175.0
 31
0.0
  0
LINE
  8
0
  6
CONTINUOUS
 62
     2
 10
201.25
 20
175.0
 30
0.0
 11
198.835185434
 21
175.647047613
 31
0.0
  0
LINE
  8
0
  6
CONTINUOUS
 62
     2
 10
201.25
 20
175.0
 30
0.0
 11
198.835185434
 21
174.352952387
 31
0.0
  0
TEXT
  8
0
  6
CONTINUOUS
 62
     2
 10
186.38
 20
176.0
 30
0.18
 40
1.8
  1
±１
 50
0.0
 41
0.6
 51
0.0
  7
KANJI8
  0
LINE
  8
0
  6
CONTINUOUS
 62
     2
 10
206.25
 20
149.0
 30
0.0
 11
206.897047613
 21
151.414814566
 31
0.0
  0
LINE
  8
0
  6
CONTINUOUS
 62
     2
 10
206.25
 20
149.0
 30
0.0
 11
205.602952387
 21
151.414814566
 31
0.0
  0
LINE
  8
0
  6
CONTINUOUS
 62
     2
 10
206.25
 20
149.0
 30
0.0
 11
206.25
 21
162.0
 31
0.0
  0
LINE
  8
0
  6
CONTINUOUS
 62
     2
 10
206.25
 20
162.0
 30
0.0
 11
205.602952387
 21
159.585185434
 31
0.0
  0
LINE
  8
0
  6
CONTINUOUS
 62
     2
 10
206.25
 20
162.0
 30
0.0
 11
206.897047613
 21
159.585185434
 31
0.0
  0
TEXT
  8
0
  6
CONTINUOUS
 62
     2
 10
205.25
 20
155.02
 30
0.18
 40
1.8
  1
±０．５
 50
90.0
 41
0.6
 51
0.0
  7
KANJI8
  0
LINE
  8
0
  6
CONTINUOUS
 62
     2
 10
206.25
 20
149.0
 30
0.0
 11
205.602952387
 21
146.585185434
 31
0.0
  0
LINE
  8
0
  6
CONTINUOUS
 62
     2
 10
206.25
 20
149.0
 30
0.0
 11
206.897047613
 21
146.585185434
 31
0.0
  0
LINE
  8
0
  6
CONTINUOUS
 62
     2
 10
206.25
 20
149.0
 30
0.0
 11
206.25
 21
138.0
 31
0.0
  0
LINE
  8
0
  6
CONTINUOUS
 62
     2
 10
206.25
 20
138.0
 30
0.0
 11
206.897047613
 21
140.414814566
 31
0.0
  0
LINE
  8
0
  6
CONTINUOUS
 62
     2
 10
206.25
 20
138.0
 30
0.0
 11
205.602952387
 21
140.414814566
 31
0.0
  0
TEXT
  8
0
  6
CONTINUOUS
 62
     2
 10
205.25
 20
143.02
 30
0.18
 40
1.8
  1
±０．５
 50
90.0
 41
0.6
 51
0.0
  7
KANJI8
  0
LINE
  8
0
  6
CONTINUOUS
 62
     2
 10
211.25
 20
165.0
 30
0.0
 11
210.602952387
 21
162.585185434
 31
0.0
  0
LINE
  8
0
  6
CONTINUOUS
 62
     2
 10
211.25
 20
165.0
 30
0.0
 11
211.897047613
 21
162.585185434
 31
0.0
  0
LINE
  8
0
  6
CONTINUOUS
 62
     2
 10
211.25
 20
165.0
 30
0.0
 11
211.25
 21
135.0
 31
0.0
  0
LINE
  8
0
  6
CONTINUOUS
 62
     2
 10
211.25
 20
135.0
 30
0.0
 11
211.897047613
 21
137.414814566
 31
0.0
  0
LINE
  8
0
  6
CONTINUOUS
 62
     2
 10
211.25
 20
135.0
 30
0.0
 11
210.602952387
 21
137.414814566
 31
0.0
  0
TEXT
  8
0
  6
CONTINUOUS
 62
     2
 10
210.25
 20
150.78
 30
0.18
 40
1.8
  1
±１
 50
90.0
 41
0.6
 51
0.0
  7
KANJI8
  0
LINE
  8
0
  6
CONTINUOUS
 62
     2
 10
163.75
 20
150.0
 30
0.0
 11
164.397047613
 21
152.414814566
 31
0.0
  0
LINE
  8
0
  6
CONTINUOUS
 62
     2
 10
163.75
 20
150.0
 30
0.0
 11
163.102952387
 21
152.414814566
 31
0.0
  0
LINE
  8
0
  6
CONTINUOUS
 62
     2
 10
163.75
 20
156.8
 30
0.0
 11
163.75
 21
144.0
 31
0.0
  0
LINE
  8
0
  6
CONTINUOUS
 62
     2
 10
163.75
 20
149.0
 30
0.0
 11
163.102952387
 21
146.585185434
 31
0.0
  0
LINE
  8
0
  6
CONTINUOUS
 62
     2
 10
163.75
 20
149.0
 30
0.0
 11
164.397047613
 21
146.585185434
 31
0.0
  0
TEXT
  8
0
  6
CONTINUOUS
 62
     2
 10
162.75
 20
155.0
 30
0.25
 40
2.5
  1
２
 50
90.0
 41
0.6
 51
0.0
  7
KANJI7
  0
TEXT
  8
0
  6
CONTINUOUS
 62
     2
 10
205.25
 20
139.12
 30
0.25
 40
2.5
  1
２２
 50
90.0
 41
0.6
 51
0.0
  7
KANJI7
  0
TEXT
  8
0
  6
CONTINUOUS
 62
     2
 10
205.25
 20
151.12
 30
0.25
 40
2.5
  1
２６
 50
90.0
 41
0.6
 51
0.0
  7
KANJI7
  0
TEXT
  8
0
  6
CONTINUOUS
 62
     2
 10
210.25
 20
146.88
 30
0.25
 40
2.5
  1
６０
 50
90.0
 41
0.6
 51
0.0
  7
KANJI7
  0
TEXT
  8
0
  6
CONTINUOUS
 62
     2
 10
174.62
 20
171.0
 30
0.25
 40
2.5
  1
２４
 50
0.0
 41
0.6
 51
0.0
  7
KANJI7
  0
TEXT
  8
0
  6
CONTINUOUS
 62
     2
 10
186.62
 20
171.0
 30
0.25
 40
2.5
  1
２４
 50
0.0
 41
0.6
 51
0.0
  7
KANJI7
  0
TEXT
  8
0
  6
CONTINUOUS
 62
     2
 10
182.28
 20
176.0
 30
0.25
 40
2.5
  1
６５
 50
0.0
 41
0.6
 51
0.0
  7
KANJI7
  0
LINE
  8
0
  6
CONTINUOUS
 62
     2
 10
168.75
 20
164.75
 30
0.0
 11
168.75
 21
177.0
 31
0.0
  0
LINE
  8
0
  6
CONTINUOUS
 62
     2
 10
201.25
 20
164.75
 30
0.0
 11
201.25
 21
177.0
 31
0.0
  0
LINE
  8
0
  6
CONTINUOUS
 62
     2
 10
201.0
 20
165.0
 30
0.0
 11
213.25
 21
165.0
 31
0.0
  0
LINE
  8
0
  6
CONTINUOUS
 62
     2
 10
201.0
 20
135.0
 30
0.0
 11
213.25
 21
135.0
 31
0.0
  0
LINE
  8
0
  6
CONTINUOUS
 62
     2
 10
173.0
 20
166.5
 30
0.0
 11
173.0
 21
172.0
 31
0.0
  0
LINE
  8
0
  6
CONTINUOUS
 62
     2
 10
197.0
 20
166.5
 30
0.0
 11
197.0
 21
172.0
 31
0.0
  0
LINE
  8
0
  6
CONTINUOUS
 62
     2
 10
200.5
 20
162.0
 30
0.0
 11
208.25
 21
162.0
 31
0.0
  0
LINE
  8
0
  6
CONTINUOUS
 62
     2
 10
200.5
 20
138.0
 30
0.0
 11
208.25
 21
138.0
 31
0.0
  0
LINE
  8
0
  6
LTYPE1
 62
     2
 10
170.0
 20
162.0
 30
0.0
 11
176.0
 21
162.0
 31
0.0
  0
LINE
  8
0
  6
LTYPE1
 62
     2
 10
173.0
 20
166.0
 30
0.0
 11
173.0
 21
159.0
 31
0.0
  0
LINE
  8
0
  6
LTYPE1
 62
     2
 10
194.0
 20
162.0
 30
0.0
 11
200.0
 21
162.0
 31
0.0
  0
LINE
  8
0
  6
LTYPE1
 62
     2
 10
197.0
 20
166.0
 30
0.0
 11
197.0
 21
159.0
 31
0.0
  0
LINE
  8
0
  6
LTYPE1
 62
     2
 10
170.0
 20
138.0
 30
0.0
 11
176.0
 21
138.0
 31
0.0
  0
LINE
  8
0
  6
LTYPE1
 62
     2
 10
173.0
 20
141.0
 30
0.0
 11
173.0
 21
135.0
 31
0.0
  0
LINE
  8
0
  6
LTYPE1
 62
     2
 10
194.0
 20
138.0
 30
0.0
 11
200.0
 21
138.0
 31
0.0
  0
LINE
  8
0
  6
LTYPE1
 62
     2
 10
197.0
 20
141.0
 30
0.0
 11
197.0
 21
135.0
 31
0.0
  0
LINE
  8
0
  6
LTYPE1
 62
     2
 10
208.25
 20
149.0
 30
0.0
 11
162.8
 21
149.0
 31
0.0
  0
CIRCLE
  8
0
  6
CONTINUOUS
 62
     2
 10
173.0
 20
162.0
 30
0.0
 40
2.0
  0
CIRCLE
  8
0
  6
CONTINUOUS
 62
     2
 10
173.0
 20
162.0
 30
0.0
 40
0.75
  0
LINE
  8
0
  6
CONTINUOUS
 62
     2
 10
173.0
 20
163.6
 30
0.0
 11
171.614359354
 21
162.8
 31
0.0
  0
LINE
  8
0
  6
CONTINUOUS
 62
     2
 10
171.614359354
 20
162.8
 30
0.0
 11
171.614359354
 21
161.2
 31
0.0
  0
LINE
  8
0
  6
CONTINUOUS
 62
     2
 10
171.614359354
 20
161.2
 30
0.0
 11
173.0
 21
160.4
 31
0.0
  0
LINE
  8
0
  6
CONTINUOUS
 62
     2
 10
173.0
 20
160.4
 30
0.0
 11
174.385640646
 21
161.2
 31
0.0
  0
LINE
  8
0
  6
CONTINUOUS
 62
     2
 10
174.385640646
 20
161.2
 30
0.0
 11
174.385640646
 21
162.8
 31
0.0
  0
LINE
  8
0
  6
CONTINUOUS
 62
     2
 10
174.385640646
 20
162.8
 30
0.0
 11
173.0
 21
163.6
 31
0.0
  0
CIRCLE
  8
0
  6
CONTINUOUS
 62
     2
 10
197.0
 20
162.0
 30
0.0
 40
2.0
  0
CIRCLE
  8
0
  6
CONTINUOUS
 62
     2
 10
197.0
 20
162.0
 30
0.0
 40
0.75
  0
LINE
  8
0
  6
CONTINUOUS
 62
     2
 10
197.0
 20
163.6
 30
0.0
 11
195.614359354
 21
162.8
 31
0.0
  0
LINE
  8
0
  6
CONTINUOUS
 62
     2
 10
195.614359354
 20
162.8
 30
0.0
 11
195.614359354
 21
161.2
 31
0.0
  0
LINE
  8
0
  6
CONTINUOUS
 62
     2
 10
195.614359354
 20
161.2
 30
0.0
 11
197.0
 21
160.4
 31
0.0
  0
LINE
  8
0
  6
CONTINUOUS
 62
     2
 10
197.0
 20
160.4
 30
0.0
 11
198.385640646
 21
161.2
 31
0.0
  0
LINE
  8
0
  6
CONTINUOUS
 62
     2
 10
198.385640646
 20
161.2
 30
0.0
 11
198.385640646
 21
162.8
 31
0.0
  0
LINE
  8
0
  6
CONTINUOUS
 62
     2
 10
198.385640646
 20
162.8
 30
0.0
 11
197.0
 21
163.6
 31
0.0
  0
CIRCLE
  8
0
  6
CONTINUOUS
 62
     2
 10
173.0
 20
138.0
 30
0.0
 40
2.0
  0
CIRCLE
  8
0
  6
CONTINUOUS
 62
     2
 10
173.0
 20
138.0
 30
0.0
 40
0.75
  0
LINE
  8
0
  6
CONTINUOUS
 62
     2
 10
173.0
 20
139.6
 30
0.0
 11
171.614359354
 21
138.8
 31
0.0
  0
LINE
  8
0
  6
CONTINUOUS
 62
     2
 10
171.614359354
 20
138.8
 30
0.0
 11
171.614359354
 21
137.2
 31
0.0
  0
LINE
  8
0
  6
CONTINUOUS
 62
     2
 10
171.614359354
 20
137.2
 30
0.0
 11
173.0
 21
136.4
 31
0.0
  0
LINE
  8
0
  6
CONTINUOUS
 62
     2
 10
173.0
 20
136.4
 30
0.0
 11
174.385640646
 21
137.2
 31
0.0
  0
LINE
  8
0
  6
CONTINUOUS
 62
     2
 10
174.385640646
 20
137.2
 30
0.0
 11
174.385640646
 21
138.8
 31
0.0
  0
LINE
  8
0
  6
CONTINUOUS
 62
     2
 10
174.385640646
 20
138.8
 30
0.0
 11
173.0
 21
139.6
 31
0.0
  0
CIRCLE
  8
0
  6
CONTINUOUS
 62
     2
 10
197.0
 20
138.0
 30
0.0
 40
2.0
  0
CIRCLE
  8
0
  6
CONTINUOUS
 62
     2
 10
197.0
 20
138.0
 30
0.0
 40
0.75
  0
LINE
  8
0
  6
CONTINUOUS
 62
     2
 10
197.0
 20
139.6
 30
0.0
 11
195.614359354
 21
138.8
 31
0.0
  0
LINE
  8
0
  6
CONTINUOUS
 62
     2
 10
195.614359354
 20
138.8
 30
0.0
 11
195.614359354
 21
137.2
 31
0.0
  0
LINE
  8
0
  6
CONTINUOUS
 62
     2
 10
195.614359354
 20
137.2
 30
0.0
 11
197.0
 21
136.4
 31
0.0
  0
LINE
  8
0
  6
CONTINUOUS
 62
     2
 10
197.0
 20
136.4
 30
0.0
 11
198.385640646
 21
137.2
 31
0.0
  0
LINE
  8
0
  6
CONTINUOUS
 62
     2
 10
198.385640646
 20
137.2
 30
0.0
 11
198.385640646
 21
138.8
 31
0.0
  0
LINE
  8
0
  6
CONTINUOUS
 62
     2
 10
198.385640646
 20
138.8
 30
0.0
 11
197.0
 21
139.6
 31
0.0
  0
LINE
  8
0
  6
LTYPE2
 62
     2
 10
170.0
 20
149.0
 30
0.0
 11
200.0
 21
149.0
 31
0.0
  0
LINE
  8
0
  6
CONTINUOUS
 62
     2
 10
178.9
 20
140.0
 30
0.0
 11
191.1
 21
140.0
 31
0.0
  0
LINE
  8
0
  6
CONTINUOUS
 62
     2
 10
191.1
 20
148.5
 30
0.0
 11
191.1
 21
149.5
 31
0.0
  0
LINE
  8
0
  6
CONTINUOUS
 62
     2
 10
191.1
 20
149.5
 30
0.0
 11
190.5
 21
149.875
 31
0.0
  0
LINE
  8
0
  6
CONTINUOUS
 62
     2
 10
190.5
 20
149.875
 30
0.0
 11
190.5
 21
152.375
 31
0.0
  0
LINE
  8
0
  6
CONTINUOUS
 62
     2
 10
190.5
 20
152.375
 30
0.0
 11
191.1
 21
152.75
 31
0.0
  0
LINE
  8
0
  6
CONTINUOUS
 62
     2
 10
191.1
 20
152.75
 30
0.0
 11
191.1
 21
153.75
 31
0.0
  0
LINE
  8
0
  6
CONTINUOUS
 62
     2
 10
191.1
 20
153.75
 30
0.0
 11
190.5
 21
154.125
 31
0.0
  0
LINE
  8
0
  6
CONTINUOUS
 62
     2
 10
190.5
 20
154.125
 30
0.0
 11
190.5
 21
156.625
 31
0.0
  0
LINE
  8
0
  6
CONTINUOUS
 62
     2
 10
190.5
 20
156.625
 30
0.0
 11
191.1
 21
157.0
 31
0.0
  0
LINE
  8
0
  6
CONTINUOUS
 62
     2
 10
191.1
 20
157.0
 30
0.0
 11
191.1
 21
158.0
 31
0.0
  0
LINE
  8
0
  6
CONTINUOUS
 62
     2
 10
191.1
 20
148.5
 30
0.0
 11
190.5
 21
148.125
 31
0.0
  0
LINE
  8
0
  6
CONTINUOUS
 62
     2
 10
190.5
 20
148.125
 30
0.0
 11
190.5
 21
145.625
 31
0.0
  0
LINE
  8
0
  6
CONTINUOUS
 62
     2
 10
190.5
 20
145.625
 30
0.0
 11
191.1
 21
145.25
 31
0.0
  0
LINE
  8
0
  6
CONTINUOUS
 62
     2
 10
191.1
 20
145.25
 30
0.0
 11
191.1
 21
144.25
 31
0.0
  0
LINE
  8
0
  6
CONTINUOUS
 62
     2
 10
191.1
 20
144.25
 30
0.0
 11
190.5
 21
143.875
 31
0.0
  0
LINE
  8
0
  6
CONTINUOUS
 62
     2
 10
190.5
 20
143.875
 30
0.0
 11
190.5
 21
141.375
 31
0.0
  0
LINE
  8
0
  6
CONTINUOUS
 62
     2
 10
190.5
 20
141.375
 30
0.0
 11
191.1
 21
141.0
 31
0.0
  0
LINE
  8
0
  6
CONTINUOUS
 62
     2
 10
191.1
 20
141.0
 30
0.0
 11
191.1
 21
140.0
 31
0.0
  0
LINE
  8
0
  6
CONTINUOUS
 62
     2
 10
178.9
 20
148.5
 30
0.0
 11
178.9
 21
149.5
 31
0.0
  0
LINE
  8
0
  6
CONTINUOUS
 62
     2
 10
178.9
 20
149.5
 30
0.0
 11
179.5
 21
149.875
 31
0.0
  0
LINE
  8
0
  6
CONTINUOUS
 62
     2
 10
179.5
 20
149.875
 30
0.0
 11
179.5
 21
152.375
 31
0.0
  0
LINE
  8
0
  6
CONTINUOUS
 62
     2
 10
179.5
 20
152.375
 30
0.0
 11
178.9
 21
152.75
 31
0.0
  0
LINE
  8
0
  6
CONTINUOUS
 62
     2
 10
178.9
 20
152.75
 30
0.0
 11
178.9
 21
153.75
 31
0.0
  0
LINE
  8
0
  6
CONTINUOUS
 62
     2
 10
178.9
 20
153.75
 30
0.0
 11
179.5
 21
154.125
 31
0.0
  0
LINE
  8
0
  6
CONTINUOUS
 62
     2
 10
179.5
 20
154.125
 30
0.0
 11
179.5
 21
156.625
 31
0.0
  0
LINE
  8
0
  6
CONTINUOUS
 62
     2
 10
179.5
 20
156.625
 30
0.0
 11
178.9
 21
157.0
 31
0.0
  0
LINE
  8
0
  6
CONTINUOUS
 62
     2
 10
178.9
 20
157.0
 30
0.0
 11
178.9
 21
158.0
 31
0.0
  0
LINE
  8
0
  6
CONTINUOUS
 62
     2
 10
178.9
 20
148.5
 30
0.0
 11
179.5
 21
148.125
 31
0.0
  0
LINE
  8
0
  6
CONTINUOUS
 62
     2
 10
179.5
 20
148.125
 30
0.0
 11
179.5
 21
145.625
 31
0.0
  0
LINE
  8
0
  6
CONTINUOUS
 62
     2
 10
179.5
 20
145.625
 30
0.0
 11
178.9
 21
145.25
 31
0.0
  0
LINE
  8
0
  6
CONTINUOUS
 62
     2
 10
178.9
 20
145.25
 30
0.0
 11
178.9
 21
144.25
 31
0.0
  0
LINE
  8
0
  6
CONTINUOUS
 62
     2
 10
178.9
 20
144.25
 30
0.0
 11
179.5
 21
143.875
 31
0.0
  0
LINE
  8
0
  6
CONTINUOUS
 62
     2
 10
179.5
 20
143.875
 30
0.0
 11
179.5
 21
141.375
 31
0.0
  0
LINE
  8
0
  6
CONTINUOUS
 62
     2
 10
179.5
 20
141.375
 30
0.0
 11
178.9
 21
141.0
 31
0.0
  0
LINE
  8
0
  6
CONTINUOUS
 62
     2
 10
178.9
 20
141.0
 30
0.0
 11
178.9
 21
140.0
 31
0.0
  0
ARC
  8
0
  6
CONTINUOUS
 62
     2
 10
186.75
 20
158.0
 30
0.0
 40
0.55
 50
0.0
 51
180.0
  0
ARC
  8
0
  6
CONTINUOUS
 62
     2
 10
183.25
 20
158.0
 30
0.0
 40
0.55
 50
0.0
 51
180.0
  0
LINE
  8
0
  6
CONTINUOUS
 62
     2
 10
182.7
 20
158.0
 30
0.0
 11
178.9
 21
158.0
 31
0.0
  0
LINE
  8
0
  6
CONTINUOUS
 62
     2
 10
186.2
 20
158.0
 30
0.0
 11
183.8
 21
158.0
 31
0.0
  0
LINE
  8
0
  6
CONTINUOUS
 62
     2
 10
191.1
 20
158.0
 30
0.0
 11
187.3
 21
158.0
 31
0.0
  0
LINE
  8
0
  6
LTYPE2
 62
     2
 10
184.0
 20
159.5
 30
0.0
 11
186.0
 21
159.5
 31
0.0
  0
LINE
  8
0
  6
LTYPE2
 62
     2
 10
184.0
 20
138.5
 30
0.0
 11
186.0
 21
138.5
 31
0.0
  0
TEXT
  8
0
  6
CONTINUOUS
 62
     2
 10
176.35
 20
154.625
 30
0.15
 40
1.5
  1
１
 50
0.0
 41
0.9
 51
0.0
  7
KANJI5
  0
TEXT
  8
0
  6
CONTINUOUS
 62
     2
 10
176.35
 20
150.375
 30
0.15
 40
1.5
  1
２
 50
0.0
 41
0.9
 51
0.0
  7
KANJI5
  0
TEXT
  8
0
  6
CONTINUOUS
 62
     2
 10
176.35
 20
146.125
 30
0.15
 40
1.5
  1
３
 50
0.0
 41
0.9
 51
0.0
  7
KANJI5
  0
TEXT
  8
0
  6
CONTINUOUS
 62
     2
 10
176.35
 20
141.875
 30
0.15
 40
1.5
  1
４
 50
0.0
 41
0.9
 51
0.0
  7
KANJI5
  0
TEXT
  8
0
  6
CONTINUOUS
 62
     2
 10
192.35
 20
154.625
 30
0.15
 40
1.5
  1
９
 50
0.0
 41
0.9
 51
0.0
  7
KANJI5
  0
TEXT
  8
0
  6
CONTINUOUS
 62
     2
 10
192.35
 20
150.375
 30
0.15
 40
1.5
  1
１０
 50
0.0
 41
0.45
 51
0.0
  7
KANJI6
  0
TEXT
  8
0
  6
CONTINUOUS
 62
     2
 10
192.35
 20
146.125
 30
0.15
 40
1.5
  1
６
 50
0.0
 41
0.9
 51
0.0
  7
KANJI5
  0
TEXT
  8
0
  6
CONTINUOUS
 62
     2
 10
192.35
 20
141.875
 30
0.15
 40
1.5
  1
７
 50
0.0
 41
0.9
 51
0.0
  7
KANJI5
  0
CIRCLE
  8
0
  6
CONTINUOUS
 62
     2
 10
177.0
 20
155.375
 30
0.0
 40
1.25
  0
CIRCLE
  8
0
  6
CONTINUOUS
 62
     2
 10
177.0
 20
151.125
 30
0.0
 40
1.25
  0
CIRCLE
  8
0
  6
CONTINUOUS
 62
     2
 10
177.0
 20
146.875
 30
0.0
 40
1.25
  0
CIRCLE
  8
0
  6
CONTINUOUS
 62
     2
 10
177.0
 20
142.625
 30
0.0
 40
1.25
  0
CIRCLE
  8
0
  6
CONTINUOUS
 62
     2
 10
193.0
 20
155.375
 30
0.0
 40
1.25
  0
CIRCLE
  8
0
  6
CONTINUOUS
 62
     2
 10
193.0
 20
151.125
 30
0.0
 40
1.25
  0
CIRCLE
  8
0
  6
CONTINUOUS
 62
     2
 10
193.0
 20
146.875
 30
0.0
 40
1.25
  0
CIRCLE
  8
0
  6
CONTINUOUS
 62
     2
 10
193.0
 20
142.625
 30
0.0
 40
1.25
  0
ARC
  8
0
  6
CONTINUOUS
 62
     2
 10
85.65
 20
138.25
 30
0.0
 40
7.0
 50
165.068582822
 51
194.931417178
  0
LINE
  8
0
  6
LTYPE3
 62
     2
 10
76.9
 20
145.0
 30
0.0
 11
80.9
 21
145.0
 31
0.0
  0
LINE
  8
0
  6
LTYPE3
 62
     2
 10
76.9
 20
138.25
 30
0.0
 11
80.9
 21
138.25
 31
0.0
  0
LINE
  8
0
  6
CONTINUOUS
 62
     2
 10
74.75
 20
144.75
 30
0.0
 11
74.75
 21
140.25
 31
0.0
  0
LINE
  8
0
  6
CONTINUOUS
 62
     2
 10
78.0
 20
145.0
 30
0.0
 11
78.0
 21
140.0
 31
0.0
  0
LINE
  8
0
  6
CONTINUOUS
 62
     2
 10
78.0
 20
140.0
 30
0.0
 11
74.75
 21
140.25
 31
0.0
  0
LINE
  8
0
  6
CONTINUOUS
 62
     2
 10
74.75
 20
144.75
 30
0.0
 11
78.0
 21
145.0
 31
0.0
  0
LINE
  8
0
  6
CONTINUOUS
 62
     2
 10
78.0
 20
145.0
 30
0.0
 11
78.25
 21
144.75
 31
0.0
  0
LINE
  8
0
  6
CONTINUOUS
 62
     2
 10
78.25
 20
144.75
 30
0.0
 11
78.25
 21
140.25
 31
0.0
  0
LINE
  8
0
  6
CONTINUOUS
 62
     2
 10
78.25
 20
140.25
 30
0.0
 11
78.0
 21
140.0
 31
0.0
  0
LINE
  8
0
  6
CONTINUOUS
 62
     2
 10
77.25
 20
142.097367041
 30
0.0
 11
74.75
 21
142.162360369
 31
0.0
  0
LINE
  8
0
  6
CONTINUOUS
 62
     2
 10
77.25
 20
141.615008209
 30
0.0
 11
74.75
 21
141.680143345
 31
0.0
  0
LINE
  8
0
  6
CONTINUOUS
 62
     2
 10
77.25
 20
140.917627468
 30
0.0
 11
74.75
 21
141.095334351
 31
0.0
  0
LINE
  8
0
  6
CONTINUOUS
 62
     2
 10
77.25
 20
140.564516296
 30
0.0
 11
74.75
 21
140.742326989
 31
0.0
  0
LINE
  8
0
  6
CONTINUOUS
 62
     2
 10
77.25
 20
140.161883337
 30
0.0
 11
74.75
 21
140.404687358
 31
0.0
  0
POLYLINE
  8
0
  6
CONTINUOUS
 62
     2
 66
     1
  0
VERTEX
  8
0
  6
CONTINUOUS
 62
     2
 10
77.25
 20
141.615008209
 30
0.0
 42
0.02103597
  0
VERTEX
  8
0
  6
CONTINUOUS
 62
     2
 10
77.271788936
 20
141.615925287
 30
0.0
 42
0.021055715
  0
VERTEX
  8
0
  6
CONTINUOUS
 62
     2
 10
77.293412044
 20
141.618669541
 30
0.0
 42
0.021097556
  0
VERTEX
  8
0
  6
CONTINUOUS
 62
     2
 10
77.314704761
 20
141.623220085
 30
0.0
 42
0.021160478
  0
VERTEX
  8
0
  6
CONTINUOUS
 62
     2
 10
77.335505036
 20
141.629542288
 30
0.0
 42
0.021242925
  0
VERTEX
  8
0
  6
CONTINUOUS
 62
     2
 10
77.355654565
 20
141.637588033
 30
0.0
 42
0.02134281
  0
VERTEX
  8
0
  6
CONTINUOUS
 62
     2
 10
77.375
 20
141.647296087
 30
0.0
 42
0.021457536
  0
VERTEX
  8
0
  6
CONTINUOUS
 62
     2
 10
77.393394109
 20
141.658592567
 30
0.0
 42
0.021584022
  0
VERTEX
  8
0
  6
CONTINUOUS
 62
     2
 10
77.410696902
 20
141.671391499
 30
0.0
 42
0.021718748
  0
VERTEX
  8
0
  6
CONTINUOUS
 62
     2
 10
77.426776695
 20
141.685595475
 30
0.0
 42
0.021857823
  0
VERTEX
  8
0
  6
CONTINUOUS
 62
     2
 10
77.441511111
 20
141.701096396
 30
0.0
 42
0.021997074
  0
VERTEX
  8
0
  6
CONTINUOUS
 62
     2
 10
77.454788011
 20
141.717776288
 30
0.0
 42
0.022132162
  0
VERTEX
  8
0
  6
CONTINUOUS
 62
     2
 10
77.466506351
 20
141.735508209
 30
0.0
 42
0.022258722
  0
VERTEX
  8
0
  6
CONTINUOUS
 62
     2
 10
77.476576947
 20
141.754157208
 30
0.0
 42
0.022372526
  0
VERTEX
  8
0
  6
CONTINUOUS
 62
     2
 10
77.484923155
 20
141.773581355
 30
0.0
 42
0.022469651
  0
VERTEX
  8
0
  6
CONTINUOUS
 62
     2
 10
77.491481457
 20
141.79363282
 30
0.0
 42
0.022546665
  0
VERTEX
  8
0
  6
CONTINUOUS
 62
     2
 10
77.496201938
 20
141.814158999
 30
0.0
 42
0.022600784
  0
VERTEX
  8
0
  6
CONTINUOUS
 62
     2
 10
77.499048675
 20
141.835003675
 30
0.0
 42
0.022630022
  0
VERTEX
  8
0
  6
CONTINUOUS
 62
     2
 10
77.5
 20
141.856008209
 30
0.0
 42
0.022633296
  0
VERTEX
  8
0
  6
CONTINUOUS
 62
     2
 10
77.499048675
 20
141.877012743
 30
0.0
 42
0.022610484
  0
VERTEX
  8
0
  6
CONTINUOUS
 62
     2
 10
77.496201938
 20
141.89785742
 30
0.0
 42
0.022562433
  0
VERTEX
  8
0
  6
CONTINUOUS
 62
     2
 10
77.491481457
 20
141.918383599
 30
0.0
 42
0.022490911
  0
VERTEX
  8
0
  6
CONTINUOUS
 62
     2
 10
77.484923155
 20
141.938435064
 30
0.0
 42
0.022398514
  0
VERTEX
  8
0
  6
CONTINUOUS
 62
     2
 10
77.476576947
 20
141.957859211
 30
0.0
 42
0.022288529
  0
VERTEX
  8
0
  6
CONTINUOUS
 62
     2
 10
77.466506351
 20
141.976508209
 30
0.0
 42
0.02216477
  0
VERTEX
  8
0
  6
CONTINUOUS
 62
     2
 10
77.454788011
 20
141.994240131
 30
0.0
 42
0.022031407
  0
VERTEX
  8
0
  6
CONTINUOUS
 62
     2
 10
77.441511111
 20
142.010920023
 30
0.0
 42
0.021892787
  0
VERTEX
  8
0
  6
CONTINUOUS
 62
     2
 10
77.426776695
 20
142.026420944
 30
0.0
 42
0.021753268
  0
VERTEX
  8
0
  6
CONTINUOUS
 62
     2
 10
77.410696902
 20
142.04062492
 30
0.0
 42
0.021617077
  0
VERTEX
  8
0
  6
CONTINUOUS
 62
     2
 10
77.393394109
 20
142.053423852
 30
0.0
 42
0.021488186
  0
VERTEX
  8
0
  6
CONTINUOUS
 62
     2
 10
77.375
 20
142.064720332
 30
0.0
 42
0.021370213
  0
VERTEX
  8
0
  6
CONTINUOUS
 62
     2
 10
77.355654565
 20
142.074428386
 30
0.0
 42
0.021266354
  0
VERTEX
  8
0
  6
CONTINUOUS
 62
     2
 10
77.335505036
 20
142.082474131
 30
0.0
 42
0.021179332
  0
VERTEX
  8
0
  6
CONTINUOUS
 62
     2
 10
77.314704761
 20
142.088796334
 30
0.0
 42
0.021111362
  0
VERTEX
  8
0
  6
CONTINUOUS
 62
     2
 10
77.293412044
 20
142.093346878
 30
0.0
 42
0.021064134
  0
VERTEX
  8
0
  6
CONTINUOUS
 62
     2
 10
77.271788936
 20
142.096091132
 30
0.0
 42
0.0210388
  0
VERTEX
  8
0
  6
CONTINUOUS
 62
     2
 10
77.25
 20
142.097008209
 30
0.0
  0
SEQEND
  8
0
  6
CONTINUOUS
 62
     2
  0
POLYLINE
  8
0
  6
CONTINUOUS
 62
     2
 66
     1
  0
VERTEX
  8
0
  6
CONTINUOUS
 62
     2
 10
77.25
 20
140.564516296
 30
0.0
 42
0.015412332
  0
VERTEX
  8
0
  6
CONTINUOUS
 62
     2
 10
77.271788936
 20
140.565187931
 30
0.0
 42
0.015515584
  0
VERTEX
  8
0
  6
CONTINUOUS
 62
     2
 10
77.293412044
 20
140.567197727
 30
0.0
 42
0.015738372
  0
VERTEX
  8
0
  6
CONTINUOUS
 62
     2
 10
77.314704761
 20
140.570530387
 30
0.0
 42
0.016083955
  0
VERTEX
  8
0
  6
CONTINUOUS
 62
     2
 10
77.335505036
 20
140.575160548
 30
0.0
 42
0.016557065
  0
VERTEX
  8
0
  6
CONTINUOUS
 62
     2
 10
77.355654565
 20
140.581052971
 30
0.0
 42
0.017163493
  0
VERTEX
  8
0
  6
CONTINUOUS
 62
     2
 10
77.375
 20
140.588162812
 30
0.0
 42
0.017909379
  0
VERTEX
  8
0
  6
CONTINUOUS
 62
     2
 10
77.393394109
 20
140.59643596
 30
0.0
 42
0.018800064
  0
VERTEX
  8
0
  6
CONTINUOUS
 62
     2
 10
77.410696902
 20
140.605809451
 30
0.0
 42
0.019838316
  0
VERTEX
  8
0
  6
CONTINUOUS
 62
     2
 10
77.426776695
 20
140.616211949
 30
0.0
 42
0.021021724
  0
VERTEX
  8
0
  6
CONTINUOUS
 62
     2
 10
77.441511111
 20
140.627564283
 30
0.0
 42
0.022339115
  0
VERTEX
  8
0
  6
CONTINUOUS
 62
     2
 10
77.454788011
 20
140.639780055
 30
0.0
 42
0.023766055
  0
VERTEX
  8
0
  6
CONTINUOUS
 62
     2
 10
77.466506351
 20
140.652766296
 30
0.0
 42
0.025259945
  0
VERTEX
  8
0
  6
CONTINUOUS
 62
     2
 10
77.476576947
 20
140.666424172
 30
0.0
 42
0.026756003
  0
VERTEX
  8
0
  6
CONTINUOUS
 62
     2
 10
77.484923155
 20
140.68064974
 30
0.0
 42
0.028166363
  0
VERTEX
  8
0
  6
CONTINUOUS
 62
     2
 10
77.491481457
 20
140.695334734
 30
0.0
 42
0.029385072
  0
VERTEX
  8
0
  6
CONTINUOUS
 62
     2
 10
77.496201938
 20
140.710367392
 30
0.0
 42
0.030301045
  0
VERTEX
  8
0
  6
CONTINUOUS
 62
     2
 10
77.499048675
 20
140.725633307
 30
0.0
 42
0.030818133
  0
VERTEX
  8
0
  6
CONTINUOUS
 62
     2
 10
77.5
 20
140.741016296
 30
0.0
 42
0.030877053
  0
VERTEX
  8
0
  6
CONTINUOUS
 62
     2
 10
77.499048675
 20
140.756399284
 30
0.0
 42
0.030470815
  0
VERTEX
  8
0
  6
CONTINUOUS
 62
     2
 10
77.496201938
 20
140.771665199
 30
0.0
 42
0.029646632
  0
VERTEX
  8
0
  6
CONTINUOUS
 62
     2
 10
77.491481457
 20
140.786697857
 30
0.0
 42
0.028493394
  0
VERTEX
  8
0
  6
CONTINUOUS
 62
     2
 10
77.484923155
 20
140.801382851
 30
0.0
 42
0.027120527
  0
VERTEX
  8
0
  6
CONTINUOUS
 62
     2
 10
77.476576947
 20
140.815608419
 30
0.0
 42
0.025636807
  0
VERTEX
  8
0
  6
CONTINUOUS
 62
     2
 10
77.466506351
 20
140.829266296
 30
0.0
 42
0.02413538
  0
VERTEX
  8
0
  6
CONTINUOUS
 62
     2
 10
77.454788011
 20
140.842252537
 30
0.0
 42
0.022686896
  0
VERTEX
  8
0
  6
CONTINUOUS
 62
     2
 10
77.441511111
 20
140.854468309
 30
0.0
 42
0.021339201
  0
VERTEX
  8
0
  6
CONTINUOUS
 62
     2
 10
77.426776695
 20
140.865820643
 30
0.0
 42
0.020120814
  0
VERTEX
  8
0
  6
CONTINUOUS
 62
     2
 10
77.410696902
 20
140.87622314
 30
0.0
 42
0.019045774
  0
VERTEX
  8
0
  6
CONTINUOUS
 62
     2
 10
77.393394109
 20
140.885596631
 30
0.0
 42
0.018118306
  0
VERTEX
  8
0
  6
CONTINUOUS
 62
     2
 10
77.375
 20
140.893869779
 30
0.0
 42
0.017336657
  0
VERTEX
  8
0
  6
CONTINUOUS
 62
     2
 10
77.355654565
 20
140.90097962
 30
0.0
 42
0.016695933
  0
VERTEX
  8
0
  6
CONTINUOUS
 62
     2
 10
77.335505036
 20
140.906872043
 30
0.0
 42
0.016190065
  0
VERTEX
  8
0
  6
CONTINUOUS
 62
     2
 10
77.314704761
 20
140.911502204
 30
0.0
 42
0.015813094
  0
VERTEX
  8
0
  6
CONTINUOUS
 62
     2
 10
77.293412044
 20
140.914834864
 30
0.0
 42
0.015559975
  0
VERTEX
  8
0
  6
CONTINUOUS
 62
     2
 10
77.271788936
 20
140.91684466
 30
0.0
 42
0.015427054
  0
VERTEX
  8
0
  6
CONTINUOUS
 62
     2
 10
77.25
 20
140.917516296
 30
0.0
  0
SEQEND
  8
0
  6
CONTINUOUS
 62
     2
  0
POLYLINE
  8
0
  6
CONTINUOUS
 62
     2
 66
     1
  0
VERTEX
  8
0
  6
CONTINUOUS
 62
     2
 10
77.49583255
 20
140.038782112
 30
0.0
 42
0.047646099
  0
VERTEX
  8
0
  6
CONTINUOUS
 62
     2
 10
77.498868835
 20
140.047810201
 30
0.0
 42
0.05177306
  0
VERTEX
  8
0
  6
CONTINUOUS
 62
     2
 10
77.499993003
 20
140.056914216
 30
0.0
 42
0.052570142
  0
VERTEX
  8
0
  6
CONTINUOUS
 62
     2
 10
77.499196418
 20
140.06602421
 30
0.0
 42
0.049705543
  0
VERTEX
  8
0
  6
CONTINUOUS
 62
     2
 10
77.4964852
 20
140.075070188
 30
0.0
 42
0.044306081
  0
VERTEX
  8
0
  6
CONTINUOUS
 62
     2
 10
77.491880179
 20
140.083982648
 30
0.0
 42
0.038019413
  0
VERTEX
  8
0
  6
CONTINUOUS
 62
     2
 10
77.485416738
 20
140.092693113
 30
0.0
 42
0.032051009
  0
VERTEX
  8
0
  6
CONTINUOUS
 62
     2
 10
77.477144537
 20
140.101134659
 30
0.0
 42
0.02694418
  0
VERTEX
  8
0
  6
CONTINUOUS
 62
     2
 10
77.467127132
 20
140.109242427
 30
0.0
 42
0.022799057
  0
VERTEX
  8
0
  6
CONTINUOUS
 62
     2
 10
77.455441489
 20
140.116954124
 30
0.0
 42
0.019517382
  0
VERTEX
  8
0
  6
CONTINUOUS
 62
     2
 10
77.442177393
 20
140.124210499
 30
0.0
 42
0.01694562
  0
VERTEX
  8
0
  6
CONTINUOUS
 62
     2
 10
77.427436753
 20
140.1309558
 30
0.0
 42
0.014936363
  0
VERTEX
  8
0
  6
CONTINUOUS
 62
     2
 10
77.411332827
 20
140.1371382
 30
0.0
 42
0.013367538
  0
VERTEX
  8
0
  6
CONTINUOUS
 62
     2
 10
77.393989344
 20
140.142710199
 30
0.0
 42
0.012144258
  0
VERTEX
  8
0
  6
CONTINUOUS
 62
     2
 10
77.375539557
 20
140.147628987
 30
0.0
 42
0.011194996
  0
VERTEX
  8
0
  6
CONTINUOUS
 62
     2
 10
77.356125222
 20
140.15185677
 30
0.0
 42
0.01046677
  0
VERTEX
  8
0
  6
CONTINUOUS
 62
     2
 10
77.335895502
 20
140.155361066
 30
0.0
 42
0.009920899
  0
VERTEX
  8
0
  6
CONTINUOUS
 62
     2
 10
77.315005827
 20
140.158114951
 30
0.0
 42
0.009529713
  0
VERTEX
  8
0
  6
CONTINUOUS
 62
     2
 10
77.293616698
 20
140.160097266
 30
0.0
 42
0.009274162
  0
VERTEX
  8
0
  6
CONTINUOUS
 62
     2
 10
77.271892451
 20
140.16129278
 30
0.0
 42
0.009142179
  0
VERTEX
  8
0
  6
CONTINUOUS
 62
     2
 10
77.25
 20
140.161692308
 30
0.0
  0
SEQEND
  8
0
  6
CONTINUOUS
 62
     2
  0
LINE
  8
0
  6
CONTINUOUS
 62
     2
 10
77.25
 20
142.902632959
 30
0.0
 11
74.75
 21
142.837639631
 31
0.0
  0
LINE
  8
0
  6
CONTINUOUS
 62
     2
 10
77.25
 20
143.384991791
 30
0.0
 11
74.75
 21
143.319856655
 31
0.0
  0
LINE
  8
0
  6
CONTINUOUS
 62
     2
 10
77.25
 20
144.082372532
 30
0.0
 11
74.75
 21
143.904665649
 31
0.0
  0
LINE
  8
0
  6
CONTINUOUS
 62
     2
 10
77.25
 20
144.435483704
 30
0.0
 11
74.75
 21
144.257673011
 31
0.0
  0
LINE
  8
0
  6
CONTINUOUS
 62
     2
 10
77.25
 20
144.838116663
 30
0.0
 11
74.75
 21
144.595312642
 31
0.0
  0
POLYLINE
  8
0
  6
CONTINUOUS
 62
     2
 66
     1
  0
VERTEX
  8
0
  6
CONTINUOUS
 62
     2
 10
77.25
 20
143.384991791
 30
0.0
 42
-0.02103597
  0
VERTEX
  8
0
  6
CONTINUOUS
 62
     2
 10
77.271788936
 20
143.384074713
 30
0.0
 42
-0.021055715
  0
VERTEX
  8
0
  6
CONTINUOUS
 62
     2
 10
77.293412044
 20
143.381330459
 30
0.0
 42
-0.021097556
  0
VERTEX
  8
0
  6
CONTINUOUS
 62
     2
 10
77.314704761
 20
143.376779915
 30
0.0
 42
-0.021160478
  0
VERTEX
  8
0
  6
CONTINUOUS
 62
     2
 10
77.335505036
 20
143.370457712
 30
0.0
 42
-0.021242925
  0
VERTEX
  8
0
  6
CONTINUOUS
 62
     2
 10
77.355654565
 20
143.362411967
 30
0.0
 42
-0.02134281
  0
VERTEX
  8
0
  6
CONTINUOUS
 62
     2
 10
77.375
 20
143.352703913
 30
0.0
 42
-0.021457536
  0
VERTEX
  8
0
  6
CONTINUOUS
 62
     2
 10
77.393394109
 20
143.341407433
 30
0.0
 42
-0.021584022
  0
VERTEX
  8
0
  6
CONTINUOUS
 62
     2
 10
77.410696902
 20
143.328608501
 30
0.0
 42
-0.021718748
  0
VERTEX
  8
0
  6
CONTINUOUS
 62
     2
 10
77.426776695
 20
143.314404525
 30
0.0
 42
-0.021857823
  0
VERTEX
  8
0
  6
CONTINUOUS
 62
     2
 10
77.441511111
 20
143.298903604
 30
0.0
 42
-0.021997074
  0
VERTEX
  8
0
  6
CONTINUOUS
 62
     2
 10
77.454788011
 20
143.282223712
 30
0.0
 42
-0.022132162
  0
VERTEX
  8
0
  6
CONTINUOUS
 62
     2
 10
77.466506351
 20
143.264491791
 30
0.0
 42
-0.022258722
  0
VERTEX
  8
0
  6
CONTINUOUS
 62
     2
 10
77.476576947
 20
143.245842792
 30
0.0
 42
-0.022372526
  0
VERTEX
  8
0
  6
CONTINUOUS
 62
     2
 10
77.484923155
 20
143.226418645
 30
0.0
 42
-0.022469651
  0
VERTEX
  8
0
  6
CONTINUOUS
 62
     2
 10
77.491481457
 20
143.20636718
 30
0.0
 42
-0.022546665
  0
VERTEX
  8
0
  6
CONTINUOUS
 62
     2
 10
77.496201938
 20
143.185841001
 30
0.0
 42
-0.022600784
  0
VERTEX
  8
0
  6
CONTINUOUS
 62
     2
 10
77.499048675
 20
143.164996325
 30
0.0
 42
-0.022630022
  0
VERTEX
  8
0
  6
CONTINUOUS
 62
     2
 10
77.5
 20
143.143991791
 30
0.0
 42
-0.022633296
  0
VERTEX
  8
0
  6
CONTINUOUS
 62
     2
 10
77.499048675
 20
143.122987257
 30
0.0
 42
-0.022610484
  0
VERTEX
  8
0
  6
CONTINUOUS
 62
     2
 10
77.496201938
 20
143.10214258
 30
0.0
 42
-0.022562433
  0
VERTEX
  8
0
  6
CONTINUOUS
 62
     2
 10
77.491481457
 20
143.081616401
 30
0.0
 42
-0.022490911
  0
VERTEX
  8
0
  6
CONTINUOUS
 62
     2
 10
77.484923155
 20
143.061564936
 30
0.0
 42
-0.022398514
  0
VERTEX
  8
0
  6
CONTINUOUS
 62
     2
 10
77.476576947
 20
143.042140789
 30
0.0
 42
-0.022288529
  0
VERTEX
  8
0
  6
CONTINUOUS
 62
     2
 10
77.466506351
 20
143.023491791
 30
0.0
 42
-0.02216477
  0
VERTEX
  8
0
  6
CONTINUOUS
 62
     2
 10
77.454788011
 20
143.005759869
 30
0.0
 42
-0.022031407
  0
VERTEX
  8
0
  6
CONTINUOUS
 62
     2
 10
77.441511111
 20
142.989079977
 30
0.0
 42
-0.021892787
  0
VERTEX
  8
0
  6
CONTINUOUS
 62
     2
 10
77.426776695
 20
142.973579056
 30
0.0
 42
-0.021753268
  0
VERTEX
  8
0
  6
CONTINUOUS
 62
     2
 10
77.410696902
 20
142.95937508
 30
0.0
 42
-0.021617077
  0
VERTEX
  8
0
  6
CONTINUOUS
 62
     2
 10
77.393394109
 20
142.946576148
 30
0.0
 42
-0.021488186
  0
VERTEX
  8
0
  6
CONTINUOUS
 62
     2
 10
77.375
 20
142.935279668
 30
0.0
 42
-0.021370213
  0
VERTEX
  8
0
  6
CONTINUOUS
 62
     2
 10
77.355654565
 20
142.925571614
 30
0.0
 42
-0.021266354
  0
VERTEX
  8
0
  6
CONTINUOUS
 62
     2
 10
77.335505036
 20
142.917525869
 30
0.0
 42
-0.021179332
  0
VERTEX
  8
0
  6
CONTINUOUS
 62
     2
 10
77.314704761
 20
142.911203666
 30
0.0
 42
-0.021111362
  0
VERTEX
  8
0
  6
CONTINUOUS
 62
     2
 10
77.293412044
 20
142.906653122
 30
0.0
 42
-0.021064134
  0
VERTEX
  8
0
  6
CONTINUOUS
 62
     2
 10
77.271788936
 20
142.903908868
 30
0.0
 42
-0.0210388
  0
VERTEX
  8
0
  6
CONTINUOUS
 62
     2
 10
77.25
 20
142.902991791
 30
0.0
  0
SEQEND
  8
0
  6
CONTINUOUS
 62
     2
  0
POLYLINE
  8
0
  6
CONTINUOUS
 62
     2
 66
     1
  0
VERTEX
  8
0
  6
CONTINUOUS
 62
     2
 10
77.25
 20
144.435483704
 30
0.0
 42
-0.015412332
  0
VERTEX
  8
0
  6
CONTINUOUS
 62
     2
 10
77.271788936
 20
144.434812069
 30
0.0
 42
-0.015515584
  0
VERTEX
  8
0
  6
CONTINUOUS
 62
     2
 10
77.293412044
 20
144.432802273
 30
0.0
 42
-0.015738372
  0
VERTEX
  8
0
  6
CONTINUOUS
 62
     2
 10
77.314704761
 20
144.429469613
 30
0.0
 42
-0.016083955
  0
VERTEX
  8
0
  6
CONTINUOUS
 62
     2
 10
77.335505036
 20
144.424839452
 30
0.0
 42
-0.016557065
  0
VERTEX
  8
0
  6
CONTINUOUS
 62
     2
 10
77.355654565
 20
144.418947029
 30
0.0
 42
-0.017163493
  0
VERTEX
  8
0
  6
CONTINUOUS
 62
     2
 10
77.375
 20
144.411837188
 30
0.0
 42
-0.017909379
  0
VERTEX
  8
0
  6
CONTINUOUS
 62
     2
 10
77.393394109
 20
144.40356404
 30
0.0
 42
-0.018800064
  0
VERTEX
  8
0
  6
CONTINUOUS
 62
     2
 10
77.410696902
 20
144.394190549
 30
0.0
 42
-0.019838316
  0
VERTEX
  8
0
  6
CONTINUOUS
 62
     2
 10
77.426776695
 20
144.383788051
 30
0.0
 42
-0.021021724
  0
VERTEX
  8
0
  6
CONTINUOUS
 62
     2
 10
77.441511111
 20
144.372435717
 30
0.0
 42
-0.022339115
  0
VERTEX
  8
0
  6
CONTINUOUS
 62
     2
 10
77.454788011
 20
144.360219945
 30
0.0
 42
-0.023766055
  0
VERTEX
  8
0
  6
CONTINUOUS
 62
     2
 10
77.466506351
 20
144.347233704
 30
0.0
 42
-0.025259945
  0
VERTEX
  8
0
  6
CONTINUOUS
 62
     2
 10
77.476576947
 20
144.333575828
 30
0.0
 42
-0.026756003
  0
VERTEX
  8
0
  6
CONTINUOUS
 62
     2
 10
77.484923155
 20
144.31935026
 30
0.0
 42
-0.028166363
  0
VERTEX
  8
0
  6
CONTINUOUS
 62
     2
 10
77.491481457
 20
144.304665266
 30
0.0
 42
-0.029385072
  0
VERTEX
  8
0
  6
CONTINUOUS
 62
     2
 10
77.496201938
 20
144.289632608
 30
0.0
 42
-0.030301045
  0
VERTEX
  8
0
  6
CONTINUOUS
 62
     2
 10
77.499048675
 20
144.274366693
 30
0.0
 42
-0.030818133
  0
VERTEX
  8
0
  6
CONTINUOUS
 62
     2
 10
77.5
 20
144.258983704
 30
0.0
 42
-0.030877053
  0
VERTEX
  8
0
  6
CONTINUOUS
 62
     2
 10
77.499048675
 20
144.243600716
 30
0.0
 42
-0.030470815
  0
VERTEX
  8
0
  6
CONTINUOUS
 62
     2
 10
77.496201938
 20
144.228334801
 30
0.0
 42
-0.029646632
  0
VERTEX
  8
0
  6
CONTINUOUS
 62
     2
 10
77.491481457
 20
144.213302143
 30
0.0
 42
-0.028493394
  0
VERTEX
  8
0
  6
CONTINUOUS
 62
     2
 10
77.484923155
 20
144.198617149
 30
0.0
 42
-0.027120527
  0
VERTEX
  8
0
  6
CONTINUOUS
 62
     2
 10
77.476576947
 20
144.184391581
 30
0.0
 42
-0.025636807
  0
VERTEX
  8
0
  6
CONTINUOUS
 62
     2
 10
77.466506351
 20
144.170733704
 30
0.0
 42
-0.02413538
  0
VERTEX
  8
0
  6
CONTINUOUS
 62
     2
 10
77.454788011
 20
144.157747463
 30
0.0
 42
-0.022686896
  0
VERTEX
  8
0
  6
CONTINUOUS
 62
     2
 10
77.441511111
 20
144.145531691
 30
0.0
 42
-0.021339201
  0
VERTEX
  8
0
  6
CONTINUOUS
 62
     2
 10
77.426776695
 20
144.134179357
 30
0.0
 42
-0.020120814
  0
VERTEX
  8
0
  6
CONTINUOUS
 62
     2
 10
77.410696902
 20
144.12377686
 30
0.0
 42
-0.019045774
  0
VERTEX
  8
0
  6
CONTINUOUS
 62
     2
 10
77.393394109
 20
144.114403369
 30
0.0
 42
-0.018118306
  0
VERTEX
  8
0
  6
CONTINUOUS
 62
     2
 10
77.375
 20
144.106130221
 30
0.0
 42
-0.017336657
  0
VERTEX
  8
0
  6
CONTINUOUS
 62
     2
 10
77.355654565
 20
144.09902038
 30
0.0
 42
-0.016695933
  0
VERTEX
  8
0
  6
CONTINUOUS
 62
     2
 10
77.335505036
 20
144.093127957
 30
0.0
 42
-0.016190065
  0
VERTEX
  8
0
  6
CONTINUOUS
 62
     2
 10
77.314704761
 20
144.088497796
 30
0.0
 42
-0.015813094
  0
VERTEX
  8
0
  6
CONTINUOUS
 62
     2
 10
77.293412044
 20
144.085165136
 30
0.0
 42
-0.015559975
  0
VERTEX
  8
0
  6
CONTINUOUS
 62
     2
 10
77.271788936
 20
144.08315534
 30
0.0
 42
-0.015427054
  0
VERTEX
  8
0
  6
CONTINUOUS
 62
     2
 10
77.25
 20
144.082483704
 30
0.0
  0
SEQEND
  8
0
  6
CONTINUOUS
 62
     2
  0
POLYLINE
  8
0
  6
CONTINUOUS
 62
     2
 66
     1
  0
VERTEX
  8
0
  6
CONTINUOUS
 62
     2
 10
77.49583255
 20
144.961217888
 30
0.0
 42
-0.047646099
  0
VERTEX
  8
0
  6
CONTINUOUS
 62
     2
 10
77.498868835
 20
144.952189799
 30
0.0
 42
-0.05177306
  0
VERTEX
  8
0
  6
CONTINUOUS
 62
     2
 10
77.499993003
 20
144.943085784
 30
0.0
 42
-0.052570142
  0
VERTEX
  8
0
  6
CONTINUOUS
 62
     2
 10
77.499196418
 20
144.93397579
 30
0.0
 42
-0.049705543
  0
VERTEX
  8
0
  6
CONTINUOUS
 62
     2
 10
77.4964852
 20
144.924929812
 30
0.0
 42
-0.044306081
  0
VERTEX
  8
0
  6
CONTINUOUS
 62
     2
 10
77.491880179
 20
144.916017352
 30
0.0
 42
-0.038019413
  0
VERTEX
  8
0
  6
CONTINUOUS
 62
     2
 10
77.485416738
 20
144.907306887
 30
0.0
 42
-0.032051009
  0
VERTEX
  8
0
  6
CONTINUOUS
 62
     2
 10
77.477144537
 20
144.898865341
 30
0.0
 42
-0.02694418
  0
VERTEX
  8
0
  6
CONTINUOUS
 62
     2
 10
77.467127132
 20
144.890757573
 30
0.0
 42
-0.022799057
  0
VERTEX
  8
0
  6
CONTINUOUS
 62
     2
 10
77.455441489
 20
144.883045876
 30
0.0
 42
-0.019517382
  0
VERTEX
  8
0
  6
CONTINUOUS
 62
     2
 10
77.442177393
 20
144.875789501
 30
0.0
 42
-0.01694562
  0
VERTEX
  8
0
  6
CONTINUOUS
 62
     2
 10
77.427436753
 20
144.8690442
 30
0.0
 42
-0.014936363
  0
VERTEX
  8
0
  6
CONTINUOUS
 62
     2
 10
77.411332827
 20
144.8628618
 30
0.0
 42
-0.013367538
  0
VERTEX
  8
0
  6
CONTINUOUS
 62
     2
 10
77.393989344
 20
144.857289801
 30
0.0
 42
-0.012144258
  0
VERTEX
  8
0
  6
CONTINUOUS
 62
     2
 10
77.375539557
 20
144.852371013
 30
0.0
 42
-0.011194996
  0
VERTEX
  8
0
  6
CONTINUOUS
 62
     2
 10
77.356125222
 20
144.84814323
 30
0.0
 42
-0.01046677
  0
VERTEX
  8
0
  6
CONTINUOUS
 62
     2
 10
77.335895502
 20
144.844638934
 30
0.0
 42
-0.009920899
  0
VERTEX
  8
0
  6
CONTINUOUS
 62
     2
 10
77.315005827
 20
144.841885049
 30
0.0
 42
-0.009529713
  0
VERTEX
  8
0
  6
CONTINUOUS
 62
     2
 10
77.293616698
 20
144.839902734
 30
0.0
 42
-0.009274162
  0
VERTEX
  8
0
  6
CONTINUOUS
 62
     2
 10
77.271892451
 20
144.83870722
 30
0.0
 42
-0.009142179
  0
VERTEX
  8
0
  6
CONTINUOUS
 62
     2
 10
77.25
 20
144.838307692
 30
0.0
  0
SEQEND
  8
0
  6
CONTINUOUS
 62
     2
  0
LINE
  8
0
  6
CONTINUOUS
 62
     2
 10
78.25
 20
143.1
 30
0.0
 11
78.9
 21
143.1
 31
0.0
  0
LINE
  8
0
  6
CONTINUOUS
 62
     2
 10
78.25
 20
141.9
 30
0.0
 11
78.9
 21
141.9
 31
0.0
  0
LINE
  8
0
  6
LTYPE1
 62
     2
 10
72.75
 20
142.5
 30
0.0
 11
80.75
 21
142.5
 31
0.0
  0
LINE
  8
0
  6
CONTINUOUS
 62
     2
 10
85.25
 20
174.85
 30
0.0
 11
82.835185434
 21
175.497047613
 31
0.0
  0
LINE
  8
0
  6
CONTINUOUS
 62
     2
 10
85.25
 20
174.85
 30
0.0
 11
82.835185434
 21
174.202952387
 31
0.0
  0
LINE
  8
0
  6
CONTINUOUS
 62
     2
 10
85.25
 20
174.85
 30
0.0
 11
78.75
 21
174.85
 31
0.0
  0
LINE
  8
0
  6
CONTINUOUS
 62
     2
 10
78.75
 20
174.85
 30
0.0
 11
81.164814566
 21
174.202952387
 31
0.0
  0
LINE
  8
0
  6
CONTINUOUS
 62
     2
 10
90.25
 20
170.0
 30
0.0
 11
85.25
 21
170.0
 31
0.0
  0
LINE
  8
0
  6
CONTINUOUS
 62
     2
 10
85.25
 20
169.95
 30
0.0
 11
85.25
 21
172.0
 31
0.0
  0
LINE
  8
0
  6
CONTINUOUS
 62
     2
 10
85.0
 20
166.0
 30
0.0
 11
85.0
 21
172.0
 31
0.0
  0
LINE
  8
0
  6
CONTINUOUS
 62
     2
 10
85.0
 20
170.0
 30
0.0
 11
82.585185434
 21
170.647047613
 31
0.0
  0
LINE
  8
0
  6
CONTINUOUS
 62
     2
 10
85.0
 20
170.0
 30
0.0
 11
82.585185434
 21
169.352952387
 31
0.0
  0
LINE
  8
0
  6
CONTINUOUS
 62
     2
 10
85.25
 20
170.0
 30
0.0
 11
87.664814566
 21
169.352952387
 31
0.0
  0
LINE
  8
0
  6
CONTINUOUS
 62
     2
 10
85.25
 20
170.0
 30
0.0
 11
87.664814566
 21
170.647047613
 31
0.0
  0
LINE
  8
0
  6
CONTINUOUS
 62
     2
 10
85.25
 20
170.0
 30
0.0
 11
85.25
 21
168.0
 31
0.0
  0
LINE
  8
0
  6
CONTINUOUS
 62
     2
 10
79.6
 20
170.0
 30
0.0
 11
90.25
 21
170.0
 31
0.0
  0
LINE
  8
0
  6
CONTINUOUS
 62
     2
 10
85.25
 20
170.0
 30
0.0
 11
87.25
 21
170.535898385
 31
0.0
  0
LINE
  8
0
  6
CONTINUOUS
 62
     2
 10
90.25
 20
170.0
 30
0.0
 11
88.25
 21
170.535898385
 31
0.0
  0
LINE
  8
0
  6
CONTINUOUS
 62
     2
 10
85.25
 20
170.0
 30
0.0
 11
87.25
 21
169.464101615
 31
0.0
  0
LINE
  8
0
  6
CONTINUOUS
 62
     2
 10
90.25
 20
170.0
 30
0.0
 11
88.25
 21
169.464101615
 31
0.0
  0
LINE
  8
0
  6
CONTINUOUS
 62
     2
 10
78.75
 20
174.85
 30
0.0
 11
81.164814566
 21
175.497047613
 31
0.0
  0
LINE
  8
0
  6
CONTINUOUS
 62
     2
 10
78.75
 20
174.85
 30
0.0
 11
78.75
 21
174.85
 31
0.0
  0
TEXT
  8
0
  6
CONTINUOUS
 62
     2
 10
77.95
 20
175.85
 30
0.25
 40
2.5
  1
１２．５
 50
0.0
 41
0.6
 51
0.0
  7
KANJI7
  0
TEXT
  8
0
  6
CONTINUOUS
 62
     2
 10
79.0
 20
171.0
 30
0.25
 40
2.5
  1
０．５
 50
0.0
 41
0.6
 51
0.0
  7
KANJI7
  0
TEXT
  8
0
  6
CONTINUOUS
 62
     2
 10
85.8
 20
171.0
 30
0.25
 40
2.5
  1
１０
 50
0.0
 41
0.6
 51
0.0
  7
KANJI7
  0
LINE
  8
0
  6
CONTINUOUS
 62
     2
 10
85.25
 20
165.0
 30
0.0
 11
85.25
 21
176.85
 31
0.0
  0
LINE
  8
0
  6
CONTINUOUS
 62
     2
 10
90.25
 20
163.775
 30
0.0
 11
90.25
 21
172.0
 31
0.0
  0
LINE
  8
0
  6
CONTINUOUS
 62
     2
 10
79.0
 20
163.4
 30
0.0
 11
78.75
 21
163.4
 31
0.0
  0
LINE
  8
0
  6
CONTINUOUS
 62
     2
 10
78.75
 20
163.4
 30
0.0
 11
78.75
 21
147.0
 31
0.0
  0
LINE
  8
0
  6
CONTINUOUS
 62
     2
 10
78.75
 20
147.0
 30
0.0
 11
79.0
 21
147.0
 31
0.0
  0
LINE
  8
0
  6
CONTINUOUS
 62
     2
 10
78.75
 20
164.4
 30
0.0
 11
78.75
 21
175.65
 31
0.0
  0
LINE
  8
0
  6
CONTINUOUS
 62
     2
 10
94.55
 20
162.0
 30
0.0
 11
93.902952387
 21
159.585185434
 31
0.0
  0
LINE
  8
0
  6
CONTINUOUS
 62
     2
 10
94.55
 20
162.0
 30
0.0
 11
95.197047613
 21
159.585185434
 31
0.0
  0
LINE
  8
0
  6
CONTINUOUS
 62
     2
 10
94.55
 20
162.0
 30
0.0
 11
94.55
 21
136.0
 31
0.0
  0
LINE
  8
0
  6
CONTINUOUS
 62
     2
 10
94.55
 20
136.0
 30
0.0
 11
95.197047613
 21
138.414814566
 31
0.0
  0
LINE
  8
0
  6
CONTINUOUS
 62
     2
 10
94.55
 20
136.0
 30
0.0
 11
93.902952387
 21
138.414814566
 31
0.0
  0
TEXT
  8
0
  6
CONTINUOUS
 62
     2
 10
93.55
 20
145.5
 30
0.5
 40
3.0
  1
φ５２
 50
90.0
 41
0.666666667
 51
0.0
  7
KANJI10
  0
LINE
  8
0
  6
LTYPE1
 62
     2
 10
92.0
 20
162.05
 30
0.0
 11
84.2
 21
162.05
 31
0.0
  0
LINE
  8
0
  6
LTYPE1
 62
     2
 10
84.2
 20
137.95
 30
0.0
 11
91.6
 21
137.95
 31
0.0
  0
LINE
  8
0
  6
CONTINUOUS
 62
     2
 10
85.0
 20
164.0
 30
0.0
 11
85.25
 21
164.0
 31
0.0
  0
LINE
  8
0
  6
CONTINUOUS
 62
     2
 10
85.25
 20
160.0
 30
0.0
 11
85.0
 21
160.0
 31
0.0
  0
LINE
  8
0
  6
CONTINUOUS
 62
     2
 10
85.25
 20
164.0
 30
0.0
 11
85.25
 21
160.0
 31
0.0
  0
LINE
  8
0
  6
CONTINUOUS
 62
     2
 10
87.6
 20
163.575
 30
0.0
 11
87.8
 21
163.375
 31
0.0
  0
LINE
  8
0
  6
CONTINUOUS
 62
     2
 10
87.575
 20
162.75
 30
0.0
 11
87.775
 21
162.95
 31
0.0
  0
LINE
  8
0
  6
CONTINUOUS
 62
     2
 10
87.775
 20
162.55
 30
0.0
 11
87.575
 21
162.75
 31
0.0
  0
LINE
  8
0
  6
CONTINUOUS
 62
     2
 10
86.6
 20
163.575
 30
0.0
 11
87.6
 21
163.575
 31
0.0
  0
LINE
  8
0
  6
CONTINUOUS
 62
     2
 10
86.6
 20
162.75
 30
0.0
 11
87.575
 21
162.75
 31
0.0
  0
LINE
  8
0
  6
CONTINUOUS
 62
     2
 10
87.6
 20
160.475
 30
0.0
 11
87.8
 21
160.675
 31
0.0
  0
LINE
  8
0
  6
CONTINUOUS
 62
     2
 10
87.6
 20
160.475
 30
0.0
 11
86.6
 21
160.475
 31
0.0
  0
LINE
  8
0
  6
CONTINUOUS
 62
     2
 10
86.6
 20
160.475
 30
0.0
 11
86.6
 21
163.575
 31
0.0
  0
LINE
  8
0
  6
CONTINUOUS
 62
     2
 10
87.8
 20
163.375
 30
0.0
 11
87.8
 21
160.675
 31
0.0
  0
LINE
  8
0
  6
CONTINUOUS
 62
     2
 10
87.8
 20
162.775
 30
0.0
 11
90.25
 21
162.775
 31
0.0
  0
LINE
  8
0
  6
CONTINUOUS
 62
     2
 10
90.23
 20
162.6
 30
0.0
 11
87.8
 21
162.6
 31
0.0
  0
LINE
  8
0
  6
CONTINUOUS
 62
     2
 10
86.6
 20
163.575
 30
0.0
 11
86.3
 21
163.875
 31
0.0
  0
LINE
  8
0
  6
CONTINUOUS
 62
     2
 10
86.3
 20
163.875
 30
0.0
 11
86.3
 21
160.175
 31
0.0
  0
LINE
  8
0
  6
CONTINUOUS
 62
     2
 10
86.6
 20
160.475
 30
0.0
 11
86.3
 21
160.175
 31
0.0
  0
LINE
  8
0
  6
CONTINUOUS
 62
     2
 10
86.3
 20
161.5
 30
0.0
 11
85.25
 21
161.5
 31
0.0
  0
LINE
  8
0
  6
CONTINUOUS
 62
     2
 10
85.25
 20
162.75
 30
0.0
 11
86.3
 21
162.75
 31
0.0
  0
LINE
  8
0
  6
CONTINUOUS
 62
     2
 10
86.3
 20
162.6
 30
0.0
 11
85.25
 21
162.6
 31
0.0
  0
LINE
  8
0
  6
CONTINUOUS
 62
     2
 10
90.25
 20
162.775
 30
0.0
 11
90.25
 21
161.325
 31
0.0
  0
LINE
  8
0
  6
CONTINUOUS
 62
     2
 10
90.25
 20
161.325
 30
0.0
 11
87.8
 21
161.325
 31
0.0
  0
LINE
  8
0
  6
CONTINUOUS
 62
     2
 10
87.8
 20
161.5
 30
0.0
 11
90.25
 21
161.5
 31
0.0
  0
LINE
  8
0
  6
CONTINUOUS
 62
     2
 10
87.585
 20
161.325
 30
0.0
 11
86.6
 21
161.325
 31
0.0
  0
LINE
  8
0
  6
CONTINUOUS
 62
     2
 10
85.25
 20
161.325
 30
0.0
 11
86.3
 21
161.325
 31
0.0
  0
LINE
  8
0
  6
CONTINUOUS
 62
     2
 10
87.585
 20
161.325
 30
0.0
 11
87.785
 21
161.525
 31
0.0
  0
LINE
  8
0
  6
CONTINUOUS
 62
     2
 10
87.785
 20
161.125
 30
0.0
 11
87.585
 21
161.325
 31
0.0
  0
LINE
  8
0
  6
CONTINUOUS
 62
     2
 10
85.0
 20
139.9
 30
0.0
 11
85.25
 21
139.9
 31
0.0
  0
LINE
  8
0
  6
CONTINUOUS
 62
     2
 10
85.25
 20
135.9
 30
0.0
 11
85.0
 21
135.9
 31
0.0
  0
LINE
  8
0
  6
CONTINUOUS
 62
     2
 10
85.25
 20
139.9
 30
0.0
 11
85.25
 21
135.9
 31
0.0
  0
LINE
  8
0
  6
CONTINUOUS
 62
     2
 10
87.6
 20
139.475
 30
0.0
 11
87.8
 21
139.275
 31
0.0
  0
LINE
  8
0
  6
CONTINUOUS
 62
     2
 10
87.575
 20
138.65
 30
0.0
 11
87.775
 21
138.85
 31
0.0
  0
LINE
  8
0
  6
CONTINUOUS
 62
     2
 10
87.775
 20
138.45
 30
0.0
 11
87.575
 21
138.65
 31
0.0
  0
LINE
  8
0
  6
CONTINUOUS
 62
     2
 10
86.6
 20
139.475
 30
0.0
 11
87.6
 21
139.475
 31
0.0
  0
LINE
  8
0
  6
CONTINUOUS
 62
     2
 10
86.6
 20
138.65
 30
0.0
 11
87.575
 21
138.65
 31
0.0
  0
LINE
  8
0
  6
CONTINUOUS
 62
     2
 10
87.6
 20
136.375
 30
0.0
 11
87.8
 21
136.575
 31
0.0
  0
LINE
  8
0
  6
CONTINUOUS
 62
     2
 10
87.6
 20
136.375
 30
0.0
 11
86.6
 21
136.375
 31
0.0
  0
LINE
  8
0
  6
CONTINUOUS
 62
     2
 10
86.6
 20
136.375
 30
0.0
 11
86.6
 21
139.475
 31
0.0
  0
LINE
  8
0
  6
CONTINUOUS
 62
     2
 10
87.8
 20
139.275
 30
0.0
 11
87.8
 21
136.575
 31
0.0
  0
LINE
  8
0
  6
CONTINUOUS
 62
     2
 10
87.8
 20
138.675
 30
0.0
 11
90.25
 21
138.675
 31
0.0
  0
LINE
  8
0
  6
CONTINUOUS
 62
     2
 10
90.23
 20
138.5
 30
0.0
 11
87.8
 21
138.5
 31
0.0
  0
LINE
  8
0
  6
CONTINUOUS
 62
     2
 10
86.6
 20
139.475
 30
0.0
 11
86.3
 21
139.775
 31
0.0
  0
LINE
  8
0
  6
CONTINUOUS
 62
     2
 10
86.3
 20
139.775
 30
0.0
 11
86.3
 21
136.075
 31
0.0
  0
LINE
  8
0
  6
CONTINUOUS
 62
     2
 10
86.6
 20
136.375
 30
0.0
 11
86.3
 21
136.075
 31
0.0
  0
LINE
  8
0
  6
CONTINUOUS
 62
     2
 10
86.3
 20
137.4
 30
0.0
 11
85.25
 21
137.4
 31
0.0
  0
LINE
  8
0
  6
CONTINUOUS
 62
     2
 10
85.25
 20
138.65
 30
0.0
 11
86.3
 21
138.65
 31
0.0
  0
LINE
  8
0
  6
CONTINUOUS
 62
     2
 10
86.3
 20
138.5
 30
0.0
 11
85.25
 21
138.5
 31
0.0
  0
LINE
  8
0
  6
CONTINUOUS
 62
     2
 10
90.25
 20
138.675
 30
0.0
 11
90.25
 21
137.225
 31
0.0
  0
LINE
  8
0
  6
CONTINUOUS
 62
     2
 10
90.25
 20
137.225
 30
0.0
 11
87.8
 21
137.225
 31
0.0
  0
LINE
  8
0
  6
CONTINUOUS
 62
     2
 10
87.8
 20
137.4
 30
0.0
 11
90.25
 21
137.4
 31
0.0
  0
LINE
  8
0
  6
CONTINUOUS
 62
     2
 10
87.585
 20
137.225
 30
0.0
 11
86.6
 21
137.225
 31
0.0
  0
LINE
  8
0
  6
CONTINUOUS
 62
     2
 10
85.25
 20
137.225
 30
0.0
 11
86.3
 21
137.225
 31
0.0
  0
LINE
  8
0
  6
CONTINUOUS
 62
     2
 10
87.585
 20
137.225
 30
0.0
 11
87.785
 21
137.425
 31
0.0
  0
LINE
  8
0
  6
CONTINUOUS
 62
     2
 10
87.785
 20
137.025
 30
0.0
 11
87.585
 21
137.225
 31
0.0
  0
LINE
  8
0
  6
CONTINUOUS
 62
     2
 10
90.25
 20
137.95
 30
0.0
 11
90.897047613
 21
135.535185434
 31
0.0
  0
LINE
  8
0
  6
CONTINUOUS
 62
     2
 10
90.25
 20
137.95
 30
0.0
 11
92.017766953
 21
136.182233047
 31
0.0
  0
LINE
  8
0
  6
CONTINUOUS
 62
     2
 10
119.25
 20
158.0
 30
0.0
 11
118.5
 21
158.0
 31
0.0
  0
LINE
  8
0
  6
LTYPE2
 62
     2
 10
117.5
 20
159.5
 30
0.0
 11
120.25
 21
159.5
 31
0.0
  0
LINE
  8
0
  6
LTYPE2
 62
     2
 10
117.5
 20
138.5
 30
0.0
 11
120.25
 21
138.5
 31
0.0
  0
LINE
  8
0
  6
CONTINUOUS
 62
     2
 10
85.25
 20
174.85
 30
0.0
 11
87.664814566
 21
174.202952387
 31
0.0
  0
LINE
  8
0
  6
CONTINUOUS
 62
     2
 10
85.25
 20
174.85
 30
0.0
 11
87.664814566
 21
175.497047613
 31
0.0
  0
LINE
  8
0
  6
CONTINUOUS
 62
     2
 10
85.25
 20
174.85
 30
0.0
 11
119.25
 21
174.85
 31
0.0
  0
LINE
  8
0
  6
CONTINUOUS
 62
     2
 10
119.25
 20
174.85
 30
0.0
 11
116.835185434
 21
175.497047613
 31
0.0
  0
LINE
  8
0
  6
CONTINUOUS
 62
     2
 10
119.25
 20
174.85
 30
0.0
 11
116.835185434
 21
174.202952387
 31
0.0
  0
LINE
  8
0
  6
CONTINUOUS
 62
     2
 10
119.25
 20
162.004792283
 30
0.0
 11
119.25
 21
176.85
 31
0.0
  0
TEXT
  8
0
  6
CONTINUOUS
 62
     2
 10
100.3
 20
175.85
 30
0.3
 40
3.0
  1
６８
 50
0.0
 41
0.6
 51
0.0
  7
KANJI0
  0
LINE
  8
0
  6
LTYPE2
 62
     2
 10
121.75
 20
149.0
 30
0.0
 11
83.0
 21
149.0
 31
0.0
  0
LINE
  8
0
  6
CONTINUOUS
 62
     2
 10
179.0
 20
140.125
 30
0.0
 11
191.0
 21
140.125
 31
0.0
  0
LINE
  8
0
  6
CONTINUOUS
 62
     2
 10
191.0
 20
140.125
 30
0.0
 11
191.0
 21
140.875
 31
0.0
  0
LINE
  8
0
  6
CONTINUOUS
 62
     2
 10
179.0
 20
140.875
 30
0.0
 11
179.0
 21
140.125
 31
0.0
  0
LINE
  8
0
  6
CONTINUOUS
 62
     2
 10
191.0
 20
144.375
 30
0.0
 11
191.0
 21
145.125
 31
0.0
  0
LINE
  8
0
  6
CONTINUOUS
 62
     2
 10
179.0
 20
145.125
 30
0.0
 11
179.0
 21
144.375
 31
0.0
  0
LINE
  8
0
  6
CONTINUOUS
 62
     2
 10
191.0
 20
148.625
 30
0.0
 11
191.0
 21
149.375
 31
0.0
  0
LINE
  8
0
  6
CONTINUOUS
 62
     2
 10
179.0
 20
149.375
 30
0.0
 11
179.0
 21
148.625
 31
0.0
  0
LINE
  8
0
  6
CONTINUOUS
 62
     2
 10
191.0
 20
152.875
 30
0.0
 11
191.0
 21
153.625
 31
0.0
  0
LINE
  8
0
  6
CONTINUOUS
 62
     2
 10
179.0
 20
153.625
 30
0.0
 11
179.0
 21
152.875
 31
0.0
  0
LINE
  8
0
  6
CONTINUOUS
 62
     2
 10
191.0
 20
157.125
 30
0.0
 11
191.0
 21
157.875
 31
0.0
  0
LINE
  8
0
  6
CONTINUOUS
 62
     2
 10
191.0
 20
157.875
 30
0.0
 11
179.0
 21
157.875
 31
0.0
  0
LINE
  8
0
  6
CONTINUOUS
 62
     2
 10
179.0
 20
157.875
 30
0.0
 11
179.0
 21
157.125
 31
0.0
  0
LINE
  8
0
  6
CONTINUOUS
 62
     2
 10
185.375
 20
157.125
 30
0.0
 11
191.0
 21
157.125
 31
0.0
  0
LINE
  8
0
  6
CONTINUOUS
 62
     2
 10
179.0
 20
157.125
 30
0.0
 11
184.625
 21
157.125
 31
0.0
  0
LINE
  8
0
  6
CONTINUOUS
 62
     2
 10
184.625
 20
153.625
 30
0.0
 11
179.0
 21
153.625
 31
0.0
  0
LINE
  8
0
  6
CONTINUOUS
 62
     2
 10
191.0
 20
153.625
 30
0.0
 11
185.375
 21
153.625
 31
0.0
  0
LINE
  8
0
  6
CONTINUOUS
 62
     2
 10
184.625
 20
157.125
 30
0.0
 11
184.625
 21
153.625
 31
0.0
  0
LINE
  8
0
  6
CONTINUOUS
 62
     2
 10
185.375
 20
153.625
 30
0.0
 11
185.375
 21
157.125
 31
0.0
  0
LINE
  8
0
  6
CONTINUOUS
 62
     2
 10
184.625
 20
149.375
 30
0.0
 11
179.0
 21
149.375
 31
0.0
  0
LINE
  8
0
  6
CONTINUOUS
 62
     2
 10
191.0
 20
149.375
 30
0.0
 11
185.375
 21
149.375
 31
0.0
  0
LINE
  8
0
  6
CONTINUOUS
 62
     2
 10
185.375
 20
149.375
 30
0.0
 11
185.375
 21
152.875
 31
0.0
  0
LINE
  8
0
  6
CONTINUOUS
 62
     2
 10
184.625
 20
152.875
 30
0.0
 11
184.625
 21
149.375
 31
0.0
  0
LINE
  8
0
  6
CONTINUOUS
 62
     2
 10
185.375
 20
148.625
 30
0.0
 11
191.0
 21
148.625
 31
0.0
  0
LINE
  8
0
  6
CONTINUOUS
 62
     2
 10
179.0
 20
148.625
 30
0.0
 11
184.625
 21
148.625
 31
0.0
  0
LINE
  8
0
  6
CONTINUOUS
 62
     2
 10
184.625
 20
145.125
 30
0.0
 11
179.0
 21
145.125
 31
0.0
  0
LINE
  8
0
  6
CONTINUOUS
 62
     2
 10
191.0
 20
145.125
 30
0.0
 11
185.375
 21
145.125
 31
0.0
  0
LINE
  8
0
  6
CONTINUOUS
 62
     2
 10
184.625
 20
148.625
 30
0.0
 11
184.625
 21
145.125
 31
0.0
  0
LINE
  8
0
  6
CONTINUOUS
 62
     2
 10
185.375
 20
144.375
 30
0.0
 11
191.0
 21
144.375
 31
0.0
  0
LINE
  8
0
  6
CONTINUOUS
 62
     2
 10
179.0
 20
144.375
 30
0.0
 11
184.625
 21
144.375
 31
0.0
  0
LINE
  8
0
  6
CONTINUOUS
 62
     2
 10
185.375
 20
145.125
 30
0.0
 11
185.375
 21
148.625
 31
0.0
  0
LINE
  8
0
  6
CONTINUOUS
 62
     2
 10
185.375
 20
152.875
 30
0.0
 11
191.0
 21
152.875
 31
0.0
  0
LINE
  8
0
  6
CONTINUOUS
 62
     2
 10
179.0
 20
152.875
 30
0.0
 11
184.625
 21
152.875
 31
0.0
  0
LINE
  8
0
  6
CONTINUOUS
 62
     2
 10
185.375
 20
140.875
 30
0.0
 11
185.375
 21
144.375
 31
0.0
  0
LINE
  8
0
  6
CONTINUOUS
 62
     2
 10
191.0
 20
140.875
 30
0.0
 11
185.375
 21
140.875
 31
0.0
  0
LINE
  8
0
  6
CONTINUOUS
 62
     2
 10
184.625
 20
144.375
 30
0.0
 11
184.625
 21
140.875
 31
0.0
  0
LINE
  8
0
  6
CONTINUOUS
 62
     2
 10
184.625
 20
140.875
 30
0.0
 11
179.0
 21
140.875
 31
0.0
  0
LINE
  8
0
  6
CONTINUOUS
 62
     2
 10
186.0
 20
153.875
 30
0.0
 11
190.4
 21
153.875
 31
0.0
  0
LINE
  8
0
  6
CONTINUOUS
 62
     2
 10
190.4
 20
153.875
 30
0.0
 11
190.4
 21
156.875
 31
0.0
  0
LINE
  8
0
  6
CONTINUOUS
 62
     2
 10
190.4
 20
156.875
 30
0.0
 11
186.0
 21
156.875
 31
0.0
  0
LINE
  8
0
  6
CONTINUOUS
 62
     2
 10
186.0
 20
156.875
 30
0.0
 11
186.0
 21
153.875
 31
0.0
  0
LINE
  8
0
  6
CONTINUOUS
 62
     2
 10
187.80008
 20
153.888987768
 30
0.0
 11
187.80008
 21
154.97516
 31
0.0
  0
ARC
  8
0
  6
CONTINUOUS
 62
     2
 10
187.60016
 20
154.97516
 30
0.0
 40
0.19992
 50
0.0
 51
90.0
  0
LINE
  8
0
  6
CONTINUOUS
 62
     2
 10
187.60016
 20
155.17508
 30
0.0
 11
187.20032
 21
155.17508
 31
0.0
  0
LINE
  8
0
  6
CONTINUOUS
 62
     2
 10
187.20032
 20
155.17508
 30
0.0
 11
187.20032
 21
155.57492
 31
0.0
  0
LINE
  8
0
  6
CONTINUOUS
 62
     2
 10
187.20032
 20
155.57492
 30
0.0
 11
187.60016
 21
155.57492
 31
0.0
  0
ARC
  8
0
  6
CONTINUOUS
 62
     2
 10
187.60016
 20
155.77484
 30
0.0
 40
0.19992
 50
270.0
 51
0.0
  0
LINE
  8
0
  6
CONTINUOUS
 62
     2
 10
187.80008
 20
155.77484
 30
0.0
 11
187.80008
 21
156.861012232
 31
0.0
  0
LINE
  8
0
  6
CONTINUOUS
 62
     2
 10
188.19992
 20
156.861012232
 30
0.0
 11
188.19992
 21
155.77484
 31
0.0
  0
ARC
  8
0
  6
CONTINUOUS
 62
     2
 10
188.39984
 20
155.77484
 30
0.0
 40
0.19992
 50
180.0
 51
270.0
  0
LINE
  8
0
  6
CONTINUOUS
 62
     2
 10
188.399840005
 20
155.57492
 30
0.0
 11
188.799680005
 21
155.57492
 31
0.0
  0
LINE
  8
0
  6
CONTINUOUS
 62
     2
 10
188.799680005
 20
155.57492
 30
0.0
 11
188.799680005
 21
155.17508
 31
0.0
  0
LINE
  8
0
  6
CONTINUOUS
 62
     2
 10
188.799680005
 20
155.17508
 30
0.0
 11
188.39984
 21
155.17508
 31
0.0
  0
ARC
  8
0
  6
CONTINUOUS
 62
     2
 10
188.39984
 20
154.97516
 30
0.0
 40
0.19992
 50
90.0
 51
180.0
  0
LINE
  8
0
  6
CONTINUOUS
 62
     2
 10
188.19992
 20
154.97516
 30
0.0
 11
188.19992
 21
153.888987768
 31
0.0
  0
CIRCLE
  8
0
  6
CONTINUOUS
 62
     2
 10
188.0
 20
155.375
 30
0.0
 40
1.4994
  0
LINE
  8
0
  6
LTYPE1
 62
     2
 10
188.0
 20
157.375
 30
0.0
 11
188.0
 21
153.375
 31
0.0
  0
LINE
  8
0
  6
LTYPE1
 62
     2
 10
186.0
 20
155.375
 30
0.0
 11
189.9994
 21
155.375
 31
0.0
  0
LINE
  8
0
  6
CONTINUOUS
 62
     2
 10
189.41357715
 20
155.875
 30
0.0
 11
190.4
 21
155.875
 31
0.0
  0
LINE
  8
0
  6
CONTINUOUS
 62
     2
 10
189.41357715
 20
154.875
 30
0.0
 11
190.4
 21
154.875
 31
0.0
  0
LINE
  8
0
  6
CONTINUOUS
 62
     2
 10
186.0
 20
149.625
 30
0.0
 11
190.4
 21
149.625
 31
0.0
  0
LINE
  8
0
  6
CONTINUOUS
 62
     2
 10
190.4
 20
149.625
 30
0.0
 11
190.4
 21
152.625
 31
0.0
  0
LINE
  8
0
  6
CONTINUOUS
 62
     2
 10
190.4
 20
152.625
 30
0.0
 11
186.0
 21
152.625
 31
0.0
  0
LINE
  8
0
  6
CONTINUOUS
 62
     2
 10
186.0
 20
152.625
 30
0.0
 11
186.0
 21
149.625
 31
0.0
  0
LINE
  8
0
  6
CONTINUOUS
 62
     2
 10
187.80008
 20
149.638987768
 30
0.0
 11
187.80008
 21
150.72516
 31
0.0
  0
ARC
  8
0
  6
CONTINUOUS
 62
     2
 10
187.60016
 20
150.72516
 30
0.0
 40
0.19992
 50
0.0
 51
90.0
  0
LINE
  8
0
  6
CONTINUOUS
 62
     2
 10
187.60016
 20
150.92508
 30
0.0
 11
187.20032
 21
150.92508
 31
0.0
  0
LINE
  8
0
  6
CONTINUOUS
 62
     2
 10
187.20032
 20
150.92508
 30
0.0
 11
187.20032
 21
151.32492
 31
0.0
  0
LINE
  8
0
  6
CONTINUOUS
 62
     2
 10
187.20032
 20
151.32492
 30
0.0
 11
187.60016
 21
151.32492
 31
0.0
  0
ARC
  8
0
  6
CONTINUOUS
 62
     2
 10
187.60016
 20
151.52484
 30
0.0
 40
0.19992
 50
270.0
 51
0.0
  0
LINE
  8
0
  6
CONTINUOUS
 62
     2
 10
187.80008
 20
151.52484
 30
0.0
 11
187.80008
 21
152.611012232
 31
0.0
  0
LINE
  8
0
  6
CONTINUOUS
 62
     2
 10
188.19992
 20
152.611012232
 30
0.0
 11
188.19992
 21
151.52484
 31
0.0
  0
ARC
  8
0
  6
CONTINUOUS
 62
     2
 10
188.39984
 20
151.52484
 30
0.0
 40
0.19992
 50
180.0
 51
270.0
  0
LINE
  8
0
  6
CONTINUOUS
 62
     2
 10
188.399840005
 20
151.32492
 30
0.0
 11
188.799680005
 21
151.32492
 31
0.0
  0
LINE
  8
0
  6
CONTINUOUS
 62
     2
 10
188.799680005
 20
151.32492
 30
0.0
 11
188.799680005
 21
150.92508
 31
0.0
  0
LINE
  8
0
  6
CONTINUOUS
 62
     2
 10
188.799680005
 20
150.92508
 30
0.0
 11
188.39984
 21
150.92508
 31
0.0
  0
ARC
  8
0
  6
CONTINUOUS
 62
     2
 10
188.39984
 20
150.72516
 30
0.0
 40
0.19992
 50
90.0
 51
180.0
  0
LINE
  8
0
  6
CONTINUOUS
 62
     2
 10
188.19992
 20
150.72516
 30
0.0
 11
188.19992
 21
149.638987768
 31
0.0
  0
CIRCLE
  8
0
  6
CONTINUOUS
 62
     2
 10
188.0
 20
151.125
 30
0.0
 40
1.4994
  0
LINE
  8
0
  6
LTYPE1
 62
     2
 10
188.0
 20
153.125
 30
0.0
 11
188.0
 21
149.125
 31
0.0
  0
LINE
  8
0
  6
LTYPE1
 62
     2
 10
186.0
 20
151.125
 30
0.0
 11
189.9994
 21
151.125
 31
0.0
  0
LINE
  8
0
  6
CONTINUOUS
 62
     2
 10
189.41357715
 20
151.625
 30
0.0
 11
190.4
 21
151.625
 31
0.0
  0
LINE
  8
0
  6
CONTINUOUS
 62
     2
 10
189.41357715
 20
150.625
 30
0.0
 11
190.4
 21
150.625
 31
0.0
  0
LINE
  8
0
  6
CONTINUOUS
 62
     2
 10
186.0
 20
145.375
 30
0.0
 11
190.4
 21
145.375
 31
0.0
  0
LINE
  8
0
  6
CONTINUOUS
 62
     2
 10
190.4
 20
145.375
 30
0.0
 11
190.4
 21
148.375
 31
0.0
  0
LINE
  8
0
  6
CONTINUOUS
 62
     2
 10
190.4
 20
148.375
 30
0.0
 11
186.0
 21
148.375
 31
0.0
  0
LINE
  8
0
  6
CONTINUOUS
 62
     2
 10
186.0
 20
148.375
 30
0.0
 11
186.0
 21
145.375
 31
0.0
  0
LINE
  8
0
  6
CONTINUOUS
 62
     2
 10
187.80008
 20
145.388987768
 30
0.0
 11
187.80008
 21
146.47516
 31
0.0
  0
ARC
  8
0
  6
CONTINUOUS
 62
     2
 10
187.60016
 20
146.47516
 30
0.0
 40
0.19992
 50
0.0
 51
90.0
  0
LINE
  8
0
  6
CONTINUOUS
 62
     2
 10
187.60016
 20
146.67508
 30
0.0
 11
187.20032
 21
146.67508
 31
0.0
  0
LINE
  8
0
  6
CONTINUOUS
 62
     2
 10
187.20032
 20
146.67508
 30
0.0
 11
187.20032
 21
147.07492
 31
0.0
  0
LINE
  8
0
  6
CONTINUOUS
 62
     2
 10
187.20032
 20
147.07492
 30
0.0
 11
187.60016
 21
147.07492
 31
0.0
  0
ARC
  8
0
  6
CONTINUOUS
 62
     2
 10
187.60016
 20
147.27484
 30
0.0
 40
0.19992
 50
270.0
 51
0.0
  0
LINE
  8
0
  6
CONTINUOUS
 62
     2
 10
187.80008
 20
147.27484
 30
0.0
 11
187.80008
 21
148.361012232
 31
0.0
  0
LINE
  8
0
  6
CONTINUOUS
 62
     2
 10
188.19992
 20
148.361012232
 30
0.0
 11
188.19992
 21
147.27484
 31
0.0
  0
ARC
  8
0
  6
CONTINUOUS
 62
     2
 10
188.39984
 20
147.27484
 30
0.0
 40
0.19992
 50
180.0
 51
270.0
  0
LINE
  8
0
  6
CONTINUOUS
 62
     2
 10
188.399840005
 20
147.07492
 30
0.0
 11
188.799680005
 21
147.07492
 31
0.0
  0
LINE
  8
0
  6
CONTINUOUS
 62
     2
 10
188.799680005
 20
147.07492
 30
0.0
 11
188.799680005
 21
146.67508
 31
0.0
  0
LINE
  8
0
  6
CONTINUOUS
 62
     2
 10
188.799680005
 20
146.67508
 30
0.0
 11
188.39984
 21
146.67508
 31
0.0
  0
ARC
  8
0
  6
CONTINUOUS
 62
     2
 10
188.39984
 20
146.47516
 30
0.0
 40
0.19992
 50
90.0
 51
180.0
  0
LINE
  8
0
  6
CONTINUOUS
 62
     2
 10
188.19992
 20
146.47516
 30
0.0
 11
188.19992
 21
145.388987768
 31
0.0
  0
CIRCLE
  8
0
  6
CONTINUOUS
 62
     2
 10
188.0
 20
146.875
 30
0.0
 40
1.4994
  0
LINE
  8
0
  6
LTYPE1
 62
     2
 10
188.0
 20
148.875
 30
0.0
 11
188.0
 21
144.875
 31
0.0
  0
LINE
  8
0
  6
LTYPE1
 62
     2
 10
186.0
 20
146.875
 30
0.0
 11
189.9994
 21
146.875
 31
0.0
  0
LINE
  8
0
  6
CONTINUOUS
 62
     2
 10
189.41357715
 20
147.375
 30
0.0
 11
190.4
 21
147.375
 31
0.0
  0
LINE
  8
0
  6
CONTINUOUS
 62
     2
 10
189.41357715
 20
146.375
 30
0.0
 11
190.4
 21
146.375
 31
0.0
  0
LINE
  8
0
  6
CONTINUOUS
 62
     2
 10
186.0
 20
141.125
 30
0.0
 11
190.4
 21
141.125
 31
0.0
  0
LINE
  8
0
  6
CONTINUOUS
 62
     2
 10
190.4
 20
141.125
 30
0.0
 11
190.4
 21
144.125
 31
0.0
  0
LINE
  8
0
  6
CONTINUOUS
 62
     2
 10
190.4
 20
144.125
 30
0.0
 11
186.0
 21
144.125
 31
0.0
  0
LINE
  8
0
  6
CONTINUOUS
 62
     2
 10
186.0
 20
144.125
 30
0.0
 11
186.0
 21
141.125
 31
0.0
  0
LINE
  8
0
  6
CONTINUOUS
 62
     2
 10
187.80008
 20
141.138987768
 30
0.0
 11
187.80008
 21
142.22516
 31
0.0
  0
ARC
  8
0
  6
CONTINUOUS
 62
     2
 10
187.60016
 20
142.22516
 30
0.0
 40
0.19992
 50
0.0
 51
90.0
  0
LINE
  8
0
  6
CONTINUOUS
 62
     2
 10
187.60016
 20
142.42508
 30
0.0
 11
187.20032
 21
142.42508
 31
0.0
  0
LINE
  8
0
  6
CONTINUOUS
 62
     2
 10
187.20032
 20
142.42508
 30
0.0
 11
187.20032
 21
142.82492
 31
0.0
  0
LINE
  8
0
  6
CONTINUOUS
 62
     2
 10
187.20032
 20
142.82492
 30
0.0
 11
187.60016
 21
142.82492
 31
0.0
  0
ARC
  8
0
  6
CONTINUOUS
 62
     2
 10
187.60016
 20
143.02484
 30
0.0
 40
0.19992
 50
270.0
 51
0.0
  0
LINE
  8
0
  6
CONTINUOUS
 62
     2
 10
187.80008
 20
143.02484
 30
0.0
 11
187.80008
 21
144.111012232
 31
0.0
  0
LINE
  8
0
  6
CONTINUOUS
 62
     2
 10
188.19992
 20
144.111012232
 30
0.0
 11
188.19992
 21
143.02484
 31
0.0
  0
ARC
  8
0
  6
CONTINUOUS
 62
     2
 10
188.39984
 20
143.02484
 30
0.0
 40
0.19992
 50
180.0
 51
270.0
  0
LINE
  8
0
  6
CONTINUOUS
 62
     2
 10
188.399840005
 20
142.82492
 30
0.0
 11
188.799680005
 21
142.82492
 31
0.0
  0
LINE
  8
0
  6
CONTINUOUS
 62
     2
 10
188.799680005
 20
142.82492
 30
0.0
 11
188.799680005
 21
142.42508
 31
0.0
  0
LINE
  8
0
  6
CONTINUOUS
 62
     2
 10
188.799680005
 20
142.42508
 30
0.0
 11
188.39984
 21
142.42508
 31
0.0
  0
ARC
  8
0
  6
CONTINUOUS
 62
     2
 10
188.39984
 20
142.22516
 30
0.0
 40
0.19992
 50
90.0
 51
180.0
  0
LINE
  8
0
  6
CONTINUOUS
 62
     2
 10
188.19992
 20
142.22516
 30
0.0
 11
188.19992
 21
141.138987768
 31
0.0
  0
CIRCLE
  8
0
  6
CONTINUOUS
 62
     2
 10
188.0
 20
142.625
 30
0.0
 40
1.4994
  0
LINE
  8
0
  6
LTYPE1
 62
     2
 10
188.0
 20
144.625
 30
0.0
 11
188.0
 21
140.625
 31
0.0
  0
LINE
  8
0
  6
LTYPE1
 62
     2
 10
186.0
 20
142.625
 30
0.0
 11
189.9994
 21
142.625
 31
0.0
  0
LINE
  8
0
  6
CONTINUOUS
 62
     2
 10
189.41357715
 20
143.125
 30
0.0
 11
190.4
 21
143.125
 31
0.0
  0
LINE
  8
0
  6
CONTINUOUS
 62
     2
 10
189.41357715
 20
142.125
 30
0.0
 11
190.4
 21
142.125
 31
0.0
  0
LINE
  8
0
  6
CONTINUOUS
 62
     2
 10
184.0
 20
153.875
 30
0.0
 11
179.6
 21
153.875
 31
0.0
  0
LINE
  8
0
  6
CONTINUOUS
 62
     2
 10
179.6
 20
153.875
 30
0.0
 11
179.6
 21
156.875
 31
0.0
  0
LINE
  8
0
  6
CONTINUOUS
 62
     2
 10
179.6
 20
156.875
 30
0.0
 11
184.0
 21
156.875
 31
0.0
  0
LINE
  8
0
  6
CONTINUOUS
 62
     2
 10
184.0
 20
156.875
 30
0.0
 11
184.0
 21
153.875
 31
0.0
  0
LINE
  8
0
  6
CONTINUOUS
 62
     2
 10
182.19992
 20
153.888987768
 30
0.0
 11
182.19992
 21
154.97516
 31
0.0
  0
ARC
  8
0
  6
CONTINUOUS
 62
     2
 10
182.39984
 20
154.97516
 30
0.0
 40
0.19992
 50
90.0
 51
180.0
  0
LINE
  8
0
  6
CONTINUOUS
 62
     2
 10
182.39984
 20
155.17508
 30
0.0
 11
182.79968
 21
155.17508
 31
0.0
  0
LINE
  8
0
  6
CONTINUOUS
 62
     2
 10
182.79968
 20
155.17508
 30
0.0
 11
182.79968
 21
155.57492
 31
0.0
  0
LINE
  8
0
  6
CONTINUOUS
 62
     2
 10
182.79968
 20
155.57492
 30
0.0
 11
182.39984
 21
155.57492
 31
0.0
  0
ARC
  8
0
  6
CONTINUOUS
 62
     2
 10
182.39984
 20
155.77484
 30
0.0
 40
0.19992
 50
180.0
 51
270.0
  0
LINE
  8
0
  6
CONTINUOUS
 62
     2
 10
182.19992
 20
155.77484
 30
0.0
 11
182.19992
 21
156.861012232
 31
0.0
  0
LINE
  8
0
  6
CONTINUOUS
 62
     2
 10
181.80008
 20
156.861012232
 30
0.0
 11
181.80008
 21
155.77484
 31
0.0
  0
ARC
  8
0
  6
CONTINUOUS
 62
     2
 10
181.60016
 20
155.77484
 30
0.0
 40
0.19992
 50
270.0
 51
0.0
  0
LINE
  8
0
  6
CONTINUOUS
 62
     2
 10
181.600159995
 20
155.57492
 30
0.0
 11
181.200319995
 21
155.57492
 31
0.0
  0
LINE
  8
0
  6
CONTINUOUS
 62
     2
 10
181.200319995
 20
155.57492
 30
0.0
 11
181.200319995
 21
155.17508
 31
0.0
  0
LINE
  8
0
  6
CONTINUOUS
 62
     2
 10
181.200319995
 20
155.17508
 30
0.0
 11
181.60016
 21
155.17508
 31
0.0
  0
ARC
  8
0
  6
CONTINUOUS
 62
     2
 10
181.60016
 20
154.97516
 30
0.0
 40
0.19992
 50
0.0
 51
90.0
  0
LINE
  8
0
  6
CONTINUOUS
 62
     2
 10
181.80008
 20
154.97516
 30
0.0
 11
181.80008
 21
153.888987768
 31
0.0
  0
CIRCLE
  8
0
  6
CONTINUOUS
 62
     2
 10
182.0
 20
155.375
 30
0.0
 40
1.4994
  0
LINE
  8
0
  6
LTYPE1
 62
     2
 10
182.0
 20
157.375
 30
0.0
 11
182.0
 21
153.375
 31
0.0
  0
LINE
  8
0
  6
LTYPE1
 62
     2
 10
184.0
 20
155.375
 30
0.0
 11
180.0006
 21
155.375
 31
0.0
  0
LINE
  8
0
  6
CONTINUOUS
 62
     2
 10
180.58642285
 20
155.875
 30
0.0
 11
179.6
 21
155.875
 31
0.0
  0
LINE
  8
0
  6
CONTINUOUS
 62
     2
 10
180.58642285
 20
154.875
 30
0.0
 11
179.6
 21
154.875
 31
0.0
  0
LINE
  8
0
  6
CONTINUOUS
 62
     2
 10
184.0
 20
149.625
 30
0.0
 11
179.6
 21
149.625
 31
0.0
  0
LINE
  8
0
  6
CONTINUOUS
 62
     2
 10
179.6
 20
149.625
 30
0.0
 11
179.6
 21
152.625
 31
0.0
  0
LINE
  8
0
  6
CONTINUOUS
 62
     2
 10
179.6
 20
152.625
 30
0.0
 11
184.0
 21
152.625
 31
0.0
  0
LINE
  8
0
  6
CONTINUOUS
 62
     2
 10
184.0
 20
152.625
 30
0.0
 11
184.0
 21
149.625
 31
0.0
  0
LINE
  8
0
  6
CONTINUOUS
 62
     2
 10
182.19992
 20
149.638987768
 30
0.0
 11
182.19992
 21
150.72516
 31
0.0
  0
ARC
  8
0
  6
CONTINUOUS
 62
     2
 10
182.39984
 20
150.72516
 30
0.0
 40
0.19992
 50
90.0
 51
180.0
  0
LINE
  8
0
  6
CONTINUOUS
 62
     2
 10
182.39984
 20
150.92508
 30
0.0
 11
182.79968
 21
150.92508
 31
0.0
  0
LINE
  8
0
  6
CONTINUOUS
 62
     2
 10
182.79968
 20
150.92508
 30
0.0
 11
182.79968
 21
151.32492
 31
0.0
  0
LINE
  8
0
  6
CONTINUOUS
 62
     2
 10
182.79968
 20
151.32492
 30
0.0
 11
182.39984
 21
151.32492
 31
0.0
  0
ARC
  8
0
  6
CONTINUOUS
 62
     2
 10
182.39984
 20
151.52484
 30
0.0
 40
0.19992
 50
180.0
 51
270.0
  0
LINE
  8
0
  6
CONTINUOUS
 62
     2
 10
182.19992
 20
151.52484
 30
0.0
 11
182.19992
 21
152.611012232
 31
0.0
  0
LINE
  8
0
  6
CONTINUOUS
 62
     2
 10
181.80008
 20
152.611012232
 30
0.0
 11
181.80008
 21
151.52484
 31
0.0
  0
ARC
  8
0
  6
CONTINUOUS
 62
     2
 10
181.60016
 20
151.52484
 30
0.0
 40
0.19992
 50
270.0
 51
0.0
  0
LINE
  8
0
  6
CONTINUOUS
 62
     2
 10
181.600159995
 20
151.32492
 30
0.0
 11
181.200319995
 21
151.32492
 31
0.0
  0
LINE
  8
0
  6
CONTINUOUS
 62
     2
 10
181.200319995
 20
151.32492
 30
0.0
 11
181.200319995
 21
150.92508
 31
0.0
  0
LINE
  8
0
  6
CONTINUOUS
 62
     2
 10
181.200319995
 20
150.92508
 30
0.0
 11
181.60016
 21
150.92508
 31
0.0
  0
ARC
  8
0
  6
CONTINUOUS
 62
     2
 10
181.60016
 20
150.72516
 30
0.0
 40
0.19992
 50
0.0
 51
90.0
  0
LINE
  8
0
  6
CONTINUOUS
 62
     2
 10
181.80008
 20
150.72516
 30
0.0
 11
181.80008
 21
149.638987768
 31
0.0
  0
CIRCLE
  8
0
  6
CONTINUOUS
 62
     2
 10
182.0
 20
151.125
 30
0.0
 40
1.4994
  0
LINE
  8
0
  6
LTYPE1
 62
     2
 10
182.0
 20
153.125
 30
0.0
 11
182.0
 21
149.125
 31
0.0
  0
LINE
  8
0
  6
LTYPE1
 62
     2
 10
184.0
 20
151.125
 30
0.0
 11
180.0006
 21
151.125
 31
0.0
  0
LINE
  8
0
  6
CONTINUOUS
 62
     2
 10
180.58642285
 20
151.625
 30
0.0
 11
179.6
 21
151.625
 31
0.0
  0
LINE
  8
0
  6
CONTINUOUS
 62
     2
 10
180.58642285
 20
150.625
 30
0.0
 11
179.6
 21
150.625
 31
0.0
  0
LINE
  8
0
  6
CONTINUOUS
 62
     2
 10
184.0
 20
145.375
 30
0.0
 11
179.6
 21
145.375
 31
0.0
  0
LINE
  8
0
  6
CONTINUOUS
 62
     2
 10
179.6
 20
145.375
 30
0.0
 11
179.6
 21
148.375
 31
0.0
  0
LINE
  8
0
  6
CONTINUOUS
 62
     2
 10
179.6
 20
148.375
 30
0.0
 11
184.0
 21
148.375
 31
0.0
  0
LINE
  8
0
  6
CONTINUOUS
 62
     2
 10
184.0
 20
148.375
 30
0.0
 11
184.0
 21
145.375
 31
0.0
  0
LINE
  8
0
  6
CONTINUOUS
 62
     2
 10
182.19992
 20
145.388987768
 30
0.0
 11
182.19992
 21
146.47516
 31
0.0
  0
ARC
  8
0
  6
CONTINUOUS
 62
     2
 10
182.39984
 20
146.47516
 30
0.0
 40
0.19992
 50
90.0
 51
180.0
  0
LINE
  8
0
  6
CONTINUOUS
 62
     2
 10
182.39984
 20
146.67508
 30
0.0
 11
182.79968
 21
146.67508
 31
0.0
  0
LINE
  8
0
  6
CONTINUOUS
 62
     2
 10
182.79968
 20
146.67508
 30
0.0
 11
182.79968
 21
147.07492
 31
0.0
  0
LINE
  8
0
  6
CONTINUOUS
 62
     2
 10
182.79968
 20
147.07492
 30
0.0
 11
182.39984
 21
147.07492
 31
0.0
  0
ARC
  8
0
  6
CONTINUOUS
 62
     2
 10
182.39984
 20
147.27484
 30
0.0
 40
0.19992
 50
180.0
 51
270.0
  0
LINE
  8
0
  6
CONTINUOUS
 62
     2
 10
182.19992
 20
147.27484
 30
0.0
 11
182.19992
 21
148.361012232
 31
0.0
  0
LINE
  8
0
  6
CONTINUOUS
 62
     2
 10
181.80008
 20
148.361012232
 30
0.0
 11
181.80008
 21
147.27484
 31
0.0
  0
ARC
  8
0
  6
CONTINUOUS
 62
     2
 10
181.60016
 20
147.27484
 30
0.0
 40
0.19992
 50
270.0
 51
0.0
  0
LINE
  8
0
  6
CONTINUOUS
 62
     2
 10
181.600159995
 20
147.07492
 30
0.0
 11
181.200319995
 21
147.07492
 31
0.0
  0
LINE
  8
0
  6
CONTINUOUS
 62
     2
 10
181.200319995
 20
147.07492
 30
0.0
 11
181.200319995
 21
146.67508
 31
0.0
  0
LINE
  8
0
  6
CONTINUOUS
 62
     2
 10
181.200319995
 20
146.67508
 30
0.0
 11
181.60016
 21
146.67508
 31
0.0
  0
ARC
  8
0
  6
CONTINUOUS
 62
     2
 10
181.60016
 20
146.47516
 30
0.0
 40
0.19992
 50
0.0
 51
90.0
  0
LINE
  8
0
  6
CONTINUOUS
 62
     2
 10
181.80008
 20
146.47516
 30
0.0
 11
181.80008
 21
145.388987768
 31
0.0
  0
CIRCLE
  8
0
  6
CONTINUOUS
 62
     2
 10
182.0
 20
146.875
 30
0.0
 40
1.4994
  0
LINE
  8
0
  6
LTYPE1
 62
     2
 10
182.0
 20
148.875
 30
0.0
 11
182.0
 21
144.875
 31
0.0
  0
LINE
  8
0
  6
LTYPE1
 62
     2
 10
184.0
 20
146.875
 30
0.0
 11
180.0006
 21
146.875
 31
0.0
  0
LINE
  8
0
  6
CONTINUOUS
 62
     2
 10
180.58642285
 20
147.375
 30
0.0
 11
179.6
 21
147.375
 31
0.0
  0
LINE
  8
0
  6
CONTINUOUS
 62
     2
 10
180.58642285
 20
146.375
 30
0.0
 11
179.6
 21
146.375
 31
0.0
  0
LINE
  8
0
  6
CONTINUOUS
 62
     2
 10
184.0
 20
141.125
 30
0.0
 11
179.6
 21
141.125
 31
0.0
  0
LINE
  8
0
  6
CONTINUOUS
 62
     2
 10
179.6
 20
141.125
 30
0.0
 11
179.6
 21
144.125
 31
0.0
  0
LINE
  8
0
  6
CONTINUOUS
 62
     2
 10
179.6
 20
144.125
 30
0.0
 11
184.0
 21
144.125
 31
0.0
  0
LINE
  8
0
  6
CONTINUOUS
 62
     2
 10
184.0
 20
144.125
 30
0.0
 11
184.0
 21
141.125
 31
0.0
  0
LINE
  8
0
  6
CONTINUOUS
 62
     2
 10
182.19992
 20
141.138987768
 30
0.0
 11
182.19992
 21
142.22516
 31
0.0
  0
ARC
  8
0
  6
CONTINUOUS
 62
     2
 10
182.39984
 20
142.22516
 30
0.0
 40
0.19992
 50
90.0
 51
180.0
  0
LINE
  8
0
  6
CONTINUOUS
 62
     2
 10
182.39984
 20
142.42508
 30
0.0
 11
182.79968
 21
142.42508
 31
0.0
  0
LINE
  8
0
  6
CONTINUOUS
 62
     2
 10
182.79968
 20
142.42508
 30
0.0
 11
182.79968
 21
142.82492
 31
0.0
  0
LINE
  8
0
  6
CONTINUOUS
 62
     2
 10
182.79968
 20
142.82492
 30
0.0
 11
182.39984
 21
142.82492
 31
0.0
  0
ARC
  8
0
  6
CONTINUOUS
 62
     2
 10
182.39984
 20
143.02484
 30
0.0
 40
0.19992
 50
180.0
 51
270.0
  0
LINE
  8
0
  6
CONTINUOUS
 62
     2
 10
182.19992
 20
143.02484
 30
0.0
 11
182.19992
 21
144.111012232
 31
0.0
  0
LINE
  8
0
  6
CONTINUOUS
 62
     2
 10
181.80008
 20
144.111012232
 30
0.0
 11
181.80008
 21
143.02484
 31
0.0
  0
ARC
  8
0
  6
CONTINUOUS
 62
     2
 10
181.60016
 20
143.02484
 30
0.0
 40
0.19992
 50
270.0
 51
0.0
  0
LINE
  8
0
  6
CONTINUOUS
 62
     2
 10
181.600159995
 20
142.82492
 30
0.0
 11
181.200319995
 21
142.82492
 31
0.0
  0
LINE
  8
0
  6
CONTINUOUS
 62
     2
 10
181.200319995
 20
142.82492
 30
0.0
 11
181.200319995
 21
142.42508
 31
0.0
  0
LINE
  8
0
  6
CONTINUOUS
 62
     2
 10
181.200319995
 20
142.42508
 30
0.0
 11
181.60016
 21
142.42508
 31
0.0
  0
ARC
  8
0
  6
CONTINUOUS
 62
     2
 10
181.60016
 20
142.22516
 30
0.0
 40
0.19992
 50
0.0
 51
90.0
  0
LINE
  8
0
  6
CONTINUOUS
 62
     2
 10
181.80008
 20
142.22516
 30
0.0
 11
181.80008
 21
141.138987768
 31
0.0
  0
CIRCLE
  8
0
  6
CONTINUOUS
 62
     2
 10
182.0
 20
142.625
 30
0.0
 40
1.4994
  0
LINE
  8
0
  6
LTYPE1
 62
     2
 10
182.0
 20
144.625
 30
0.0
 11
182.0
 21
140.625
 31
0.0
  0
LINE
  8
0
  6
LTYPE1
 62
     2
 10
184.0
 20
142.625
 30
0.0
 11
180.0006
 21
142.625
 31
0.0
  0
LINE
  8
0
  6
CONTINUOUS
 62
     2
 10
180.58642285
 20
143.125
 30
0.0
 11
179.6
 21
143.125
 31
0.0
  0
LINE
  8
0
  6
CONTINUOUS
 62
     2
 10
180.58642285
 20
142.125
 30
0.0
 11
179.6
 21
142.125
 31
0.0
  0
LINE
  8
0
  6
CONTINUOUS
 62
     2
 10
119.25
 20
155.875
 30
0.0
 11
119.65
 21
155.875
 31
0.0
  0
LINE
  8
0
  6
CONTINUOUS
 62
     2
 10
119.25
 20
154.875
 30
0.0
 11
119.65
 21
154.875
 31
0.0
  0
LINE
  8
0
  6
LTYPE2
 62
     2
 10
123.65
 20
155.375
 30
0.0
 11
118.65
 21
155.375
 31
0.0
  0
LINE
  8
0
  6
CONTINUOUS
 62
     2
 10
121.75
 20
157.875
 30
0.0
 11
121.75
 21
140.125
 31
0.0
  0
LINE
  8
0
  6
CONTINUOUS
 62
     2
 10
119.25
 20
157.875
 30
0.0
 11
121.75
 21
157.875
 31
0.0
  0
LINE
  8
0
  6
CONTINUOUS
 62
     2
 10
121.75
 20
157.125
 30
0.0
 11
119.25
 21
157.125
 31
0.0
  0
LINE
  8
0
  6
CONTINUOUS
 62
     2
 10
121.75
 20
140.125
 30
0.0
 11
119.25
 21
140.125
 31
0.0
  0
LINE
  8
0
  6
CONTINUOUS
 62
     2
 10
119.65
 20
154.125
 30
0.0
 11
119.95
 21
154.125
 31
0.0
  0
LINE
  8
0
  6
CONTINUOUS
 62
     2
 10
119.95
 20
154.125
 30
0.0
 11
119.95
 21
156.625
 31
0.0
  0
LINE
  8
0
  6
CONTINUOUS
 62
     2
 10
119.95
 20
156.625
 30
0.0
 11
119.65
 21
156.625
 31
0.0
  0
LINE
  8
0
  6
CONTINUOUS
 62
     2
 10
119.95
 20
155.375
 30
0.0
 11
119.65
 21
155.475
 31
0.0
  0
LINE
  8
0
  6
CONTINUOUS
 62
     2
 10
119.95
 20
155.275
 30
0.0
 11
119.65
 21
155.375
 31
0.0
  0
LINE
  8
0
  6
CONTINUOUS
 62
     2
 10
119.65
 20
156.875
 30
0.0
 11
119.25
 21
156.875
 31
0.0
  0
LINE
  8
0
  6
CONTINUOUS
 62
     2
 10
119.65
 20
156.875
 30
0.0
 11
119.65
 21
153.875
 31
0.0
  0
LINE
  8
0
  6
CONTINUOUS
 62
     2
 10
119.65
 20
153.875
 30
0.0
 11
119.25
 21
153.875
 31
0.0
  0
LINE
  8
0
  6
CONTINUOUS
 62
     2
 10
119.95
 20
156.625
 30
0.0
 11
119.95
 21
156.875
 31
0.0
  0
LINE
  8
0
  6
CONTINUOUS
 62
     2
 10
119.95
 20
153.875
 30
0.0
 11
119.95
 21
154.125
 31
0.0
  0
LINE
  8
0
  6
CONTINUOUS
 62
     2
 10
119.95
 20
153.875
 30
0.0
 11
120.541873914
 21
153.937302517
 31
0.0
  0
ARC
  8
0
  6
CONTINUOUS
 62
     2
 10
120.5
 20
154.335104698
 30
0.0
 40
0.4
 50
276.009005957
 51
0.0
  0
LINE
  8
0
  6
CONTINUOUS
 62
     2
 10
119.95
 20
156.875
 30
0.0
 11
120.541873914
 21
156.812697483
 31
0.0
  0
LINE
  8
0
  6
CONTINUOUS
 62
     2
 10
120.9
 20
156.414895302
 30
0.0
 11
120.9
 21
154.335104698
 31
0.0
  0
ARC
  8
0
  6
CONTINUOUS
 62
     2
 10
120.5
 20
156.414895302
 30
0.0
 40
0.4
 50
0.0
 51
83.990994043
  0
LINE
  8
0
  6
CONTINUOUS
 62
     2
 10
119.25
 20
151.625
 30
0.0
 11
119.65
 21
151.625
 31
0.0
  0
LINE
  8
0
  6
CONTINUOUS
 62
     2
 10
119.25
 20
150.625
 30
0.0
 11
119.65
 21
150.625
 31
0.0
  0
LINE
  8
0
  6
CONTINUOUS
 62
     2
 10
119.25
 20
153.625
 30
0.0
 11
121.75
 21
153.625
 31
0.0
  0
LINE
  8
0
  6
CONTINUOUS
 62
     2
 10
121.75
 20
152.875
 30
0.0
 11
119.25
 21
152.875
 31
0.0
  0
LINE
  8
0
  6
CONTINUOUS
 62
     2
 10
119.65
 20
149.875
 30
0.0
 11
119.95
 21
149.875
 31
0.0
  0
LINE
  8
0
  6
CONTINUOUS
 62
     2
 10
119.95
 20
149.875
 30
0.0
 11
119.95
 21
152.375
 31
0.0
  0
LINE
  8
0
  6
CONTINUOUS
 62
     2
 10
119.95
 20
152.375
 30
0.0
 11
119.65
 21
152.375
 31
0.0
  0
LINE
  8
0
  6
CONTINUOUS
 62
     2
 10
119.95
 20
151.125
 30
0.0
 11
119.65
 21
151.225
 31
0.0
  0
LINE
  8
0
  6
CONTINUOUS
 62
     2
 10
119.95
 20
151.025
 30
0.0
 11
119.65
 21
151.125
 31
0.0
  0
LINE
  8
0
  6
CONTINUOUS
 62
     2
 10
119.65
 20
152.625
 30
0.0
 11
119.25
 21
152.625
 31
0.0
  0
LINE
  8
0
  6
CONTINUOUS
 62
     2
 10
119.65
 20
152.625
 30
0.0
 11
119.65
 21
149.625
 31
0.0
  0
LINE
  8
0
  6
CONTINUOUS
 62
     2
 10
119.65
 20
149.625
 30
0.0
 11
119.25
 21
149.625
 31
0.0
  0
LINE
  8
0
  6
CONTINUOUS
 62
     2
 10
119.95
 20
152.375
 30
0.0
 11
119.95
 21
152.625
 31
0.0
  0
LINE
  8
0
  6
CONTINUOUS
 62
     2
 10
119.95
 20
149.625
 30
0.0
 11
119.95
 21
149.875
 31
0.0
  0
LINE
  8
0
  6
CONTINUOUS
 62
     2
 10
119.95
 20
149.625
 30
0.0
 11
120.541873914
 21
149.687302517
 31
0.0
  0
ARC
  8
0
  6
CONTINUOUS
 62
     2
 10
120.5
 20
150.085104698
 30
0.0
 40
0.4
 50
276.009005957
 51
0.0
  0
LINE
  8
0
  6
CONTINUOUS
 62
     2
 10
119.95
 20
152.625
 30
0.0
 11
120.541873914
 21
152.562697483
 31
0.0
  0
LINE
  8
0
  6
CONTINUOUS
 62
     2
 10
120.9
 20
152.164895302
 30
0.0
 11
120.9
 21
150.085104698
 31
0.0
  0
ARC
  8
0
  6
CONTINUOUS
 62
     2
 10
120.5
 20
152.164895302
 30
0.0
 40
0.4
 50
0.0
 51
83.990994043
  0
LINE
  8
0
  6
CONTINUOUS
 62
     2
 10
119.25
 20
147.375
 30
0.0
 11
119.65
 21
147.375
 31
0.0
  0
LINE
  8
0
  6
CONTINUOUS
 62
     2
 10
119.25
 20
146.375
 30
0.0
 11
119.65
 21
146.375
 31
0.0
  0
LINE
  8
0
  6
CONTINUOUS
 62
     2
 10
119.25
 20
149.375
 30
0.0
 11
121.75
 21
149.375
 31
0.0
  0
LINE
  8
0
  6
CONTINUOUS
 62
     2
 10
121.75
 20
148.625
 30
0.0
 11
119.25
 21
148.625
 31
0.0
  0
LINE
  8
0
  6
CONTINUOUS
 62
     2
 10
119.65
 20
145.625
 30
0.0
 11
119.95
 21
145.625
 31
0.0
  0
LINE
  8
0
  6
CONTINUOUS
 62
     2
 10
119.95
 20
145.625
 30
0.0
 11
119.95
 21
148.125
 31
0.0
  0
LINE
  8
0
  6
CONTINUOUS
 62
     2
 10
119.95
 20
148.125
 30
0.0
 11
119.65
 21
148.125
 31
0.0
  0
LINE
  8
0
  6
CONTINUOUS
 62
     2
 10
119.95
 20
146.875
 30
0.0
 11
119.65
 21
146.975
 31
0.0
  0
LINE
  8
0
  6
CONTINUOUS
 62
     2
 10
119.95
 20
146.775
 30
0.0
 11
119.65
 21
146.875
 31
0.0
  0
LINE
  8
0
  6
CONTINUOUS
 62
     2
 10
119.65
 20
148.375
 30
0.0
 11
119.25
 21
148.375
 31
0.0
  0
LINE
  8
0
  6
CONTINUOUS
 62
     2
 10
119.65
 20
148.375
 30
0.0
 11
119.65
 21
145.375
 31
0.0
  0
LINE
  8
0
  6
CONTINUOUS
 62
     2
 10
119.65
 20
145.375
 30
0.0
 11
119.25
 21
145.375
 31
0.0
  0
LINE
  8
0
  6
CONTINUOUS
 62
     2
 10
119.95
 20
148.125
 30
0.0
 11
119.95
 21
148.375
 31
0.0
  0
LINE
  8
0
  6
CONTINUOUS
 62
     2
 10
119.95
 20
145.375
 30
0.0
 11
119.95
 21
145.625
 31
0.0
  0
LINE
  8
0
  6
CONTINUOUS
 62
     2
 10
119.95
 20
145.375
 30
0.0
 11
120.541873914
 21
145.437302517
 31
0.0
  0
ARC
  8
0
  6
CONTINUOUS
 62
     2
 10
120.5
 20
145.835104698
 30
0.0
 40
0.4
 50
276.009005957
 51
0.0
  0
LINE
  8
0
  6
CONTINUOUS
 62
     2
 10
119.95
 20
148.375
 30
0.0
 11
120.541873914
 21
148.312697483
 31
0.0
  0
LINE
  8
0
  6
CONTINUOUS
 62
     2
 10
120.9
 20
147.914895302
 30
0.0
 11
120.9
 21
145.835104698
 31
0.0
  0
ARC
  8
0
  6
CONTINUOUS
 62
     2
 10
120.5
 20
147.914895302
 30
0.0
 40
0.4
 50
0.0
 51
83.990994043
  0
LINE
  8
0
  6
CONTINUOUS
 62
     2
 10
119.25
 20
143.125
 30
0.0
 11
119.65
 21
143.125
 31
0.0
  0
LINE
  8
0
  6
CONTINUOUS
 62
     2
 10
119.25
 20
142.125
 30
0.0
 11
119.65
 21
142.125
 31
0.0
  0
LINE
  8
0
  6
CONTINUOUS
 62
     2
 10
119.25
 20
145.125
 30
0.0
 11
121.75
 21
145.125
 31
0.0
  0
LINE
  8
0
  6
CONTINUOUS
 62
     2
 10
121.75
 20
144.375
 30
0.0
 11
119.25
 21
144.375
 31
0.0
  0
LINE
  8
0
  6
CONTINUOUS
 62
     2
 10
119.65
 20
141.375
 30
0.0
 11
119.95
 21
141.375
 31
0.0
  0
LINE
  8
0
  6
CONTINUOUS
 62
     2
 10
119.95
 20
141.375
 30
0.0
 11
119.95
 21
143.875
 31
0.0
  0
LINE
  8
0
  6
CONTINUOUS
 62
     2
 10
119.95
 20
143.875
 30
0.0
 11
119.65
 21
143.875
 31
0.0
  0
LINE
  8
0
  6
CONTINUOUS
 62
     2
 10
119.95
 20
142.625
 30
0.0
 11
119.65
 21
142.725
 31
0.0
  0
LINE
  8
0
  6
CONTINUOUS
 62
     2
 10
119.95
 20
142.525
 30
0.0
 11
119.65
 21
142.625
 31
0.0
  0
LINE
  8
0
  6
CONTINUOUS
 62
     2
 10
119.65
 20
144.125
 30
0.0
 11
119.25
 21
144.125
 31
0.0
  0
LINE
  8
0
  6
CONTINUOUS
 62
     2
 10
119.65
 20
144.125
 30
0.0
 11
119.65
 21
141.125
 31
0.0
  0
LINE
  8
0
  6
CONTINUOUS
 62
     2
 10
119.65
 20
141.125
 30
0.0
 11
119.25
 21
141.125
 31
0.0
  0
LINE
  8
0
  6
CONTINUOUS
 62
     2
 10
119.95
 20
143.875
 30
0.0
 11
119.95
 21
144.125
 31
0.0
  0
LINE
  8
0
  6
CONTINUOUS
 62
     2
 10
119.95
 20
141.125
 30
0.0
 11
119.95
 21
141.375
 31
0.0
  0
LINE
  8
0
  6
CONTINUOUS
 62
     2
 10
119.95
 20
141.125
 30
0.0
 11
120.541873914
 21
141.187302517
 31
0.0
  0
ARC
  8
0
  6
CONTINUOUS
 62
     2
 10
120.5
 20
141.585104698
 30
0.0
 40
0.4
 50
276.009005957
 51
0.0
  0
LINE
  8
0
  6
CONTINUOUS
 62
     2
 10
119.95
 20
144.125
 30
0.0
 11
120.541873914
 21
144.062697483
 31
0.0
  0
LINE
  8
0
  6
CONTINUOUS
 62
     2
 10
120.9
 20
143.664895302
 30
0.0
 11
120.9
 21
141.585104698
 31
0.0
  0
ARC
  8
0
  6
CONTINUOUS
 62
     2
 10
120.5
 20
143.664895302
 30
0.0
 40
0.4
 50
0.0
 51
83.990994043
  0
LINE
  8
0
  6
CONTINUOUS
 62
     2
 10
121.75
 20
140.875
 30
0.0
 11
119.25
 21
140.875
 31
0.0
  0
LINE
  8
0
  6
LTYPE2
 62
     2
 10
123.65
 20
151.125
 30
0.0
 11
118.65
 21
151.125
 31
0.0
  0
LINE
  8
0
  6
LTYPE2
 62
     2
 10
123.65
 20
146.875
 30
0.0
 11
118.65
 21
146.875
 31
0.0
  0
LINE
  8
0
  6
LTYPE2
 62
     2
 10
123.65
 20
142.625
 30
0.0
 11
118.65
 21
142.625
 31
0.0
  0
LINE
  8
0
  6
CONTINUOUS
 62
     2
 10
74.75
 20
130.0
 30
0.0
 11
77.164814566
 21
129.352952387
 31
0.0
  0
LINE
  8
0
  6
CONTINUOUS
 62
     2
 10
74.75
 20
130.0
 30
0.0
 11
77.164814566
 21
130.647047613
 31
0.0
  0
LINE
  8
0
  6
CONTINUOUS
 62
     2
 10
85.25
 20
134.0
 30
0.0
 11
85.25
 21
128.0
 31
0.0
  0
LINE
  8
0
  6
CONTINUOUS
 62
     2
 10
85.25
 20
130.0
 30
0.0
 11
82.835185434
 21
130.647047613
 31
0.0
  0
LINE
  8
0
  6
CONTINUOUS
 62
     2
 10
85.25
 20
130.0
 30
0.0
 11
82.835185434
 21
129.352952387
 31
0.0
  0
LINE
  8
0
  6
CONTINUOUS
 62
     2
 10
85.25
 20
130.0
 30
0.0
 11
74.75
 21
130.0
 31
0.0
  0
TEXT
  8
0
  6
CONTINUOUS
 62
     2
 10
78.0
 20
131.0
 30
0.3
 40
3.0
  1
２１
 50
0.0
 41
0.6
 51
0.0
  7
KANJI0
  0
LINE
  8
0
  6
CONTINUOUS
 62
     2
 10
74.75
 20
139.75
 30
0.0
 11
74.75
 21
128.0
 31
0.0
  0
LINE
  8
0
  6
CONTINUOUS
 62
     2
 10
90.25
 20
137.95
 30
0.0
 11
94.83993464
 21
130.0
 31
0.0
  0
TEXT
  8
0
  6
CONTINUOUS
 62
     2
 10
94.83993464
 20
131.0
 30
0.3
 40
3.0
  1
４－Ｍ３取付ボルト
 50
0.0
 41
0.6
 51
0.0
  7
KANJI0
  0
LINE
  8
0
  6
CONTINUOUS
 62
     2
 10
94.83993464
 20
130.0
 30
0.0
 11
113.23993464
 21
130.0
 31
0.0
  0
LINE
  8
0
  6
CONTINUOUS
 62
     2
 10
44.763139721
 20
130.0
 30
0.0
 11
54.963139721
 21
130.0
 31
0.0
  0
TEXT
  8
0
  6
CONTINUOUS
 62
     2
 10
44.763139721
 20
131.0
 30
0.3
 40
3.0
  1
零位調整器
 50
0.0
 41
0.6
 51
0.0
  7
KANJI0
  0
LINE
  8
0
  6
CONTINUOUS
 62
     2
 10
40.9
 20
136.691154273
 30
0.0
 11
44.763139721
 21
130.0
 31
0.0
  0
LINE
  8
0
  6
CONTINUOUS
 62
     2
 10
35.0
 20
149.25
 30
0.0
 11
23.886007318
 21
130.0
 31
0.0
  0
LINE
  8
0
  6
CONTINUOUS
 62
     2
 10
23.886007318
 20
130.0
 30
0.0
 11
13.686007318
 21
130.0
 31
0.0
  0
TEXT
  8
0
  6
CONTINUOUS
 62
     2
 10
13.686007318
 20
131.0
 30
0.3
 40
3.0
  1
遮光フ－ド
 50
0.0
 41
0.6
 51
0.0
  7
KANJI0
  0
CIRCLE
  8
0
  6
LTYPE4
 62
     2
 10
185.0
 20
159.5
 30
0.0
 40
0.875
  0
LINE
  8
0
  6
LTYPE5
 62
     2
 10
182.950961894
 20
159.5
 30
0.0
 11
186.950961894
 21
159.5
 31
0.0
  0
LINE
  8
0
  6
LTYPE5
 62
     2
 10
185.0
 20
161.75
 30
0.0
 11
185.0
 21
157.25
 31
0.0
  0
CIRCLE
  8
0
  6
LTYPE4
 62
     2
 10
185.0
 20
138.5
 30
0.0
 40
0.875
  0
LINE
  8
0
  6
LTYPE5
 62
     2
 10
182.950961894
 20
138.5
 30
0.0
 11
186.950961894
 21
138.5
 31
0.0
  0
LINE
  8
0
  6
LTYPE5
 62
     2
 10
185.0
 20
140.75
 30
0.0
 11
185.0
 21
136.25
 31
0.0
  0
ARC
  8
0
  6
LTYPE6
 62
     2
 10
183.9
 20
159.35
 30
0.0
 40
0.15
 50
0.0
 51
90.0
  0
ARC
  8
0
  6
LTYPE6
 62
     2
 10
185.0
 20
159.5
 30
0.0
 40
0.95
 50
188.972626615
 51
351.027373385
  0
ARC
  8
0
  6
LTYPE6
 62
     2
 10
186.1
 20
159.35
 30
0.0
 40
0.15
 50
90.0
 51
180.0
  0
LINE
  8
0
  6
LTYPE6
 62
     2
 10
183.9
 20
159.5
 30
0.0
 11
183.700961894
 21
159.5
 31
0.0
  0
LINE
  8
0
  6
LTYPE6
 62
     2
 10
186.299038106
 20
159.5
 30
0.0
 11
186.1
 21
159.5
 31
0.0
  0
ARC
  8
0
  6
LTYPE6
 62
     2
 10
186.1
 20
138.65
 30
0.0
 40
0.15
 50
180.0
 51
270.0
  0
LINE
  8
0
  6
LTYPE6
 62
     2
 10
186.100000674
 20
138.5
 30
0.0
 11
186.299038106
 21
138.5
 31
0.0
  0
LINE
  8
0
  6
LTYPE6
 62
     2
 10
183.700961894
 20
138.5
 30
0.0
 11
183.900000954
 21
138.5
 31
0.0
  0
ARC
  8
0
  6
LTYPE6
 62
     2
 10
183.9
 20
138.65
 30
0.0
 40
0.15
 50
270.0
 51
0.0
  0
ARC
  8
0
  6
LTYPE6
 62
     2
 10
185.0
 20
138.5
 30
0.0
 40
0.95
 50
8.972626615
 51
171.027373385
  0
LINE
  8
0
  6
LTYPE5
 62
     2
 10
123.05
 20
159.5
 30
0.0
 11
116.225
 21
159.5
 31
0.0
  0
LINE
  8
0
  6
LTYPE5
 62
     2
 10
123.05
 20
138.5
 30
0.0
 11
116.225
 21
138.5
 31
0.0
  0
LINE
  8
0
  6
CONTINUOUS
 62
     2
 10
122.05
 20
159.5
 30
0.0
 11
122.05
 21
138.5
 31
0.0
  0
LINE
  8
0
  6
CONTINUOUS
 62
     2
 10
122.05
 20
138.5
 30
0.0
 11
121.8
 21
138.5
 31
0.0
  0
LINE
  8
0
  6
CONTINUOUS
 62
     2
 10
121.8
 20
138.5
 30
0.0
 11
121.8
 21
159.5
 31
0.0
  0
LINE
  8
0
  6
CONTINUOUS
 62
     2
 10
121.8
 20
159.5
 30
0.0
 11
122.05
 21
159.5
 31
0.0
  0
LINE
  8
0
  6
CONTINUOUS
 62
     2
 10
119.25
 20
174.85
 30
0.0
 11
116.835185434
 21
175.497047613
 31
0.0
  0
LINE
  8
0
  6
CONTINUOUS
 62
     2
 10
119.25
 20
174.85
 30
0.0
 11
116.835185434
 21
174.202952387
 31
0.0
  0
LINE
  8
0
  6
CONTINUOUS
 62
     2
 10
114.25
 20
174.85
 30
0.0
 11
127.55
 21
174.85
 31
0.0
  0
LINE
  8
0
  6
CONTINUOUS
 62
     2
 10
122.55
 20
174.85
 30
0.0
 11
124.964814566
 21
174.202952387
 31
0.0
  0
LINE
  8
0
  6
CONTINUOUS
 62
     2
 10
122.55
 20
174.85
 30
0.0
 11
124.964814566
 21
175.497047613
 31
0.0
  0
LINE
  8
0
  6
CONTINUOUS
 62
     2
 10
122.55
 20
161.35
 30
0.0
 11
122.55
 21
176.85
 31
0.0
  0
TEXT
  8
0
  6
CONTINUOUS
 62
     2
 10
117.9
 20
175.85
 30
0.3
 40
3.0
  1
６．６
 50
0.0
 41
0.6
 51
0.0
  7
KANJI0
  0
LINE
  8
0
  6
CONTINUOUS
 62
     2
 10
181.2503
 20
141.32648151
 30
0.0
 11
179.482533047
 21
139.558714557
 31
0.0
  0
LINE
  8
0
  6
CONTINUOUS
 62
     2
 10
181.2503
 20
141.32648151
 30
0.0
 11
180.603252387
 21
138.911666944
 31
0.0
  0
LINE
  8
0
  6
CONTINUOUS
 62
     2
 10
181.2503
 20
141.32648151
 30
0.0
 11
174.710952851
 21
130.0
 31
0.0
  0
LINE
  8
0
  6
CONTINUOUS
 62
     2
 10
174.710952851
 20
130.0
 30
0.0
 11
156.110952851
 21
130.0
 31
0.0
  0
TEXT
  8
0
  6
CONTINUOUS
 62
     2
 10
156.110952851
 20
131.0
 30
0.3
 40
3.0
  1
Ｍ３タ－ミナルネジ
 50
0.0
 41
0.6
 51
0.0
  7
KANJI0
  0
LINE
  8
0
  6
CONTINUOUS
 62
     2
 10
154.0
 20
53.5
 30
0.0
 11
161.0
 21
53.5
 31
0.0
  0
LINE
  8
0
  6
CONTINUOUS
 62
     2
 10
88.0
 20
53.5
 30
0.0
 11
81.0
 21
53.5
 31
0.0
  0
LINE
  8
0
  6
CONTINUOUS
 62
     2
 10
49.0
 20
53.5
 30
0.0
 11
56.0
 21
53.5
 31
0.0
  0
LINE
  8
0
  6
CONTINUOUS
 62
     2
 10
31.0
 20
53.5
 30
0.0
 11
24.0
 21
53.5
 31
0.0
  0
ARC
  8
0
  6
LTYPE6
 62
     2
 10
40.0
 20
144.0
 30
0.0
 40
5.0
 50
221.134016017
 51
224.0
  0
LINE
  8
0
  6
CONTINUOUS
 62
     2
 10
29.072610635
 20
157.022755533
 30
0.0
 11
29.023307902
 21
156.459222712
 31
0.0
  0
LINE
  8
0
  6
CONTINUOUS
 62
     2
 10
29.072610635
 20
157.022755533
 30
0.0
 11
33.916527674
 21
151.25
 31
0.0
  0
LINE
  8
0
  6
CONTINUOUS
 62
     2
 10
29.023307902
 20
156.459222712
 30
0.0
 11
33.302697498
 21
151.25
 31
0.0
  0
LINE
  8
0
  6
CONTINUOUS
 62
     2
 10
50.927389365
 20
157.022755533
 30
0.0
 11
50.976692098
 21
156.459222712
 31
0.0
  0
LINE
  8
0
  6
CONTINUOUS
 62
     2
 10
50.927389365
 20
157.022755533
 30
0.0
 11
46.083472326
 21
151.25
 31
0.0
  0
LINE
  8
0
  6
CONTINUOUS
 62
     2
 10
50.976692098
 20
156.459222712
 30
0.0
 11
46.697302502
 21
151.25
 31
0.0
  0
LINE
  8
0
  6
CONTINUOUS
 62
     2
 10
28.118873722
 20
156.159310769
 30
0.0
 11
28.262741682
 21
156.298242443
 31
0.0
  0
LINE
  8
0
  6
CONTINUOUS
 62
     2
 10
33.137772742
 20
151.25
 30
0.0
 11
28.262741682
 21
156.298242443
 31
0.0
  0
LINE
  8
0
  6
CONTINUOUS
 62
     2
 10
32.931817607
 20
151.175361477
 30
0.0
 11
28.118873722
 21
156.159310769
 31
0.0
  0
LINE
  8
0
  6
CONTINUOUS
 62
     2
 10
28.144317607
 20
156.255507363
 30
0.0
 11
28.362206964
 21
158.745994108
 31
0.0
  0
LINE
  8
0
  6
CONTINUOUS
 62
     2
 10
28.144317607
 20
156.255507363
 30
0.0
 11
27.087771953
 21
158.52127683
 31
0.0
  0
LINE
  8
0
  6
CONTINUOUS
 62
     2
 10
28.144317607
 20
156.255507363
 30
0.0
 11
25.191811777
 21
173.0
 31
0.0
  0
TEXT
  8
0
  6
CONTINUOUS
 62
     2
 10
25.191811777
 20
174.0
 30
0.3
 40
3.0
  1
指針（黒棒）
 50
0.0
 41
0.6
 51
0.0
  7
KANJI0
  0
LINE
  8
0
  6
CONTINUOUS
 62
     2
 10
37.091811777
 20
173.0
 30
0.0
 11
25.191811777
 21
173.0
 31
0.0
  0
LINE
  8
0
  6
CONTINUOUS
 62
     2
 10
47.301950515
 20
98.058420624
 30
0.0
 11
47.75
 21
94.25
 31
0.0
  0
ARC
  8
0
  6
CONTINUOUS
 62
     2
 10
46.805375213
 20
98.0
 30
0.0
 40
0.5
 50
6.709836808
 51
90.0
  0
LINE
  8
0
  6
CONTINUOUS
 62
     2
 10
33.194624787
 20
98.5
 30
0.0
 11
46.805375213
 21
98.5
 31
0.0
  0
LINE
  8
0
  6
CONTINUOUS
 62
     2
 10
32.25
 20
94.25
 30
0.0
 11
32.698049485
 21
98.058420624
 31
0.0
  0
ARC
  8
0
  6
CONTINUOUS
 62
     2
 10
33.194624787
 20
98.0
 30
0.0
 40
0.5
 50
90.0
 51
173.290163192
  0
LINE
  8
0
  6
CONTINUOUS
 62
     2
 10
29.072610635
 20
104.272755533
 30
0.0
 11
29.023307902
 21
103.709222712
 31
0.0
  0
LINE
  8
0
  6
CONTINUOUS
 62
     2
 10
29.072610635
 20
104.272755533
 30
0.0
 11
33.916527674
 21
98.5
 31
0.0
  0
LINE
  8
0
  6
CONTINUOUS
 62
     2
 10
29.023307902
 20
103.709222712
 30
0.0
 11
33.302697498
 21
98.5
 31
0.0
  0
LINE
  8
0
  6
CONTINUOUS
 62
     2
 10
50.927389365
 20
104.272755533
 30
0.0
 11
50.976692098
 21
103.709222712
 31
0.0
  0
LINE
  8
0
  6
CONTINUOUS
 62
     2
 10
50.927389365
 20
104.272755533
 30
0.0
 11
46.083472326
 21
98.5
 31
0.0
  0
LINE
  8
0
  6
CONTINUOUS
 62
     2
 10
50.976692098
 20
103.709222712
 30
0.0
 11
46.697302502
 21
98.5
 31
0.0
  0
LINE
  8
0
  6
CONTINUOUS
 62
     2
 10
28.118873722
 20
103.409310769
 30
0.0
 11
28.262741682
 21
103.548242443
 31
0.0
  0
LINE
  8
0
  6
CONTINUOUS
 62
     2
 10
33.137772742
 20
98.5
 30
0.0
 11
28.262741682
 21
103.548242443
 31
0.0
  0
LINE
  8
0
  6
CONTINUOUS
 62
     2
 10
32.931817607
 20
98.425361477
 30
0.0
 11
28.118873722
 21
103.409310769
 31
0.0
  0
LINE
  8
0
  6
CONTINUOUS
 62
     2
 10
29.072610635
 20
104.272755533
 30
0.0
 11
30.840377588
 21
106.040522486
 31
0.0
  0
LINE
  8
0
  6
CONTINUOUS
 62
     2
 10
29.072610635
 20
104.272755533
 30
0.0
 11
29.719658248
 21
106.687570099
 31
0.0
  0
LINE
  8
0
  6
CONTINUOUS
 62
     2
 10
33.306230369
 20
111.605600012
 30
0.0
 11
45.606230369
 21
111.605600012
 31
0.0
  0
TEXT
  8
0
  6
CONTINUOUS
 62
     2
 10
33.306230369
 20
112.605600012
 30
0.3
 40
3.0
  1
Ｌ側設定指針
 50
0.0
 41
0.6
 51
0.0
  7
KANJI0
  0
TEXT
  8
0
  6
CONTINUOUS
 62
     2
 10
33.306230369
 20
107.605600012
 30
0.3
 40
3.0
  1
（黄色）
 50
0.0
 41
0.6
 51
0.0
  7
KANJI0
  0
LINE
  8
0
  6
CONTINUOUS
 62
     2
 10
29.072610635
 20
104.272755533
 30
0.0
 11
33.306230369
 21
111.605600012
 31
0.0
  0
LINE
  8
0
  6
CONTINUOUS
 62
     2
 10
50.927389365
 20
104.272755533
 30
0.0
 11
52.695156318
 21
106.040522486
 31
0.0
  0
LINE
  8
0
  6
CONTINUOUS
 62
     2
 10
50.927389365
 20
104.272755533
 30
0.0
 11
51.574436977
 21
106.687570099
 31
0.0
  0
LINE
  8
0
  6
CONTINUOUS
 62
     2
 10
50.927389365
 20
104.272755533
 30
0.0
 11
55.161009098
 21
111.605600012
 31
0.0
  0
LINE
  8
0
  6
CONTINUOUS
 62
     2
 10
67.461009098
 20
111.605600012
 30
0.0
 11
55.161009098
 21
111.605600012
 31
0.0
  0
TEXT
  8
0
  6
CONTINUOUS
 62
     2
 10
55.161009098
 20
112.605600012
 30
0.3
 40
3.0
  1
Ｈ側設定指針
 50
0.0
 41
0.6
 51
0.0
  7
KANJI0
  0
TEXT
  8
0
  6
CONTINUOUS
 62
     2
 10
58.161009098
 20
107.605600012
 30
0.3
 40
3.0
  1
（赤色）
 50
0.0
 41
0.6
 51
0.0
  7
KANJI0
  0
LINE
  8
0
  6
CONTINUOUS
 62
     2
 10
28.177971115
 20
103.455507363
 30
0.0
 11
27.530923502
 21
105.870321928
 31
0.0
  0
LINE
  8
0
  6
CONTINUOUS
 62
     2
 10
28.177971115
 20
103.455507363
 30
0.0
 11
26.410204162
 21
105.223274316
 31
0.0
  0
LINE
  8
0
  6
CONTINUOUS
 62
     2
 10
27.462348639
 20
111.45
 30
0.0
 11
23.562348639
 21
111.45
 31
0.0
  0
TEXT
  8
0
  6
CONTINUOUS
 62
     2
 10
23.562348639
 20
112.45
 30
0.3
 40
3.0
  1
指針
 50
0.0
 41
0.6
 51
0.0
  7
KANJI0
  0
LINE
  8
0
  6
CONTINUOUS
 62
     2
 10
28.177971115
 20
103.455507363
 30
0.0
 11
23.562348639
 21
111.45
 31
0.0
  0
LINE
  8
0
  6
CONTINUOUS
 62
     2
 10
85.5
 20
94.25
 30
0.0
 11
108.5
 21
94.25
 31
0.0
  0
LINE
  8
0
  6
CONTINUOUS
 62
     2
 10
82.0
 20
94.25
 30
0.0
 11
112.0
 21
94.25
 31
0.0
  0
LINE
  8
0
  6
CONTINUOUS
 62
     2
 10
104.301950515
 20
98.058420624
 30
0.0
 11
104.75
 21
94.25
 31
0.0
  0
ARC
  8
0
  6
CONTINUOUS
 62
     2
 10
103.805375213
 20
98.0
 30
0.0
 40
0.5
 50
6.709836808
 51
90.0
  0
LINE
  8
0
  6
CONTINUOUS
 62
     2
 10
90.194624787
 20
98.5
 30
0.0
 11
103.805375213
 21
98.5
 31
0.0
  0
LINE
  8
0
  6
CONTINUOUS
 62
     2
 10
89.25
 20
94.25
 30
0.0
 11
89.698049485
 21
98.058420624
 31
0.0
  0
ARC
  8
0
  6
CONTINUOUS
 62
     2
 10
90.194624787
 20
98.0
 30
0.0
 40
0.5
 50
90.0
 51
173.290163192
  0
LINE
  8
0
  6
CONTINUOUS
 62
     2
 10
107.927389365
 20
104.272755533
 30
0.0
 11
107.976692098
 21
103.709222712
 31
0.0
  0
LINE
  8
0
  6
CONTINUOUS
 62
     2
 10
107.927389365
 20
104.272755533
 30
0.0
 11
103.083472326
 21
98.5
 31
0.0
  0
LINE
  8
0
  6
CONTINUOUS
 62
     2
 10
107.976692098
 20
103.709222712
 30
0.0
 11
103.697302502
 21
98.5
 31
0.0
  0
LINE
  8
0
  6
CONTINUOUS
 62
     2
 10
85.118873722
 20
103.409310769
 30
0.0
 11
85.262741682
 21
103.548242443
 31
0.0
  0
LINE
  8
0
  6
CONTINUOUS
 62
     2
 10
90.137772742
 20
98.5
 30
0.0
 11
85.262741682
 21
103.548242443
 31
0.0
  0
LINE
  8
0
  6
CONTINUOUS
 62
     2
 10
89.931817607
 20
98.425361477
 30
0.0
 11
85.118873722
 21
103.409310769
 31
0.0
  0
LINE
  8
0
  6
CONTINUOUS
 62
     2
 10
107.927389365
 20
104.272755533
 30
0.0
 11
109.695156318
 21
106.040522486
 31
0.0
  0
LINE
  8
0
  6
CONTINUOUS
 62
     2
 10
107.927389365
 20
104.272755533
 30
0.0
 11
108.574436977
 21
106.687570099
 31
0.0
  0
LINE
  8
0
  6
CONTINUOUS
 62
     2
 10
107.927389365
 20
104.272755533
 30
0.0
 11
112.161009098
 21
111.605600012
 31
0.0
  0
LINE
  8
0
  6
CONTINUOUS
 62
     2
 10
124.461009098
 20
111.605600012
 30
0.0
 11
112.161009098
 21
111.605600012
 31
0.0
  0
TEXT
  8
0
  6
CONTINUOUS
 62
     2
 10
112.161009098
 20
112.605600012
 30
0.3
 40
3.0
  1
Ｈ側設定指針
 50
0.0
 41
0.6
 51
0.0
  7
KANJI0
  0
TEXT
  8
0
  6
CONTINUOUS
 62
     2
 10
115.161009098
 20
107.605600012
 30
0.3
 40
3.0
  1
（赤色）
 50
0.0
 41
0.6
 51
0.0
  7
KANJI0
  0
LINE
  8
0
  6
CONTINUOUS
 62
     2
 10
85.177971115
 20
103.455507363
 30
0.0
 11
84.530923502
 21
105.870321928
 31
0.0
  0
LINE
  8
0
  6
CONTINUOUS
 62
     2
 10
85.177971115
 20
103.455507363
 30
0.0
 11
83.410204162
 21
105.223274316
 31
0.0
  0
LINE
  8
0
  6
CONTINUOUS
 62
     2
 10
84.462348639
 20
111.45
 30
0.0
 11
80.562348639
 21
111.45
 31
0.0
  0
TEXT
  8
0
  6
CONTINUOUS
 62
     2
 10
80.562348639
 20
112.45
 30
0.3
 40
3.0
  1
指針
 50
0.0
 41
0.6
 51
0.0
  7
KANJI0
  0
LINE
  8
0
  6
CONTINUOUS
 62
     2
 10
85.177971115
 20
103.455507363
 30
0.0
 11
80.562348639
 21
111.45
 31
0.0
  0
LINE
  8
0
  6
CONTINUOUS
 62
     2
 10
133.5
 20
94.25
 30
0.0
 11
156.5
 21
94.25
 31
0.0
  0
LINE
  8
0
  6
CONTINUOUS
 62
     2
 10
130.0
 20
94.25
 30
0.0
 11
160.0
 21
94.25
 31
0.0
  0
LINE
  8
0
  6
CONTINUOUS
 62
     2
 10
152.301950515
 20
98.058420624
 30
0.0
 11
152.75
 21
94.25
 31
0.0
  0
ARC
  8
0
  6
CONTINUOUS
 62
     2
 10
151.805375213
 20
98.0
 30
0.0
 40
0.5
 50
6.709836808
 51
90.0
  0
LINE
  8
0
  6
CONTINUOUS
 62
     2
 10
138.194624787
 20
98.5
 30
0.0
 11
151.805375213
 21
98.5
 31
0.0
  0
LINE
  8
0
  6
CONTINUOUS
 62
     2
 10
137.25
 20
94.25
 30
0.0
 11
137.698049485
 21
98.058420624
 31
0.0
  0
ARC
  8
0
  6
CONTINUOUS
 62
     2
 10
138.194624787
 20
98.0
 30
0.0
 40
0.5
 50
90.0
 51
173.290163192
  0
LINE
  8
0
  6
CONTINUOUS
 62
     2
 10
134.072610635
 20
104.272755533
 30
0.0
 11
134.023307902
 21
103.709222712
 31
0.0
  0
LINE
  8
0
  6
CONTINUOUS
 62
     2
 10
134.072610635
 20
104.272755533
 30
0.0
 11
138.916527674
 21
98.5
 31
0.0
  0
LINE
  8
0
  6
CONTINUOUS
 62
     2
 10
134.023307902
 20
103.709222712
 30
0.0
 11
138.302697498
 21
98.5
 31
0.0
  0
LINE
  8
0
  6
CONTINUOUS
 62
     2
 10
133.118873722
 20
103.409310769
 30
0.0
 11
133.262741682
 21
103.548242443
 31
0.0
  0
LINE
  8
0
  6
CONTINUOUS
 62
     2
 10
138.137772742
 20
98.5
 30
0.0
 11
133.262741682
 21
103.548242443
 31
0.0
  0
LINE
  8
0
  6
CONTINUOUS
 62
     2
 10
137.931817607
 20
98.425361477
 30
0.0
 11
133.118873722
 21
103.409310769
 31
0.0
  0
LINE
  8
0
  6
CONTINUOUS
 62
     2
 10
134.072610635
 20
104.272755533
 30
0.0
 11
135.840377588
 21
106.040522486
 31
0.0
  0
LINE
  8
0
  6
CONTINUOUS
 62
     2
 10
134.072610635
 20
104.272755533
 30
0.0
 11
134.719658248
 21
106.687570099
 31
0.0
  0
LINE
  8
0
  6
CONTINUOUS
 62
     2
 10
138.306230369
 20
111.605600012
 30
0.0
 11
150.606230369
 21
111.605600012
 31
0.0
  0
TEXT
  8
0
  6
CONTINUOUS
 62
     2
 10
138.306230369
 20
112.605600012
 30
0.3
 40
3.0
  1
Ｌ側設定指針
 50
0.0
 41
0.6
 51
0.0
  7
KANJI0
  0
TEXT
  8
0
  6
CONTINUOUS
 62
     2
 10
138.306230369
 20
107.605600012
 30
0.3
 40
3.0
  1
（黄色）
 50
0.0
 41
0.6
 51
0.0
  7
KANJI0
  0
LINE
  8
0
  6
CONTINUOUS
 62
     2
 10
134.072610635
 20
104.272755533
 30
0.0
 11
138.306230369
 21
111.605600012
 31
0.0
  0
LINE
  8
0
  6
CONTINUOUS
 62
     2
 10
133.177971115
 20
103.455507363
 30
0.0
 11
132.530923502
 21
105.870321928
 31
0.0
  0
LINE
  8
0
  6
CONTINUOUS
 62
     2
 10
133.177971115
 20
103.455507363
 30
0.0
 11
131.410204162
 21
105.223274316
 31
0.0
  0
LINE
  8
0
  6
CONTINUOUS
 62
     2
 10
132.462348639
 20
111.45
 30
0.0
 11
128.562348639
 21
111.45
 31
0.0
  0
TEXT
  8
0
  6
CONTINUOUS
 62
     2
 10
128.562348639
 20
112.45
 30
0.3
 40
3.0
  1
指針
 50
0.0
 41
0.6
 51
0.0
  7
KANJI0
  0
LINE
  8
0
  6
CONTINUOUS
 62
     2
 10
133.177971115
 20
103.455507363
 30
0.0
 11
128.562348639
 21
111.45
 31
0.0
  0
TEXT
  8
0
  6
CONTINUOUS
 62
     2
 10
20.0
 20
30.0
 30
0.3
 40
3.0
  1
注１）計器入力端子，電源端子の（＋）記号は，交流の場合関係ありません。
 50
0.0
 41
0.9
 51
0.0
  7
KANJI2
  0
TEXT
  8
0
  6
CONTINUOUS
 62
     2
 10
23.0
 20
25.0
 30
0.3
 40
3.0
  1
２）ＦＳＤＣ４～２０ｍＡ，１～５Ｖ計等の絞り計器には，零調機能を付加していません。
 50
0.0
 41
0.9
 51
0.0
  7
KANJI2
  0
LINE
  8
0
  6
CONTINUOUS
 62
     2
 10
20.0
 20
29.0
 30
0.0
 11
118.5
 21
29.0
 31
0.0
  0
LINE
  8
0
  6
CONTINUOUS
 62
     2
 10
23.0
 20
24.0
 30
0.0
 11
126.0
 21
24.0
 31
0.0
  0
TEXT
  8
0
  6
CONTINUOUS
 62
     2
 10
32.0
 20
68.0
 30
0.3
 40
3.0
  1
注１
 50
0.0
 41
0.6
 51
0.0
  7
KANJI0
  0
TEXT
  8
0
  6
CONTINUOUS
 62
     2
 10
45.3
 20
68.0
 30
0.3
 40
3.0
  1
注１
 50
0.0
 41
0.6
 51
0.0
  7
KANJI0
  0
TEXT
  8
0
  6
CONTINUOUS
 62
     2
 10
89.0
 20
68.0
 30
0.3
 40
3.0
  1
注１
 50
0.0
 41
0.6
 51
0.0
  7
KANJI0
  0
TEXT
  8
0
  6
CONTINUOUS
 62
     2
 10
102.3
 20
68.0
 30
0.3
 40
3.0
  1
注１
 50
0.0
 41
0.6
 51
0.0
  7
KANJI0
  0
TEXT
  8
0
  6
CONTINUOUS
 62
     2
 10
137.0
 20
68.0
 30
0.3
 40
3.0
  1
注１
 50
0.0
 41
0.6
 51
0.0
  7
KANJI0
  0
TEXT
  8
0
  6
CONTINUOUS
 62
     2
 10
150.3
 20
68.0
 30
0.3
 40
3.0
  1
注１
 50
0.0
 41
0.6
 51
0.0
  7
KANJI0
  0
LINE
  8
0
  6
CONTINUOUS
 62
     2
 10
188.0497
 20
139.17648151
 30
0.0
 11
189.817466953
 21
137.408714557
 31
0.0
  0
LINE
  8
0
  6
CONTINUOUS
 62
     2
 10
188.0497
 20
139.17648151
 30
0.0
 11
188.696747613
 21
136.761666944
 31
0.0
  0
LINE
  8
0
  6
CONTINUOUS
 62
     2
 10
188.0497
 20
139.17648151
 30
0.0
 11
193.34774407
 21
130.0
 31
0.0
  0
TEXT
  8
0
  6
CONTINUOUS
 62
     2
 10
193.34774407
 20
131.0
 30
0.3
 40
3.0
  1
端子カバ－
 50
0.0
 41
0.6
 51
0.0
  7
KANJI0
  0
LINE
  8
0
  6
CONTINUOUS
 62
     2
 10
203.84774407
 20
130.0
 30
0.0
 11
193.34774407
 21
130.0
 31
0.0
  0
TEXT
  8
0
  6
CONTINUOUS
 62
     3
 10
235.5
 20
17.0
 30
0.6
 40
6.0
  1
ＭＳ－９３３１Ｂ
 50
0.0
 41
0.9
 51
0.0
  7
KANJI11
  0
TEXT
  8
0
  6
CONTINUOUS
 62
     2
 10
233.0
 20
28.0
 30
0.4
 40
4.0
  1
無接点式メ－タリレ－外形図
 50
0.0
 41
0.9
 51
0.0
  7
KANJI12
  0
TEXT
  8
0
  6
CONTINUOUS
 62
     2
 10
233.0
 20
38.0
 30
0.4
 40
4.0
  1
ＭＰＣ－６（ＨＬ，Ｈ，Ｌ設定）
 50
0.0
 41
0.9
 51
0.0
  7
KANJI12
  0
TEXT
  8
0
  6
CONTINUOUS
 62
     2
 10
233.0
 20
32.5
 30
0.3
 40
3.0
  1
端子カバ－付
 50
0.0
 41
0.9
 51
0.0
  7
KANJI2
  0
LINE
  8
0
  6
LTYPE3
 62
     2
 10
21.0
 20
150.0
 30
0.0
 11
60.0
 21
150.0
 31
0.0
  0
LINE
  8
0
  6
LTYPE3
 62
     2
 10
74.0
 20
150.0
 30
0.0
 11
126.0
 21
150.0
 31
0.0
  0
LINE
  8
0
  6
LTYPE3
 62
     2
 10
160.0
 20
150.0
 30
0.0
 11
204.0
 21
150.0
 31
0.0
  0
LINE
  8
0
  6
LTYPE2
 62
     2
 10
185.0
 20
170.0
 30
0.0
 11
185.0
 21
134.0
 31
0.0
  0
LINE
  8
0
  6
LTYPE3
 62
     2
 10
40.0
 20
168.0
 30
0.0
 11
40.0
 21
132.0
 31
0.0
  0
LINE
  8
0
  6
LTYPE3
 62
     2
 10
97.0
 20
106.0
 30
0.0
 11
97.0
 21
79.75
 31
0.0
  0
LINE
  8
0
  6
LTYPE3
 62
     2
 10
145.0
 20
105.0
 30
0.0
 11
145.0
 21
79.75
 31
0.0
  0
LINE
  8
0
  6
LTYPE3
 62
     2
 10
40.0
 20
106.0
 30
0.0
 11
40.0
 21
80.0
 31
0.0
  0
ENDSEC
  0
EOF
