  0
SECTION
  2
HEADER
  9
$ACADVER
  1
AC1009
  9
$DWGCODEPAGE
  3
dos932
  9
$EXTMIN
 10
0.0
 20
0.0
 30
0.0
  9
$EXTMAX
 10
297.0
 20
210.0
 30
0.0
  9
$LIMMIN
 10
0.0
 20
0.0
  9
$LIMMAX
 10
297.0
 20
210.0
  9
$LTSCALE
 40
1.0
  9
$PDMODE
 70
     0
  0
ENDSEC
  0
SECTION
  2
TABLES
  0
TABLE
  2
VPORT
 70
     1
  0
VPORT
  2
*ACTIVE
 70
     0
 10
0.0
 20
0.0
 11
1.0
 21
1.0
 12
148.5
 22
105.0
 13
0.0
 23
0.0
 14
10.0
 24
10.0
 15
10.0
 25
10.0
 16
0.0
 26
0.0
 36
1.0
 17
0.0
 27
0.0
 37
0.0
 40
297.0
 41
1.414285714
 42
50.0
 43
0.0
 44
0.0
 50
0.0
 51
0.0
 71
     0
 72
  1000
 73
     1
 74
     3
 75
     0
 76
     0
 77
     0
 78
     0
  0
ENDTAB
  0
TABLE
  2
LTYPE
 70
     5
  0
LTYPE
  2
CONTINUOUS
 70
    64
  3
Solid line
 72
    65
 73
     0
 40
0.0
  0
LTYPE
  2
LTYPE1
 70
    64
  3
CENTER
 72
    65
 73
     4
 40
5.0
 49
3.5
 49
-0.5
 49
0.5
 49
-0.5
  0
LTYPE
  2
LTYPE2
 70
    64
  3
CENTER
 72
    65
 73
     4
 40
15.0
 49
10.5
 49
-1.5
 49
1.5
 49
-1.5
  0
LTYPE
  2
LTYPE3
 70
    64
  3
CENTER
 72
    65
 73
     4
 40
8.0
 49
5.6
 49
-0.8
 49
0.8
 49
-0.8
  0
LTYPE
  2
LTYPE4
 70
    64
  3
HIDDEN
 72
    65
 73
     2
 40
1.0
 49
0.6
 49
-0.4
  0
ENDTAB
  0
TABLE
  2
LAYER
 70
   128
  0
LAYER
  2
0
 70
     0
 62
     7
  6
CONTINUOUS
  0
LAYER
  2
2
 70
     0
 62
     7
  6
CONTINUOUS
  0
LAYER
  2
3
 70
     0
 62
     7
  6
CONTINUOUS
  0
LAYER
  2
4
 70
     0
 62
     7
  6
CONTINUOUS
  0
LAYER
  2
5
 70
     0
 62
     7
  6
CONTINUOUS
  0
LAYER
  2
6
 70
     0
 62
     7
  6
CONTINUOUS
  0
LAYER
  2
7
 70
     0
 62
     7
  6
CONTINUOUS
  0
LAYER
  2
8
 70
     0
 62
     7
  6
CONTINUOUS
  0
LAYER
  2
9
 70
     0
 62
     7
  6
CONTINUOUS
  0
LAYER
  2
10
 70
     0
 62
     7
  6
CONTINUOUS
  0
LAYER
  2
11
 70
     0
 62
     7
  6
CONTINUOUS
  0
LAYER
  2
12
 70
     0
 62
     7
  6
CONTINUOUS
  0
LAYER
  2
13
 70
     0
 62
     7
  6
CONTINUOUS
  0
LAYER
  2
14
 70
     0
 62
     7
  6
CONTINUOUS
  0
LAYER
  2
15
 70
     0
 62
     7
  6
CONTINUOUS
  0
LAYER
  2
16
 70
     0
 62
     7
  6
CONTINUOUS
  0
LAYER
  2
17
 70
     0
 62
     7
  6
CONTINUOUS
  0
LAYER
  2
18
 70
     0
 62
     7
  6
CONTINUOUS
  0
LAYER
  2
19
 70
     0
 62
     7
  6
CONTINUOUS
  0
LAYER
  2
20
 70
     0
 62
     7
  6
CONTINUOUS
  0
LAYER
  2
21
 70
     0
 62
     7
  6
CONTINUOUS
  0
LAYER
  2
22
 70
     0
 62
     7
  6
CONTINUOUS
  0
LAYER
  2
23
 70
     0
 62
     7
  6
CONTINUOUS
  0
LAYER
  2
24
 70
     0
 62
     7
  6
CONTINUOUS
  0
LAYER
  2
25
 70
     0
 62
     7
  6
CONTINUOUS
  0
LAYER
  2
26
 70
     0
 62
     7
  6
CONTINUOUS
  0
LAYER
  2
27
 70
     0
 62
     7
  6
CONTINUOUS
  0
LAYER
  2
28
 70
     0
 62
     7
  6
CONTINUOUS
  0
LAYER
  2
29
 70
     0
 62
     7
  6
CONTINUOUS
  0
LAYER
  2
30
 70
     0
 62
     7
  6
CONTINUOUS
  0
LAYER
  2
31
 70
     0
 62
     7
  6
CONTINUOUS
  0
LAYER
  2
32
 70
     0
 62
     7
  6
CONTINUOUS
  0
LAYER
  2
33
 70
     0
 62
     7
  6
CONTINUOUS
  0
LAYER
  2
34
 70
     0
 62
     7
  6
CONTINUOUS
  0
LAYER
  2
35
 70
     0
 62
     7
  6
CONTINUOUS
  0
LAYER
  2
36
 70
     0
 62
     7
  6
CONTINUOUS
  0
LAYER
  2
37
 70
     0
 62
     7
  6
CONTINUOUS
  0
LAYER
  2
38
 70
     0
 62
     7
  6
CONTINUOUS
  0
LAYER
  2
39
 70
     0
 62
     7
  6
CONTINUOUS
  0
LAYER
  2
40
 70
     0
 62
     7
  6
CONTINUOUS
  0
LAYER
  2
41
 70
     0
 62
     7
  6
CONTINUOUS
  0
LAYER
  2
42
 70
     0
 62
     7
  6
CONTINUOUS
  0
LAYER
  2
43
 70
     0
 62
     7
  6
CONTINUOUS
  0
LAYER
  2
44
 70
     0
 62
     7
  6
CONTINUOUS
  0
LAYER
  2
45
 70
     0
 62
     7
  6
CONTINUOUS
  0
LAYER
  2
46
 70
     0
 62
     7
  6
CONTINUOUS
  0
LAYER
  2
47
 70
     0
 62
     7
  6
CONTINUOUS
  0
LAYER
  2
48
 70
     0
 62
     7
  6
CONTINUOUS
  0
LAYER
  2
49
 70
     0
 62
     7
  6
CONTINUOUS
  0
LAYER
  2
50
 70
     0
 62
     7
  6
CONTINUOUS
  0
LAYER
  2
51
 70
     0
 62
     7
  6
CONTINUOUS
  0
LAYER
  2
52
 70
     0
 62
     7
  6
CONTINUOUS
  0
LAYER
  2
53
 70
     0
 62
     7
  6
CONTINUOUS
  0
LAYER
  2
54
 70
     0
 62
     7
  6
CONTINUOUS
  0
LAYER
  2
55
 70
     0
 62
     7
  6
CONTINUOUS
  0
LAYER
  2
56
 70
     0
 62
     7
  6
CONTINUOUS
  0
LAYER
  2
57
 70
     0
 62
     7
  6
CONTINUOUS
  0
LAYER
  2
58
 70
     0
 62
     7
  6
CONTINUOUS
  0
LAYER
  2
59
 70
     0
 62
     7
  6
CONTINUOUS
  0
LAYER
  2
60
 70
     0
 62
     7
  6
CONTINUOUS
  0
LAYER
  2
61
 70
     0
 62
     7
  6
CONTINUOUS
  0
LAYER
  2
62
 70
     0
 62
     7
  6
CONTINUOUS
  0
LAYER
  2
63
 70
     0
 62
     7
  6
CONTINUOUS
  0
LAYER
  2
64
 70
     0
 62
     7
  6
CONTINUOUS
  0
LAYER
  2
65
 70
     0
 62
     7
  6
CONTINUOUS
  0
LAYER
  2
66
 70
     0
 62
     7
  6
CONTINUOUS
  0
LAYER
  2
67
 70
     0
 62
     7
  6
CONTINUOUS
  0
LAYER
  2
68
 70
     0
 62
     7
  6
CONTINUOUS
  0
LAYER
  2
69
 70
     0
 62
     7
  6
CONTINUOUS
  0
LAYER
  2
70
 70
     0
 62
     7
  6
CONTINUOUS
  0
LAYER
  2
71
 70
     0
 62
     7
  6
CONTINUOUS
  0
LAYER
  2
72
 70
     0
 62
     7
  6
CONTINUOUS
  0
LAYER
  2
73
 70
     0
 62
     7
  6
CONTINUOUS
  0
LAYER
  2
74
 70
     0
 62
     7
  6
CONTINUOUS
  0
LAYER
  2
75
 70
     0
 62
     7
  6
CONTINUOUS
  0
LAYER
  2
76
 70
     0
 62
     7
  6
CONTINUOUS
  0
LAYER
  2
77
 70
     0
 62
     7
  6
CONTINUOUS
  0
LAYER
  2
78
 70
     0
 62
     7
  6
CONTINUOUS
  0
LAYER
  2
79
 70
     0
 62
     7
  6
CONTINUOUS
  0
LAYER
  2
80
 70
     0
 62
     7
  6
CONTINUOUS
  0
LAYER
  2
81
 70
     0
 62
     7
  6
CONTINUOUS
  0
LAYER
  2
82
 70
     0
 62
     7
  6
CONTINUOUS
  0
LAYER
  2
83
 70
     0
 62
     7
  6
CONTINUOUS
  0
LAYER
  2
84
 70
     0
 62
     7
  6
CONTINUOUS
  0
LAYER
  2
85
 70
     0
 62
     7
  6
CONTINUOUS
  0
LAYER
  2
86
 70
     0
 62
     7
  6
CONTINUOUS
  0
LAYER
  2
87
 70
     0
 62
     7
  6
CONTINUOUS
  0
LAYER
  2
88
 70
     0
 62
     7
  6
CONTINUOUS
  0
LAYER
  2
89
 70
     0
 62
     7
  6
CONTINUOUS
  0
LAYER
  2
90
 70
     0
 62
     7
  6
CONTINUOUS
  0
LAYER
  2
91
 70
     0
 62
     7
  6
CONTINUOUS
  0
LAYER
  2
92
 70
     0
 62
     7
  6
CONTINUOUS
  0
LAYER
  2
93
 70
     0
 62
     7
  6
CONTINUOUS
  0
LAYER
  2
94
 70
     0
 62
     7
  6
CONTINUOUS
  0
LAYER
  2
95
 70
     0
 62
     7
  6
CONTINUOUS
  0
LAYER
  2
96
 70
     0
 62
     7
  6
CONTINUOUS
  0
LAYER
  2
97
 70
     0
 62
     7
  6
CONTINUOUS
  0
LAYER
  2
98
 70
     0
 62
     7
  6
CONTINUOUS
  0
LAYER
  2
99
 70
     0
 62
     7
  6
CONTINUOUS
  0
LAYER
  2
100
 70
     0
 62
     7
  6
CONTINUOUS
  0
LAYER
  2
101
 70
     0
 62
     7
  6
CONTINUOUS
  0
LAYER
  2
102
 70
     0
 62
     7
  6
CONTINUOUS
  0
LAYER
  2
103
 70
     0
 62
     7
  6
CONTINUOUS
  0
LAYER
  2
104
 70
     0
 62
     7
  6
CONTINUOUS
  0
LAYER
  2
105
 70
     0
 62
     7
  6
CONTINUOUS
  0
LAYER
  2
106
 70
     0
 62
     7
  6
CONTINUOUS
  0
LAYER
  2
107
 70
     0
 62
     7
  6
CONTINUOUS
  0
LAYER
  2
108
 70
     0
 62
     7
  6
CONTINUOUS
  0
LAYER
  2
109
 70
     0
 62
     7
  6
CONTINUOUS
  0
LAYER
  2
110
 70
     0
 62
     7
  6
CONTINUOUS
  0
LAYER
  2
111
 70
     0
 62
     7
  6
CONTINUOUS
  0
LAYER
  2
112
 70
     0
 62
     7
  6
CONTINUOUS
  0
LAYER
  2
113
 70
     0
 62
     7
  6
CONTINUOUS
  0
LAYER
  2
114
 70
     0
 62
     7
  6
CONTINUOUS
  0
LAYER
  2
115
 70
     0
 62
     7
  6
CONTINUOUS
  0
LAYER
  2
116
 70
     0
 62
     7
  6
CONTINUOUS
  0
LAYER
  2
117
 70
     0
 62
     7
  6
CONTINUOUS
  0
LAYER
  2
118
 70
     0
 62
     7
  6
CONTINUOUS
  0
LAYER
  2
119
 70
     0
 62
     7
  6
CONTINUOUS
  0
LAYER
  2
120
 70
     0
 62
     7
  6
CONTINUOUS
  0
LAYER
  2
121
 70
     0
 62
     7
  6
CONTINUOUS
  0
LAYER
  2
122
 70
     0
 62
     7
  6
CONTINUOUS
  0
LAYER
  2
123
 70
     0
 62
     7
  6
CONTINUOUS
  0
LAYER
  2
124
 70
     0
 62
     7
  6
CONTINUOUS
  0
LAYER
  2
125
 70
     0
 62
     7
  6
CONTINUOUS
  0
LAYER
  2
126
 70
     0
 62
     7
  6
CONTINUOUS
  0
LAYER
  2
127
 70
     0
 62
     7
  6
CONTINUOUS
  0
LAYER
  2
128
 70
     0
 62
     7
  6
CONTINUOUS
  0
ENDTAB
  0
TABLE
  2
STYLE
 70
    11
  0
STYLE
  2
STANDARD
 70
     0
 40
0.0
 41
1.0
 50
0.0
 71
     0
 42
0.2
  3
txt.shx
  4
extfont.shx
  0
STYLE
  2
KANJI0
 70
     0
 40
2.0
 41
0.9
 50
0.0
 71
     0
 42
2.0
  3
txt.shx
  4
extfont.shx
  0
STYLE
  2
KANJI1
 70
     0
 40
1.5
 41
0.8
 50
0.0
 71
     0
 42
1.5
  3
txt.shx
  4
extfont.shx
  0
STYLE
  2
KANJI2
 70
     0
 40
3.0
 41
0.9
 50
0.0
 71
     0
 42
3.0
  3
txt.shx
  4
extfont.shx
  0
STYLE
  2
KANJI3
 70
     0
 40
5.0
 41
0.9
 50
0.0
 71
     0
 42
5.0
  3
txt.shx
  4
extfont.shx
  0
STYLE
  2
KANJI4
 70
     0
 40
3.0
 41
0.6
 50
0.0
 71
     0
 42
3.0
  3
txt.shx
  4
extfont.shx
  0
STYLE
  2
KANJI5
 70
     0
 40
6.0
 41
0.9
 50
0.0
 71
     0
 42
6.0
  3
txt.shx
  4
extfont.shx
  0
STYLE
  2
KANJI6
 70
     0
 40
3.0
 41
0.6
 50
0.0
 71
     0
 42
3.0
  3
txt.shx
  4
extfont.shx
  0
STYLE
  2
KANJI7
 70
     0
 40
1.8
 41
0.6
 50
0.0
 71
     0
 42
1.8
  3
txt.shx
  4
extfont.shx
  0
STYLE
  2
KANJI8
 70
     0
 40
4.0
 41
0.9
 50
0.0
 71
     0
 42
4.0
  3
txt.shx
  4
extfont.shx
  0
STYLE
  2
KANJI9
 70
     0
 40
4.0
 41
0.9
 50
0.0
 71
     0
 42
4.0
  3
txt.shx
  4
extfont.shx
  0
ENDTAB
  0
TABLE
  2
VIEW
 70
     0
  0
ENDTAB
  0
ENDSEC
  0
SECTION
  2
BLOCKS
  0
ENDSEC
  0
SECTION
  2
ENTITIES
  0
CIRCLE
  8
0
  6
CONTINUOUS
 62
     2
 10
31.9
 20
154.9
 30
0.0
 40
1.5
  0
CIRCLE
  8
0
  6
CONTINUOUS
 62
     2
 10
36.9
 20
154.9
 30
0.0
 40
1.5
  0
CIRCLE
  8
0
  6
CONTINUOUS
 62
     2
 10
41.9
 20
154.9
 30
0.0
 40
1.5
  0
CIRCLE
  8
0
  6
CONTINUOUS
 62
     2
 10
46.9
 20
154.9
 30
0.0
 40
1.5
  0
CIRCLE
  8
0
  6
CONTINUOUS
 62
     2
 10
39.4
 20
149.9
 30
0.0
 40
11.5
  0
CIRCLE
  8
0
  6
CONTINUOUS
 62
     2
 10
31.9
 20
144.9
 30
0.0
 40
1.5
  0
CIRCLE
  8
0
  6
CONTINUOUS
 62
     2
 10
36.9
 20
144.9
 30
0.0
 40
1.5
  0
CIRCLE
  8
0
  6
CONTINUOUS
 62
     2
 10
41.9
 20
144.9
 30
0.0
 40
1.5
  0
CIRCLE
  8
0
  6
CONTINUOUS
 62
     2
 10
46.9
 20
144.9
 30
0.0
 40
1.5
  0
TEXT
  8
0
  6
CONTINUOUS
 62
     2
 10
30.6
 20
150.9
 30
0.1
 40
2.0
  1
Ｒ
 50
0.0
 41
0.9
 51
0.0
  7
KANJI0
  0
TEXT
  8
0
  6
CONTINUOUS
 62
     2
 10
32.2
 20
150.9
 30
0.1
 40
1.5
  1
１
 50
0.0
 41
0.8
 51
0.0
  7
KANJI1
  0
TEXT
  8
0
  6
CONTINUOUS
 62
     2
 10
37.2
 20
150.9
 30
0.1
 40
1.5
  1
１
 50
0.0
 41
0.8
 51
0.0
  7
KANJI1
  0
TEXT
  8
0
  6
CONTINUOUS
 62
     2
 10
45.6
 20
150.9
 30
0.1
 40
2.0
  1
Ｒ
 50
0.0
 41
0.9
 51
0.0
  7
KANJI0
  0
TEXT
  8
0
  6
CONTINUOUS
 62
     2
 10
35.6
 20
150.9
 30
0.1
 40
2.0
  1
Ｐ
 50
0.0
 41
0.9
 51
0.0
  7
KANJI0
  0
TEXT
  8
0
  6
CONTINUOUS
 62
     2
 10
40.6
 20
150.9
 30
0.1
 40
2.0
  1
Ｐ
 50
0.0
 41
0.9
 51
0.0
  7
KANJI0
  0
TEXT
  8
0
  6
CONTINUOUS
 62
     2
 10
42.2
 20
150.9
 30
0.1
 40
1.5
  1
２
 50
0.0
 41
0.8
 51
0.0
  7
KANJI1
  0
TEXT
  8
0
  6
CONTINUOUS
 62
     2
 10
47.2
 20
150.9
 30
0.1
 40
1.5
  1
２
 50
0.0
 41
0.8
 51
0.0
  7
KANJI1
  0
LINE
  8
0
  6
CONTINUOUS
 62
     2
 10
31.9
 20
156.4
 30
0.0
 11
31.9
 21
160.4
 31
0.0
  0
LINE
  8
0
  6
CONTINUOUS
 62
     2
 10
41.9
 20
156.4
 30
0.0
 11
41.9
 21
163.4
 31
0.0
  0
LINE
  8
0
  6
CONTINUOUS
 62
     2
 10
41.9
 20
163.4
 30
0.0
 11
21.9
 21
163.4
 31
0.0
  0
LINE
  8
0
  6
CONTINUOUS
 62
     2
 10
21.9
 20
167.4
 30
0.0
 11
36.9
 21
167.4
 31
0.0
  0
LINE
  8
0
  6
CONTINUOUS
 62
     2
 10
36.9
 20
167.4
 30
0.0
 11
36.9
 21
156.4
 31
0.0
  0
LINE
  8
0
  6
CONTINUOUS
 62
     2
 10
52.9
 20
160.4
 30
0.0
 11
55.314814566
 21
159.752952387
 31
0.0
  0
LINE
  8
0
  6
CONTINUOUS
 62
     2
 10
52.9
 20
160.4
 30
0.0
 11
55.314814566
 21
161.047047613
 31
0.0
  0
LINE
  8
0
  6
CONTINUOUS
 62
     2
 10
52.9
 20
154.9
 30
0.0
 11
55.314814566
 21
154.252952387
 31
0.0
  0
LINE
  8
0
  6
CONTINUOUS
 62
     2
 10
52.9
 20
154.9
 30
0.0
 11
55.314814566
 21
155.547047613
 31
0.0
  0
LINE
  8
0
  6
CONTINUOUS
 62
     2
 10
58.4
 20
154.9
 30
0.0
 11
48.4
 21
154.9
 31
0.0
  0
LINE
  8
0
  6
CONTINUOUS
 62
     2
 10
31.9
 20
160.4
 30
0.0
 11
58.4
 21
160.4
 31
0.0
  0
LINE
  8
0
  6
CONTINUOUS
 62
     2
 10
25.9
 20
167.4
 30
0.0
 11
23.485185434
 21
168.047047613
 31
0.0
  0
LINE
  8
0
  6
CONTINUOUS
 62
     2
 10
25.9
 20
167.4
 30
0.0
 11
23.485185434
 21
166.752952387
 31
0.0
  0
LINE
  8
0
  6
CONTINUOUS
 62
     2
 10
25.9
 20
163.4
 30
0.0
 11
23.485185434
 21
164.047047613
 31
0.0
  0
LINE
  8
0
  6
CONTINUOUS
 62
     2
 10
25.9
 20
163.4
 30
0.0
 11
23.485185434
 21
162.752952387
 31
0.0
  0
TEXT
  8
0
  6
CONTINUOUS
 62
     2
 10
12.2
 20
170.8
 30
0.3
 40
3.0
  1
１．交流電圧計
 50
0.0
 41
0.9
 51
0.0
  7
KANJI2
  0
TEXT
  8
0
  6
CONTINUOUS
 62
     2
 10
12.2
 20
80.8
 30
0.3
 40
3.0
  1
３．直流計器
 50
0.0
 41
0.9
 51
0.0
  7
KANJI2
  0
TEXT
  8
0
  6
CONTINUOUS
 62
     2
 10
12.2
 20
125.8
 30
0.3
 40
3.0
  1
２．交流電流計
 50
0.0
 41
0.9
 51
0.0
  7
KANJI2
  0
CIRCLE
  8
0
  6
CONTINUOUS
 62
     2
 10
31.9
 20
109.9
 30
0.0
 40
1.5
  0
CIRCLE
  8
0
  6
CONTINUOUS
 62
     2
 10
36.9
 20
109.9
 30
0.0
 40
1.5
  0
CIRCLE
  8
0
  6
CONTINUOUS
 62
     2
 10
41.9
 20
109.9
 30
0.0
 40
1.5
  0
CIRCLE
  8
0
  6
CONTINUOUS
 62
     2
 10
46.9
 20
109.9
 30
0.0
 40
1.5
  0
CIRCLE
  8
0
  6
CONTINUOUS
 62
     2
 10
39.4
 20
104.9
 30
0.0
 40
11.5
  0
CIRCLE
  8
0
  6
CONTINUOUS
 62
     2
 10
31.9
 20
99.9
 30
0.0
 40
1.5
  0
CIRCLE
  8
0
  6
CONTINUOUS
 62
     2
 10
36.9
 20
99.9
 30
0.0
 40
1.5
  0
CIRCLE
  8
0
  6
CONTINUOUS
 62
     2
 10
41.9
 20
99.9
 30
0.0
 40
1.5
  0
CIRCLE
  8
0
  6
CONTINUOUS
 62
     2
 10
46.9
 20
99.9
 30
0.0
 40
1.5
  0
TEXT
  8
0
  6
CONTINUOUS
 62
     2
 10
30.6
 20
105.9
 30
0.1
 40
2.0
  1
Ｒ
 50
0.0
 41
0.9
 51
0.0
  7
KANJI0
  0
TEXT
  8
0
  6
CONTINUOUS
 62
     2
 10
32.2
 20
105.9
 30
0.1
 40
1.5
  1
１
 50
0.0
 41
0.8
 51
0.0
  7
KANJI1
  0
TEXT
  8
0
  6
CONTINUOUS
 62
     2
 10
37.2
 20
105.9
 30
0.1
 40
1.5
  1
１
 50
0.0
 41
0.8
 51
0.0
  7
KANJI1
  0
TEXT
  8
0
  6
CONTINUOUS
 62
     2
 10
45.6
 20
105.9
 30
0.1
 40
2.0
  1
Ｒ
 50
0.0
 41
0.9
 51
0.0
  7
KANJI0
  0
TEXT
  8
0
  6
CONTINUOUS
 62
     2
 10
42.2
 20
105.9
 30
0.1
 40
1.5
  1
２
 50
0.0
 41
0.8
 51
0.0
  7
KANJI1
  0
TEXT
  8
0
  6
CONTINUOUS
 62
     2
 10
47.2
 20
105.9
 30
0.1
 40
1.5
  1
２
 50
0.0
 41
0.8
 51
0.0
  7
KANJI1
  0
LINE
  8
0
  6
CONTINUOUS
 62
     2
 10
31.9
 20
111.4
 30
0.0
 11
31.9
 21
115.4
 31
0.0
  0
LINE
  8
0
  6
CONTINUOUS
 62
     2
 10
41.9
 20
111.4
 30
0.0
 11
41.9
 21
118.4
 31
0.0
  0
LINE
  8
0
  6
CONTINUOUS
 62
     2
 10
41.9
 20
118.4
 30
0.0
 11
21.9
 21
118.4
 31
0.0
  0
LINE
  8
0
  6
CONTINUOUS
 62
     2
 10
21.9
 20
122.4
 30
0.0
 11
36.9
 21
122.4
 31
0.0
  0
LINE
  8
0
  6
CONTINUOUS
 62
     2
 10
36.9
 20
122.4
 30
0.0
 11
36.9
 21
111.4
 31
0.0
  0
LINE
  8
0
  6
CONTINUOUS
 62
     2
 10
52.9
 20
115.4
 30
0.0
 11
55.314814566
 21
114.752952387
 31
0.0
  0
LINE
  8
0
  6
CONTINUOUS
 62
     2
 10
52.9
 20
115.4
 30
0.0
 11
55.314814566
 21
116.047047613
 31
0.0
  0
LINE
  8
0
  6
CONTINUOUS
 62
     2
 10
52.9
 20
109.9
 30
0.0
 11
55.314814566
 21
109.252952387
 31
0.0
  0
LINE
  8
0
  6
CONTINUOUS
 62
     2
 10
52.9
 20
109.9
 30
0.0
 11
55.314814566
 21
110.547047613
 31
0.0
  0
LINE
  8
0
  6
CONTINUOUS
 62
     2
 10
58.4
 20
109.9
 30
0.0
 11
48.4
 21
109.9
 31
0.0
  0
LINE
  8
0
  6
CONTINUOUS
 62
     2
 10
31.9
 20
115.4
 30
0.0
 11
58.4
 21
115.4
 31
0.0
  0
LINE
  8
0
  6
CONTINUOUS
 62
     2
 10
25.9
 20
122.4
 30
0.0
 11
23.485185434
 21
123.047047613
 31
0.0
  0
LINE
  8
0
  6
CONTINUOUS
 62
     2
 10
25.9
 20
122.4
 30
0.0
 11
23.485185434
 21
121.752952387
 31
0.0
  0
LINE
  8
0
  6
CONTINUOUS
 62
     2
 10
25.9
 20
118.4
 30
0.0
 11
23.485185434
 21
119.047047613
 31
0.0
  0
LINE
  8
0
  6
CONTINUOUS
 62
     2
 10
25.9
 20
118.4
 30
0.0
 11
23.485185434
 21
117.752952387
 31
0.0
  0
CIRCLE
  8
0
  6
CONTINUOUS
 62
     2
 10
31.9
 20
64.9
 30
0.0
 40
1.5
  0
CIRCLE
  8
0
  6
CONTINUOUS
 62
     2
 10
36.9
 20
64.9
 30
0.0
 40
1.5
  0
CIRCLE
  8
0
  6
CONTINUOUS
 62
     2
 10
41.9
 20
64.9
 30
0.0
 40
1.5
  0
CIRCLE
  8
0
  6
CONTINUOUS
 62
     2
 10
46.9
 20
64.9
 30
0.0
 40
1.5
  0
CIRCLE
  8
0
  6
CONTINUOUS
 62
     2
 10
39.4
 20
59.9
 30
0.0
 40
11.5
  0
CIRCLE
  8
0
  6
CONTINUOUS
 62
     2
 10
31.9
 20
54.9
 30
0.0
 40
1.5
  0
CIRCLE
  8
0
  6
CONTINUOUS
 62
     2
 10
36.9
 20
54.9
 30
0.0
 40
1.5
  0
CIRCLE
  8
0
  6
CONTINUOUS
 62
     2
 10
41.9
 20
54.9
 30
0.0
 40
1.5
  0
CIRCLE
  8
0
  6
CONTINUOUS
 62
     2
 10
46.9
 20
54.9
 30
0.0
 40
1.5
  0
TEXT
  8
0
  6
CONTINUOUS
 62
     2
 10
30.6
 20
60.9
 30
0.1
 40
2.0
  1
Ｒ
 50
0.0
 41
0.9
 51
0.0
  7
KANJI0
  0
TEXT
  8
0
  6
CONTINUOUS
 62
     2
 10
32.2
 20
60.9
 30
0.1
 40
1.5
  1
１
 50
0.0
 41
0.8
 51
0.0
  7
KANJI1
  0
TEXT
  8
0
  6
CONTINUOUS
 62
     2
 10
45.6
 20
60.9
 30
0.1
 40
2.0
  1
Ｒ
 50
0.0
 41
0.9
 51
0.0
  7
KANJI0
  0
TEXT
  8
0
  6
CONTINUOUS
 62
     2
 10
47.2
 20
60.9
 30
0.1
 40
1.5
  1
２
 50
0.0
 41
0.8
 51
0.0
  7
KANJI1
  0
LINE
  8
0
  6
CONTINUOUS
 62
     2
 10
31.9
 20
66.4
 30
0.0
 11
31.9
 21
70.4
 31
0.0
  0
LINE
  8
0
  6
CONTINUOUS
 62
     2
 10
41.9
 20
66.4
 30
0.0
 11
41.9
 21
73.4
 31
0.0
  0
LINE
  8
0
  6
CONTINUOUS
 62
     2
 10
41.9
 20
73.4
 30
0.0
 11
21.9
 21
73.4
 31
0.0
  0
LINE
  8
0
  6
CONTINUOUS
 62
     2
 10
21.9
 20
77.4
 30
0.0
 11
36.9
 21
77.4
 31
0.0
  0
LINE
  8
0
  6
CONTINUOUS
 62
     2
 10
36.9
 20
77.4
 30
0.0
 11
36.9
 21
66.4
 31
0.0
  0
LINE
  8
0
  6
CONTINUOUS
 62
     2
 10
52.9
 20
70.4
 30
0.0
 11
55.314814566
 21
69.752952387
 31
0.0
  0
LINE
  8
0
  6
CONTINUOUS
 62
     2
 10
52.9
 20
70.4
 30
0.0
 11
55.314814566
 21
71.047047613
 31
0.0
  0
LINE
  8
0
  6
CONTINUOUS
 62
     2
 10
52.9
 20
64.9
 30
0.0
 11
55.314814566
 21
64.252952387
 31
0.0
  0
LINE
  8
0
  6
CONTINUOUS
 62
     2
 10
52.9
 20
64.9
 30
0.0
 11
55.314814566
 21
65.547047613
 31
0.0
  0
LINE
  8
0
  6
CONTINUOUS
 62
     2
 10
58.4
 20
64.9
 30
0.0
 11
48.4
 21
64.9
 31
0.0
  0
LINE
  8
0
  6
CONTINUOUS
 62
     2
 10
31.9
 20
70.4
 30
0.0
 11
58.4
 21
70.4
 31
0.0
  0
LINE
  8
0
  6
CONTINUOUS
 62
     2
 10
25.9
 20
77.4
 30
0.0
 11
23.485185434
 21
78.047047613
 31
0.0
  0
LINE
  8
0
  6
CONTINUOUS
 62
     2
 10
25.9
 20
77.4
 30
0.0
 11
23.485185434
 21
76.752952387
 31
0.0
  0
TEXT
  8
0
  6
CONTINUOUS
 62
     2
 10
35.6
 20
105.9
 30
0.1
 40
2.0
  1
Ｃ
 50
0.0
 41
0.9
 51
0.0
  7
KANJI0
  0
TEXT
  8
0
  6
CONTINUOUS
 62
     2
 10
40.6
 20
105.9
 30
0.1
 40
2.0
  1
Ｃ
 50
0.0
 41
0.9
 51
0.0
  7
KANJI0
  0
TEXT
  8
0
  6
CONTINUOUS
 62
     2
 10
36.1
 20
60.9
 30
0.1
 40
2.0
  1
＋
 50
0.0
 41
0.9
 51
0.0
  7
KANJI0
  0
TEXT
  8
0
  6
CONTINUOUS
 62
     2
 10
41.1
 20
60.9
 30
0.1
 40
2.0
  1
－
 50
0.0
 41
0.9
 51
0.0
  7
KANJI0
  0
TEXT
  8
0
  6
CONTINUOUS
 62
     1
 10
16.166666577
 20
177.066666704
 30
0.5
 40
5.0
  1
結線図
 50
0.0
 41
0.9
 51
0.0
  7
KANJI3
  0
LINE
  8
0
  6
CONTINUOUS
 62
     1
 10
16.166666577
 20
176.066666704
 30
0.0
 11
31.166666577
 21
176.066666704
 31
0.0
  0
TEXT
  8
0
  6
CONTINUOUS
 62
     2
 10
59.7
 20
158.4
 30
0.3
 40
3.0
  1
電磁復帰端子
 50
0.0
 41
0.9
 51
0.0
  7
KANJI2
  0
TEXT
  8
0
  6
CONTINUOUS
 62
     2
 10
59.7
 20
154.4
 30
0.3
 40
3.0
  1
（付加仕様）
 50
0.0
 41
0.9
 51
0.0
  7
KANJI2
  0
TEXT
  8
0
  6
CONTINUOUS
 62
     2
 10
59.7
 20
113.4
 30
0.3
 40
3.0
  1
電磁復帰端子
 50
0.0
 41
0.9
 51
0.0
  7
KANJI2
  0
TEXT
  8
0
  6
CONTINUOUS
 62
     2
 10
59.7
 20
109.4
 30
0.3
 40
3.0
  1
（付加仕様）
 50
0.0
 41
0.9
 51
0.0
  7
KANJI2
  0
TEXT
  8
0
  6
CONTINUOUS
 62
     2
 10
59.7
 20
68.4
 30
0.3
 40
3.0
  1
電磁復帰端子
 50
0.0
 41
0.9
 51
0.0
  7
KANJI2
  0
TEXT
  8
0
  6
CONTINUOUS
 62
     2
 10
59.7
 20
64.4
 30
0.3
 40
3.0
  1
（付加仕様）
 50
0.0
 41
0.9
 51
0.0
  7
KANJI2
  0
TEXT
  8
0
  6
CONTINUOUS
 62
     2
 10
13.9
 20
69.1
 30
0.3
 40
3.0
  1
計器入力
 50
0.0
 41
0.9
 51
0.0
  7
KANJI2
  0
TEXT
  8
0
  6
CONTINUOUS
 62
     2
 10
12.9
 20
114.1
 30
0.3
 40
3.0
  1
計器入力電流
 50
0.0
 41
0.9
 51
0.0
  7
KANJI2
  0
TEXT
  8
0
  6
CONTINUOUS
 62
     2
 10
12.9
 20
159.1
 30
0.3
 40
3.0
  1
計器入力電圧
 50
0.0
 41
0.9
 51
0.0
  7
KANJI2
  0
TEXT
  8
0
  6
CONTINUOUS
 62
     2
 10
18.166666577
 20
40.966666704
 30
0.3
 40
3.0
  1
端子記号
 50
0.0
 41
0.9
 51
0.0
  7
KANJI2
  0
TEXT
  8
0
  6
CONTINUOUS
 62
     2
 10
21.166666577
 20
36.966666704
 30
0.3
 40
3.0
  1
１）測定端子
 50
0.0
 41
0.9
 51
0.0
  7
KANJI2
  0
TEXT
  8
0
  6
CONTINUOUS
 62
     2
 10
21.166666577
 20
20.966666704
 30
0.3
 40
3.0
  1
２）電磁復帰端子　　Ｒ１　Ｒ２（付加仕様）
 50
0.0
 41
0.9
 51
0.0
  7
KANJI2
  0
LINE
  8
0
  6
CONTINUOUS
 62
     2
 10
17.966666577
 20
44.966666704
 30
0.0
 11
24.966666577
 21
44.966666704
 31
0.0
  0
TEXT
  8
0
  6
CONTINUOUS
 62
     2
 10
19.966666577
 20
45.966666704
 30
0.3
 40
3.0
  1
記
 50
0.0
 41
0.9
 51
0.0
  7
KANJI2
  0
TEXT
  8
0
  6
CONTINUOUS
 62
     2
 10
32.766666577
 20
28.966666704
 30
0.3
 40
3.0
  1
交流電流計　Ｃ１　Ｃ２
 50
0.0
 41
0.9
 51
0.0
  7
KANJI2
  0
TEXT
  8
0
  6
CONTINUOUS
 62
     2
 10
32.766666577
 20
24.966666704
 30
0.3
 40
3.0
  1
直流計器　　　＋　　－
 50
0.0
 41
0.9
 51
0.0
  7
KANJI2
  0
TEXT
  8
0
  6
CONTINUOUS
 62
     2
 10
32.766666577
 20
32.966666704
 30
0.3
 40
3.0
  1
交流電圧計　Ｐ１　Ｐ２
 50
0.0
 41
0.9
 51
0.0
  7
KANJI2
  0
ARC
  8
0
  6
CONTINUOUS
 62
     1
 10
136.533333298
 20
130.500000037
 30
0.0
 40
1.999999998
 50
270.0
 51
0.0
  0
LINE
  8
0
  6
CONTINUOUS
 62
     1
 10
138.533333296
 20
130.500000037
 30
0.0
 11
138.533333296
 21
163.166666671
 31
0.0
  0
ARC
  8
0
  6
CONTINUOUS
 62
     1
 10
136.533333298
 20
163.166666671
 30
0.0
 40
1.999999998
 50
0.0
 51
90.0
  0
LINE
  8
0
  6
CONTINUOUS
 62
     1
 10
136.533333298
 20
165.166666669
 30
0.0
 11
103.866666664
 21
165.166666669
 31
0.0
  0
ARC
  8
0
  6
CONTINUOUS
 62
     1
 10
103.866666664
 20
163.166666671
 30
0.0
 40
1.999999998
 50
90.0
 51
180.0
  0
LINE
  8
0
  6
CONTINUOUS
 62
     1
 10
101.866666666
 20
163.166666671
 30
0.0
 11
101.866666666
 21
130.500000037
 31
0.0
  0
ARC
  8
0
  6
CONTINUOUS
 62
     1
 10
103.866666664
 20
130.500000037
 30
0.0
 40
1.999999998
 50
180.0
 51
270.0
  0
CIRCLE
  8
0
  6
CONTINUOUS
 62
     1
 10
120.199999981
 20
146.833333354
 30
0.0
 40
16.999999983
  0
CIRCLE
  8
0
  6
CONTINUOUS
 62
     2
 10
135.199999966
 20
161.833333339
 30
0.0
 40
0.999999999
  0
LINE
  8
0
  6
CONTINUOUS
 62
     2
 10
134.616666633
 20
161.966666672
 30
0.0
 11
134.933333299
 21
161.966666672
 31
0.0
  0
ARC
  8
0
  6
CONTINUOUS
 62
     2
 10
134.933333299
 20
162.100000005
 30
0.0
 40
0.133333333
 50
270.0
 51
0.0
  0
LINE
  8
0
  6
CONTINUOUS
 62
     2
 10
135.066666633
 20
162.100000005
 30
0.0
 11
135.066666633
 21
162.416666671
 31
0.0
  0
LINE
  8
0
  6
CONTINUOUS
 62
     2
 10
135.066666633
 20
162.416666671
 30
0.0
 11
135.333333299
 21
162.416666671
 31
0.0
  0
LINE
  8
0
  6
CONTINUOUS
 62
     2
 10
135.333333299
 20
162.416666671
 30
0.0
 11
135.333333299
 21
162.100000005
 31
0.0
  0
ARC
  8
0
  6
CONTINUOUS
 62
     2
 10
135.466666632
 20
162.100000005
 30
0.0
 40
0.133333333
 50
180.0
 51
270.0
  0
LINE
  8
0
  6
CONTINUOUS
 62
     2
 10
135.466666632
 20
161.966666672
 30
0.0
 11
135.783333299
 21
161.966666672
 31
0.0
  0
LINE
  8
0
  6
CONTINUOUS
 62
     2
 10
135.783333299
 20
161.966666672
 30
0.0
 11
135.783333299
 21
161.700000006
 31
0.0
  0
LINE
  8
0
  6
CONTINUOUS
 62
     2
 10
135.783333299
 20
161.700000006
 30
0.0
 11
135.466666632
 21
161.700000006
 31
0.0
  0
ARC
  8
0
  6
CONTINUOUS
 62
     2
 10
135.466666632
 20
161.566666672
 30
0.0
 40
0.133333333
 50
90.0
 51
180.0
  0
LINE
  8
0
  6
CONTINUOUS
 62
     2
 10
135.333333299
 20
161.566666672
 30
0.0
 11
135.333333299
 21
161.250000006
 31
0.0
  0
LINE
  8
0
  6
CONTINUOUS
 62
     2
 10
135.333333299
 20
161.250000006
 30
0.0
 11
135.066666633
 21
161.250000006
 31
0.0
  0
LINE
  8
0
  6
CONTINUOUS
 62
     2
 10
135.066666633
 20
161.250000006
 30
0.0
 11
135.066666633
 21
161.566666672
 31
0.0
  0
ARC
  8
0
  6
CONTINUOUS
 62
     2
 10
134.933333299
 20
161.566666672
 30
0.0
 40
0.133333333
 50
0.0
 51
90.0
  0
LINE
  8
0
  6
CONTINUOUS
 62
     2
 10
134.933333299
 20
161.700000006
 30
0.0
 11
134.616666633
 21
161.700000006
 31
0.0
  0
LINE
  8
0
  6
CONTINUOUS
 62
     2
 10
134.616666633
 20
161.700000006
 30
0.0
 11
134.616666633
 21
161.966666672
 31
0.0
  0
LINE
  8
0
  6
LTYPE1
 62
     2
 10
133.866666634
 20
161.833333339
 30
0.0
 11
136.533333298
 21
161.833333339
 31
0.0
  0
LINE
  8
0
  6
LTYPE1
 62
     2
 10
135.199999966
 20
163.166666671
 30
0.0
 11
135.199999966
 21
160.500000007
 31
0.0
  0
CIRCLE
  8
0
  6
CONTINUOUS
 62
     2
 10
105.199999996
 20
161.833333339
 30
0.0
 40
0.999999999
  0
LINE
  8
0
  6
CONTINUOUS
 62
     2
 10
104.616666663
 20
161.966666672
 30
0.0
 11
104.933333329
 21
161.966666672
 31
0.0
  0
ARC
  8
0
  6
CONTINUOUS
 62
     2
 10
104.933333329
 20
162.100000005
 30
0.0
 40
0.133333333
 50
270.0
 51
0.0
  0
LINE
  8
0
  6
CONTINUOUS
 62
     2
 10
105.066666663
 20
162.100000005
 30
0.0
 11
105.066666663
 21
162.416666671
 31
0.0
  0
LINE
  8
0
  6
CONTINUOUS
 62
     2
 10
105.066666663
 20
162.416666671
 30
0.0
 11
105.333333329
 21
162.416666671
 31
0.0
  0
LINE
  8
0
  6
CONTINUOUS
 62
     2
 10
105.333333329
 20
162.416666671
 30
0.0
 11
105.333333329
 21
162.100000005
 31
0.0
  0
ARC
  8
0
  6
CONTINUOUS
 62
     2
 10
105.466666662
 20
162.100000005
 30
0.0
 40
0.133333333
 50
180.0
 51
270.0
  0
LINE
  8
0
  6
CONTINUOUS
 62
     2
 10
105.466666662
 20
161.966666672
 30
0.0
 11
105.783333329
 21
161.966666672
 31
0.0
  0
LINE
  8
0
  6
CONTINUOUS
 62
     2
 10
105.783333329
 20
161.966666672
 30
0.0
 11
105.783333329
 21
161.700000006
 31
0.0
  0
LINE
  8
0
  6
CONTINUOUS
 62
     2
 10
105.783333329
 20
161.700000006
 30
0.0
 11
105.466666662
 21
161.700000006
 31
0.0
  0
ARC
  8
0
  6
CONTINUOUS
 62
     2
 10
105.466666662
 20
161.566666672
 30
0.0
 40
0.133333333
 50
90.0
 51
180.0
  0
LINE
  8
0
  6
CONTINUOUS
 62
     2
 10
105.333333329
 20
161.566666672
 30
0.0
 11
105.333333329
 21
161.250000006
 31
0.0
  0
LINE
  8
0
  6
CONTINUOUS
 62
     2
 10
105.333333329
 20
161.250000006
 30
0.0
 11
105.066666663
 21
161.250000006
 31
0.0
  0
LINE
  8
0
  6
CONTINUOUS
 62
     2
 10
105.066666663
 20
161.250000006
 30
0.0
 11
105.066666663
 21
161.566666672
 31
0.0
  0
ARC
  8
0
  6
CONTINUOUS
 62
     2
 10
104.933333329
 20
161.566666672
 30
0.0
 40
0.133333333
 50
0.0
 51
90.0
  0
LINE
  8
0
  6
CONTINUOUS
 62
     2
 10
104.933333329
 20
161.700000006
 30
0.0
 11
104.616666663
 21
161.700000006
 31
0.0
  0
LINE
  8
0
  6
CONTINUOUS
 62
     2
 10
104.616666663
 20
161.700000006
 30
0.0
 11
104.616666663
 21
161.966666672
 31
0.0
  0
LINE
  8
0
  6
LTYPE1
 62
     2
 10
103.866666664
 20
161.833333339
 30
0.0
 11
106.533333328
 21
161.833333339
 31
0.0
  0
LINE
  8
0
  6
LTYPE1
 62
     2
 10
105.199999996
 20
163.166666671
 30
0.0
 11
105.199999996
 21
160.500000007
 31
0.0
  0
CIRCLE
  8
0
  6
CONTINUOUS
 62
     2
 10
105.199999996
 20
131.833333369
 30
0.0
 40
0.999999999
  0
LINE
  8
0
  6
CONTINUOUS
 62
     2
 10
104.616666663
 20
131.966666702
 30
0.0
 11
104.933333329
 21
131.966666702
 31
0.0
  0
ARC
  8
0
  6
CONTINUOUS
 62
     2
 10
104.933333329
 20
132.100000035
 30
0.0
 40
0.133333333
 50
270.0
 51
0.0
  0
LINE
  8
0
  6
CONTINUOUS
 62
     2
 10
105.066666663
 20
132.100000035
 30
0.0
 11
105.066666663
 21
132.416666701
 31
0.0
  0
LINE
  8
0
  6
CONTINUOUS
 62
     2
 10
105.066666663
 20
132.416666701
 30
0.0
 11
105.333333329
 21
132.416666701
 31
0.0
  0
LINE
  8
0
  6
CONTINUOUS
 62
     2
 10
105.333333329
 20
132.416666701
 30
0.0
 11
105.333333329
 21
132.100000035
 31
0.0
  0
ARC
  8
0
  6
CONTINUOUS
 62
     2
 10
105.466666662
 20
132.100000035
 30
0.0
 40
0.133333333
 50
180.0
 51
270.0
  0
LINE
  8
0
  6
CONTINUOUS
 62
     2
 10
105.466666662
 20
131.966666702
 30
0.0
 11
105.783333329
 21
131.966666702
 31
0.0
  0
LINE
  8
0
  6
CONTINUOUS
 62
     2
 10
105.783333329
 20
131.966666702
 30
0.0
 11
105.783333329
 21
131.700000036
 31
0.0
  0
LINE
  8
0
  6
CONTINUOUS
 62
     2
 10
105.783333329
 20
131.700000036
 30
0.0
 11
105.466666662
 21
131.700000036
 31
0.0
  0
ARC
  8
0
  6
CONTINUOUS
 62
     2
 10
105.466666662
 20
131.566666702
 30
0.0
 40
0.133333333
 50
90.0
 51
180.0
  0
LINE
  8
0
  6
CONTINUOUS
 62
     2
 10
105.333333329
 20
131.566666702
 30
0.0
 11
105.333333329
 21
131.250000036
 31
0.0
  0
LINE
  8
0
  6
CONTINUOUS
 62
     2
 10
105.333333329
 20
131.250000036
 30
0.0
 11
105.066666663
 21
131.250000036
 31
0.0
  0
LINE
  8
0
  6
CONTINUOUS
 62
     2
 10
105.066666663
 20
131.250000036
 30
0.0
 11
105.066666663
 21
131.566666702
 31
0.0
  0
ARC
  8
0
  6
CONTINUOUS
 62
     2
 10
104.933333329
 20
131.566666702
 30
0.0
 40
0.133333333
 50
0.0
 51
90.0
  0
LINE
  8
0
  6
CONTINUOUS
 62
     2
 10
104.933333329
 20
131.700000036
 30
0.0
 11
104.616666663
 21
131.700000036
 31
0.0
  0
LINE
  8
0
  6
CONTINUOUS
 62
     2
 10
104.616666663
 20
131.700000036
 30
0.0
 11
104.616666663
 21
131.966666702
 31
0.0
  0
LINE
  8
0
  6
LTYPE1
 62
     2
 10
103.866666664
 20
131.833333369
 30
0.0
 11
106.533333328
 21
131.833333369
 31
0.0
  0
LINE
  8
0
  6
LTYPE1
 62
     2
 10
105.199999996
 20
133.166666701
 30
0.0
 11
105.199999996
 21
130.500000037
 31
0.0
  0
CIRCLE
  8
0
  6
CONTINUOUS
 62
     2
 10
135.199999966
 20
131.833333369
 30
0.0
 40
0.999999999
  0
LINE
  8
0
  6
CONTINUOUS
 62
     2
 10
134.616666633
 20
131.966666702
 30
0.0
 11
134.933333299
 21
131.966666702
 31
0.0
  0
ARC
  8
0
  6
CONTINUOUS
 62
     2
 10
134.933333299
 20
132.100000035
 30
0.0
 40
0.133333333
 50
270.0
 51
0.0
  0
LINE
  8
0
  6
CONTINUOUS
 62
     2
 10
135.066666633
 20
132.100000035
 30
0.0
 11
135.066666633
 21
132.416666701
 31
0.0
  0
LINE
  8
0
  6
CONTINUOUS
 62
     2
 10
135.066666633
 20
132.416666701
 30
0.0
 11
135.333333299
 21
132.416666701
 31
0.0
  0
LINE
  8
0
  6
CONTINUOUS
 62
     2
 10
135.333333299
 20
132.416666701
 30
0.0
 11
135.333333299
 21
132.100000035
 31
0.0
  0
ARC
  8
0
  6
CONTINUOUS
 62
     2
 10
135.466666632
 20
132.100000035
 30
0.0
 40
0.133333333
 50
180.0
 51
270.0
  0
LINE
  8
0
  6
CONTINUOUS
 62
     2
 10
135.466666632
 20
131.966666702
 30
0.0
 11
135.783333299
 21
131.966666702
 31
0.0
  0
LINE
  8
0
  6
CONTINUOUS
 62
     2
 10
135.783333299
 20
131.966666702
 30
0.0
 11
135.783333299
 21
131.700000036
 31
0.0
  0
LINE
  8
0
  6
CONTINUOUS
 62
     2
 10
135.783333299
 20
131.700000036
 30
0.0
 11
135.466666632
 21
131.700000036
 31
0.0
  0
ARC
  8
0
  6
CONTINUOUS
 62
     2
 10
135.466666632
 20
131.566666702
 30
0.0
 40
0.133333333
 50
90.0
 51
180.0
  0
LINE
  8
0
  6
CONTINUOUS
 62
     2
 10
135.333333299
 20
131.566666702
 30
0.0
 11
135.333333299
 21
131.250000036
 31
0.0
  0
LINE
  8
0
  6
CONTINUOUS
 62
     2
 10
135.333333299
 20
131.250000036
 30
0.0
 11
135.066666633
 21
131.250000036
 31
0.0
  0
LINE
  8
0
  6
CONTINUOUS
 62
     2
 10
135.066666633
 20
131.250000036
 30
0.0
 11
135.066666633
 21
131.566666702
 31
0.0
  0
ARC
  8
0
  6
CONTINUOUS
 62
     2
 10
134.933333299
 20
131.566666702
 30
0.0
 40
0.133333333
 50
0.0
 51
90.0
  0
LINE
  8
0
  6
CONTINUOUS
 62
     2
 10
134.933333299
 20
131.700000036
 30
0.0
 11
134.616666633
 21
131.700000036
 31
0.0
  0
LINE
  8
0
  6
CONTINUOUS
 62
     2
 10
134.616666633
 20
131.700000036
 30
0.0
 11
134.616666633
 21
131.966666702
 31
0.0
  0
LINE
  8
0
  6
LTYPE1
 62
     2
 10
133.866666634
 20
131.833333369
 30
0.0
 11
136.533333298
 21
131.833333369
 31
0.0
  0
LINE
  8
0
  6
LTYPE1
 62
     2
 10
135.199999966
 20
133.166666701
 30
0.0
 11
135.199999966
 21
130.500000037
 31
0.0
  0
CIRCLE
  8
0
  6
CONTINUOUS
 62
     2
 10
120.199999981
 20
146.833333354
 30
0.0
 40
16.166666651
  0
CIRCLE
  8
0
  6
CONTINUOUS
 62
     2
 10
114.53333332
 20
136.500000031
 30
0.0
 40
0.999999999
  0
LINE
  8
0
  6
CONTINUOUS
 62
     2
 10
114.02657346
 20
136.181801979
 30
0.0
 11
114.250490608
 21
136.405719127
 31
0.0
  0
ARC
  8
0
  6
CONTINUOUS
 62
     2
 10
114.156209704
 20
136.500000031
 30
0.0
 40
0.133333333
 50
315.0
 51
45.0
  0
LINE
  8
0
  6
CONTINUOUS
 62
     2
 10
114.250490608
 20
136.594280935
 30
0.0
 11
114.02657346
 21
136.818198082
 31
0.0
  0
LINE
  8
0
  6
CONTINUOUS
 62
     2
 10
114.02657346
 20
136.818198082
 30
0.0
 11
114.215135269
 21
137.00675989
 31
0.0
  0
LINE
  8
0
  6
CONTINUOUS
 62
     2
 10
114.215135269
 20
137.00675989
 30
0.0
 11
114.439052416
 21
136.782842743
 31
0.0
  0
ARC
  8
0
  6
CONTINUOUS
 62
     2
 10
114.53333332
 20
136.877123647
 30
0.0
 40
0.133333333
 50
225.0
 51
315.0
  0
LINE
  8
0
  6
CONTINUOUS
 62
     2
 10
114.627614224
 20
136.782842743
 30
0.0
 11
114.851531371
 21
137.00675989
 31
0.0
  0
LINE
  8
0
  6
CONTINUOUS
 62
     2
 10
114.851531371
 20
137.00675989
 30
0.0
 11
115.040093179
 21
136.818198082
 31
0.0
  0
LINE
  8
0
  6
CONTINUOUS
 62
     2
 10
115.040093179
 20
136.818198082
 30
0.0
 11
114.816176032
 21
136.594280935
 31
0.0
  0
ARC
  8
0
  6
CONTINUOUS
 62
     2
 10
114.910456936
 20
136.500000031
 30
0.0
 40
0.133333333
 50
135.0
 51
225.0
  0
LINE
  8
0
  6
CONTINUOUS
 62
     2
 10
114.816176032
 20
136.405719127
 30
0.0
 11
115.040093179
 21
136.181801979
 31
0.0
  0
LINE
  8
0
  6
CONTINUOUS
 62
     2
 10
115.040093179
 20
136.181801979
 30
0.0
 11
114.851531371
 21
135.993240171
 31
0.0
  0
LINE
  8
0
  6
CONTINUOUS
 62
     2
 10
114.851531371
 20
135.993240171
 30
0.0
 11
114.627614224
 21
136.217157319
 31
0.0
  0
ARC
  8
0
  6
CONTINUOUS
 62
     2
 10
114.53333332
 20
136.122876414
 30
0.0
 40
0.133333333
 50
45.0
 51
135.0
  0
LINE
  8
0
  6
CONTINUOUS
 62
     2
 10
114.439052416
 20
136.217157319
 30
0.0
 11
114.215135269
 21
135.993240171
 31
0.0
  0
LINE
  8
0
  6
CONTINUOUS
 62
     2
 10
114.215135269
 20
135.993240171
 30
0.0
 11
114.02657346
 21
136.181801979
 31
0.0
  0
CIRCLE
  8
0
  6
CONTINUOUS
 62
     2
 10
125.866666642
 20
136.500000031
 30
0.0
 40
0.999999999
  0
LINE
  8
0
  6
CONTINUOUS
 62
     2
 10
125.359906782
 20
136.181801979
 30
0.0
 11
125.58382393
 21
136.405719127
 31
0.0
  0
ARC
  8
0
  6
CONTINUOUS
 62
     2
 10
125.489543026
 20
136.500000031
 30
0.0
 40
0.133333333
 50
315.0
 51
45.0
  0
LINE
  8
0
  6
CONTINUOUS
 62
     2
 10
125.58382393
 20
136.594280935
 30
0.0
 11
125.359906782
 21
136.818198082
 31
0.0
  0
LINE
  8
0
  6
CONTINUOUS
 62
     2
 10
125.359906782
 20
136.818198082
 30
0.0
 11
125.548468591
 21
137.00675989
 31
0.0
  0
LINE
  8
0
  6
CONTINUOUS
 62
     2
 10
125.548468591
 20
137.00675989
 30
0.0
 11
125.772385738
 21
136.782842743
 31
0.0
  0
ARC
  8
0
  6
CONTINUOUS
 62
     2
 10
125.866666642
 20
136.877123647
 30
0.0
 40
0.133333333
 50
225.0
 51
315.0
  0
LINE
  8
0
  6
CONTINUOUS
 62
     2
 10
125.960947546
 20
136.782842743
 30
0.0
 11
126.184864693
 21
137.00675989
 31
0.0
  0
LINE
  8
0
  6
CONTINUOUS
 62
     2
 10
126.184864693
 20
137.00675989
 30
0.0
 11
126.373426501
 21
136.818198082
 31
0.0
  0
LINE
  8
0
  6
CONTINUOUS
 62
     2
 10
126.373426501
 20
136.818198082
 30
0.0
 11
126.149509354
 21
136.594280935
 31
0.0
  0
ARC
  8
0
  6
CONTINUOUS
 62
     2
 10
126.243790258
 20
136.500000031
 30
0.0
 40
0.133333333
 50
135.0
 51
225.0
  0
LINE
  8
0
  6
CONTINUOUS
 62
     2
 10
126.149509354
 20
136.405719127
 30
0.0
 11
126.373426501
 21
136.181801979
 31
0.0
  0
LINE
  8
0
  6
CONTINUOUS
 62
     2
 10
126.373426501
 20
136.181801979
 30
0.0
 11
126.184864693
 21
135.993240171
 31
0.0
  0
LINE
  8
0
  6
CONTINUOUS
 62
     2
 10
126.184864693
 20
135.993240171
 30
0.0
 11
125.960947546
 21
136.217157319
 31
0.0
  0
ARC
  8
0
  6
CONTINUOUS
 62
     2
 10
125.866666642
 20
136.122876414
 30
0.0
 40
0.133333333
 50
45.0
 51
135.0
  0
LINE
  8
0
  6
CONTINUOUS
 62
     2
 10
125.772385738
 20
136.217157319
 30
0.0
 11
125.548468591
 21
135.993240171
 31
0.0
  0
LINE
  8
0
  6
CONTINUOUS
 62
     2
 10
125.548468591
 20
135.993240171
 30
0.0
 11
125.359906782
 21
136.181801979
 31
0.0
  0
LINE
  8
0
  6
CONTINUOUS
 62
     2
 10
130.669274026
 20
155.618097344
 30
0.0
 11
128.667574458
 21
154.373607737
 31
0.0
  0
LINE
  8
0
  6
CONTINUOUS
 62
     2
 10
129.09609953
 20
153.862911442
 30
0.0
 11
130.669274026
 21
155.618097344
 31
0.0
  0
LINE
  8
0
  6
CONTINUOUS
 62
     2
 10
124.62156101
 20
150.372357822
 30
0.0
 11
129.392533289
 21
154.546784662
 31
0.0
  0
LINE
  8
0
  6
CONTINUOUS
 62
     2
 10
129.392533289
 20
154.546784662
 30
0.0
 11
124.45305473
 21
150.573175787
 31
0.0
  0
LINE
  8
0
  6
CONTINUOUS
 62
     2
 10
128.667574458
 20
154.373607737
 30
0.0
 11
124.28829864
 21
150.74247259
 31
0.0
  0
LINE
  8
0
  6
CONTINUOUS
 62
     2
 10
124.75967622
 20
150.180706665
 30
0.0
 11
129.09609953
 21
153.862911442
 31
0.0
  0
LINE
  8
0
  6
CONTINUOUS
 62
     1
 10
136.533333298
 20
128.500000039
 30
0.0
 11
103.866666664
 21
128.500000039
 31
0.0
  0
LINE
  8
0
  6
CONTINUOUS
 62
     2
 10
101.866666666
 20
129.500000037
 30
0.0
 11
101.866666666
 21
111.500000039
 31
0.0
  0
LINE
  8
0
  6
CONTINUOUS
 62
     2
 10
101.866666666
 20
113.500000039
 30
0.0
 11
104.281481232
 21
112.852952426
 31
0.0
  0
LINE
  8
0
  6
CONTINUOUS
 62
     2
 10
101.866666666
 20
113.500000039
 30
0.0
 11
104.281481232
 21
114.147047651
 31
0.0
  0
LINE
  8
0
  6
CONTINUOUS
 62
     2
 10
101.866666666
 20
113.500000039
 30
0.0
 11
138.533333296
 21
113.500000039
 31
0.0
  0
LINE
  8
0
  6
CONTINUOUS
 62
     2
 10
138.533333296
 20
113.500000039
 30
0.0
 11
136.11851873
 21
114.147047651
 31
0.0
  0
LINE
  8
0
  6
CONTINUOUS
 62
     2
 10
138.533333296
 20
113.500000039
 30
0.0
 11
136.11851873
 21
112.852952426
 31
0.0
  0
LINE
  8
0
  6
CONTINUOUS
 62
     2
 10
138.533333296
 20
129.500000037
 30
0.0
 11
138.533333296
 21
111.500000039
 31
0.0
  0
TEXT
  8
0
  6
CONTINUOUS
 62
     2
 10
117.199999981
 20
114.500000039
 30
0.3
 40
3.0
  1
１１０
 50
0.0
 41
0.6
 51
0.0
  7
KANJI4
  0
LINE
  8
0
  6
CONTINUOUS
 62
     2
 10
102.866666664
 20
165.166666669
 30
0.0
 11
92.866666666
 21
165.166666669
 31
0.0
  0
LINE
  8
0
  6
CONTINUOUS
 62
     2
 10
94.866666666
 20
165.166666669
 30
0.0
 11
94.219619053
 21
162.751852103
 31
0.0
  0
LINE
  8
0
  6
CONTINUOUS
 62
     2
 10
94.866666666
 20
165.166666669
 30
0.0
 11
95.513714279
 21
162.751852103
 31
0.0
  0
LINE
  8
0
  6
CONTINUOUS
 62
     2
 10
94.866666666
 20
165.166666669
 30
0.0
 11
94.866666666
 21
128.500000039
 31
0.0
  0
LINE
  8
0
  6
CONTINUOUS
 62
     2
 10
94.866666666
 20
128.500000039
 30
0.0
 11
95.513714279
 21
130.914814604
 31
0.0
  0
LINE
  8
0
  6
CONTINUOUS
 62
     2
 10
94.866666666
 20
128.500000039
 30
0.0
 11
94.219619053
 21
130.914814604
 31
0.0
  0
LINE
  8
0
  6
CONTINUOUS
 62
     2
 10
102.866666664
 20
128.500000039
 30
0.0
 11
92.866666666
 21
128.500000039
 31
0.0
  0
TEXT
  8
0
  6
CONTINUOUS
 62
     2
 10
93.866666666
 20
143.833333354
 30
0.3
 40
3.0
  1
１１０
 50
90.0
 41
0.6
 51
0.0
  7
KANJI4
  0
LINE
  8
0
  6
CONTINUOUS
 62
     2
 10
130.669274026
 20
155.618097344
 30
0.0
 11
132.151451923
 21
157.631340668
 31
0.0
  0
LINE
  8
0
  6
CONTINUOUS
 62
     2
 10
130.669274026
 20
155.618097344
 30
0.0
 11
130.946256076
 21
158.102706155
 31
0.0
  0
LINE
  8
0
  6
CONTINUOUS
 62
     2
 10
122.949465587
 20
157.839462695
 30
0.0
 11
122.924695082
 21
160.225637637
 31
0.0
  0
LINE
  8
0
  6
CONTINUOUS
 62
     2
 10
122.924695082
 20
160.225637637
 30
0.0
 11
121.969540883
 21
158.038830629
 31
0.0
  0
LINE
  8
0
  6
CONTINUOUS
 62
     2
 10
121.969540883
 20
158.038830629
 30
0.0
 11
120.835382841
 21
152.464265751
 31
0.0
  0
LINE
  8
0
  6
CONTINUOUS
 62
     2
 10
122.592415191
 20
158.592429797
 30
0.0
 11
121.102376196
 21
152.427690172
 31
0.0
  0
LINE
  8
0
  6
CONTINUOUS
 62
     2
 10
121.555247648
 20
152.335552434
 30
0.0
 11
122.592415191
 21
158.592429797
 31
0.0
  0
LINE
  8
0
  6
CONTINUOUS
 62
     2
 10
121.815307545
 20
152.264897817
 30
0.0
 11
122.949465587
 21
157.839462695
 31
0.0
  0
LINE
  8
0
  6
CONTINUOUS
 62
     2
 10
111.415235991
 20
157.302607399
 30
0.0
 11
112.659725598
 21
155.300907831
 31
0.0
  0
LINE
  8
0
  6
CONTINUOUS
 62
     2
 10
113.170421892
 20
155.729432903
 30
0.0
 11
111.415235991
 21
157.302607399
 31
0.0
  0
LINE
  8
0
  6
CONTINUOUS
 62
     2
 10
116.660975513
 20
151.254894383
 30
0.0
 11
112.486548672
 21
156.025866662
 31
0.0
  0
LINE
  8
0
  6
CONTINUOUS
 62
     2
 10
112.486548672
 20
156.025866662
 30
0.0
 11
116.460157548
 21
151.086388103
 31
0.0
  0
LINE
  8
0
  6
CONTINUOUS
 62
     2
 10
112.659725598
 20
155.300907831
 30
0.0
 11
116.290860745
 21
150.921632013
 31
0.0
  0
LINE
  8
0
  6
CONTINUOUS
 62
     2
 10
116.852626669
 20
151.393009593
 30
0.0
 11
113.170421892
 21
155.729432903
 31
0.0
  0
LINE
  8
0
  6
CONTINUOUS
 62
     2
 10
111.492299955
 20
157.428978153
 30
0.0
 11
111.482507373
 21
159.928958974
 31
0.0
  0
LINE
  8
0
  6
CONTINUOUS
 62
     2
 10
111.492299955
 20
157.428978153
 30
0.0
 11
110.23382892
 21
159.589128762
 31
0.0
  0
LINE
  8
0
  6
CONTINUOUS
 62
     2
 10
122.97319174
 20
160.392372631
 30
0.0
 11
124.812189021
 21
162.085915958
 31
0.0
  0
LINE
  8
0
  6
CONTINUOUS
 62
     2
 10
122.97319174
 20
160.392372631
 30
0.0
 11
123.719038439
 21
162.778522816
 31
0.0
  0
TEXT
  8
0
  6
CONTINUOUS
 62
     2
 10
119.17319174
 20
174.392372631
 30
0.3
 40
3.0
  1
推針（黒）
 50
0.0
 41
0.9
 51
0.0
  7
KANJI2
  0
LINE
  8
0
  6
CONTINUOUS
 62
     2
 10
119.17319174
 20
173.392372631
 30
0.0
 11
131.209832961
 21
173.392372631
 31
0.0
  0
LINE
  8
0
  6
CONTINUOUS
 62
     2
 10
122.97319174
 20
160.392372631
 30
0.0
 11
131.209832961
 21
173.392372631
 31
0.0
  0
LINE
  8
0
  6
CONTINUOUS
 62
     2
 10
107.165084765
 20
173.328978153
 30
0.0
 11
86.992299955
 21
173.328978153
 31
0.0
  0
LINE
  8
0
  6
CONTINUOUS
 62
     2
 10
111.492299955
 20
157.428978153
 30
0.0
 11
107.165084765
 21
173.328978153
 31
0.0
  0
LINE
  8
0
  6
CONTINUOUS
 62
     2
 10
121.769274026
 20
178.218097344
 30
0.0
 11
139.508385137
 21
178.218097344
 31
0.0
  0
LINE
  8
0
  6
CONTINUOUS
 62
     2
 10
130.669274026
 20
155.618097344
 30
0.0
 11
139.508385137
 21
178.218097344
 31
0.0
  0
LINE
  8
0
  6
CONTINUOUS
 62
     2
 10
106.955484669
 20
142.296504752
 30
0.0
 11
104.919164074
 21
141.555344668
 31
0.0
  0
LINE
  8
0
  6
CONTINUOUS
 62
     2
 10
107.137895412
 20
141.795335355
 30
0.0
 11
105.101574817
 21
141.054175271
 31
0.0
  0
LINE
  8
0
  6
CONTINUOUS
 62
     2
 10
133.444515293
 20
142.296504752
 30
0.0
 11
135.480835888
 21
141.555344668
 31
0.0
  0
LINE
  8
0
  6
CONTINUOUS
 62
     2
 10
133.26210455
 20
141.795335355
 30
0.0
 11
135.298425145
 21
141.054175271
 31
0.0
  0
CIRCLE
  8
0
  6
CONTINUOUS
 62
     2
 10
120.199999981
 20
146.833333354
 30
0.0
 40
13.999999986
  0
TEXT
  8
0
  6
CONTINUOUS
 62
     2
 10
110.799999981
 20
120.933333354
 30
0.3
 40
3.0
  1
零位調整器
 50
0.0
 41
0.9
 51
0.0
  7
KANJI2
  0
LINE
  8
0
  6
CONTINUOUS
 62
     2
 10
125.499999981
 20
119.933333354
 30
0.0
 11
107.699999981
 21
119.933333354
 31
0.0
  0
LINE
  8
0
  6
CONTINUOUS
 62
     2
 10
118.854702045
 20
144.530881495
 30
0.0
 11
117.26808686
 21
142.598874183
 31
0.0
  0
LINE
  8
0
  6
CONTINUOUS
 62
     2
 10
118.854702045
 20
144.530881495
 30
0.0
 11
118.446656645
 21
142.06440649
 31
0.0
  0
LINE
  8
0
  6
CONTINUOUS
 62
     2
 10
118.854702045
 20
144.530881495
 30
0.0
 11
107.699999981
 21
119.933333354
 31
0.0
  0
CIRCLE
  8
0
  6
CONTINUOUS
 62
     5
 10
120.199999981
 20
146.833333354
 30
0.0
 40
5.666666661
  0
CIRCLE
  8
0
  6
CONTINUOUS
 62
     5
 10
120.199999981
 20
146.833333354
 30
0.0
 40
5.199999995
  0
CIRCLE
  8
0
  6
CONTINUOUS
 62
     5
 10
120.199999981
 20
146.833333354
 30
0.0
 40
4.733333329
  0
CIRCLE
  8
0
  6
CONTINUOUS
 62
     5
 10
120.199999981
 20
146.833333354
 30
0.0
 40
4.266666662
  0
CIRCLE
  8
0
  6
CONTINUOUS
 62
     5
 10
120.199999981
 20
146.833333354
 30
0.0
 40
3.799999996
  0
CIRCLE
  8
0
  6
CONTINUOUS
 62
     5
 10
120.199999981
 20
146.833333354
 30
0.0
 40
3.33333333
  0
CIRCLE
  8
0
  6
CONTINUOUS
 62
     2
 10
120.199999981
 20
146.833333354
 30
0.0
 40
1.499999999
  0
CIRCLE
  8
0
  6
CONTINUOUS
 62
     2
 10
120.199999981
 20
146.833333354
 30
0.0
 40
2.666666664
  0
CIRCLE
  8
0
  6
CONTINUOUS
 62
     2
 10
120.199999981
 20
146.833333354
 30
0.0
 40
1.999999998
  0
LINE
  8
0
  6
CONTINUOUS
 62
     2
 10
120.066666648
 20
149.49406234
 30
0.0
 11
120.066666648
 21
149.59406234
 31
0.0
  0
ARC
  8
0
  6
CONTINUOUS
 62
     2
 10
120.133333314
 20
149.59406234
 30
0.0
 40
0.066666667
 50
90.0
 51
180.0
  0
LINE
  8
0
  6
CONTINUOUS
 62
     2
 10
120.333333314
 20
149.59406234
 30
0.0
 11
120.333333314
 21
149.49406234
 31
0.0
  0
LINE
  8
0
  6
CONTINUOUS
 62
     2
 10
120.133333314
 20
149.660729006
 30
0.0
 11
120.266666647
 21
149.660729006
 31
0.0
  0
ARC
  8
0
  6
CONTINUOUS
 62
     2
 10
120.266666647
 20
149.59406234
 30
0.0
 40
0.066666667
 50
0.0
 51
90.0
  0
LINE
  8
0
  6
CONTINUOUS
 62
     2
 10
117.82907442
 20
148.048227793
 30
0.0
 11
117.742471879
 21
148.098227793
 31
0.0
  0
ARC
  8
0
  6
CONTINUOUS
 62
     2
 10
117.775805213
 20
148.15596282
 30
0.0
 40
0.066666667
 50
150.0
 51
240.0
  0
LINE
  8
0
  6
CONTINUOUS
 62
     2
 10
117.875805213
 20
148.3291679
 30
0.0
 11
117.962407753
 21
148.2791679
 31
0.0
  0
LINE
  8
0
  6
CONTINUOUS
 62
     2
 10
117.718070186
 20
148.189296153
 30
0.0
 11
117.784736852
 21
148.304766207
 31
0.0
  0
ARC
  8
0
  6
CONTINUOUS
 62
     2
 10
117.842471879
 20
148.271432874
 30
0.0
 40
0.066666667
 50
60.0
 51
150.0
  0
LINE
  8
0
  6
CONTINUOUS
 62
     2
 10
117.962407753
 20
145.387498807
 30
0.0
 11
117.875805213
 21
145.337498807
 31
0.0
  0
ARC
  8
0
  6
CONTINUOUS
 62
     2
 10
117.842471879
 20
145.395233834
 30
0.0
 40
0.066666667
 50
210.0
 51
300.0
  0
LINE
  8
0
  6
CONTINUOUS
 62
     2
 10
117.742471879
 20
145.568438914
 30
0.0
 11
117.82907442
 21
145.618438914
 31
0.0
  0
LINE
  8
0
  6
CONTINUOUS
 62
     2
 10
117.784736852
 20
145.361900501
 30
0.0
 11
117.718070186
 21
145.477370554
 31
0.0
  0
ARC
  8
0
  6
CONTINUOUS
 62
     2
 10
117.775805213
 20
145.510703888
 30
0.0
 40
0.066666667
 50
120.0
 51
210.0
  0
LINE
  8
0
  6
CONTINUOUS
 62
     2
 10
122.570925542
 20
145.618438914
 30
0.0
 11
122.657528082
 21
145.568438914
 31
0.0
  0
ARC
  8
0
  6
CONTINUOUS
 62
     2
 10
122.624194749
 20
145.510703888
 30
0.0
 40
0.066666667
 50
330.0
 51
60.0
  0
LINE
  8
0
  6
CONTINUOUS
 62
     2
 10
122.524194749
 20
145.337498807
 30
0.0
 11
122.437592209
 21
145.387498807
 31
0.0
  0
LINE
  8
0
  6
CONTINUOUS
 62
     2
 10
122.681929776
 20
145.477370554
 30
0.0
 11
122.615263109
 21
145.361900501
 31
0.0
  0
ARC
  8
0
  6
CONTINUOUS
 62
     2
 10
122.557528082
 20
145.395233834
 30
0.0
 40
0.066666667
 50
240.0
 51
330.0
  0
LINE
  8
0
  6
CONTINUOUS
 62
     2
 10
122.437592209
 20
148.2791679
 30
0.0
 11
122.524194749
 21
148.3291679
 31
0.0
  0
ARC
  8
0
  6
CONTINUOUS
 62
     2
 10
122.557528082
 20
148.271432874
 30
0.0
 40
0.066666667
 50
30.0
 51
120.0
  0
LINE
  8
0
  6
CONTINUOUS
 62
     2
 10
122.657528082
 20
148.098227793
 30
0.0
 11
122.570925542
 21
148.048227793
 31
0.0
  0
LINE
  8
0
  6
CONTINUOUS
 62
     2
 10
122.615263109
 20
148.304766207
 30
0.0
 11
122.681929776
 21
148.189296153
 31
0.0
  0
ARC
  8
0
  6
CONTINUOUS
 62
     2
 10
122.624194749
 20
148.15596282
 30
0.0
 40
0.066666667
 50
300.0
 51
30.0
  0
LINE
  8
0
  6
CONTINUOUS
 62
     2
 10
120.333333314
 20
144.172604368
 30
0.0
 11
120.333333314
 21
144.072604368
 31
0.0
  0
ARC
  8
0
  6
CONTINUOUS
 62
     2
 10
120.266666647
 20
144.072604368
 30
0.0
 40
0.066666667
 50
270.0
 51
0.0
  0
LINE
  8
0
  6
CONTINUOUS
 62
     2
 10
120.066666648
 20
144.072604368
 30
0.0
 11
120.066666648
 21
144.172604368
 31
0.0
  0
LINE
  8
0
  6
CONTINUOUS
 62
     2
 10
120.266666647
 20
144.005937701
 30
0.0
 11
120.133333314
 21
144.005937701
 31
0.0
  0
ARC
  8
0
  6
CONTINUOUS
 62
     2
 10
120.133333314
 20
144.072604368
 30
0.0
 40
0.066666667
 50
180.0
 51
270.0
  0
TEXT
  8
0
  6
CONTINUOUS
 62
     2
 10
86.992299955
 20
174.328978153
 30
0.3
 40
3.0
  1
※最低指針（緑）
 50
0.0
 41
0.9
 51
0.0
  7
KANJI2
  0
TEXT
  8
0
  6
CONTINUOUS
 62
     2
 10
121.769274026
 20
179.218097344
 30
0.3
 40
3.0
  1
最高指針（赤）
 50
0.0
 41
0.9
 51
0.0
  7
KANJI2
  0
LINE
  8
0
  6
CONTINUOUS
 62
     2
 10
41.166666577
 20
11.966666704
 30
0.0
 11
56.666666577
 21
11.966666704
 31
0.0
  0
TEXT
  8
0
  6
CONTINUOUS
 62
     3
 10
233.0
 20
12.0
 30
0.6
 40
6.0
  1
ＭＳ－１１６１１Ｂ
 50
0.0
 41
0.9
 51
0.0
  7
KANJI5
  0
LINE
  8
0
  6
CONTINUOUS
 62
     1
 10
159.08
 20
165.166666669
 30
0.0
 11
155.580000004
 21
165.166666669
 31
0.0
  0
ARC
  8
0
  6
CONTINUOUS
 62
     1
 10
155.580000004
 20
164.833333336
 30
0.0
 40
0.333333333
 50
90.0
 51
180.0
  0
LINE
  8
0
  6
CONTINUOUS
 62
     1
 10
155.24666667
 20
163.833333337
 30
0.0
 11
152.913333339
 21
163.833333337
 31
0.0
  0
ARC
  8
0
  6
CONTINUOUS
 62
     1
 10
152.913333339
 20
163.66666667
 30
0.0
 40
0.166666667
 50
90.0
 51
180.0
  0
ARC
  8
0
  6
CONTINUOUS
 62
     1
 10
155.580000004
 20
128.833333372
 30
0.0
 40
0.333333333
 50
180.0
 51
270.0
  0
LINE
  8
0
  6
CONTINUOUS
 62
     1
 10
155.24666667
 20
129.833333371
 30
0.0
 11
152.913333339
 21
129.833333371
 31
0.0
  0
ARC
  8
0
  6
CONTINUOUS
 62
     1
 10
152.913333339
 20
130.000000037
 30
0.0
 40
0.166666667
 50
180.0
 51
270.0
  0
LINE
  8
0
  6
CONTINUOUS
 62
     1
 10
155.24666667
 20
128.833333372
 30
0.0
 11
155.24666667
 21
146.833333354
 31
0.0
  0
LINE
  8
0
  6
CONTINUOUS
 62
     1
 10
155.24666667
 20
164.833333336
 30
0.0
 11
155.24666667
 21
163.933333337
 31
0.0
  0
LINE
  8
0
  6
CONTINUOUS
 62
     1
 10
159.08
 20
165.166666669
 30
0.0
 11
159.08
 21
164.733333336
 31
0.0
  0
LINE
  8
0
  6
CONTINUOUS
 62
     1
 10
155.24666667
 20
163.933333337
 30
0.0
 11
155.24666667
 21
163.833333337
 31
0.0
  0
LINE
  8
0
  6
CONTINUOUS
 62
     1
 10
159.08
 20
164.733333336
 30
0.0
 11
159.08
 21
147.00000002
 31
0.0
  0
LINE
  8
0
  6
CONTINUOUS
 62
     1
 10
159.08
 20
147.00000002
 30
0.0
 11
159.08
 21
128.500000039
 31
0.0
  0
LINE
  8
0
  6
CONTINUOUS
 62
     1
 10
155.24666667
 20
146.85000002
 30
0.0
 11
155.24666667
 21
163.833333337
 31
0.0
  0
LINE
  8
0
  6
CONTINUOUS
 62
     1
 10
155.24666667
 20
158.833333342
 30
0.0
 11
155.24666667
 21
164.833334607
 31
0.0
  0
LINE
  8
0
  6
CONTINUOUS
 62
     2
 10
155.24666667
 20
132.666666701
 30
0.0
 11
155.180000004
 21
132.666666701
 31
0.0
  0
LINE
  8
0
  6
CONTINUOUS
 62
     2
 10
155.180000004
 20
132.666666701
 30
0.0
 11
155.180000004
 21
131.000000036
 31
0.0
  0
LINE
  8
0
  6
CONTINUOUS
 62
     2
 10
155.180000004
 20
131.000000036
 30
0.0
 11
155.24666667
 21
131.000000036
 31
0.0
  0
LINE
  8
0
  6
LTYPE1
 62
     2
 10
159.246666666
 20
146.833333354
 30
0.0
 11
160.746666665
 21
146.833333354
 31
0.0
  0
LINE
  8
0
  6
LTYPE1
 62
     2
 10
155.080000004
 20
146.833333354
 30
0.0
 11
159.246666666
 21
146.833333354
 31
0.0
  0
LINE
  8
0
  6
CONTINUOUS
 62
     2
 10
159.08
 20
159.850000007
 30
0.0
 11
159.246666667
 21
159.850000007
 31
0.0
  0
LINE
  8
0
  6
CONTINUOUS
 62
     2
 10
159.246666667
 20
159.850000007
 30
0.0
 11
159.246666667
 21
163.850000003
 31
0.0
  0
LINE
  8
0
  6
CONTINUOUS
 62
     2
 10
159.246666667
 20
163.850000003
 30
0.0
 11
159.08
 21
163.850000003
 31
0.0
  0
LINE
  8
0
  6
CONTINUOUS
 62
     2
 10
162.91333333
 20
162.850000004
 30
0.0
 11
164.246666662
 21
162.850000004
 31
0.0
  0
LINE
  8
0
  6
CONTINUOUS
 62
     2
 10
164.246666662
 20
162.850000004
 30
0.0
 11
164.246666662
 21
160.850000006
 31
0.0
  0
LINE
  8
0
  6
CONTINUOUS
 62
     2
 10
164.246666662
 20
160.850000006
 30
0.0
 11
162.91333333
 21
160.850000006
 31
0.0
  0
LINE
  8
0
  6
LTYPE2
 62
     2
 10
157.880000001
 20
161.850000005
 30
0.0
 11
165.779999993
 21
161.850000005
 31
0.0
  0
ARC
  8
0
  6
CONTINUOUS
 62
     2
 10
159.579999999
 20
161.850000005
 30
0.0
 40
3.33333333
 50
343.5
 51
16.5
  0
ARC
  8
0
  6
CONTINUOUS
 62
     2
 10
164.579999995
 20
161.850000005
 30
0.0
 40
3.33333333
 50
163.5
 51
196.3
  0
ARC
  8
0
  6
CONTINUOUS
 62
     2
 10
162.079999997
 20
163.266666671
 30
0.0
 40
0.833333333
 50
325.0
 51
35.0
  0
ARC
  8
0
  6
CONTINUOUS
 62
     2
 10
162.079999997
 20
163.266666671
 30
0.0
 40
0.833333333
 50
145.0
 51
215.0
  0
ARC
  8
0
  6
CONTINUOUS
 62
     2
 10
162.079999997
 20
160.43333334
 30
0.0
 40
0.833333333
 50
145.0
 51
215.0
  0
ARC
  8
0
  6
CONTINUOUS
 62
     2
 10
162.079999997
 20
160.43333334
 30
0.0
 40
0.833333333
 50
325.0
 51
35.0
  0
LINE
  8
0
  6
CONTINUOUS
 62
     2
 10
161.380649024
 20
160.91444431
 30
0.0
 11
162.763982356
 21
160.91444431
 31
0.0
  0
LINE
  8
0
  6
CONTINUOUS
 62
     2
 10
162.776065779
 20
162.79671782
 30
0.0
 11
161.383934215
 21
162.79671782
 31
0.0
  0
LINE
  8
0
  6
CONTINUOUS
 62
     2
 10
162.91333333
 20
160.43333334
 30
0.0
 11
162.91333333
 21
163.266666671
 31
0.0
  0
LINE
  8
0
  6
CONTINUOUS
 62
     2
 10
162.916666663
 20
160.93333334
 30
0.0
 11
164.233333328
 21
160.93333334
 31
0.0
  0
LINE
  8
0
  6
CONTINUOUS
 62
     2
 10
164.246666662
 20
162.773333338
 30
0.0
 11
162.919999996
 21
162.773333338
 31
0.0
  0
LINE
  8
0
  6
CONTINUOUS
 62
     2
 10
155.180000004
 20
132.850000034
 30
0.0
 11
155.180000004
 21
130.850000036
 31
0.0
  0
LINE
  8
0
  6
CONTINUOUS
 62
     2
 10
154.946666671
 20
130.850000036
 30
0.0
 11
155.180000004
 21
130.850000036
 31
0.0
  0
ARC
  8
0
  6
CONTINUOUS
 62
     2
 10
154.946666671
 20
131.116666703
 30
0.0
 40
0.266666666
 50
180.0
 51
270.0
  0
LINE
  8
0
  6
CONTINUOUS
 62
     2
 10
154.946666671
 20
132.850000034
 30
0.0
 11
155.24666667
 21
132.850000034
 31
0.0
  0
LINE
  8
0
  6
CONTINUOUS
 62
     2
 10
154.680000004
 20
131.116666703
 30
0.0
 11
154.680000004
 21
132.583333368
 31
0.0
  0
ARC
  8
0
  6
CONTINUOUS
 62
     2
 10
154.946666671
 20
132.583333368
 30
0.0
 40
0.266666666
 50
90.0
 51
180.0
  0
LINE
  8
0
  6
CONTINUOUS
 62
     2
 10
154.680000004
 20
131.916666702
 30
0.0
 11
154.746666671
 21
131.916666702
 31
0.0
  0
LINE
  8
0
  6
CONTINUOUS
 62
     2
 10
154.746666671
 20
131.916666702
 30
0.0
 11
154.746666671
 21
131.783333369
 31
0.0
  0
LINE
  8
0
  6
CONTINUOUS
 62
     2
 10
154.746666671
 20
131.783333369
 30
0.0
 11
154.680000004
 21
131.783333369
 31
0.0
  0
LINE
  8
0
  6
CONTINUOUS
 62
     2
 10
155.24666667
 20
162.666666671
 30
0.0
 11
155.180000004
 21
162.666666671
 31
0.0
  0
LINE
  8
0
  6
CONTINUOUS
 62
     2
 10
155.180000004
 20
162.666666671
 30
0.0
 11
155.180000004
 21
161.000000006
 31
0.0
  0
LINE
  8
0
  6
CONTINUOUS
 62
     2
 10
155.180000004
 20
161.000000006
 30
0.0
 11
155.24666667
 21
161.000000006
 31
0.0
  0
LINE
  8
0
  6
CONTINUOUS
 62
     2
 10
155.180000004
 20
162.850000004
 30
0.0
 11
155.180000004
 21
160.850000006
 31
0.0
  0
LINE
  8
0
  6
CONTINUOUS
 62
     2
 10
154.946666671
 20
160.850000006
 30
0.0
 11
155.180000004
 21
160.850000006
 31
0.0
  0
ARC
  8
0
  6
CONTINUOUS
 62
     2
 10
154.946666671
 20
161.116666673
 30
0.0
 40
0.266666666
 50
180.0
 51
270.0
  0
LINE
  8
0
  6
CONTINUOUS
 62
     2
 10
154.946666671
 20
162.850000004
 30
0.0
 11
155.24666667
 21
162.850000004
 31
0.0
  0
LINE
  8
0
  6
CONTINUOUS
 62
     2
 10
154.680000004
 20
161.116666673
 30
0.0
 11
154.680000004
 21
162.583333338
 31
0.0
  0
ARC
  8
0
  6
CONTINUOUS
 62
     2
 10
154.946666671
 20
162.583333338
 30
0.0
 40
0.266666666
 50
90.0
 51
180.0
  0
LINE
  8
0
  6
CONTINUOUS
 62
     2
 10
154.680000004
 20
161.916666672
 30
0.0
 11
154.746666671
 21
161.916666672
 31
0.0
  0
LINE
  8
0
  6
CONTINUOUS
 62
     2
 10
154.746666671
 20
161.916666672
 30
0.0
 11
154.746666671
 21
161.783333339
 31
0.0
  0
LINE
  8
0
  6
CONTINUOUS
 62
     2
 10
154.746666671
 20
161.783333339
 30
0.0
 11
154.680000004
 21
161.783333339
 31
0.0
  0
LINE
  8
0
  6
CONTINUOUS
 62
     2
 10
162.767267547
 20
163.750000003
 30
0.0
 11
161.246666665
 21
163.750000003
 31
0.0
  0
LINE
  8
0
  6
CONTINUOUS
 62
     2
 10
161.246666665
 20
159.950000007
 30
0.0
 11
162.76333333
 21
159.950000007
 31
0.0
  0
LINE
  8
0
  6
CONTINUOUS
 62
     2
 10
161.246666665
 20
163.750000003
 30
0.0
 11
161.246666665
 21
159.950000007
 31
0.0
  0
LINE
  8
0
  6
CONTINUOUS
 62
     2
 10
160.579999999
 20
164.083333336
 30
0.0
 11
161.246666665
 21
163.750000003
 31
0.0
  0
LINE
  8
0
  6
CONTINUOUS
 62
     2
 10
160.579999999
 20
159.616666674
 30
0.0
 11
161.246666665
 21
159.950000007
 31
0.0
  0
LINE
  8
0
  6
CONTINUOUS
 62
     2
 10
160.579999999
 20
164.083333336
 30
0.0
 11
160.579999999
 21
159.616666674
 31
0.0
  0
LINE
  8
0
  6
CONTINUOUS
 62
     2
 10
160.579999999
 20
162.850000004
 30
0.0
 11
159.246666667
 21
162.850000004
 31
0.0
  0
LINE
  8
0
  6
CONTINUOUS
 62
     2
 10
160.579999999
 20
162.773333338
 30
0.0
 11
159.246666667
 21
162.773333338
 31
0.0
  0
LINE
  8
0
  6
CONTINUOUS
 62
     2
 10
159.246666667
 20
160.85333334
 30
0.0
 11
160.579999999
 21
160.85333334
 31
0.0
  0
LINE
  8
0
  6
CONTINUOUS
 62
     2
 10
160.579999999
 20
160.93333334
 30
0.0
 11
159.246666667
 21
160.93333334
 31
0.0
  0
LINE
  8
0
  6
CONTINUOUS
 62
     1
 10
152.25449276
 20
149.516666684
 30
0.0
 11
150.721159429
 21
149.516666684
 31
0.0
  0
LINE
  8
0
  6
CONTINUOUS
 62
     1
 10
150.721159429
 20
149.516666684
 30
0.0
 11
150.721159429
 21
144.183333356
 31
0.0
  0
LINE
  8
0
  6
CONTINUOUS
 62
     1
 10
150.721159429
 20
144.183333356
 30
0.0
 11
152.25333334
 21
144.183333356
 31
0.0
  0
LINE
  8
0
  6
CONTINUOUS
 62
     1
 10
150.721159429
 20
145.350000022
 30
0.0
 11
149.913333342
 21
145.350000022
 31
0.0
  0
LINE
  8
0
  6
CONTINUOUS
 62
     1
 10
149.913333342
 20
145.350000022
 30
0.0
 11
149.913333342
 21
148.350000019
 31
0.0
  0
LINE
  8
0
  6
CONTINUOUS
 62
     1
 10
149.913333342
 20
148.350000019
 30
0.0
 11
150.721159429
 21
148.350000019
 31
0.0
  0
LINE
  8
0
  6
CONTINUOUS
 62
     1
 10
152.25333334
 20
144.183333356
 30
0.0
 11
152.25333334
 21
149.516666684
 31
0.0
  0
LINE
  8
0
  6
CONTINUOUS
 62
     1
 10
152.25449276
 20
149.516666684
 30
0.0
 11
152.746666673
 21
163.66666667
 31
0.0
  0
LINE
  8
0
  6
CONTINUOUS
 62
     1
 10
152.25333334
 20
144.183333356
 30
0.0
 11
152.746666673
 21
130.000000037
 31
0.0
  0
LINE
  8
0
  6
CONTINUOUS
 62
     2
 10
149.982607412
 20
148.334764011
 30
0.0
 11
150.466909759
 21
150.787405696
 31
0.0
  0
LINE
  8
0
  6
CONTINUOUS
 62
     2
 10
149.982607412
 20
148.334764011
 30
0.0
 11
149.175704705
 21
150.70096519
 31
0.0
  0
LINE
  8
0
  6
CONTINUOUS
 62
     2
 10
149.982607412
 20
148.334764011
 30
0.0
 11
148.382607412
 21
172.234764011
 31
0.0
  0
LINE
  8
0
  6
CONTINUOUS
 62
     2
 10
166.082607412
 20
172.234764011
 30
0.0
 11
148.382607412
 21
172.234764011
 31
0.0
  0
TEXT
  8
0
  6
CONTINUOUS
 62
     2
 10
148.382607412
 20
173.234764011
 30
0.3
 40
3.0
  1
手動復帰押釦
 50
0.0
 41
0.9
 51
0.0
  7
KANJI2
  0
LINE
  8
0
  6
CONTINUOUS
 62
     2
 10
164.246666662
 20
162.850000004
 30
0.0
 11
166.283466217
 21
164.299637052
 31
0.0
  0
LINE
  8
0
  6
CONTINUOUS
 62
     2
 10
164.246666662
 20
162.850000004
 30
0.0
 11
165.285768295
 21
165.123822292
 31
0.0
  0
LINE
  8
0
  6
CONTINUOUS
 62
     2
 10
164.246666662
 20
162.850000004
 30
0.0
 11
168.046666662
 21
167.450000004
 31
0.0
  0
LINE
  8
0
  6
CONTINUOUS
 62
     2
 10
168.046666662
 20
167.450000004
 30
0.0
 11
194.746666662
 21
167.450000004
 31
0.0
  0
TEXT
  8
0
  6
CONTINUOUS
 62
     2
 10
168.046666662
 20
168.450000004
 30
0.3
 40
3.0
  1
４－Ｍ５取付ボルト
 50
0.0
 41
0.9
 51
0.0
  7
KANJI2
  0
LINE
  8
0
  6
CONTINUOUS
 62
     1
 10
155.580000004
 20
128.500000039
 30
0.0
 11
159.08
 21
128.500000039
 31
0.0
  0
LINE
  8
0
  6
LTYPE2
 62
     2
 10
157.880000001
 20
131.850000035
 30
0.0
 11
165.779999993
 21
131.850000035
 31
0.0
  0
LINE
  8
0
  6
CONTINUOUS
 62
     2
 10
163.046666663
 20
132.850000034
 30
0.0
 11
164.379999995
 21
132.850000034
 31
0.0
  0
LINE
  8
0
  6
CONTINUOUS
 62
     2
 10
164.379999995
 20
132.850000034
 30
0.0
 11
164.379999995
 21
130.850000036
 31
0.0
  0
LINE
  8
0
  6
CONTINUOUS
 62
     2
 10
164.379999995
 20
130.850000036
 30
0.0
 11
163.046666663
 21
130.850000036
 31
0.0
  0
ARC
  8
0
  6
CONTINUOUS
 62
     2
 10
159.713333333
 20
131.850000035
 30
0.0
 40
3.33333333
 50
343.5
 51
16.5
  0
ARC
  8
0
  6
CONTINUOUS
 62
     2
 10
164.713333328
 20
131.850000035
 30
0.0
 40
3.33333333
 50
163.5
 51
196.3
  0
ARC
  8
0
  6
CONTINUOUS
 62
     2
 10
162.213333331
 20
133.266666701
 30
0.0
 40
0.833333333
 50
325.0
 51
35.0
  0
ARC
  8
0
  6
CONTINUOUS
 62
     2
 10
162.213333331
 20
133.266666701
 30
0.0
 40
0.833333333
 50
145.0
 51
215.0
  0
ARC
  8
0
  6
CONTINUOUS
 62
     2
 10
162.213333331
 20
130.43333337
 30
0.0
 40
0.833333333
 50
145.0
 51
215.0
  0
ARC
  8
0
  6
CONTINUOUS
 62
     2
 10
162.213333331
 20
130.43333337
 30
0.0
 40
0.833333333
 50
325.0
 51
35.0
  0
LINE
  8
0
  6
CONTINUOUS
 62
     2
 10
161.513982358
 20
130.91444434
 30
0.0
 11
162.89731569
 21
130.91444434
 31
0.0
  0
LINE
  8
0
  6
CONTINUOUS
 62
     2
 10
162.909399113
 20
132.79671785
 30
0.0
 11
161.517267548
 21
132.79671785
 31
0.0
  0
LINE
  8
0
  6
CONTINUOUS
 62
     2
 10
162.90060088
 20
133.750000033
 30
0.0
 11
161.379999998
 21
133.750000033
 31
0.0
  0
LINE
  8
0
  6
CONTINUOUS
 62
     2
 10
163.046666663
 20
130.43333337
 30
0.0
 11
163.046666663
 21
133.266666701
 31
0.0
  0
LINE
  8
0
  6
CONTINUOUS
 62
     2
 10
163.049999996
 20
130.93333337
 30
0.0
 11
164.366666662
 21
130.93333337
 31
0.0
  0
LINE
  8
0
  6
CONTINUOUS
 62
     2
 10
164.379999995
 20
132.773333368
 30
0.0
 11
163.05333333
 21
132.773333368
 31
0.0
  0
LINE
  8
0
  6
CONTINUOUS
 62
     2
 10
160.713333332
 20
134.083333366
 30
0.0
 11
161.379999998
 21
133.750000033
 31
0.0
  0
LINE
  8
0
  6
CONTINUOUS
 62
     2
 10
160.713333332
 20
134.083333366
 30
0.0
 11
160.713333332
 21
129.616666704
 31
0.0
  0
LINE
  8
0
  6
CONTINUOUS
 62
     2
 10
160.713333332
 20
129.616666704
 30
0.0
 11
161.379999998
 21
129.950000037
 31
0.0
  0
LINE
  8
0
  6
CONTINUOUS
 62
     2
 10
161.379999998
 20
129.950000037
 30
0.0
 11
162.896666663
 21
129.950000037
 31
0.0
  0
LINE
  8
0
  6
CONTINUOUS
 62
     2
 10
161.379999998
 20
133.750000033
 30
0.0
 11
161.379999998
 21
129.950000037
 31
0.0
  0
LINE
  8
0
  6
CONTINUOUS
 62
     2
 10
160.713333332
 20
132.783333368
 30
0.0
 11
159.38
 21
132.783333368
 31
0.0
  0
LINE
  8
0
  6
CONTINUOUS
 62
     2
 10
160.713333332
 20
132.706666701
 30
0.0
 11
159.38
 21
132.706666701
 31
0.0
  0
LINE
  8
0
  6
CONTINUOUS
 62
     2
 10
160.713333332
 20
130.93333337
 30
0.0
 11
159.38
 21
130.93333337
 31
0.0
  0
LINE
  8
0
  6
CONTINUOUS
 62
     2
 10
159.38
 20
130.85333337
 30
0.0
 11
160.713333332
 21
130.85333337
 31
0.0
  0
LINE
  8
0
  6
CONTINUOUS
 62
     2
 10
159.08
 20
129.850000037
 30
0.0
 11
159.38
 21
129.850000037
 31
0.0
  0
LINE
  8
0
  6
CONTINUOUS
 62
     2
 10
159.38
 20
129.850000037
 30
0.0
 11
159.38
 21
133.850000033
 31
0.0
  0
LINE
  8
0
  6
CONTINUOUS
 62
     2
 10
159.38
 20
133.850000033
 30
0.0
 11
159.08
 21
133.850000033
 31
0.0
  0
LINE
  8
0
  6
CONTINUOUS
 62
     2
 10
149.913333342
 20
145.85000002
 30
0.0
 11
149.913333342
 21
118.016666667
 31
0.0
  0
LINE
  8
0
  6
CONTINUOUS
 62
     2
 10
159.38
 20
129.500000039
 30
0.0
 11
159.38
 21
118.016666667
 31
0.0
  0
LINE
  8
0
  6
CONTINUOUS
 62
     2
 10
164.37995
 20
129.850000036
 30
0.0
 11
164.37995
 21
123.850000037
 31
0.0
  0
LINE
  8
0
  6
CONTINUOUS
 62
     2
 10
159.08
 20
128.000000039
 30
0.0
 11
159.08
 21
123.850000039
 31
0.0
  0
LINE
  8
0
  6
CONTINUOUS
 62
     2
 10
159.08
 20
125.850000037
 30
0.0
 11
156.665185434
 21
126.49704765
 31
0.0
  0
LINE
  8
0
  6
CONTINUOUS
 62
     2
 10
159.08
 20
125.850000037
 30
0.0
 11
156.665185434
 21
125.202952425
 31
0.0
  0
LINE
  8
0
  6
CONTINUOUS
 62
     2
 10
159.08
 20
125.850000037
 30
0.0
 11
164.37995
 21
125.850000037
 31
0.0
  0
LINE
  8
0
  6
CONTINUOUS
 62
     2
 10
159.38005
 20
125.850000037
 30
0.0
 11
161.794864566
 21
125.202952425
 31
0.0
  0
LINE
  8
0
  6
CONTINUOUS
 62
     2
 10
159.38005
 20
125.850000037
 30
0.0
 11
161.794864566
 21
126.49704765
 31
0.0
  0
TEXT
  8
0
  6
CONTINUOUS
 62
     2
 10
165.496666662
 20
126.350000037
 30
0.3
 40
3.0
  1
１５
 50
0.0
 41
0.6
 51
0.0
  7
KANJI4
  0
LINE
  8
0
  6
CONTINUOUS
 62
     2
 10
164.37995
 20
125.850000037
 30
0.0
 11
169.62995
 21
125.850000037
 31
0.0
  0
TEXT
  8
0
  6
CONTINUOUS
 62
     2
 10
153.596666662
 20
126.300000037
 30
0.3
 40
3.0
  1
１
 50
0.0
 41
0.6
 51
0.0
  7
KANJI4
  0
LINE
  8
0
  6
CONTINUOUS
 62
     2
 10
153.22995
 20
125.850000037
 30
0.0
 11
159.08
 21
125.850000037
 31
0.0
  0
TEXT
  8
0
  6
CONTINUOUS
 62
     2
 10
151.046666671
 20
121.016666667
 30
0.3
 40
3.0
  1
（２８）
 50
0.0
 41
0.6
 51
0.0
  7
KANJI4
  0
LINE
  8
0
  6
CONTINUOUS
 62
     2
 10
149.913333342
 20
120.016666667
 30
0.0
 11
147.498518777
 21
120.663714279
 31
0.0
  0
LINE
  8
0
  6
CONTINUOUS
 62
     2
 10
149.913333342
 20
120.016666667
 30
0.0
 11
147.498518777
 21
119.369619054
 31
0.0
  0
LINE
  8
0
  6
CONTINUOUS
 62
     2
 10
146.163333342
 20
120.016666667
 30
0.0
 11
149.913333342
 21
120.016666667
 31
0.0
  0
LINE
  8
0
  6
CONTINUOUS
 62
     2
 10
159.38
 20
120.016666667
 30
0.0
 11
163.13
 21
120.016666667
 31
0.0
  0
LINE
  8
0
  6
CONTINUOUS
 62
     2
 10
159.38
 20
120.016666667
 30
0.0
 11
161.794814566
 21
119.369619054
 31
0.0
  0
LINE
  8
0
  6
CONTINUOUS
 62
     2
 10
159.38
 20
120.016666667
 30
0.0
 11
161.794814566
 21
120.663714279
 31
0.0
  0
LINE
  8
0
  6
CONTINUOUS
 62
     2
 10
159.38
 20
120.016666667
 30
0.0
 11
161.794814566
 21
119.369619054
 31
0.0
  0
LINE
  8
0
  6
CONTINUOUS
 62
     2
 10
159.38
 20
120.016666667
 30
0.0
 11
161.794814566
 21
120.663714279
 31
0.0
  0
LINE
  8
0
  6
CONTINUOUS
 62
     2
 10
149.913333342
 20
120.016666667
 30
0.0
 11
159.38
 21
120.016666667
 31
0.0
  0
LINE
  8
0
  6
CONTINUOUS
 62
     2
 10
211.747999993
 20
157.50000001
 30
0.0
 11
211.747999993
 21
152.833333348
 31
0.0
  0
LINE
  8
0
  6
CONTINUOUS
 62
     2
 10
211.747999993
 20
152.833333348
 30
0.0
 11
210.681333328
 21
152.833333348
 31
0.0
  0
LINE
  8
0
  6
CONTINUOUS
 62
     2
 10
210.681333328
 20
152.833333348
 30
0.0
 11
210.681333328
 21
153.166666681
 31
0.0
  0
LINE
  8
0
  6
CONTINUOUS
 62
     2
 10
210.681333328
 20
153.166666681
 30
0.0
 11
208.347999997
 21
153.166666681
 31
0.0
  0
LINE
  8
0
  6
CONTINUOUS
 62
     2
 10
207.581333331
 20
156.416666677
 30
0.0
 11
207.581333331
 21
153.91666668
 31
0.0
  0
LINE
  8
0
  6
CONTINUOUS
 62
     2
 10
208.347999997
 20
153.166666681
 30
0.0
 11
207.581333331
 21
153.91666668
 31
0.0
  0
LINE
  8
0
  6
CONTINUOUS
 62
     2
 10
211.747999993
 20
157.50000001
 30
0.0
 11
210.681333328
 21
157.50000001
 31
0.0
  0
LINE
  8
0
  6
CONTINUOUS
 62
     2
 10
210.681333328
 20
157.50000001
 30
0.0
 11
210.681333328
 21
157.166666677
 31
0.0
  0
LINE
  8
0
  6
CONTINUOUS
 62
     2
 10
210.681333328
 20
157.166666677
 30
0.0
 11
208.347999997
 21
157.166666677
 31
0.0
  0
LINE
  8
0
  6
CONTINUOUS
 62
     2
 10
208.347999997
 20
157.166666677
 30
0.0
 11
207.581333331
 21
156.416666677
 31
0.0
  0
LINE
  8
0
  6
CONTINUOUS
 62
     2
 10
208.514666663
 20
155.733333345
 30
0.0
 11
208.514666663
 21
154.600000013
 31
0.0
  0
LINE
  8
0
  6
CONTINUOUS
 62
     2
 10
209.247999996
 20
155.733333345
 30
0.0
 11
208.514666663
 21
155.733333345
 31
0.0
  0
LINE
  8
0
  6
CONTINUOUS
 62
     2
 10
209.247999996
 20
154.600000013
 30
0.0
 11
209.247999996
 21
155.733333345
 31
0.0
  0
LINE
  8
0
  6
CONTINUOUS
 62
     2
 10
208.514666663
 20
154.600000013
 30
0.0
 11
209.247999996
 21
154.600000013
 31
0.0
  0
LINE
  8
0
  6
CONTINUOUS
 62
     2
 10
206.914666665
 20
157.10000001
 30
0.0
 11
208.279851849
 21
157.10000001
 31
0.0
  0
LINE
  8
0
  6
CONTINUOUS
 62
     2
 10
206.914666665
 20
153.233333347
 30
0.0
 11
208.279851849
 21
153.233333347
 31
0.0
  0
LINE
  8
0
  6
CONTINUOUS
 62
     2
 10
211.581333422
 20
157.433333372
 30
0.0
 11
213.487867465
 21
159.050469095
 31
0.0
  0
LINE
  8
0
  6
CONTINUOUS
 62
     2
 10
211.581333422
 20
157.433333372
 30
0.0
 11
212.423872475
 21
159.78708101
 31
0.0
  0
LINE
  8
0
  6
CONTINUOUS
 62
     2
 10
203.164666665
 20
120.0
 30
0.0
 11
206.914666665
 21
120.0
 31
0.0
  0
LINE
  8
0
  6
CONTINUOUS
 62
     2
 10
206.914666665
 20
120.0
 30
0.0
 11
211.747999993
 21
120.0
 31
0.0
  0
LINE
  8
0
  6
CONTINUOUS
 62
     2
 10
211.747999993
 20
120.0
 30
0.0
 11
214.162814559
 21
119.352952387
 31
0.0
  0
LINE
  8
0
  6
CONTINUOUS
 62
     2
 10
211.747999993
 20
120.0
 30
0.0
 11
214.162814559
 21
120.647047613
 31
0.0
  0
TEXT
  8
0
  6
CONTINUOUS
 62
     2
 10
213.997999993
 20
121.0
 30
0.3
 40
3.0
  1
１４．５
 50
0.0
 41
0.6
 51
0.0
  7
KANJI4
  0
LINE
  8
0
  6
CONTINUOUS
 62
     2
 10
211.747999993
 20
120.0
 30
0.0
 11
220.747999993
 21
120.0
 31
0.0
  0
LINE
  8
0
  6
CONTINUOUS
 62
     2
 10
211.581333422
 20
157.433333372
 30
0.0
 11
220.581333422
 21
170.433333372
 31
0.0
  0
ARC
  8
0
  6
CONTINUOUS
 62
     1
 10
206.581333332
 20
131.166666703
 30
0.0
 40
0.333333333
 50
270.0
 51
0.0
  0
ARC
  8
0
  6
CONTINUOUS
 62
     1
 10
206.581333332
 20
162.500000004
 30
0.0
 40
0.333333333
 50
360.0
 51
90.0
  0
LINE
  8
0
  6
CONTINUOUS
 62
     1
 10
205.248
 20
162.833333337
 30
0.0
 11
206.581333332
 21
162.833333337
 31
0.0
  0
LINE
  8
0
  6
CONTINUOUS
 62
     1
 10
205.248
 20
162.833333337
 30
0.0
 11
205.248
 21
130.83333337
 31
0.0
  0
LINE
  8
0
  6
CONTINUOUS
 62
     1
 10
205.248
 20
130.83333337
 30
0.0
 11
206.581333332
 21
130.83333337
 31
0.0
  0
LINE
  8
0
  6
CONTINUOUS
 62
     1
 10
206.914666665
 20
162.500000004
 30
0.0
 11
206.914666665
 21
131.166666703
 31
0.0
  0
LINE
  8
0
  6
CONTINUOUS
 62
     2
 10
216.847999993
 20
163.333333354
 30
0.0
 11
216.200952381
 21
160.918518788
 31
0.0
  0
LINE
  8
0
  6
CONTINUOUS
 62
     2
 10
216.847999993
 20
163.333333354
 30
0.0
 11
217.495047606
 21
160.918518788
 31
0.0
  0
LINE
  8
0
  6
CONTINUOUS
 62
     2
 10
216.847999993
 20
130.333333354
 30
0.0
 11
217.495047606
 21
132.748147919
 31
0.0
  0
LINE
  8
0
  6
CONTINUOUS
 62
     2
 10
216.847999993
 20
130.333333354
 30
0.0
 11
216.200952381
 21
132.748147919
 31
0.0
  0
LINE
  8
0
  6
CONTINUOUS
 62
     2
 10
216.847999993
 20
163.333333354
 30
0.0
 11
216.847999993
 21
130.333333354
 31
0.0
  0
LINE
  8
0
  6
CONTINUOUS
 62
     2
 10
208.514666665
 20
139.066666695
 30
0.0
 11
208.514666665
 21
137.933333362
 31
0.0
  0
LINE
  8
0
  6
CONTINUOUS
 62
     2
 10
209.247999998
 20
139.066666695
 30
0.0
 11
208.514666665
 21
139.066666695
 31
0.0
  0
LINE
  8
0
  6
CONTINUOUS
 62
     2
 10
209.247999998
 20
137.933333362
 30
0.0
 11
209.247999998
 21
139.066666695
 31
0.0
  0
LINE
  8
0
  6
CONTINUOUS
 62
     2
 10
208.514666665
 20
137.933333362
 30
0.0
 11
209.247999998
 21
137.933333362
 31
0.0
  0
LINE
  8
0
  6
CONTINUOUS
 62
     2
 10
206.914666665
 20
136.566666695
 30
0.0
 11
211.414666665
 21
136.566666695
 31
0.0
  0
LINE
  8
0
  6
CONTINUOUS
 62
     2
 10
211.414666665
 20
140.433333362
 30
0.0
 11
211.414666665
 21
136.566666695
 31
0.0
  0
LINE
  8
0
  6
CONTINUOUS
 62
     2
 10
206.914666665
 20
140.433333362
 30
0.0
 11
211.414666665
 21
140.433333362
 31
0.0
  0
LINE
  8
0
  6
CONTINUOUS
 62
     2
 10
211.747999993
 20
151.833333348
 30
0.0
 11
211.747999993
 21
118.0
 31
0.0
  0
TEXT
  8
0
  6
CONTINUOUS
 62
     2
 10
215.847999993
 20
141.833333354
 30
0.3
 40
3.0
  1
φ１００
 50
90.0
 41
0.6
 51
0.0
  7
KANJI4
  0
LINE
  8
0
  6
CONTINUOUS
 62
     2
 10
156.561340051
 20
120.016666667
 30
0.0
 11
212.728000051
 21
120.016666667
 31
0.0
  0
LINE
  8
0
  6
CONTINUOUS
 62
     2
 10
220.581333422
 20
170.433333372
 30
0.0
 11
235.281333422
 21
170.433333372
 31
0.0
  0
TEXT
  8
0
  6
CONTINUOUS
 62
     2
 10
220.581333422
 20
171.433333372
 30
0.3
 40
3.0
  1
端子カバー
 50
0.0
 41
0.9
 51
0.0
  7
KANJI2
  0
TEXT
  8
0
  6
CONTINUOUS
 62
     2
 10
220.581333422
 20
166.433333372
 30
0.3
 40
3.0
  1
（ワンタッチ取付形）
 50
0.0
 41
0.9
 51
0.0
  7
KANJI2
  0
LINE
  8
0
  6
CONTINUOUS
 62
     2
 10
164.37995
 20
125.850000037
 30
0.0
 11
166.794764566
 21
126.49704765
 31
0.0
  0
LINE
  8
0
  6
CONTINUOUS
 62
     2
 10
164.37995
 20
125.850000037
 30
0.0
 11
166.794764566
 21
125.202952425
 31
0.0
  0
LINE
  8
0
  6
CONTINUOUS
 62
     2
 10
205.248
 20
120.0
 30
0.0
 11
202.833185434
 21
120.647047613
 31
0.0
  0
LINE
  8
0
  6
CONTINUOUS
 62
     2
 10
205.248
 20
120.0
 30
0.0
 11
202.833185434
 21
119.352952387
 31
0.0
  0
LINE
  8
0
  6
CONTINUOUS
 62
     2
 10
205.248
 20
120.0
 30
0.0
 11
202.833185434
 21
120.647047613
 31
0.0
  0
LINE
  8
0
  6
CONTINUOUS
 62
     2
 10
205.248
 20
120.0
 30
0.0
 11
202.833185434
 21
119.352952387
 31
0.0
  0
LINE
  8
0
  6
CONTINUOUS
 62
     2
 10
205.248
 20
129.666666703
 30
0.0
 11
205.248
 21
118.0
 31
0.0
  0
TEXT
  8
0
  6
CONTINUOUS
 62
     2
 10
179.099999919
 20
121.0
 30
0.3
 40
3.0
  1
１３８．５
 50
0.0
 41
0.6
 51
0.0
  7
KANJI4
  0
LINE
  8
0
  6
CONTINUOUS
 62
     2
 10
56.666666577
 20
11.966666704
 30
0.0
 11
80.945666577
 21
11.966666704
 31
0.0
  0
LINE
  8
0
  6
CONTINUOUS
 62
     2
 10
80.945666577
 20
11.966666704
 30
0.0
 11
83.270666577
 21
11.966666704
 31
0.0
  0
ARC
  8
0
  6
CONTINUOUS
 62
     1
 10
136.533333314
 20
59.750000039
 30
0.0
 40
2.0
 50
270.0
 51
0.0
  0
LINE
  8
0
  6
CONTINUOUS
 62
     1
 10
103.866666648
 20
57.750000039
 30
0.0
 11
136.533333314
 21
57.750000039
 31
0.0
  0
ARC
  8
0
  6
CONTINUOUS
 62
     1
 10
103.866666648
 20
59.750000039
 30
0.0
 40
2.0
 50
180.0
 51
270.0
  0
LINE
  8
0
  6
CONTINUOUS
 62
     1
 10
101.866666648
 20
92.416666705
 30
0.0
 11
101.866666648
 21
59.750000039
 31
0.0
  0
ARC
  8
0
  6
CONTINUOUS
 62
     1
 10
103.866666648
 20
92.416666705
 30
0.0
 40
2.0
 50
90.0
 51
180.0
  0
LINE
  8
0
  6
CONTINUOUS
 62
     1
 10
138.533333314
 20
59.750000039
 30
0.0
 11
138.533333314
 21
92.416666705
 31
0.0
  0
LINE
  8
0
  6
CONTINUOUS
 62
     1
 10
136.533333314
 20
94.416666705
 30
0.0
 11
103.866666648
 21
94.416666705
 31
0.0
  0
ARC
  8
0
  6
CONTINUOUS
 62
     1
 10
136.533333314
 20
92.416666705
 30
0.0
 40
2.0
 50
360.0
 51
90.0
  0
CIRCLE
  8
0
  6
CONTINUOUS
 62
     1
 10
120.199999981
 20
76.083333372
 30
0.0
 40
16.5
  0
ARC
  8
0
  6
CONTINUOUS
 62
     2
 10
103.699999981
 20
59.583333372
 30
0.0
 40
1.0
 50
180.0
 51
270.0
  0
LINE
  8
0
  6
CONTINUOUS
 62
     2
 10
102.699999981
 20
92.583333372
 30
0.0
 11
102.699999981
 21
59.583333372
 31
0.0
  0
ARC
  8
0
  6
CONTINUOUS
 62
     2
 10
103.699999981
 20
92.583333372
 30
0.0
 40
1.0
 50
90.0
 51
180.0
  0
LINE
  8
0
  6
CONTINUOUS
 62
     2
 10
136.699999981
 20
93.583333372
 30
0.0
 11
103.699999981
 21
93.583333372
 31
0.0
  0
ARC
  8
0
  6
CONTINUOUS
 62
     2
 10
136.699999981
 20
92.583333372
 30
0.0
 40
1.0
 50
0.0
 51
90.0
  0
LINE
  8
0
  6
CONTINUOUS
 62
     2
 10
103.699999981
 20
58.583333372
 30
0.0
 11
136.699999981
 21
58.583333372
 31
0.0
  0
LINE
  8
0
  6
CONTINUOUS
 62
     2
 10
137.699999981
 20
59.583333372
 30
0.0
 11
137.699999981
 21
92.583333372
 31
0.0
  0
ARC
  8
0
  6
CONTINUOUS
 62
     2
 10
136.699999981
 20
59.583333372
 30
0.0
 40
1.0
 50
270.0
 51
360.0
  0
LINE
  8
0
  6
CONTINUOUS
 62
     2
 10
136.816580734
 20
92.016666705
 30
0.0
 11
135.199999981
 21
92.950000039
 31
0.0
  0
LINE
  8
0
  6
CONTINUOUS
 62
     2
 10
135.199999981
 20
92.950000039
 30
0.0
 11
133.583419227
 21
92.016666705
 31
0.0
  0
LINE
  8
0
  6
CONTINUOUS
 62
     2
 10
133.583419227
 20
92.016666705
 30
0.0
 11
133.583419227
 21
90.150000039
 31
0.0
  0
LINE
  8
0
  6
CONTINUOUS
 62
     2
 10
133.583419227
 20
90.150000039
 30
0.0
 11
135.199999981
 21
89.216666705
 31
0.0
  0
LINE
  8
0
  6
CONTINUOUS
 62
     2
 10
135.199999981
 20
89.216666705
 30
0.0
 11
136.816580734
 21
90.150000039
 31
0.0
  0
LINE
  8
0
  6
CONTINUOUS
 62
     2
 10
136.816580734
 20
90.150000039
 30
0.0
 11
136.816580734
 21
92.016666705
 31
0.0
  0
CIRCLE
  8
0
  6
CONTINUOUS
 62
     2
 10
135.199999981
 20
91.083333372
 30
0.0
 40
1.0
  0
CIRCLE
  8
0
  6
CONTINUOUS
 62
     2
 10
135.199999981
 20
91.083333372
 30
0.0
 40
0.933333333
  0
CIRCLE
  8
0
  6
CONTINUOUS
 62
     2
 10
135.199999981
 20
91.083333372
 30
0.0
 40
2.0
  0
CIRCLE
  8
0
  6
CONTINUOUS
 62
     2
 10
135.199999981
 20
91.083333372
 30
0.0
 40
1.666666667
  0
LINE
  8
0
  6
LTYPE2
 62
     2
 10
132.616666647
 20
91.083333372
 30
0.0
 11
137.933333314
 21
91.083333372
 31
0.0
  0
LINE
  8
0
  6
LTYPE2
 62
     2
 10
135.199999981
 20
93.683333372
 30
0.0
 11
135.199999981
 21
88.533333372
 31
0.0
  0
LINE
  8
0
  6
CONTINUOUS
 62
     2
 10
106.816580735
 20
92.016666705
 30
0.0
 11
105.199999981
 21
92.950000039
 31
0.0
  0
LINE
  8
0
  6
CONTINUOUS
 62
     2
 10
105.199999981
 20
92.950000039
 30
0.0
 11
103.583419227
 21
92.016666705
 31
0.0
  0
LINE
  8
0
  6
CONTINUOUS
 62
     2
 10
103.583419227
 20
92.016666705
 30
0.0
 11
103.583419227
 21
90.150000039
 31
0.0
  0
LINE
  8
0
  6
CONTINUOUS
 62
     2
 10
103.583419227
 20
90.150000039
 30
0.0
 11
105.199999981
 21
89.216666705
 31
0.0
  0
LINE
  8
0
  6
CONTINUOUS
 62
     2
 10
105.199999981
 20
89.216666705
 30
0.0
 11
106.816580735
 21
90.150000039
 31
0.0
  0
LINE
  8
0
  6
CONTINUOUS
 62
     2
 10
106.816580735
 20
90.150000039
 30
0.0
 11
106.816580735
 21
92.016666705
 31
0.0
  0
CIRCLE
  8
0
  6
CONTINUOUS
 62
     2
 10
105.199999981
 20
91.083333372
 30
0.0
 40
1.0
  0
CIRCLE
  8
0
  6
CONTINUOUS
 62
     2
 10
105.199999981
 20
91.083333372
 30
0.0
 40
0.933333333
  0
CIRCLE
  8
0
  6
CONTINUOUS
 62
     2
 10
105.199999981
 20
91.083333372
 30
0.0
 40
2.0
  0
CIRCLE
  8
0
  6
CONTINUOUS
 62
     2
 10
105.199999981
 20
91.083333372
 30
0.0
 40
1.666666667
  0
LINE
  8
0
  6
LTYPE2
 62
     2
 10
102.616666648
 20
91.083333372
 30
0.0
 11
107.933333314
 21
91.083333372
 31
0.0
  0
LINE
  8
0
  6
LTYPE2
 62
     2
 10
105.199999981
 20
93.683333372
 30
0.0
 11
105.199999981
 21
88.533333372
 31
0.0
  0
LINE
  8
0
  6
CONTINUOUS
 62
     2
 10
106.816580735
 20
62.016666706
 30
0.0
 11
105.199999981
 21
62.950000039
 31
0.0
  0
LINE
  8
0
  6
CONTINUOUS
 62
     2
 10
105.199999981
 20
62.950000039
 30
0.0
 11
103.583419227
 21
62.016666706
 31
0.0
  0
LINE
  8
0
  6
CONTINUOUS
 62
     2
 10
103.583419227
 20
62.016666706
 30
0.0
 11
103.583419227
 21
60.150000039
 31
0.0
  0
LINE
  8
0
  6
CONTINUOUS
 62
     2
 10
103.583419227
 20
60.150000039
 30
0.0
 11
105.199999981
 21
59.216666706
 31
0.0
  0
LINE
  8
0
  6
CONTINUOUS
 62
     2
 10
105.199999981
 20
59.216666706
 30
0.0
 11
106.816580735
 21
60.150000039
 31
0.0
  0
LINE
  8
0
  6
CONTINUOUS
 62
     2
 10
106.816580735
 20
60.150000039
 30
0.0
 11
106.816580735
 21
62.016666706
 31
0.0
  0
CIRCLE
  8
0
  6
CONTINUOUS
 62
     2
 10
105.199999981
 20
61.083333372
 30
0.0
 40
1.0
  0
CIRCLE
  8
0
  6
CONTINUOUS
 62
     2
 10
105.199999981
 20
61.083333372
 30
0.0
 40
0.933333333
  0
CIRCLE
  8
0
  6
CONTINUOUS
 62
     2
 10
105.199999981
 20
61.083333372
 30
0.0
 40
2.0
  0
CIRCLE
  8
0
  6
CONTINUOUS
 62
     2
 10
105.199999981
 20
61.083333372
 30
0.0
 40
1.666666667
  0
LINE
  8
0
  6
LTYPE2
 62
     2
 10
102.616666648
 20
61.083333372
 30
0.0
 11
107.933333314
 21
61.083333372
 31
0.0
  0
LINE
  8
0
  6
LTYPE2
 62
     2
 10
105.199999981
 20
63.683333372
 30
0.0
 11
105.199999981
 21
58.533333372
 31
0.0
  0
LINE
  8
0
  6
CONTINUOUS
 62
     2
 10
136.816580734
 20
62.016666706
 30
0.0
 11
135.199999981
 21
62.950000039
 31
0.0
  0
LINE
  8
0
  6
CONTINUOUS
 62
     2
 10
135.199999981
 20
62.950000039
 30
0.0
 11
133.583419227
 21
62.016666706
 31
0.0
  0
LINE
  8
0
  6
CONTINUOUS
 62
     2
 10
133.583419227
 20
62.016666706
 30
0.0
 11
133.583419227
 21
60.150000039
 31
0.0
  0
LINE
  8
0
  6
CONTINUOUS
 62
     2
 10
133.583419227
 20
60.150000039
 30
0.0
 11
135.199999981
 21
59.216666706
 31
0.0
  0
LINE
  8
0
  6
CONTINUOUS
 62
     2
 10
135.199999981
 20
59.216666706
 30
0.0
 11
136.816580734
 21
60.150000039
 31
0.0
  0
LINE
  8
0
  6
CONTINUOUS
 62
     2
 10
136.816580734
 20
60.150000039
 30
0.0
 11
136.816580734
 21
62.016666706
 31
0.0
  0
CIRCLE
  8
0
  6
CONTINUOUS
 62
     2
 10
135.199999981
 20
61.083333372
 30
0.0
 40
1.0
  0
CIRCLE
  8
0
  6
CONTINUOUS
 62
     2
 10
135.199999981
 20
61.083333372
 30
0.0
 40
0.933333333
  0
CIRCLE
  8
0
  6
CONTINUOUS
 62
     2
 10
135.199999981
 20
61.083333372
 30
0.0
 40
2.0
  0
CIRCLE
  8
0
  6
CONTINUOUS
 62
     2
 10
135.199999981
 20
61.083333372
 30
0.0
 40
1.666666667
  0
LINE
  8
0
  6
LTYPE2
 62
     2
 10
132.616666647
 20
61.083333372
 30
0.0
 11
137.933333314
 21
61.083333372
 31
0.0
  0
LINE
  8
0
  6
LTYPE2
 62
     2
 10
135.199999981
 20
63.683333372
 30
0.0
 11
135.199999981
 21
58.533333372
 31
0.0
  0
CIRCLE
  8
0
  6
CONTINUOUS
 62
     2
 10
132.901705903
 20
68.750000039
 30
0.0
 40
1.166666667
  0
CIRCLE
  8
0
  6
CONTINUOUS
 62
     2
 10
120.199999981
 20
90.750000039
 30
0.0
 40
1.166666667
  0
CIRCLE
  8
0
  6
CONTINUOUS
 62
     2
 10
107.498294059
 20
68.750000039
 30
0.0
 40
1.166666667
  0
CIRCLE
  8
0
  6
CONTINUOUS
 62
     2
 10
107.498294059
 20
68.750000039
 30
0.0
 40
1.0
  0
LINE
  8
0
  6
CONTINUOUS
 62
     2
 10
106.914960725
 20
68.883333372
 30
0.0
 11
107.231627392
 21
68.883333372
 31
0.0
  0
ARC
  8
0
  6
CONTINUOUS
 62
     2
 10
107.231627392
 20
69.016666706
 30
0.0
 40
0.133333333
 50
270.0
 51
0.0
  0
LINE
  8
0
  6
CONTINUOUS
 62
     2
 10
107.364960725
 20
69.016666706
 30
0.0
 11
107.364960725
 21
69.333333372
 31
0.0
  0
LINE
  8
0
  6
CONTINUOUS
 62
     2
 10
107.364960725
 20
69.333333372
 30
0.0
 11
107.631627392
 21
69.333333372
 31
0.0
  0
LINE
  8
0
  6
CONTINUOUS
 62
     2
 10
107.631627392
 20
69.333333372
 30
0.0
 11
107.631627392
 21
69.016666706
 31
0.0
  0
ARC
  8
0
  6
CONTINUOUS
 62
     2
 10
107.764960725
 20
69.016666706
 30
0.0
 40
0.133333333
 50
180.0
 51
270.0
  0
LINE
  8
0
  6
CONTINUOUS
 62
     2
 10
107.764960725
 20
68.883333372
 30
0.0
 11
108.081627392
 21
68.883333372
 31
0.0
  0
LINE
  8
0
  6
CONTINUOUS
 62
     2
 10
108.081627392
 20
68.883333372
 30
0.0
 11
108.081627392
 21
68.616666706
 31
0.0
  0
LINE
  8
0
  6
CONTINUOUS
 62
     2
 10
108.081627392
 20
68.616666706
 30
0.0
 11
107.764960725
 21
68.616666706
 31
0.0
  0
ARC
  8
0
  6
CONTINUOUS
 62
     2
 10
107.764960725
 20
68.483333372
 30
0.0
 40
0.133333333
 50
90.0
 51
180.0
  0
LINE
  8
0
  6
CONTINUOUS
 62
     2
 10
107.631627392
 20
68.483333372
 30
0.0
 11
107.631627392
 21
68.166666706
 31
0.0
  0
LINE
  8
0
  6
CONTINUOUS
 62
     2
 10
107.631627392
 20
68.166666706
 30
0.0
 11
107.364960725
 21
68.166666706
 31
0.0
  0
LINE
  8
0
  6
CONTINUOUS
 62
     2
 10
107.364960725
 20
68.166666706
 30
0.0
 11
107.364960725
 21
68.483333372
 31
0.0
  0
ARC
  8
0
  6
CONTINUOUS
 62
     2
 10
107.231627392
 20
68.483333372
 30
0.0
 40
0.133333333
 50
0.0
 51
90.0
  0
LINE
  8
0
  6
CONTINUOUS
 62
     2
 10
107.231627392
 20
68.616666706
 30
0.0
 11
106.914960725
 21
68.616666706
 31
0.0
  0
LINE
  8
0
  6
CONTINUOUS
 62
     2
 10
106.914960725
 20
68.616666706
 30
0.0
 11
106.914960725
 21
68.883333372
 31
0.0
  0
LINE
  8
0
  6
LTYPE1
 62
     2
 10
106.164960725
 20
68.750000039
 30
0.0
 11
108.831627392
 21
68.750000039
 31
0.0
  0
LINE
  8
0
  6
LTYPE1
 62
     2
 10
107.498294059
 20
70.083333372
 30
0.0
 11
107.498294059
 21
67.416666706
 31
0.0
  0
CIRCLE
  8
0
  6
CONTINUOUS
 62
     2
 10
120.199999981
 20
90.750000039
 30
0.0
 40
1.0
  0
LINE
  8
0
  6
CONTINUOUS
 62
     2
 10
119.616666647
 20
90.883333372
 30
0.0
 11
119.933333314
 21
90.883333372
 31
0.0
  0
ARC
  8
0
  6
CONTINUOUS
 62
     2
 10
119.933333314
 20
91.016666705
 30
0.0
 40
0.133333333
 50
270.0
 51
0.0
  0
LINE
  8
0
  6
CONTINUOUS
 62
     2
 10
120.066666647
 20
91.016666705
 30
0.0
 11
120.066666647
 21
91.333333372
 31
0.0
  0
LINE
  8
0
  6
CONTINUOUS
 62
     2
 10
120.066666647
 20
91.333333372
 30
0.0
 11
120.333333314
 21
91.333333372
 31
0.0
  0
LINE
  8
0
  6
CONTINUOUS
 62
     2
 10
120.333333314
 20
91.333333372
 30
0.0
 11
120.333333314
 21
91.016666705
 31
0.0
  0
ARC
  8
0
  6
CONTINUOUS
 62
     2
 10
120.466666647
 20
91.016666705
 30
0.0
 40
0.133333333
 50
180.0
 51
270.0
  0
LINE
  8
0
  6
CONTINUOUS
 62
     2
 10
120.466666647
 20
90.883333372
 30
0.0
 11
120.783333314
 21
90.883333372
 31
0.0
  0
LINE
  8
0
  6
CONTINUOUS
 62
     2
 10
120.783333314
 20
90.883333372
 30
0.0
 11
120.783333314
 21
90.616666705
 31
0.0
  0
LINE
  8
0
  6
CONTINUOUS
 62
     2
 10
120.783333314
 20
90.616666705
 30
0.0
 11
120.466666647
 21
90.616666705
 31
0.0
  0
ARC
  8
0
  6
CONTINUOUS
 62
     2
 10
120.466666647
 20
90.483333372
 30
0.0
 40
0.133333333
 50
90.0
 51
180.0
  0
LINE
  8
0
  6
CONTINUOUS
 62
     2
 10
120.333333314
 20
90.483333372
 30
0.0
 11
120.333333314
 21
90.166666705
 31
0.0
  0
LINE
  8
0
  6
CONTINUOUS
 62
     2
 10
120.333333314
 20
90.166666705
 30
0.0
 11
120.066666647
 21
90.166666705
 31
0.0
  0
LINE
  8
0
  6
CONTINUOUS
 62
     2
 10
120.066666647
 20
90.166666705
 30
0.0
 11
120.066666647
 21
90.483333372
 31
0.0
  0
ARC
  8
0
  6
CONTINUOUS
 62
     2
 10
119.933333314
 20
90.483333372
 30
0.0
 40
0.133333333
 50
0.0
 51
90.0
  0
LINE
  8
0
  6
CONTINUOUS
 62
     2
 10
119.933333314
 20
90.616666705
 30
0.0
 11
119.616666647
 21
90.616666705
 31
0.0
  0
LINE
  8
0
  6
CONTINUOUS
 62
     2
 10
119.616666647
 20
90.616666705
 30
0.0
 11
119.616666647
 21
90.883333372
 31
0.0
  0
LINE
  8
0
  6
LTYPE1
 62
     2
 10
118.866666647
 20
90.750000039
 30
0.0
 11
121.533333314
 21
90.750000039
 31
0.0
  0
LINE
  8
0
  6
LTYPE1
 62
     2
 10
120.199999981
 20
92.083333372
 30
0.0
 11
120.199999981
 21
89.416666705
 31
0.0
  0
CIRCLE
  8
0
  6
CONTINUOUS
 62
     2
 10
132.901705903
 20
68.750000039
 30
0.0
 40
1.0
  0
LINE
  8
0
  6
CONTINUOUS
 62
     2
 10
132.31837257
 20
68.883333372
 30
0.0
 11
132.635039236
 21
68.883333372
 31
0.0
  0
ARC
  8
0
  6
CONTINUOUS
 62
     2
 10
132.635039236
 20
69.016666706
 30
0.0
 40
0.133333333
 50
270.0
 51
0.0
  0
LINE
  8
0
  6
CONTINUOUS
 62
     2
 10
132.76837257
 20
69.016666706
 30
0.0
 11
132.76837257
 21
69.333333372
 31
0.0
  0
LINE
  8
0
  6
CONTINUOUS
 62
     2
 10
132.76837257
 20
69.333333372
 30
0.0
 11
133.035039236
 21
69.333333372
 31
0.0
  0
LINE
  8
0
  6
CONTINUOUS
 62
     2
 10
133.035039236
 20
69.333333372
 30
0.0
 11
133.035039236
 21
69.016666706
 31
0.0
  0
ARC
  8
0
  6
CONTINUOUS
 62
     2
 10
133.16837257
 20
69.016666706
 30
0.0
 40
0.133333333
 50
180.0
 51
270.0
  0
LINE
  8
0
  6
CONTINUOUS
 62
     2
 10
133.16837257
 20
68.883333372
 30
0.0
 11
133.485039236
 21
68.883333372
 31
0.0
  0
LINE
  8
0
  6
CONTINUOUS
 62
     2
 10
133.485039236
 20
68.883333372
 30
0.0
 11
133.485039236
 21
68.616666706
 31
0.0
  0
LINE
  8
0
  6
CONTINUOUS
 62
     2
 10
133.485039236
 20
68.616666706
 30
0.0
 11
133.16837257
 21
68.616666706
 31
0.0
  0
ARC
  8
0
  6
CONTINUOUS
 62
     2
 10
133.16837257
 20
68.483333372
 30
0.0
 40
0.133333333
 50
90.0
 51
180.0
  0
LINE
  8
0
  6
CONTINUOUS
 62
     2
 10
133.035039236
 20
68.483333372
 30
0.0
 11
133.035039236
 21
68.166666706
 31
0.0
  0
LINE
  8
0
  6
CONTINUOUS
 62
     2
 10
133.035039236
 20
68.166666706
 30
0.0
 11
132.76837257
 21
68.166666706
 31
0.0
  0
LINE
  8
0
  6
CONTINUOUS
 62
     2
 10
132.76837257
 20
68.166666706
 30
0.0
 11
132.76837257
 21
68.483333372
 31
0.0
  0
ARC
  8
0
  6
CONTINUOUS
 62
     2
 10
132.635039236
 20
68.483333372
 30
0.0
 40
0.133333333
 50
0.0
 51
90.0
  0
LINE
  8
0
  6
CONTINUOUS
 62
     2
 10
132.635039236
 20
68.616666706
 30
0.0
 11
132.31837257
 21
68.616666706
 31
0.0
  0
LINE
  8
0
  6
CONTINUOUS
 62
     2
 10
132.31837257
 20
68.616666706
 30
0.0
 11
132.31837257
 21
68.883333372
 31
0.0
  0
LINE
  8
0
  6
LTYPE1
 62
     2
 10
131.56837257
 20
68.750000039
 30
0.0
 11
134.235039236
 21
68.750000039
 31
0.0
  0
LINE
  8
0
  6
LTYPE1
 62
     2
 10
132.901705903
 20
70.083333372
 30
0.0
 11
132.901705903
 21
67.416666706
 31
0.0
  0
LINE
  8
0
  6
CONTINUOUS
 62
     2
 10
109.366666648
 20
86.833333372
 30
0.0
 11
109.366666648
 21
82.000000039
 31
0.0
  0
LINE
  8
0
  6
CONTINUOUS
 62
     2
 10
109.366666648
 20
82.000000039
 30
0.0
 11
131.033333314
 21
82.000000039
 31
0.0
  0
LINE
  8
0
  6
CONTINUOUS
 62
     2
 10
131.033333314
 20
82.000000039
 30
0.0
 11
131.033333314
 21
86.833333372
 31
0.0
  0
LINE
  8
0
  6
CONTINUOUS
 62
     2
 10
131.033333314
 20
86.833333372
 30
0.0
 11
109.366666648
 21
86.833333372
 31
0.0
  0
ARC
  8
0
  6
CONTINUOUS
 62
     2
 10
132.449999981
 20
81.083333372
 30
0.0
 40
0.333333333
 50
0.0
 51
90.0
  0
LINE
  8
0
  6
CONTINUOUS
 62
     2
 10
132.783333314
 20
71.083333372
 30
0.0
 11
132.783333314
 21
81.083333372
 31
0.0
  0
ARC
  8
0
  6
CONTINUOUS
 62
     2
 10
132.449999981
 20
71.083333372
 30
0.0
 40
0.333333333
 50
270.0
 51
0.0
  0
LINE
  8
0
  6
CONTINUOUS
 62
     2
 10
132.449999981
 20
81.416666705
 30
0.0
 11
107.949999981
 21
81.416666705
 31
0.0
  0
ARC
  8
0
  6
CONTINUOUS
 62
     2
 10
107.949999981
 20
81.083333372
 30
0.0
 40
0.333333333
 50
90.0
 51
180.0
  0
LINE
  8
0
  6
CONTINUOUS
 62
     2
 10
107.949999981
 20
70.750000039
 30
0.0
 11
132.449999981
 21
70.750000039
 31
0.0
  0
LINE
  8
0
  6
CONTINUOUS
 62
     2
 10
107.616666648
 20
81.083333372
 30
0.0
 11
107.616666648
 21
71.083333372
 31
0.0
  0
ARC
  8
0
  6
CONTINUOUS
 62
     2
 10
107.949999981
 20
71.083333372
 30
0.0
 40
0.333333333
 50
180.0
 51
270.0
  0
LINE
  8
0
  6
CONTINUOUS
 62
     2
 10
105.199999981
 20
58.583333372
 30
0.0
 11
105.199999981
 21
46.583333372
 31
0.0
  0
LINE
  8
0
  6
CONTINUOUS
 62
     2
 10
105.199999981
 20
48.583333372
 30
0.0
 11
107.614814547
 21
47.93628576
 31
0.0
  0
LINE
  8
0
  6
CONTINUOUS
 62
     2
 10
105.199999981
 20
48.583333372
 30
0.0
 11
107.614814547
 21
49.230380985
 31
0.0
  0
LINE
  8
0
  6
CONTINUOUS
 62
     2
 10
105.199999981
 20
48.583333372
 30
0.0
 11
135.199999981
 21
48.583333372
 31
0.0
  0
LINE
  8
0
  6
CONTINUOUS
 62
     2
 10
135.199999981
 20
48.583333372
 30
0.0
 11
132.785185415
 21
49.230380985
 31
0.0
  0
LINE
  8
0
  6
CONTINUOUS
 62
     2
 10
135.199999981
 20
48.583333372
 30
0.0
 11
132.785185415
 21
47.93628576
 31
0.0
  0
LINE
  8
0
  6
CONTINUOUS
 62
     2
 10
135.199999981
 20
58.583333372
 30
0.0
 11
135.199999981
 21
46.583333372
 31
0.0
  0
TEXT
  8
0
  6
CONTINUOUS
 62
     2
 10
118.249999981
 20
49.583333372
 30
0.3
 40
3.0
  1
９０
 50
0.0
 41
0.6
 51
0.0
  7
KANJI4
  0
LINE
  8
0
  6
CONTINUOUS
 62
     2
 10
139.024045299
 20
61.083333372
 30
0.0
 11
150.024045299
 21
61.083333372
 31
0.0
  0
LINE
  8
0
  6
CONTINUOUS
 62
     2
 10
148.024045299
 20
61.083333372
 30
0.0
 11
148.671092912
 21
63.498147938
 31
0.0
  0
LINE
  8
0
  6
CONTINUOUS
 62
     2
 10
148.024045299
 20
61.083333372
 30
0.0
 11
147.376997686
 21
63.498147938
 31
0.0
  0
LINE
  8
0
  6
CONTINUOUS
 62
     2
 10
148.024045299
 20
61.083333372
 30
0.0
 11
148.024045299
 21
91.083333372
 31
0.0
  0
LINE
  8
0
  6
CONTINUOUS
 62
     2
 10
148.024045299
 20
91.083333372
 30
0.0
 11
147.376997686
 21
88.668518807
 31
0.0
  0
LINE
  8
0
  6
CONTINUOUS
 62
     2
 10
148.024045299
 20
91.083333372
 30
0.0
 11
148.671092912
 21
88.668518807
 31
0.0
  0
LINE
  8
0
  6
CONTINUOUS
 62
     2
 10
139.024045299
 20
91.083333372
 30
0.0
 11
150.024045299
 21
91.083333372
 31
0.0
  0
TEXT
  8
0
  6
CONTINUOUS
 62
     2
 10
147.024045299
 20
74.133333372
 30
0.3
 40
3.0
  1
９０
 50
90.0
 41
0.6
 51
0.0
  7
KANJI4
  0
TEXT
  8
0
  6
CONTINUOUS
 62
     2
 10
114.449999981
 20
74.583333372
 30
0.3
 40
3.0
  1
銘　　板
 50
0.0
 41
0.9
 51
0.0
  7
KANJI2
  0
TEXT
  8
0
  6
CONTINUOUS
 62
     2
 10
111.183333314
 20
79.750000039
 30
0.1
 40
1.5
  1
Ｒ１
 50
0.0
 41
0.8
 51
0.0
  7
KANJI1
  0
TEXT
  8
0
  6
CONTINUOUS
 62
     2
 10
116.516666648
 20
79.750000039
 30
0.1
 40
1.5
  1
Ｃ１
 50
0.0
 41
0.8
 51
0.0
  7
KANJI1
  0
TEXT
  8
0
  6
CONTINUOUS
 62
     2
 10
121.849999981
 20
79.750000039
 30
0.1
 40
1.5
  1
Ｃ２
 50
0.0
 41
0.8
 51
0.0
  7
KANJI1
  0
TEXT
  8
0
  6
CONTINUOUS
 62
     2
 10
127.183333314
 20
79.750000039
 30
0.1
 40
1.5
  1
Ｒ２
 50
0.0
 41
0.8
 51
0.0
  7
KANJI1
  0
LINE
  8
0
  6
CONTINUOUS
 62
     2
 10
111.066666577
 20
102.58333337
 30
0.0
 11
81.366666577
 21
102.58333337
 31
0.0
  0
TEXT
  8
0
  6
CONTINUOUS
 62
     2
 10
81.366666577
 20
103.58333337
 30
0.3
 40
3.0
  1
測定端子（２－Ｍ４）
 50
0.0
 41
0.9
 51
0.0
  7
KANJI2
  0
LINE
  8
0
  6
CONTINUOUS
 62
     2
 10
131.066666577
 20
102.58333337
 30
0.0
 11
166.766666577
 21
102.58333337
 31
0.0
  0
TEXT
  8
0
  6
CONTINUOUS
 62
     2
 10
131.066666577
 20
103.58333337
 30
0.3
 40
3.0
  1
電磁復帰端子（２－Ｍ４）
 50
0.0
 41
0.9
 51
0.0
  7
KANJI2
  0
CIRCLE
  8
0
  6
CONTINUOUS
 62
     1
 10
185.199999981
 20
76.083333372
 30
0.0
 40
15.3
  0
CIRCLE
  8
0
  6
CONTINUOUS
 62
     1
 10
171.699999981
 20
89.583333372
 30
0.0
 40
1.05
  0
CIRCLE
  8
0
  6
CONTINUOUS
 62
     1
 10
171.699999981
 20
62.583333372
 30
0.0
 40
1.05
  0
CIRCLE
  8
0
  6
CONTINUOUS
 62
     1
 10
198.699999981
 20
62.583333372
 30
0.0
 40
1.05
  0
CIRCLE
  8
0
  6
CONTINUOUS
 62
     1
 10
198.699999981
 20
89.583333372
 30
0.0
 40
1.05
  0
LINE
  8
0
  6
LTYPE2
 62
     2
 10
169.239999981
 20
62.583333372
 30
0.0
 11
173.529999981
 21
62.583333372
 31
0.0
  0
LINE
  8
0
  6
LTYPE2
 62
     2
 10
196.059999981
 20
62.583333372
 30
0.0
 11
201.639999981
 21
62.583333372
 31
0.0
  0
LINE
  8
0
  6
LTYPE2
 62
     2
 10
198.699999981
 20
59.973333372
 30
0.0
 11
198.699999981
 21
65.583333372
 31
0.0
  0
LINE
  8
0
  6
LTYPE2
 62
     2
 10
198.699999981
 20
86.343333372
 30
0.0
 11
198.699999981
 21
93.393333372
 31
0.0
  0
LINE
  8
0
  6
LTYPE2
 62
     2
 10
171.699999981
 20
93.393333372
 30
0.0
 11
171.699999981
 21
86.943333372
 31
0.0
  0
LINE
  8
0
  6
LTYPE2
 62
     2
 10
171.699999981
 20
65.703333372
 30
0.0
 11
171.699999981
 21
59.523333372
 31
0.0
  0
LINE
  8
0
  6
LTYPE2
 62
     2
 10
169.269999981
 20
89.583333372
 30
0.0
 11
175.659999981
 21
89.583333372
 31
0.0
  0
LINE
  8
0
  6
LTYPE2
 62
     2
 10
195.219999981
 20
89.583333372
 30
0.0
 11
203.049999981
 21
89.583333372
 31
0.0
  0
LINE
  8
0
  6
CONTINUOUS
 62
     2
 10
174.638512416
 20
65.01332974
 30
0.0
 11
175.919565492
 21
65.79365212
 31
0.0
  0
LINE
  8
0
  6
CONTINUOUS
 62
     2
 10
174.638512416
 20
65.01332974
 30
0.0
 11
175.357775733
 21
66.329635282
 31
0.0
  0
LINE
  8
0
  6
CONTINUOUS
 62
     2
 10
174.638512416
 20
65.01332974
 30
0.0
 11
195.761487545
 21
87.153337005
 31
0.0
  0
LINE
  8
0
  6
CONTINUOUS
 62
     2
 10
195.761487545
 20
87.153337005
 30
0.0
 11
194.48043447
 21
86.373014624
 31
0.0
  0
LINE
  8
0
  6
CONTINUOUS
 62
     2
 10
195.761487545
 20
87.153337005
 30
0.0
 11
195.042224228
 21
85.837031462
 31
0.0
  0
TEXT
  8
0
  6
CONTINUOUS
 62
     2
 10
176.665882191
 20
68.007509355
 30
0.1
 40
3.0
  1
φ１０２
 50
46.346669025
 41
0.6
 51
0.0
  7
KANJI6
  0
LINE
  8
0
  6
CONTINUOUS
 62
     2
 10
203.049999981
 20
89.583333372
 30
0.0
 11
210.049999981
 21
89.583333372
 31
0.0
  0
LINE
  8
0
  6
CONTINUOUS
 62
     2
 10
208.049999981
 20
89.583333372
 30
0.0
 11
207.402952368
 21
87.168518806
 31
0.0
  0
LINE
  8
0
  6
CONTINUOUS
 62
     2
 10
208.049999981
 20
89.583333372
 30
0.0
 11
208.697047593
 21
87.168518806
 31
0.0
  0
LINE
  8
0
  6
CONTINUOUS
 62
     2
 10
208.049999981
 20
89.583333372
 30
0.0
 11
208.049999981
 21
62.583333372
 31
0.0
  0
LINE
  8
0
  6
CONTINUOUS
 62
     2
 10
208.049999981
 20
62.583333372
 30
0.0
 11
208.697047593
 21
64.998147938
 31
0.0
  0
LINE
  8
0
  6
CONTINUOUS
 62
     2
 10
208.049999981
 20
62.583333372
 30
0.0
 11
207.402952368
 21
64.998147938
 31
0.0
  0
LINE
  8
0
  6
CONTINUOUS
 62
     2
 10
202.049999981
 20
62.583333372
 30
0.0
 11
210.049999981
 21
62.583333372
 31
0.0
  0
TEXT
  8
0
  6
CONTINUOUS
 62
     2
 10
207.049999981
 20
72.963333372
 30
0.3
 40
3.0
  1
９０
 50
90.0
 41
0.6
 51
0.0
  7
KANJI4
  0
TEXT
  8
0
  6
CONTINUOUS
 62
     2
 10
207.049999981
 20
77.313333372
 30
0.18
 40
1.8
  1
±１
 50
90.0
 41
0.6
 51
0.0
  7
KANJI7
  0
LINE
  8
0
  6
CONTINUOUS
 62
     2
 10
171.699999981
 20
58.523333372
 30
0.0
 11
171.699999981
 21
51.523333372
 31
0.0
  0
LINE
  8
0
  6
CONTINUOUS
 62
     2
 10
171.699999981
 20
53.523333372
 30
0.0
 11
174.114814547
 21
52.87628576
 31
0.0
  0
LINE
  8
0
  6
CONTINUOUS
 62
     2
 10
171.699999981
 20
53.523333372
 30
0.0
 11
174.114814547
 21
54.170380985
 31
0.0
  0
LINE
  8
0
  6
CONTINUOUS
 62
     2
 10
171.699999981
 20
53.523333372
 30
0.0
 11
198.699999981
 21
53.523333372
 31
0.0
  0
LINE
  8
0
  6
CONTINUOUS
 62
     2
 10
198.699999981
 20
53.523333372
 30
0.0
 11
196.285185415
 21
54.170380985
 31
0.0
  0
LINE
  8
0
  6
CONTINUOUS
 62
     2
 10
198.699999981
 20
53.523333372
 30
0.0
 11
196.285185415
 21
52.87628576
 31
0.0
  0
LINE
  8
0
  6
CONTINUOUS
 62
     2
 10
198.699999981
 20
58.523333372
 30
0.0
 11
198.699999981
 21
51.523333372
 31
0.0
  0
TEXT
  8
0
  6
CONTINUOUS
 62
     2
 10
182.079999981
 20
54.523333372
 30
0.3
 40
3.0
  1
９０
 50
0.0
 41
0.6
 51
0.0
  7
KANJI4
  0
TEXT
  8
0
  6
CONTINUOUS
 62
     2
 10
186.429999981
 20
54.523333372
 30
0.18
 40
1.8
  1
±１
 50
0.0
 41
0.6
 51
0.0
  7
KANJI7
  0
TEXT
  8
0
  6
CONTINUOUS
 62
     2
 10
181.950502506
 20
73.532414541
 30
0.18
 40
1.8
  1
±１
 50
45.0
 41
0.6
 51
0.0
  7
KANJI7
  0
LINE
  8
0
  6
CONTINUOUS
 62
     2
 10
199.169574256
 20
90.522481923
 30
0.0
 11
200.828249139
 21
92.392989242
 31
0.0
  0
LINE
  8
0
  6
CONTINUOUS
 62
     2
 10
199.169574256
 20
90.522481923
 30
0.0
 11
199.670775182
 21
92.971726221
 31
0.0
  0
TEXT
  8
0
  6
CONTINUOUS
 62
     2
 10
204.199999981
 20
99.983333372
 30
0.3
 40
3.0
  1
４－φ７
 50
0.0
 41
0.9
 51
0.0
  7
KANJI2
  0
LINE
  8
0
  6
CONTINUOUS
 62
     2
 10
203.399999981
 20
98.983333372
 30
0.0
 11
215.899999981
 21
98.983333372
 31
0.0
  0
LINE
  8
0
  6
CONTINUOUS
 62
     2
 10
199.169574256
 20
90.522481923
 30
0.0
 11
203.399999981
 21
98.983333372
 31
0.0
  0
TEXT
  8
0
  6
CONTINUOUS
 62
     2
 10
69.366666577
 20
98.58333337
 30
0.3
 40
3.0
  1
端子記号は一例を示す。
 50
0.0
 41
0.9
 51
0.0
  7
KANJI2
  0
TEXT
  8
0
  6
CONTINUOUS
 62
     2
 10
69.366666577
 20
94.58333337
 30
0.3
 40
3.0
  1
端子記号は計器の仕様
 50
0.0
 41
0.9
 51
0.0
  7
KANJI2
  0
TEXT
  8
0
  6
CONTINUOUS
 62
     2
 10
69.366666577
 20
90.58333337
 30
0.3
 40
3.0
  1
によって左下表の通り
 50
0.0
 41
0.9
 51
0.0
  7
KANJI2
  0
TEXT
  8
0
  6
CONTINUOUS
 62
     2
 10
69.366666577
 20
86.58333337
 30
0.3
 40
3.0
  1
となります。
 50
0.0
 41
0.9
 51
0.0
  7
KANJI2
  0
LINE
  8
0
  6
LTYPE3
 62
     2
 10
185.199999981
 20
58.293333372
 30
0.0
 11
185.199999981
 21
94.883333372
 31
0.0
  0
LINE
  8
0
  6
LTYPE3
 62
     2
 10
167.619999981
 20
76.083333372
 30
0.0
 11
202.839999981
 21
76.083333372
 31
0.0
  0
POINT
  8
0
  6
LTYPE3
 62
     2
 10
120.199999981
 20
96.750000039
 30
0.0
  0
LINE
  8
0
  6
LTYPE3
 62
     2
 10
99.199999981
 20
76.083333372
 30
0.0
 11
141.066666647
 21
76.083333372
 31
0.0
  0
LINE
  8
0
  6
LTYPE4
 62
     2
 10
130.699999981
 20
86.500000039
 30
0.0
 11
130.699999981
 21
82.333333372
 31
0.0
  0
LINE
  8
0
  6
LTYPE4
 62
     2
 10
130.699999981
 20
82.333333372
 30
0.0
 11
109.699999981
 21
82.333333372
 31
0.0
  0
LINE
  8
0
  6
LTYPE4
 62
     2
 10
109.699999981
 20
82.333333372
 30
0.0
 11
109.699999981
 21
86.500000039
 31
0.0
  0
LINE
  8
0
  6
LTYPE4
 62
     2
 10
109.699999981
 20
86.500000039
 30
0.0
 11
130.699999981
 21
86.500000039
 31
0.0
  0
LINE
  8
0
  6
LTYPE4
 62
     2
 10
114.616666648
 20
86.500000039
 30
0.0
 11
114.616666648
 21
82.333333372
 31
0.0
  0
LINE
  8
0
  6
LTYPE4
 62
     2
 10
115.116666648
 20
82.333333372
 30
0.0
 11
115.116666648
 21
86.533333372
 31
0.0
  0
CIRCLE
  8
0
  6
LTYPE4
 62
     2
 10
112.199999981
 20
84.416666705
 30
0.0
 40
1.166666667
  0
LINE
  8
0
  6
LTYPE4
 62
     2
 10
112.033333314
 20
83.733333372
 30
0.0
 11
112.366666648
 21
83.733333372
 31
0.0
  0
LINE
  8
0
  6
LTYPE4
 62
     2
 10
112.366666648
 20
85.100000039
 30
0.0
 11
112.033333314
 21
85.100000039
 31
0.0
  0
LINE
  8
0
  6
LTYPE4
 62
     2
 10
112.883333314
 20
84.250000039
 30
0.0
 11
112.883333314
 21
84.583333372
 31
0.0
  0
LINE
  8
0
  6
LTYPE4
 62
     2
 10
111.516666648
 20
84.583333372
 30
0.0
 11
111.516666648
 21
84.250000039
 31
0.0
  0
LINE
  8
0
  6
LTYPE4
 62
     2
 10
112.033333314
 20
85.100000039
 30
0.0
 11
112.033333314
 21
84.750000039
 31
0.0
  0
LINE
  8
0
  6
LTYPE4
 62
     2
 10
111.866666648
 20
84.583333372
 30
0.0
 11
111.516666648
 21
84.583333372
 31
0.0
  0
ARC
  8
0
  6
LTYPE4
 62
     2
 10
111.866666648
 20
84.750000039
 30
0.0
 40
0.166666667
 50
270.0
 51
0.0
  0
LINE
  8
0
  6
LTYPE4
 62
     2
 10
112.366666648
 20
84.750000039
 30
0.0
 11
112.366666648
 21
85.100000039
 31
0.0
  0
LINE
  8
0
  6
LTYPE4
 62
     2
 10
112.883333314
 20
84.583333372
 30
0.0
 11
112.533333314
 21
84.583333372
 31
0.0
  0
ARC
  8
0
  6
LTYPE4
 62
     2
 10
112.533333314
 20
84.750000039
 30
0.0
 40
0.166666667
 50
180.0
 51
270.0
  0
LINE
  8
0
  6
LTYPE4
 62
     2
 10
112.366666648
 20
83.733333372
 30
0.0
 11
112.366666648
 21
84.083333372
 31
0.0
  0
LINE
  8
0
  6
LTYPE4
 62
     2
 10
112.533333314
 20
84.250000039
 30
0.0
 11
112.883333314
 21
84.250000039
 31
0.0
  0
ARC
  8
0
  6
LTYPE4
 62
     2
 10
112.533333314
 20
84.083333372
 30
0.0
 40
0.166666667
 50
90.0
 51
180.0
  0
LINE
  8
0
  6
LTYPE4
 62
     2
 10
112.033333314
 20
84.083333372
 30
0.0
 11
112.033333314
 21
83.733333372
 31
0.0
  0
LINE
  8
0
  6
LTYPE4
 62
     2
 10
111.516666648
 20
84.250000039
 30
0.0
 11
111.866666648
 21
84.250000039
 31
0.0
  0
ARC
  8
0
  6
LTYPE4
 62
     2
 10
111.866666648
 20
84.083333372
 30
0.0
 40
0.166666667
 50
0.0
 51
90.0
  0
CIRCLE
  8
0
  6
LTYPE4
 62
     2
 10
112.199999981
 20
84.416666705
 30
0.0
 40
1.333333333
  0
LINE
  8
0
  6
LTYPE4
 62
     2
 10
119.949999981
 20
86.500000039
 30
0.0
 11
119.949999981
 21
82.333333372
 31
0.0
  0
LINE
  8
0
  6
LTYPE4
 62
     2
 10
120.449999981
 20
82.333333372
 30
0.0
 11
120.449999981
 21
86.533333372
 31
0.0
  0
LINE
  8
0
  6
LTYPE4
 62
     2
 10
125.283333314
 20
86.500000039
 30
0.0
 11
125.283333314
 21
82.333333372
 31
0.0
  0
LINE
  8
0
  6
LTYPE4
 62
     2
 10
125.783333314
 20
82.333333372
 30
0.0
 11
125.783333314
 21
86.533333372
 31
0.0
  0
LINE
  8
0
  6
LTYPE4
 62
     2
 10
110.366666648
 20
86.500000039
 30
0.0
 11
110.366666648
 21
82.333333372
 31
0.0
  0
LINE
  8
0
  6
LTYPE4
 62
     2
 10
130.033333314
 20
86.500000039
 30
0.0
 11
130.033333314
 21
82.333333372
 31
0.0
  0
CIRCLE
  8
0
  6
LTYPE4
 62
     2
 10
117.533333314
 20
84.416666705
 30
0.0
 40
1.166666667
  0
LINE
  8
0
  6
LTYPE4
 62
     2
 10
117.366666647
 20
83.733333372
 30
0.0
 11
117.699999981
 21
83.733333372
 31
0.0
  0
LINE
  8
0
  6
LTYPE4
 62
     2
 10
117.699999981
 20
85.100000039
 30
0.0
 11
117.366666647
 21
85.100000039
 31
0.0
  0
LINE
  8
0
  6
LTYPE4
 62
     2
 10
118.216666647
 20
84.250000039
 30
0.0
 11
118.216666647
 21
84.583333372
 31
0.0
  0
LINE
  8
0
  6
LTYPE4
 62
     2
 10
116.849999981
 20
84.583333372
 30
0.0
 11
116.849999981
 21
84.250000039
 31
0.0
  0
LINE
  8
0
  6
LTYPE4
 62
     2
 10
117.366666647
 20
85.100000039
 30
0.0
 11
117.366666647
 21
84.750000039
 31
0.0
  0
LINE
  8
0
  6
LTYPE4
 62
     2
 10
117.199999981
 20
84.583333372
 30
0.0
 11
116.849999981
 21
84.583333372
 31
0.0
  0
ARC
  8
0
  6
LTYPE4
 62
     2
 10
117.199999981
 20
84.750000039
 30
0.0
 40
0.166666667
 50
270.0
 51
0.0
  0
LINE
  8
0
  6
LTYPE4
 62
     2
 10
117.699999981
 20
84.750000039
 30
0.0
 11
117.699999981
 21
85.100000039
 31
0.0
  0
LINE
  8
0
  6
LTYPE4
 62
     2
 10
118.216666647
 20
84.583333372
 30
0.0
 11
117.866666647
 21
84.583333372
 31
0.0
  0
ARC
  8
0
  6
LTYPE4
 62
     2
 10
117.866666647
 20
84.750000039
 30
0.0
 40
0.166666667
 50
180.0
 51
270.0
  0
LINE
  8
0
  6
LTYPE4
 62
     2
 10
117.699999981
 20
83.733333372
 30
0.0
 11
117.699999981
 21
84.083333372
 31
0.0
  0
LINE
  8
0
  6
LTYPE4
 62
     2
 10
117.866666647
 20
84.250000039
 30
0.0
 11
118.216666647
 21
84.250000039
 31
0.0
  0
ARC
  8
0
  6
LTYPE4
 62
     2
 10
117.866666647
 20
84.083333372
 30
0.0
 40
0.166666667
 50
90.0
 51
180.0
  0
LINE
  8
0
  6
LTYPE4
 62
     2
 10
117.366666647
 20
84.083333372
 30
0.0
 11
117.366666647
 21
83.733333372
 31
0.0
  0
LINE
  8
0
  6
LTYPE4
 62
     2
 10
116.849999981
 20
84.250000039
 30
0.0
 11
117.199999981
 21
84.250000039
 31
0.0
  0
ARC
  8
0
  6
LTYPE4
 62
     2
 10
117.199999981
 20
84.083333372
 30
0.0
 40
0.166666667
 50
0.0
 51
90.0
  0
CIRCLE
  8
0
  6
LTYPE4
 62
     2
 10
117.533333314
 20
84.416666705
 30
0.0
 40
1.333333333
  0
CIRCLE
  8
0
  6
LTYPE4
 62
     2
 10
122.866666647
 20
84.416666705
 30
0.0
 40
1.166666667
  0
LINE
  8
0
  6
LTYPE4
 62
     2
 10
122.699999981
 20
83.733333372
 30
0.0
 11
123.033333314
 21
83.733333372
 31
0.0
  0
LINE
  8
0
  6
LTYPE4
 62
     2
 10
123.033333314
 20
85.100000039
 30
0.0
 11
122.699999981
 21
85.100000039
 31
0.0
  0
LINE
  8
0
  6
LTYPE4
 62
     2
 10
123.549999981
 20
84.250000039
 30
0.0
 11
123.549999981
 21
84.583333372
 31
0.0
  0
LINE
  8
0
  6
LTYPE4
 62
     2
 10
122.183333314
 20
84.583333372
 30
0.0
 11
122.183333314
 21
84.250000039
 31
0.0
  0
LINE
  8
0
  6
LTYPE4
 62
     2
 10
122.699999981
 20
85.100000039
 30
0.0
 11
122.699999981
 21
84.750000039
 31
0.0
  0
LINE
  8
0
  6
LTYPE4
 62
     2
 10
122.533333314
 20
84.583333372
 30
0.0
 11
122.183333314
 21
84.583333372
 31
0.0
  0
ARC
  8
0
  6
LTYPE4
 62
     2
 10
122.533333314
 20
84.750000039
 30
0.0
 40
0.166666667
 50
270.0
 51
0.0
  0
LINE
  8
0
  6
LTYPE4
 62
     2
 10
123.033333314
 20
84.750000039
 30
0.0
 11
123.033333314
 21
85.100000039
 31
0.0
  0
LINE
  8
0
  6
LTYPE4
 62
     2
 10
123.549999981
 20
84.583333372
 30
0.0
 11
123.199999981
 21
84.583333372
 31
0.0
  0
ARC
  8
0
  6
LTYPE4
 62
     2
 10
123.199999981
 20
84.750000039
 30
0.0
 40
0.166666667
 50
180.0
 51
270.0
  0
LINE
  8
0
  6
LTYPE4
 62
     2
 10
123.033333314
 20
83.733333372
 30
0.0
 11
123.033333314
 21
84.083333372
 31
0.0
  0
LINE
  8
0
  6
LTYPE4
 62
     2
 10
123.199999981
 20
84.250000039
 30
0.0
 11
123.549999981
 21
84.250000039
 31
0.0
  0
ARC
  8
0
  6
LTYPE4
 62
     2
 10
123.199999981
 20
84.083333372
 30
0.0
 40
0.166666667
 50
90.0
 51
180.0
  0
LINE
  8
0
  6
LTYPE4
 62
     2
 10
122.699999981
 20
84.083333372
 30
0.0
 11
122.699999981
 21
83.733333372
 31
0.0
  0
LINE
  8
0
  6
LTYPE4
 62
     2
 10
122.183333314
 20
84.250000039
 30
0.0
 11
122.533333314
 21
84.250000039
 31
0.0
  0
ARC
  8
0
  6
LTYPE4
 62
     2
 10
122.533333314
 20
84.083333372
 30
0.0
 40
0.166666667
 50
0.0
 51
90.0
  0
CIRCLE
  8
0
  6
LTYPE4
 62
     2
 10
122.866666647
 20
84.416666705
 30
0.0
 40
1.333333333
  0
CIRCLE
  8
0
  6
LTYPE4
 62
     2
 10
128.199999981
 20
84.416666705
 30
0.0
 40
1.166666667
  0
LINE
  8
0
  6
LTYPE4
 62
     2
 10
128.033333314
 20
83.733333372
 30
0.0
 11
128.366666647
 21
83.733333372
 31
0.0
  0
LINE
  8
0
  6
LTYPE4
 62
     2
 10
128.366666647
 20
85.100000039
 30
0.0
 11
128.033333314
 21
85.100000039
 31
0.0
  0
LINE
  8
0
  6
LTYPE4
 62
     2
 10
128.883333314
 20
84.250000039
 30
0.0
 11
128.883333314
 21
84.583333372
 31
0.0
  0
LINE
  8
0
  6
LTYPE4
 62
     2
 10
127.516666647
 20
84.583333372
 30
0.0
 11
127.516666647
 21
84.250000039
 31
0.0
  0
LINE
  8
0
  6
LTYPE4
 62
     2
 10
128.033333314
 20
85.100000039
 30
0.0
 11
128.033333314
 21
84.750000039
 31
0.0
  0
LINE
  8
0
  6
LTYPE4
 62
     2
 10
127.866666647
 20
84.583333372
 30
0.0
 11
127.516666647
 21
84.583333372
 31
0.0
  0
ARC
  8
0
  6
LTYPE4
 62
     2
 10
127.866666647
 20
84.750000039
 30
0.0
 40
0.166666667
 50
270.0
 51
0.0
  0
LINE
  8
0
  6
LTYPE4
 62
     2
 10
128.366666647
 20
84.750000039
 30
0.0
 11
128.366666647
 21
85.100000039
 31
0.0
  0
LINE
  8
0
  6
LTYPE4
 62
     2
 10
128.883333314
 20
84.583333372
 30
0.0
 11
128.533333314
 21
84.583333372
 31
0.0
  0
ARC
  8
0
  6
LTYPE4
 62
     2
 10
128.533333314
 20
84.750000039
 30
0.0
 40
0.166666667
 50
180.0
 51
270.0
  0
LINE
  8
0
  6
LTYPE4
 62
     2
 10
128.366666647
 20
83.733333372
 30
0.0
 11
128.366666647
 21
84.083333372
 31
0.0
  0
LINE
  8
0
  6
LTYPE4
 62
     2
 10
128.533333314
 20
84.250000039
 30
0.0
 11
128.883333314
 21
84.250000039
 31
0.0
  0
ARC
  8
0
  6
LTYPE4
 62
     2
 10
128.533333314
 20
84.083333372
 30
0.0
 40
0.166666667
 50
90.0
 51
180.0
  0
LINE
  8
0
  6
LTYPE4
 62
     2
 10
128.033333314
 20
84.083333372
 30
0.0
 11
128.033333314
 21
83.733333372
 31
0.0
  0
LINE
  8
0
  6
LTYPE4
 62
     2
 10
127.516666647
 20
84.250000039
 30
0.0
 11
127.866666647
 21
84.250000039
 31
0.0
  0
ARC
  8
0
  6
LTYPE4
 62
     2
 10
127.866666647
 20
84.083333372
 30
0.0
 40
0.166666667
 50
0.0
 51
90.0
  0
CIRCLE
  8
0
  6
LTYPE4
 62
     2
 10
128.199999981
 20
84.416666705
 30
0.0
 40
1.333333333
  0
LINE
  8
0
  6
CONTINUOUS
 62
     2
 10
117.466666577
 20
85.68333337
 30
0.0
 11
111.066666577
 21
102.58333337
 31
0.0
  0
LINE
  8
0
  6
CONTINUOUS
 62
     2
 10
112.466666577
 20
85.78333337
 30
0.0
 11
131.066666577
 21
102.58333337
 31
0.0
  0
LINE
  8
0
  6
CONTINUOUS
 62
     2
 10
122.666666577
 20
85.78333337
 30
0.0
 11
111.066666577
 21
102.58333337
 31
0.0
  0
LINE
  8
0
  6
CONTINUOUS
 62
     2
 10
128.266666577
 20
85.68333337
 30
0.0
 11
131.066666577
 21
102.58333337
 31
0.0
  0
LINE
  8
0
  6
CONTINUOUS
 62
     2
 10
128.266666577
 20
85.68333337
 30
0.0
 11
128.02302789
 21
88.171433085
 31
0.0
  0
LINE
  8
0
  6
CONTINUOUS
 62
     2
 10
128.266666577
 20
85.68333337
 30
0.0
 11
129.299719142
 21
87.959910274
 31
0.0
  0
LINE
  8
0
  6
CONTINUOUS
 62
     2
 10
122.666666577
 20
85.78333337
 30
0.0
 11
121.827044833
 21
88.138123239
 31
0.0
  0
LINE
  8
0
  6
CONTINUOUS
 62
     2
 10
122.666666577
 20
85.78333337
 30
0.0
 11
120.762137883
 21
87.402830345
 31
0.0
  0
LINE
  8
0
  6
CONTINUOUS
 62
     2
 10
117.466666577
 20
85.68333337
 30
0.0
 11
117.216561626
 21
88.170791413
 31
0.0
  0
LINE
  8
0
  6
CONTINUOUS
 62
     2
 10
117.466666577
 20
85.68333337
 30
0.0
 11
116.006340315
 21
87.712482751
 31
0.0
  0
LINE
  8
0
  6
CONTINUOUS
 62
     2
 10
112.466666577
 20
85.78333337
 30
0.0
 11
113.824999725
 21
87.882126133
 31
0.0
  0
LINE
  8
0
  6
CONTINUOUS
 62
     2
 10
112.466666577
 20
85.78333337
 30
0.0
 11
114.692413971
 21
86.921774646
 31
0.0
  0
LINE
  8
0
  6
CONTINUOUS
 62
     2
 10
122.866666647
 20
69.083333372
 30
0.0
 11
121.711966109
 21
68.416666706
 31
0.0
  0
LINE
  8
0
  6
CONTINUOUS
 62
     2
 10
121.711966109
 20
68.416666706
 30
0.0
 11
121.711966109
 21
67.083333372
 31
0.0
  0
LINE
  8
0
  6
CONTINUOUS
 62
     2
 10
121.711966109
 20
67.083333372
 30
0.0
 11
122.866666647
 21
66.416666706
 31
0.0
  0
LINE
  8
0
  6
CONTINUOUS
 62
     2
 10
122.866666647
 20
66.416666706
 30
0.0
 11
124.021367186
 21
67.083333372
 31
0.0
  0
LINE
  8
0
  6
CONTINUOUS
 62
     2
 10
124.021367186
 20
67.083333372
 30
0.0
 11
124.021367186
 21
68.416666706
 31
0.0
  0
LINE
  8
0
  6
CONTINUOUS
 62
     2
 10
124.021367186
 20
68.416666706
 30
0.0
 11
122.866666647
 21
69.083333372
 31
0.0
  0
LINE
  8
0
  6
CONTINUOUS
 62
     2
 10
117.533333314
 20
69.083333372
 30
0.0
 11
116.378632776
 21
68.416666706
 31
0.0
  0
LINE
  8
0
  6
CONTINUOUS
 62
     2
 10
116.378632776
 20
68.416666706
 30
0.0
 11
116.378632776
 21
67.083333372
 31
0.0
  0
LINE
  8
0
  6
CONTINUOUS
 62
     2
 10
116.378632776
 20
67.083333372
 30
0.0
 11
117.533333314
 21
66.416666706
 31
0.0
  0
LINE
  8
0
  6
CONTINUOUS
 62
     2
 10
117.533333314
 20
66.416666706
 30
0.0
 11
118.688033853
 21
67.083333372
 31
0.0
  0
LINE
  8
0
  6
CONTINUOUS
 62
     2
 10
118.688033853
 20
67.083333372
 30
0.0
 11
118.688033853
 21
68.416666706
 31
0.0
  0
LINE
  8
0
  6
CONTINUOUS
 62
     2
 10
118.688033853
 20
68.416666706
 30
0.0
 11
117.533333314
 21
69.083333372
 31
0.0
  0
LINE
  8
0
  6
CONTINUOUS
 62
     2
 10
112.199999981
 20
69.083333372
 30
0.0
 11
111.045299443
 21
68.416666706
 31
0.0
  0
LINE
  8
0
  6
CONTINUOUS
 62
     2
 10
111.045299443
 20
68.416666706
 30
0.0
 11
111.045299443
 21
67.083333372
 31
0.0
  0
LINE
  8
0
  6
CONTINUOUS
 62
     2
 10
111.045299443
 20
67.083333372
 30
0.0
 11
112.199999981
 21
66.416666706
 31
0.0
  0
LINE
  8
0
  6
CONTINUOUS
 62
     2
 10
112.199999981
 20
66.416666706
 30
0.0
 11
113.354700519
 21
67.083333372
 31
0.0
  0
LINE
  8
0
  6
CONTINUOUS
 62
     2
 10
113.354700519
 20
67.083333372
 30
0.0
 11
113.354700519
 21
68.416666706
 31
0.0
  0
LINE
  8
0
  6
CONTINUOUS
 62
     2
 10
113.354700519
 20
68.416666706
 30
0.0
 11
112.199999981
 21
69.083333372
 31
0.0
  0
LINE
  8
0
  6
CONTINUOUS
 62
     2
 10
128.199999981
 20
69.083333372
 30
0.0
 11
127.045299442
 21
68.416666706
 31
0.0
  0
LINE
  8
0
  6
CONTINUOUS
 62
     2
 10
127.045299442
 20
68.416666706
 30
0.0
 11
127.045299442
 21
67.083333372
 31
0.0
  0
LINE
  8
0
  6
CONTINUOUS
 62
     2
 10
127.045299442
 20
67.083333372
 30
0.0
 11
128.199999981
 21
66.416666706
 31
0.0
  0
LINE
  8
0
  6
CONTINUOUS
 62
     2
 10
128.199999981
 20
66.416666706
 30
0.0
 11
129.354700519
 21
67.083333372
 31
0.0
  0
LINE
  8
0
  6
CONTINUOUS
 62
     2
 10
129.354700519
 20
67.083333372
 30
0.0
 11
129.354700519
 21
68.416666706
 31
0.0
  0
LINE
  8
0
  6
CONTINUOUS
 62
     2
 10
129.354700519
 20
68.416666706
 30
0.0
 11
128.199999981
 21
69.083333372
 31
0.0
  0
LINE
  8
0
  6
CONTINUOUS
 62
     2
 10
109.699999981
 20
65.750000039
 30
0.0
 11
130.699999981
 21
65.750000039
 31
0.0
  0
LINE
  8
0
  6
CONTINUOUS
 62
     2
 10
109.699999981
 20
69.750000039
 30
0.0
 11
130.699999981
 21
69.750000039
 31
0.0
  0
LINE
  8
0
  6
CONTINUOUS
 62
     2
 10
119.949999981
 20
69.750000039
 30
0.0
 11
119.949999981
 21
65.750000039
 31
0.0
  0
LINE
  8
0
  6
CONTINUOUS
 62
     2
 10
120.449999981
 20
65.750000039
 30
0.0
 11
120.449999981
 21
69.750000039
 31
0.0
  0
LINE
  8
0
  6
CONTINUOUS
 62
     2
 10
109.699999981
 20
65.750000039
 30
0.0
 11
109.699999981
 21
69.750000039
 31
0.0
  0
LINE
  8
0
  6
CONTINUOUS
 62
     2
 10
114.616666648
 20
69.750000039
 30
0.0
 11
114.616666648
 21
65.750000039
 31
0.0
  0
LINE
  8
0
  6
CONTINUOUS
 62
     2
 10
115.116666648
 20
65.750000039
 30
0.0
 11
115.116666648
 21
69.750000039
 31
0.0
  0
LINE
  8
0
  6
CONTINUOUS
 62
     2
 10
110.366666648
 20
69.750000039
 30
0.0
 11
110.366666648
 21
65.750000039
 31
0.0
  0
LINE
  8
0
  6
CONTINUOUS
 62
     2
 10
130.699999981
 20
69.750000039
 30
0.0
 11
130.699999981
 21
65.750000039
 31
0.0
  0
LINE
  8
0
  6
CONTINUOUS
 62
     2
 10
125.283333314
 20
69.750000039
 30
0.0
 11
125.283333314
 21
65.750000039
 31
0.0
  0
LINE
  8
0
  6
CONTINUOUS
 62
     2
 10
125.783333314
 20
65.750000039
 30
0.0
 11
125.783333314
 21
69.750000039
 31
0.0
  0
LINE
  8
0
  6
CONTINUOUS
 62
     2
 10
130.033333314
 20
69.750000039
 30
0.0
 11
130.033333314
 21
65.750000039
 31
0.0
  0
LINE
  8
0
  6
CONTINUOUS
 62
     2
 10
120.199999981
 20
54.250000039
 30
0.0
 11
120.199999981
 21
96.750000039
 31
0.0
  0
TEXT
  8
0
  6
CONTINUOUS
 62
     1
 10
114.566666577
 20
42.92033337
 30
0.4
 40
4.0
  1
裏面図
 50
0.0
 41
0.9
 51
0.0
  7
KANJI8
  0
LINE
  8
0
  6
CONTINUOUS
 62
     1
 10
114.566666577
 20
41.92033337
 30
0.0
 11
126.566666577
 21
41.92033337
 31
0.0
  0
TEXT
  8
0
  6
CONTINUOUS
 62
     1
 10
174.566666577
 20
42.92033337
 30
0.4
 40
4.0
  1
取付穴寸法図
 50
0.0
 41
0.9
 51
0.0
  7
KANJI8
  0
LINE
  8
0
  6
CONTINUOUS
 62
     1
 10
174.566666577
 20
41.92033337
 30
0.0
 11
198.166666577
 21
41.92033337
 31
0.0
  0
TEXT
  8
0
  6
CONTINUOUS
 62
     2
 10
126.849999981
 20
32.005
 30
0.3
 40
3.0
  1
種　　類
 50
0.0
 41
0.9
 51
0.0
  7
KANJI2
  0
TEXT
  8
0
  6
CONTINUOUS
 62
     2
 10
120.849999981
 20
24.005
 30
0.3
 40
3.0
  1
最高最低指示計器
 50
0.0
 41
0.9
 51
0.0
  7
KANJI2
  0
TEXT
  8
0
  6
CONTINUOUS
 62
     2
 10
151.849999981
 20
32.005
 30
0.3
 40
3.0
  1
形　　名
 50
0.0
 41
0.9
 51
0.0
  7
KANJI2
  0
TEXT
  8
0
  6
CONTINUOUS
 62
     2
 10
145.849999981
 20
24.005
 30
0.3
 40
3.0
  1
ＱＶＴＤ－１１Ｋ
 50
0.0
 41
0.9
 51
0.0
  7
KANJI2
  0
LINE
  8
0
  6
CONTINUOUS
 62
     2
 10
120.199999981
 20
23.505
 30
0.0
 11
170.199999981
 21
23.505
 31
0.0
  0
LINE
  8
0
  6
CONTINUOUS
 62
     2
 10
170.199999981
 20
23.505
 30
0.0
 11
170.199999981
 21
35.505
 31
0.0
  0
LINE
  8
0
  6
CONTINUOUS
 62
     2
 10
170.199999981
 20
35.505
 30
0.0
 11
120.199999981
 21
35.505
 31
0.0
  0
LINE
  8
0
  6
CONTINUOUS
 62
     2
 10
120.199999981
 20
35.505
 30
0.0
 11
120.199999981
 21
23.505
 31
0.0
  0
LINE
  8
0
  6
CONTINUOUS
 62
     2
 10
120.296999981
 20
31.574
 30
0.0
 11
170.199999981
 21
31.574
 31
0.0
  0
LINE
  8
0
  6
CONTINUOUS
 62
     2
 10
120.199999981
 20
27.505
 30
0.0
 11
170.199999981
 21
27.505
 31
0.0
  0
LINE
  8
0
  6
CONTINUOUS
 62
     2
 10
145.199999981
 20
35.505
 30
0.0
 11
145.199999981
 21
23.505
 31
0.0
  0
TEXT
  8
0
  6
CONTINUOUS
 62
     2
 10
120.881999981
 20
28.005
 30
0.3
 40
3.0
  1
最高指示計器
 50
0.0
 41
0.9
 51
0.0
  7
KANJI2
  0
TEXT
  8
0
  6
CONTINUOUS
 62
     2
 10
145.834999981
 20
28.005
 30
0.3
 40
3.0
  1
ＱＶＴ－１１Ｋ
 50
0.0
 41
0.9
 51
0.0
  7
KANJI2
  0
LINE
  8
0
  6
CONTINUOUS
 62
     1
 10
162.912901712
 20
163.293484127
 30
0.0
 11
205.248
 21
162.833333337
 31
0.0
  0
LINE
  8
0
  6
CONTINUOUS
 62
     1
 10
159.246666667
 20
163.333333354
 30
0.0
 11
160.579999999
 21
163.31884102
 31
0.0
  0
LINE
  8
0
  6
CONTINUOUS
 62
     1
 10
163.044499966
 20
130.373279504
 30
0.0
 11
205.248
 21
130.83333337
 31
0.0
  0
LINE
  8
0
  6
CONTINUOUS
 62
     1
 10
159.38
 20
130.333333354
 30
0.0
 11
160.713333332
 21
130.347867815
 31
0.0
  0
TEXT
  8
0
  6
CONTINUOUS
 62
     2
 10
21.166666577
 20
12.966666704
 30
0.3
 40
3.0
  1
※最低指針は，最高最低置針付形（ＱＶＴＤ－１１Ｋ形）にのみあります。
 50
0.0
 41
0.9
 51
0.0
  7
KANJI2
  0
LINE
  8
0
  6
CONTINUOUS
 62
     2
 10
83.270666577
 20
11.966666704
 30
0.0
 11
86.815666577
 21
11.966666704
 31
0.0
  0
TEXT
  8
0
  6
CONTINUOUS
 62
     2
 10
235.0
 20
28.5
 30
0.3
 40
3.0
  1
最高（最低）指示
 50
0.0
 41
0.9
 51
0.0
  7
KANJI2
  0
TEXT
  8
0
  6
CONTINUOUS
 62
     2
 10
235.0
 20
24.0
 30
0.3
 40
3.0
  1
交流電圧計・電流計　　外形図
 50
0.0
 41
0.9
 51
0.0
  7
KANJI2
  0
TEXT
  8
0
  6
CONTINUOUS
 62
     1
 10
235.0
 20
35.0
 30
0.4
 40
4.0
  1
ＱＶＴ（Ｄ）－１１Ｋ
 50
0.0
 41
0.9
 51
0.0
  7
KANJI9
  0
LINE
  8
0
  6
CONTINUOUS
 62
     2
 10
166.261340051
 20
163.35000002
 30
0.0
 11
219.847999994
 21
163.35000002
 31
0.0
  0
LINE
  8
0
  6
CONTINUOUS
 62
     2
 10
219.847999994
 20
130.333333354
 30
0.0
 11
163.847999994
 21
130.333333354
 31
0.0
  0
LINE
  8
0
  6
LTYPE3
 62
     2
 10
147.847999994
 20
146.85000002
 30
0.0
 11
209.0
 21
146.85000002
 31
0.0
  0
LINE
  8
0
  6
LTYPE3
 62
     2
 10
98.847999993
 20
146.85000002
 30
0.0
 11
140.847999994
 21
146.85000002
 31
0.0
  0
LINE
  8
0
  6
LTYPE3
 62
     2
 10
98.847999993
 20
146.85000002
 30
0.0
 11
140.847999994
 21
146.85000002
 31
0.0
  0
LINE
  8
0
  6
LTYPE3
 62
     2
 10
120.199999981
 20
167.833333333
 30
0.0
 11
120.199999981
 21
125.85000002
 31
0.0
  0
ENDSEC
  0
EOF
