  0
SECTION
  2
HEADER
  9
$ACADVER
  1
AC1009
  9
$DWGCODEPAGE
  3
dos932
  9
$EXTMIN
 10
0.0
 20
0.0
 30
0.0
  9
$EXTMAX
 10
297.0
 20
210.0
 30
0.0
  9
$LIMMIN
 10
0.0
 20
0.0
  9
$LIMMAX
 10
297.0
 20
210.0
  9
$LTSCALE
 40
1.0
  9
$PDMODE
 70
     0
  0
ENDSEC
  0
SECTION
  2
TABLES
  0
TABLE
  2
VPORT
 70
     1
  0
VPORT
  2
*ACTIVE
 70
     0
 10
0.0
 20
0.0
 11
1.0
 21
1.0
 12
148.5
 22
105.0
 13
0.0
 23
0.0
 14
10.0
 24
10.0
 15
10.0
 25
10.0
 16
0.0
 26
0.0
 36
1.0
 17
0.0
 27
0.0
 37
0.0
 40
297.0
 41
1.414285714
 42
50.0
 43
0.0
 44
0.0
 50
0.0
 51
0.0
 71
     0
 72
  1000
 73
     1
 74
     3
 75
     0
 76
     0
 77
     0
 78
     0
  0
ENDTAB
  0
TABLE
  2
LTYPE
 70
     5
  0
LTYPE
  2
CONTINUOUS
 70
    64
  3
Solid line
 72
    65
 73
     0
 40
0.0
  0
LTYPE
  2
LTYPE1
 70
    64
  3
CENTER
 72
    65
 73
     4
 40
15.0
 49
10.5
 49
-1.5
 49
1.5
 49
-1.5
  0
LTYPE
  2
LTYPE2
 70
    64
  3
CENTER
 72
    65
 73
     4
 40
8.0
 49
5.6
 49
-0.8
 49
0.8
 49
-0.8
  0
LTYPE
  2
LTYPE3
 70
    64
  3
CENTER
 72
    65
 73
     4
 40
5.0
 49
3.5
 49
-0.5
 49
0.5
 49
-0.5
  0
LTYPE
  2
LTYPE4
 70
    64
  3
HIDDEN
 72
    65
 73
     2
 40
1.0
 49
0.6
 49
-0.4
  0
ENDTAB
  0
TABLE
  2
LAYER
 70
   128
  0
LAYER
  2
0
 70
     0
 62
     7
  6
CONTINUOUS
  0
LAYER
  2
2
 70
     0
 62
     7
  6
CONTINUOUS
  0
LAYER
  2
3
 70
     0
 62
     7
  6
CONTINUOUS
  0
LAYER
  2
4
 70
     0
 62
     7
  6
CONTINUOUS
  0
LAYER
  2
5
 70
     0
 62
     7
  6
CONTINUOUS
  0
LAYER
  2
6
 70
     0
 62
     7
  6
CONTINUOUS
  0
LAYER
  2
7
 70
     0
 62
     7
  6
CONTINUOUS
  0
LAYER
  2
8
 70
     0
 62
     7
  6
CONTINUOUS
  0
LAYER
  2
9
 70
     0
 62
     7
  6
CONTINUOUS
  0
LAYER
  2
10
 70
     0
 62
     7
  6
CONTINUOUS
  0
LAYER
  2
11
 70
     0
 62
     7
  6
CONTINUOUS
  0
LAYER
  2
12
 70
     0
 62
     7
  6
CONTINUOUS
  0
LAYER
  2
13
 70
     0
 62
     7
  6
CONTINUOUS
  0
LAYER
  2
14
 70
     0
 62
     7
  6
CONTINUOUS
  0
LAYER
  2
15
 70
     0
 62
     7
  6
CONTINUOUS
  0
LAYER
  2
16
 70
     0
 62
     7
  6
CONTINUOUS
  0
LAYER
  2
17
 70
     0
 62
     7
  6
CONTINUOUS
  0
LAYER
  2
18
 70
     0
 62
     7
  6
CONTINUOUS
  0
LAYER
  2
19
 70
     0
 62
     7
  6
CONTINUOUS
  0
LAYER
  2
20
 70
     0
 62
     7
  6
CONTINUOUS
  0
LAYER
  2
21
 70
     0
 62
     7
  6
CONTINUOUS
  0
LAYER
  2
22
 70
     0
 62
     7
  6
CONTINUOUS
  0
LAYER
  2
23
 70
     0
 62
     7
  6
CONTINUOUS
  0
LAYER
  2
24
 70
     0
 62
     7
  6
CONTINUOUS
  0
LAYER
  2
25
 70
     0
 62
     7
  6
CONTINUOUS
  0
LAYER
  2
26
 70
     0
 62
     7
  6
CONTINUOUS
  0
LAYER
  2
27
 70
     0
 62
     7
  6
CONTINUOUS
  0
LAYER
  2
28
 70
     0
 62
     7
  6
CONTINUOUS
  0
LAYER
  2
29
 70
     0
 62
     7
  6
CONTINUOUS
  0
LAYER
  2
30
 70
     0
 62
     7
  6
CONTINUOUS
  0
LAYER
  2
31
 70
     0
 62
     7
  6
CONTINUOUS
  0
LAYER
  2
32
 70
     0
 62
     7
  6
CONTINUOUS
  0
LAYER
  2
33
 70
     0
 62
     7
  6
CONTINUOUS
  0
LAYER
  2
34
 70
     0
 62
     7
  6
CONTINUOUS
  0
LAYER
  2
35
 70
     0
 62
     7
  6
CONTINUOUS
  0
LAYER
  2
36
 70
     0
 62
     7
  6
CONTINUOUS
  0
LAYER
  2
37
 70
     0
 62
     7
  6
CONTINUOUS
  0
LAYER
  2
38
 70
     0
 62
     7
  6
CONTINUOUS
  0
LAYER
  2
39
 70
     0
 62
     7
  6
CONTINUOUS
  0
LAYER
  2
40
 70
     0
 62
     7
  6
CONTINUOUS
  0
LAYER
  2
41
 70
     0
 62
     7
  6
CONTINUOUS
  0
LAYER
  2
42
 70
     0
 62
     7
  6
CONTINUOUS
  0
LAYER
  2
43
 70
     0
 62
     7
  6
CONTINUOUS
  0
LAYER
  2
44
 70
     0
 62
     7
  6
CONTINUOUS
  0
LAYER
  2
45
 70
     0
 62
     7
  6
CONTINUOUS
  0
LAYER
  2
46
 70
     0
 62
     7
  6
CONTINUOUS
  0
LAYER
  2
47
 70
     0
 62
     7
  6
CONTINUOUS
  0
LAYER
  2
48
 70
     0
 62
     7
  6
CONTINUOUS
  0
LAYER
  2
49
 70
     0
 62
     7
  6
CONTINUOUS
  0
LAYER
  2
50
 70
     0
 62
     7
  6
CONTINUOUS
  0
LAYER
  2
51
 70
     0
 62
     7
  6
CONTINUOUS
  0
LAYER
  2
52
 70
     0
 62
     7
  6
CONTINUOUS
  0
LAYER
  2
53
 70
     0
 62
     7
  6
CONTINUOUS
  0
LAYER
  2
54
 70
     0
 62
     7
  6
CONTINUOUS
  0
LAYER
  2
55
 70
     0
 62
     7
  6
CONTINUOUS
  0
LAYER
  2
56
 70
     0
 62
     7
  6
CONTINUOUS
  0
LAYER
  2
57
 70
     0
 62
     7
  6
CONTINUOUS
  0
LAYER
  2
58
 70
     0
 62
     7
  6
CONTINUOUS
  0
LAYER
  2
59
 70
     0
 62
     7
  6
CONTINUOUS
  0
LAYER
  2
60
 70
     0
 62
     7
  6
CONTINUOUS
  0
LAYER
  2
61
 70
     0
 62
     7
  6
CONTINUOUS
  0
LAYER
  2
62
 70
     0
 62
     7
  6
CONTINUOUS
  0
LAYER
  2
63
 70
     0
 62
     7
  6
CONTINUOUS
  0
LAYER
  2
64
 70
     0
 62
     7
  6
CONTINUOUS
  0
LAYER
  2
65
 70
     0
 62
     7
  6
CONTINUOUS
  0
LAYER
  2
66
 70
     0
 62
     7
  6
CONTINUOUS
  0
LAYER
  2
67
 70
     0
 62
     7
  6
CONTINUOUS
  0
LAYER
  2
68
 70
     0
 62
     7
  6
CONTINUOUS
  0
LAYER
  2
69
 70
     0
 62
     7
  6
CONTINUOUS
  0
LAYER
  2
70
 70
     0
 62
     7
  6
CONTINUOUS
  0
LAYER
  2
71
 70
     0
 62
     7
  6
CONTINUOUS
  0
LAYER
  2
72
 70
     0
 62
     7
  6
CONTINUOUS
  0
LAYER
  2
73
 70
     0
 62
     7
  6
CONTINUOUS
  0
LAYER
  2
74
 70
     0
 62
     7
  6
CONTINUOUS
  0
LAYER
  2
75
 70
     0
 62
     7
  6
CONTINUOUS
  0
LAYER
  2
76
 70
     0
 62
     7
  6
CONTINUOUS
  0
LAYER
  2
77
 70
     0
 62
     7
  6
CONTINUOUS
  0
LAYER
  2
78
 70
     0
 62
     7
  6
CONTINUOUS
  0
LAYER
  2
79
 70
     0
 62
     7
  6
CONTINUOUS
  0
LAYER
  2
80
 70
     0
 62
     7
  6
CONTINUOUS
  0
LAYER
  2
81
 70
     0
 62
     7
  6
CONTINUOUS
  0
LAYER
  2
82
 70
     0
 62
     7
  6
CONTINUOUS
  0
LAYER
  2
83
 70
     0
 62
     7
  6
CONTINUOUS
  0
LAYER
  2
84
 70
     0
 62
     7
  6
CONTINUOUS
  0
LAYER
  2
85
 70
     0
 62
     7
  6
CONTINUOUS
  0
LAYER
  2
86
 70
     0
 62
     7
  6
CONTINUOUS
  0
LAYER
  2
87
 70
     0
 62
     7
  6
CONTINUOUS
  0
LAYER
  2
88
 70
     0
 62
     7
  6
CONTINUOUS
  0
LAYER
  2
89
 70
     0
 62
     7
  6
CONTINUOUS
  0
LAYER
  2
90
 70
     0
 62
     7
  6
CONTINUOUS
  0
LAYER
  2
91
 70
     0
 62
     7
  6
CONTINUOUS
  0
LAYER
  2
92
 70
     0
 62
     7
  6
CONTINUOUS
  0
LAYER
  2
93
 70
     0
 62
     7
  6
CONTINUOUS
  0
LAYER
  2
94
 70
     0
 62
     7
  6
CONTINUOUS
  0
LAYER
  2
95
 70
     0
 62
     7
  6
CONTINUOUS
  0
LAYER
  2
96
 70
     0
 62
     7
  6
CONTINUOUS
  0
LAYER
  2
97
 70
     0
 62
     7
  6
CONTINUOUS
  0
LAYER
  2
98
 70
     0
 62
     7
  6
CONTINUOUS
  0
LAYER
  2
99
 70
     0
 62
     7
  6
CONTINUOUS
  0
LAYER
  2
100
 70
     0
 62
     7
  6
CONTINUOUS
  0
LAYER
  2
101
 70
     0
 62
     7
  6
CONTINUOUS
  0
LAYER
  2
102
 70
     0
 62
     7
  6
CONTINUOUS
  0
LAYER
  2
103
 70
     0
 62
     7
  6
CONTINUOUS
  0
LAYER
  2
104
 70
     0
 62
     7
  6
CONTINUOUS
  0
LAYER
  2
105
 70
     0
 62
     7
  6
CONTINUOUS
  0
LAYER
  2
106
 70
     0
 62
     7
  6
CONTINUOUS
  0
LAYER
  2
107
 70
     0
 62
     7
  6
CONTINUOUS
  0
LAYER
  2
108
 70
     0
 62
     7
  6
CONTINUOUS
  0
LAYER
  2
109
 70
     0
 62
     7
  6
CONTINUOUS
  0
LAYER
  2
110
 70
     0
 62
     7
  6
CONTINUOUS
  0
LAYER
  2
111
 70
     0
 62
     7
  6
CONTINUOUS
  0
LAYER
  2
112
 70
     0
 62
     7
  6
CONTINUOUS
  0
LAYER
  2
113
 70
     0
 62
     7
  6
CONTINUOUS
  0
LAYER
  2
114
 70
     0
 62
     7
  6
CONTINUOUS
  0
LAYER
  2
115
 70
     0
 62
     7
  6
CONTINUOUS
  0
LAYER
  2
116
 70
     0
 62
     7
  6
CONTINUOUS
  0
LAYER
  2
117
 70
     0
 62
     7
  6
CONTINUOUS
  0
LAYER
  2
118
 70
     0
 62
     7
  6
CONTINUOUS
  0
LAYER
  2
119
 70
     0
 62
     7
  6
CONTINUOUS
  0
LAYER
  2
120
 70
     0
 62
     7
  6
CONTINUOUS
  0
LAYER
  2
121
 70
     0
 62
     7
  6
CONTINUOUS
  0
LAYER
  2
122
 70
     0
 62
     7
  6
CONTINUOUS
  0
LAYER
  2
123
 70
     0
 62
     7
  6
CONTINUOUS
  0
LAYER
  2
124
 70
     0
 62
     7
  6
CONTINUOUS
  0
LAYER
  2
125
 70
     0
 62
     7
  6
CONTINUOUS
  0
LAYER
  2
126
 70
     0
 62
     7
  6
CONTINUOUS
  0
LAYER
  2
127
 70
     0
 62
     7
  6
CONTINUOUS
  0
LAYER
  2
128
 70
     0
 62
     7
  6
CONTINUOUS
  0
ENDTAB
  0
TABLE
  2
STYLE
 70
     8
  0
STYLE
  2
STANDARD
 70
     0
 40
0.0
 41
1.0
 50
0.0
 71
     0
 42
0.2
  3
txt.shx
  4
extfont.shx
  0
STYLE
  2
KANJI0
 70
     0
 40
3.0
 41
0.9
 50
0.0
 71
     0
 42
3.0
  3
txt.shx
  4
extfont.shx
  0
STYLE
  2
KANJI1
 70
     0
 40
3.0
 41
0.6
 50
0.0
 71
     0
 42
3.0
  3
txt.shx
  4
extfont.shx
  0
STYLE
  2
KANJI2
 70
     0
 40
3.0
 41
0.6
 50
0.0
 71
     0
 42
3.0
  3
txt.shx
  4
extfont.shx
  0
STYLE
  2
KANJI3
 70
     0
 40
1.8
 41
0.6
 50
0.0
 71
     0
 42
1.8
  3
txt.shx
  4
extfont.shx
  0
STYLE
  2
KANJI4
 70
     0
 40
4.0
 41
0.9
 50
0.0
 71
     0
 42
4.0
  3
txt.shx
  4
extfont.shx
  0
STYLE
  2
KANJI5
 70
     0
 40
1.5
 41
0.8
 50
0.0
 71
     0
 42
1.5
  3
txt.shx
  4
extfont.shx
  0
STYLE
  2
KANJI6
 70
     0
 40
6.0
 41
0.9
 50
0.0
 71
     0
 42
6.0
  3
txt.shx
  4
extfont.shx
  0
ENDTAB
  0
TABLE
  2
VIEW
 70
     0
  0
ENDTAB
  0
ENDSEC
  0
SECTION
  2
BLOCKS
  0
ENDSEC
  0
SECTION
  2
ENTITIES
  0
LINE
  8
0
  6
CONTINUOUS
 62
     1
 10
143.266666614
 20
160.150000002
 30
0.0
 11
139.766666618
 21
160.150000002
 31
0.0
  0
ARC
  8
0
  6
CONTINUOUS
 62
     1
 10
139.766666618
 20
159.816666669
 30
0.0
 40
0.333333333
 50
90.0
 51
180.0
  0
LINE
  8
0
  6
CONTINUOUS
 62
     1
 10
139.433333285
 20
158.81666667
 30
0.0
 11
137.099999954
 21
158.81666667
 31
0.0
  0
ARC
  8
0
  6
CONTINUOUS
 62
     1
 10
137.099999954
 20
158.650000004
 30
0.0
 40
0.166666667
 50
90.0
 51
180.0
  0
ARC
  8
0
  6
CONTINUOUS
 62
     1
 10
139.766666618
 20
123.816666705
 30
0.0
 40
0.333333333
 50
180.0
 51
270.0
  0
LINE
  8
0
  6
CONTINUOUS
 62
     1
 10
139.433333285
 20
124.816666704
 30
0.0
 11
137.099999954
 21
124.816666704
 31
0.0
  0
ARC
  8
0
  6
CONTINUOUS
 62
     1
 10
137.099999954
 20
124.983333371
 30
0.0
 40
0.166666667
 50
180.0
 51
270.0
  0
LINE
  8
0
  6
CONTINUOUS
 62
     1
 10
139.433333285
 20
123.816666705
 30
0.0
 11
139.433333285
 21
141.816666687
 31
0.0
  0
LINE
  8
0
  6
CONTINUOUS
 62
     1
 10
139.433333285
 20
159.816666669
 30
0.0
 11
139.433333285
 21
158.91666667
 31
0.0
  0
LINE
  8
0
  6
CONTINUOUS
 62
     1
 10
143.266666614
 20
160.150000002
 30
0.0
 11
143.266666614
 21
159.716666669
 31
0.0
  0
LINE
  8
0
  6
CONTINUOUS
 62
     1
 10
139.433333285
 20
158.91666667
 30
0.0
 11
139.433333285
 21
158.81666667
 31
0.0
  0
LINE
  8
0
  6
CONTINUOUS
 62
     1
 10
143.266666614
 20
159.716666669
 30
0.0
 11
143.266666614
 21
141.983333354
 31
0.0
  0
LINE
  8
0
  6
CONTINUOUS
 62
     1
 10
143.266666614
 20
141.983333354
 30
0.0
 11
143.266666614
 21
123.483333372
 31
0.0
  0
LINE
  8
0
  6
CONTINUOUS
 62
     1
 10
139.433333285
 20
141.833333354
 30
0.0
 11
139.433333285
 21
158.81666667
 31
0.0
  0
LINE
  8
0
  6
CONTINUOUS
 62
     1
 10
139.433333285
 20
153.816666675
 30
0.0
 11
139.433333285
 21
159.816667941
 31
0.0
  0
LINE
  8
0
  6
CONTINUOUS
 62
     2
 10
139.433333285
 20
127.650000035
 30
0.0
 11
139.366666618
 21
127.650000035
 31
0.0
  0
LINE
  8
0
  6
CONTINUOUS
 62
     2
 10
139.366666618
 20
127.650000035
 30
0.0
 11
139.366666618
 21
125.98333337
 31
0.0
  0
LINE
  8
0
  6
CONTINUOUS
 62
     2
 10
139.366666618
 20
125.98333337
 30
0.0
 11
139.433333285
 21
125.98333337
 31
0.0
  0
LINE
  8
0
  6
LTYPE1
 62
     2
 10
143.433333281
 20
141.816666687
 30
0.0
 11
144.933333279
 21
141.816666687
 31
0.0
  0
LINE
  8
0
  6
LTYPE1
 62
     2
 10
139.266666618
 20
141.816666687
 30
0.0
 11
143.433333281
 21
141.816666687
 31
0.0
  0
LINE
  8
0
  6
CONTINUOUS
 62
     2
 10
143.266666614
 20
154.833333341
 30
0.0
 11
143.433333281
 21
154.833333341
 31
0.0
  0
LINE
  8
0
  6
CONTINUOUS
 62
     2
 10
143.433333281
 20
154.833333341
 30
0.0
 11
143.433333281
 21
158.833333337
 31
0.0
  0
LINE
  8
0
  6
CONTINUOUS
 62
     2
 10
143.433333281
 20
158.833333337
 30
0.0
 11
143.266666614
 21
158.833333337
 31
0.0
  0
LINE
  8
0
  6
CONTINUOUS
 62
     2
 10
147.099999944
 20
157.833333338
 30
0.0
 11
148.433333276
 21
157.833333338
 31
0.0
  0
LINE
  8
0
  6
CONTINUOUS
 62
     2
 10
148.433333276
 20
157.833333338
 30
0.0
 11
148.433333276
 21
155.83333334
 31
0.0
  0
LINE
  8
0
  6
CONTINUOUS
 62
     2
 10
148.433333276
 20
155.83333334
 30
0.0
 11
147.099999944
 21
155.83333334
 31
0.0
  0
LINE
  8
0
  6
LTYPE1
 62
     2
 10
142.066666616
 20
156.833333339
 30
0.0
 11
149.966666608
 21
156.833333339
 31
0.0
  0
ARC
  8
0
  6
CONTINUOUS
 62
     2
 10
143.766666614
 20
156.833333339
 30
0.0
 40
3.33333333
 50
343.5
 51
16.5
  0
ARC
  8
0
  6
CONTINUOUS
 62
     2
 10
148.766666609
 20
156.833333339
 30
0.0
 40
3.33333333
 50
163.5
 51
196.3
  0
ARC
  8
0
  6
CONTINUOUS
 62
     2
 10
146.266666611
 20
158.250000004
 30
0.0
 40
0.833333333
 50
325.0
 51
35.0
  0
ARC
  8
0
  6
CONTINUOUS
 62
     2
 10
146.266666611
 20
158.250000004
 30
0.0
 40
0.833333333
 50
145.0
 51
215.0
  0
ARC
  8
0
  6
CONTINUOUS
 62
     2
 10
146.266666611
 20
155.416666673
 30
0.0
 40
0.833333333
 50
145.0
 51
215.0
  0
ARC
  8
0
  6
CONTINUOUS
 62
     2
 10
146.266666611
 20
155.416666673
 30
0.0
 40
0.833333333
 50
325.0
 51
35.0
  0
LINE
  8
0
  6
CONTINUOUS
 62
     2
 10
145.567315639
 20
155.897777643
 30
0.0
 11
146.950648971
 21
155.897777643
 31
0.0
  0
LINE
  8
0
  6
CONTINUOUS
 62
     2
 10
146.962732394
 20
157.780051153
 30
0.0
 11
145.570600829
 21
157.780051153
 31
0.0
  0
LINE
  8
0
  6
CONTINUOUS
 62
     2
 10
147.099999944
 20
155.416666673
 30
0.0
 11
147.099999944
 21
158.250000004
 31
0.0
  0
LINE
  8
0
  6
CONTINUOUS
 62
     2
 10
147.103333277
 20
155.916666673
 30
0.0
 11
148.419999943
 21
155.916666673
 31
0.0
  0
LINE
  8
0
  6
CONTINUOUS
 62
     2
 10
148.433333276
 20
157.756666671
 30
0.0
 11
147.106666611
 21
157.756666671
 31
0.0
  0
LINE
  8
0
  6
CONTINUOUS
 62
     2
 10
139.366666618
 20
127.833333368
 30
0.0
 11
139.366666618
 21
125.83333337
 31
0.0
  0
LINE
  8
0
  6
CONTINUOUS
 62
     2
 10
139.133333285
 20
125.83333337
 30
0.0
 11
139.366666618
 21
125.83333337
 31
0.0
  0
ARC
  8
0
  6
CONTINUOUS
 62
     2
 10
139.133333285
 20
126.100000036
 30
0.0
 40
0.266666666
 50
180.0
 51
270.0
  0
LINE
  8
0
  6
CONTINUOUS
 62
     2
 10
139.133333285
 20
127.833333368
 30
0.0
 11
139.433333285
 21
127.833333368
 31
0.0
  0
LINE
  8
0
  6
CONTINUOUS
 62
     2
 10
138.866666619
 20
126.100000036
 30
0.0
 11
138.866666619
 21
127.566666701
 31
0.0
  0
ARC
  8
0
  6
CONTINUOUS
 62
     2
 10
139.133333285
 20
127.566666701
 30
0.0
 40
0.266666666
 50
90.0
 51
180.0
  0
LINE
  8
0
  6
CONTINUOUS
 62
     2
 10
138.866666619
 20
126.900000035
 30
0.0
 11
138.933333285
 21
126.900000035
 31
0.0
  0
LINE
  8
0
  6
CONTINUOUS
 62
     2
 10
138.933333285
 20
126.900000035
 30
0.0
 11
138.933333285
 21
126.766666702
 31
0.0
  0
LINE
  8
0
  6
CONTINUOUS
 62
     2
 10
138.933333285
 20
126.766666702
 30
0.0
 11
138.866666619
 21
126.766666702
 31
0.0
  0
LINE
  8
0
  6
CONTINUOUS
 62
     2
 10
139.433333285
 20
157.650000005
 30
0.0
 11
139.366666618
 21
157.650000005
 31
0.0
  0
LINE
  8
0
  6
CONTINUOUS
 62
     2
 10
139.366666618
 20
157.650000005
 30
0.0
 11
139.366666618
 21
155.98333334
 31
0.0
  0
LINE
  8
0
  6
CONTINUOUS
 62
     2
 10
139.366666618
 20
155.98333334
 30
0.0
 11
139.433333285
 21
155.98333334
 31
0.0
  0
LINE
  8
0
  6
CONTINUOUS
 62
     2
 10
139.366666618
 20
157.833333338
 30
0.0
 11
139.366666618
 21
155.83333334
 31
0.0
  0
LINE
  8
0
  6
CONTINUOUS
 62
     2
 10
139.133333285
 20
155.83333334
 30
0.0
 11
139.366666618
 21
155.83333334
 31
0.0
  0
ARC
  8
0
  6
CONTINUOUS
 62
     2
 10
139.133333285
 20
156.100000006
 30
0.0
 40
0.266666666
 50
180.0
 51
270.0
  0
LINE
  8
0
  6
CONTINUOUS
 62
     2
 10
139.133333285
 20
157.833333338
 30
0.0
 11
139.433333285
 21
157.833333338
 31
0.0
  0
LINE
  8
0
  6
CONTINUOUS
 62
     2
 10
138.866666619
 20
156.100000006
 30
0.0
 11
138.866666619
 21
157.566666671
 31
0.0
  0
ARC
  8
0
  6
CONTINUOUS
 62
     2
 10
139.133333285
 20
157.566666671
 30
0.0
 40
0.266666666
 50
90.0
 51
180.0
  0
LINE
  8
0
  6
CONTINUOUS
 62
     2
 10
138.866666619
 20
156.900000005
 30
0.0
 11
138.933333285
 21
156.900000005
 31
0.0
  0
LINE
  8
0
  6
CONTINUOUS
 62
     2
 10
138.933333285
 20
156.900000005
 30
0.0
 11
138.933333285
 21
156.766666672
 31
0.0
  0
LINE
  8
0
  6
CONTINUOUS
 62
     2
 10
138.933333285
 20
156.766666672
 30
0.0
 11
138.866666619
 21
156.766666672
 31
0.0
  0
LINE
  8
0
  6
CONTINUOUS
 62
     2
 10
146.953934161
 20
158.733333337
 30
0.0
 11
145.433333279
 21
158.733333337
 31
0.0
  0
LINE
  8
0
  6
CONTINUOUS
 62
     2
 10
145.433333279
 20
154.933333341
 30
0.0
 11
146.949999944
 21
154.933333341
 31
0.0
  0
LINE
  8
0
  6
CONTINUOUS
 62
     2
 10
145.433333279
 20
158.733333337
 30
0.0
 11
145.433333279
 21
154.933333341
 31
0.0
  0
LINE
  8
0
  6
CONTINUOUS
 62
     2
 10
144.766666613
 20
159.06666667
 30
0.0
 11
145.433333279
 21
158.733333337
 31
0.0
  0
LINE
  8
0
  6
CONTINUOUS
 62
     2
 10
144.766666613
 20
154.600000008
 30
0.0
 11
145.433333279
 21
154.933333341
 31
0.0
  0
LINE
  8
0
  6
CONTINUOUS
 62
     2
 10
144.766666613
 20
159.06666667
 30
0.0
 11
144.766666613
 21
154.600000008
 31
0.0
  0
LINE
  8
0
  6
CONTINUOUS
 62
     2
 10
144.766666613
 20
157.833333338
 30
0.0
 11
143.433333281
 21
157.833333338
 31
0.0
  0
LINE
  8
0
  6
CONTINUOUS
 62
     2
 10
144.766666613
 20
157.756666671
 30
0.0
 11
143.433333281
 21
157.756666671
 31
0.0
  0
LINE
  8
0
  6
CONTINUOUS
 62
     2
 10
143.433333281
 20
155.836666673
 30
0.0
 11
144.766666613
 21
155.836666673
 31
0.0
  0
LINE
  8
0
  6
CONTINUOUS
 62
     2
 10
144.766666613
 20
155.916666673
 30
0.0
 11
143.433333281
 21
155.916666673
 31
0.0
  0
LINE
  8
0
  6
CONTINUOUS
 62
     1
 10
136.441159375
 20
144.500000018
 30
0.0
 11
134.907826043
 21
144.500000018
 31
0.0
  0
LINE
  8
0
  6
CONTINUOUS
 62
     1
 10
134.907826043
 20
144.500000018
 30
0.0
 11
134.907826043
 21
139.16666669
 31
0.0
  0
LINE
  8
0
  6
CONTINUOUS
 62
     1
 10
134.907826043
 20
139.16666669
 30
0.0
 11
136.439999955
 21
139.16666669
 31
0.0
  0
LINE
  8
0
  6
CONTINUOUS
 62
     1
 10
134.907826043
 20
140.333333355
 30
0.0
 11
134.099999957
 21
140.333333355
 31
0.0
  0
LINE
  8
0
  6
CONTINUOUS
 62
     1
 10
134.099999957
 20
140.333333355
 30
0.0
 11
134.099999957
 21
143.333333352
 31
0.0
  0
LINE
  8
0
  6
CONTINUOUS
 62
     1
 10
134.099999957
 20
143.333333352
 30
0.0
 11
134.907826043
 21
143.333333352
 31
0.0
  0
LINE
  8
0
  6
CONTINUOUS
 62
     1
 10
136.439999955
 20
139.16666669
 30
0.0
 11
136.439999955
 21
144.500000018
 31
0.0
  0
LINE
  8
0
  6
CONTINUOUS
 62
     1
 10
136.441159375
 20
144.500000018
 30
0.0
 11
136.933333287
 21
158.650000004
 31
0.0
  0
LINE
  8
0
  6
CONTINUOUS
 62
     1
 10
136.439999955
 20
139.16666669
 30
0.0
 11
136.933333287
 21
124.983333371
 31
0.0
  0
LINE
  8
0
  6
CONTINUOUS
 62
     2
 10
134.169274026
 20
143.318097344
 30
0.0
 11
134.653576374
 21
145.770739029
 31
0.0
  0
LINE
  8
0
  6
CONTINUOUS
 62
     2
 10
134.169274026
 20
143.318097344
 30
0.0
 11
133.36237132
 21
145.684298524
 31
0.0
  0
LINE
  8
0
  6
CONTINUOUS
 62
     2
 10
134.169274026
 20
143.318097344
 30
0.0
 11
132.569274026
 21
167.218097344
 31
0.0
  0
LINE
  8
0
  6
CONTINUOUS
 62
     2
 10
150.269274026
 20
167.218097344
 30
0.0
 11
132.569274026
 21
167.218097344
 31
0.0
  0
TEXT
  8
0
  6
CONTINUOUS
 62
     2
 10
132.569274026
 20
168.218097344
 30
0.3
 40
3.0
  1
手動復帰押釦
 50
0.0
 41
0.9
 51
0.0
  7
KANJI0
  0
LINE
  8
0
  6
CONTINUOUS
 62
     2
 10
148.433333276
 20
157.833333338
 30
0.0
 11
150.470132832
 21
159.282970385
 31
0.0
  0
LINE
  8
0
  6
CONTINUOUS
 62
     2
 10
148.433333276
 20
157.833333338
 30
0.0
 11
149.47243491
 21
160.107155625
 31
0.0
  0
LINE
  8
0
  6
CONTINUOUS
 62
     2
 10
148.433333276
 20
157.833333338
 30
0.0
 11
152.233333276
 21
162.433333338
 31
0.0
  0
LINE
  8
0
  6
CONTINUOUS
 62
     2
 10
152.233333276
 20
162.433333338
 30
0.0
 11
178.933333276
 21
162.433333338
 31
0.0
  0
TEXT
  8
0
  6
CONTINUOUS
 62
     2
 10
152.233333276
 20
163.433333338
 30
0.3
 40
3.0
  1
４－Ｍ５取付ボルト
 50
0.0
 41
0.9
 51
0.0
  7
KANJI0
  0
LINE
  8
0
  6
CONTINUOUS
 62
     1
 10
139.766666618
 20
123.483333372
 30
0.0
 11
143.266666614
 21
123.483333372
 31
0.0
  0
CIRCLE
  8
0
  6
CONTINUOUS
 62
     1
 10
175.199999981
 20
65.166666706
 30
0.0
 40
15.3
  0
CIRCLE
  8
0
  6
CONTINUOUS
 62
     1
 10
161.699999981
 20
78.666666705
 30
0.0
 40
1.05
  0
CIRCLE
  8
0
  6
CONTINUOUS
 62
     1
 10
161.699999981
 20
51.666666706
 30
0.0
 40
1.05
  0
CIRCLE
  8
0
  6
CONTINUOUS
 62
     1
 10
188.699999981
 20
51.666666706
 30
0.0
 40
1.05
  0
CIRCLE
  8
0
  6
CONTINUOUS
 62
     1
 10
188.699999981
 20
78.666666705
 30
0.0
 40
1.05
  0
LINE
  8
0
  6
LTYPE1
 62
     2
 10
159.239999981
 20
51.666666706
 30
0.0
 11
163.529999981
 21
51.666666706
 31
0.0
  0
LINE
  8
0
  6
LTYPE1
 62
     2
 10
186.059999981
 20
51.666666706
 30
0.0
 11
191.639999981
 21
51.666666706
 31
0.0
  0
LINE
  8
0
  6
LTYPE1
 62
     2
 10
188.699999981
 20
49.056666706
 30
0.0
 11
188.699999981
 21
54.666666706
 31
0.0
  0
LINE
  8
0
  6
LTYPE1
 62
     2
 10
188.699999981
 20
75.426666705
 30
0.0
 11
188.699999981
 21
82.476666705
 31
0.0
  0
LINE
  8
0
  6
LTYPE1
 62
     2
 10
161.699999981
 20
82.476666705
 30
0.0
 11
161.699999981
 21
76.026666705
 31
0.0
  0
LINE
  8
0
  6
LTYPE1
 62
     2
 10
161.699999981
 20
54.786666706
 30
0.0
 11
161.699999981
 21
48.606666706
 31
0.0
  0
LINE
  8
0
  6
LTYPE1
 62
     2
 10
159.269999981
 20
78.666666705
 30
0.0
 11
165.659999981
 21
78.666666705
 31
0.0
  0
LINE
  8
0
  6
LTYPE1
 62
     2
 10
185.219999981
 20
78.666666705
 30
0.0
 11
193.049999981
 21
78.666666705
 31
0.0
  0
LINE
  8
0
  6
CONTINUOUS
 62
     2
 10
164.638512416
 20
54.096663073
 30
0.0
 11
165.919565492
 21
54.876985453
 31
0.0
  0
LINE
  8
0
  6
CONTINUOUS
 62
     2
 10
164.638512416
 20
54.096663073
 30
0.0
 11
165.357775733
 21
55.412968616
 31
0.0
  0
LINE
  8
0
  6
CONTINUOUS
 62
     2
 10
164.638512416
 20
54.096663073
 30
0.0
 11
185.761487545
 21
76.236670338
 31
0.0
  0
LINE
  8
0
  6
CONTINUOUS
 62
     2
 10
185.761487545
 20
76.236670338
 30
0.0
 11
184.48043447
 21
75.456347958
 31
0.0
  0
LINE
  8
0
  6
CONTINUOUS
 62
     2
 10
185.761487545
 20
76.236670338
 30
0.0
 11
185.042224228
 21
74.920364796
 31
0.0
  0
TEXT
  8
0
  6
CONTINUOUS
 62
     2
 10
166.665882191
 20
57.090842689
 30
0.1
 40
3.0
  1
φ１０２
 50
46.346669025
 41
0.6
 51
0.0
  7
KANJI1
  0
LINE
  8
0
  6
CONTINUOUS
 62
     2
 10
193.049999981
 20
78.666666705
 30
0.0
 11
200.049999981
 21
78.666666705
 31
0.0
  0
LINE
  8
0
  6
CONTINUOUS
 62
     2
 10
198.049999981
 20
78.666666705
 30
0.0
 11
197.402952368
 21
76.25185214
 31
0.0
  0
LINE
  8
0
  6
CONTINUOUS
 62
     2
 10
198.049999981
 20
78.666666705
 30
0.0
 11
198.697047593
 21
76.25185214
 31
0.0
  0
LINE
  8
0
  6
CONTINUOUS
 62
     2
 10
198.049999981
 20
78.666666705
 30
0.0
 11
198.049999981
 21
51.666666705
 31
0.0
  0
LINE
  8
0
  6
CONTINUOUS
 62
     2
 10
198.049999981
 20
51.666666705
 30
0.0
 11
198.697047593
 21
54.081481271
 31
0.0
  0
LINE
  8
0
  6
CONTINUOUS
 62
     2
 10
198.049999981
 20
51.666666705
 30
0.0
 11
197.402952368
 21
54.081481271
 31
0.0
  0
LINE
  8
0
  6
CONTINUOUS
 62
     2
 10
192.049999981
 20
51.666666705
 30
0.0
 11
200.049999981
 21
51.666666705
 31
0.0
  0
TEXT
  8
0
  6
CONTINUOUS
 62
     2
 10
197.049999981
 20
62.046666705
 30
0.3
 40
3.0
  1
９０
 50
90.0
 41
0.6
 51
0.0
  7
KANJI2
  0
TEXT
  8
0
  6
CONTINUOUS
 62
     2
 10
197.049999981
 20
66.396666705
 30
0.18
 40
1.8
  1
±１
 50
90.0
 41
0.6
 51
0.0
  7
KANJI3
  0
LINE
  8
0
  6
CONTINUOUS
 62
     2
 10
161.699999981
 20
47.606666706
 30
0.0
 11
161.699999981
 21
40.606666706
 31
0.0
  0
LINE
  8
0
  6
CONTINUOUS
 62
     2
 10
161.699999981
 20
42.606666706
 30
0.0
 11
164.114814547
 21
41.959619093
 31
0.0
  0
LINE
  8
0
  6
CONTINUOUS
 62
     2
 10
161.699999981
 20
42.606666706
 30
0.0
 11
164.114814547
 21
43.253714318
 31
0.0
  0
LINE
  8
0
  6
CONTINUOUS
 62
     2
 10
161.699999981
 20
42.606666706
 30
0.0
 11
188.699999981
 21
42.606666706
 31
0.0
  0
LINE
  8
0
  6
CONTINUOUS
 62
     2
 10
188.699999981
 20
42.606666706
 30
0.0
 11
186.285185415
 21
43.253714318
 31
0.0
  0
LINE
  8
0
  6
CONTINUOUS
 62
     2
 10
188.699999981
 20
42.606666706
 30
0.0
 11
186.285185415
 21
41.959619093
 31
0.0
  0
LINE
  8
0
  6
CONTINUOUS
 62
     2
 10
188.699999981
 20
47.606666706
 30
0.0
 11
188.699999981
 21
40.606666706
 31
0.0
  0
TEXT
  8
0
  6
CONTINUOUS
 62
     2
 10
172.079999981
 20
43.606666706
 30
0.3
 40
3.0
  1
９０
 50
0.0
 41
0.6
 51
0.0
  7
KANJI2
  0
TEXT
  8
0
  6
CONTINUOUS
 62
     2
 10
176.429999981
 20
43.606666706
 30
0.18
 40
1.8
  1
±１
 50
0.0
 41
0.6
 51
0.0
  7
KANJI3
  0
TEXT
  8
0
  6
CONTINUOUS
 62
     2
 10
171.950502506
 20
62.615747875
 30
0.18
 40
1.8
  1
±１
 50
45.0
 41
0.6
 51
0.0
  7
KANJI3
  0
LINE
  8
0
  6
CONTINUOUS
 62
     2
 10
189.169574256
 20
79.605815256
 30
0.0
 11
190.828249139
 21
81.476322575
 31
0.0
  0
LINE
  8
0
  6
CONTINUOUS
 62
     2
 10
189.169574256
 20
79.605815256
 30
0.0
 11
189.670775182
 21
82.055059554
 31
0.0
  0
TEXT
  8
0
  6
CONTINUOUS
 62
     2
 10
194.199999981
 20
89.066666705
 30
0.3
 40
3.0
  1
４－φ７
 50
0.0
 41
0.9
 51
0.0
  7
KANJI0
  0
LINE
  8
0
  6
CONTINUOUS
 62
     2
 10
193.399999981
 20
88.066666705
 30
0.0
 11
205.899999981
 21
88.066666705
 31
0.0
  0
LINE
  8
0
  6
CONTINUOUS
 62
     2
 10
189.169574256
 20
79.605815256
 30
0.0
 11
193.399999981
 21
88.066666705
 31
0.0
  0
TEXT
  8
0
  6
CONTINUOUS
 62
     1
 10
164.566666577
 20
29.366666704
 30
0.4
 40
4.0
  1
取付穴寸法図
 50
0.0
 41
0.9
 51
0.0
  7
KANJI4
  0
LINE
  8
0
  6
CONTINUOUS
 62
     1
 10
164.566666577
 20
28.366666704
 30
0.0
 11
188.166666577
 21
28.366666704
 31
0.0
  0
LINE
  8
0
  6
LTYPE2
 62
     2
 10
175.199999981
 20
47.376666706
 30
0.0
 11
175.199999981
 21
83.966666706
 31
0.0
  0
LINE
  8
0
  6
LTYPE2
 62
     2
 10
157.619999981
 20
65.166666706
 30
0.0
 11
192.839999981
 21
65.166666706
 31
0.0
  0
LINE
  8
0
  6
LTYPE1
 62
     2
 10
142.066666616
 20
126.833333369
 30
0.0
 11
149.966666608
 21
126.833333369
 31
0.0
  0
LINE
  8
0
  6
CONTINUOUS
 62
     2
 10
147.233333277
 20
127.833333368
 30
0.0
 11
148.566666609
 21
127.833333368
 31
0.0
  0
LINE
  8
0
  6
CONTINUOUS
 62
     2
 10
148.566666609
 20
127.833333368
 30
0.0
 11
148.566666609
 21
125.83333337
 31
0.0
  0
LINE
  8
0
  6
CONTINUOUS
 62
     2
 10
148.566666609
 20
125.83333337
 30
0.0
 11
147.233333277
 21
125.83333337
 31
0.0
  0
ARC
  8
0
  6
CONTINUOUS
 62
     2
 10
143.899999947
 20
126.833333369
 30
0.0
 40
3.33333333
 50
343.5
 51
16.5
  0
ARC
  8
0
  6
CONTINUOUS
 62
     2
 10
148.899999942
 20
126.833333369
 30
0.0
 40
3.33333333
 50
163.5
 51
196.3
  0
ARC
  8
0
  6
CONTINUOUS
 62
     2
 10
146.399999945
 20
128.250000034
 30
0.0
 40
0.833333333
 50
325.0
 51
35.0
  0
ARC
  8
0
  6
CONTINUOUS
 62
     2
 10
146.399999945
 20
128.250000034
 30
0.0
 40
0.833333333
 50
145.0
 51
215.0
  0
ARC
  8
0
  6
CONTINUOUS
 62
     2
 10
146.399999945
 20
125.416666703
 30
0.0
 40
0.833333333
 50
145.0
 51
215.0
  0
ARC
  8
0
  6
CONTINUOUS
 62
     2
 10
146.399999945
 20
125.416666703
 30
0.0
 40
0.833333333
 50
325.0
 51
35.0
  0
LINE
  8
0
  6
CONTINUOUS
 62
     2
 10
145.700648972
 20
125.897777673
 30
0.0
 11
147.083982304
 21
125.897777673
 31
0.0
  0
LINE
  8
0
  6
CONTINUOUS
 62
     2
 10
147.096065727
 20
127.780051183
 30
0.0
 11
145.703934163
 21
127.780051183
 31
0.0
  0
LINE
  8
0
  6
CONTINUOUS
 62
     2
 10
147.087267495
 20
128.733333367
 30
0.0
 11
145.566666612
 21
128.733333367
 31
0.0
  0
LINE
  8
0
  6
CONTINUOUS
 62
     2
 10
147.233333277
 20
125.416666703
 30
0.0
 11
147.233333277
 21
128.250000034
 31
0.0
  0
LINE
  8
0
  6
CONTINUOUS
 62
     2
 10
147.236666611
 20
125.916666703
 30
0.0
 11
148.553333276
 21
125.916666703
 31
0.0
  0
LINE
  8
0
  6
CONTINUOUS
 62
     2
 10
148.566666609
 20
127.756666701
 30
0.0
 11
147.239999944
 21
127.756666701
 31
0.0
  0
LINE
  8
0
  6
CONTINUOUS
 62
     2
 10
144.899999946
 20
129.0666667
 30
0.0
 11
145.566666612
 21
128.733333367
 31
0.0
  0
LINE
  8
0
  6
CONTINUOUS
 62
     2
 10
144.899999946
 20
129.0666667
 30
0.0
 11
144.899999946
 21
124.600000038
 31
0.0
  0
LINE
  8
0
  6
CONTINUOUS
 62
     2
 10
144.899999946
 20
124.600000038
 30
0.0
 11
145.566666612
 21
124.933333371
 31
0.0
  0
LINE
  8
0
  6
CONTINUOUS
 62
     2
 10
145.566666612
 20
124.933333371
 30
0.0
 11
147.083333278
 21
124.933333371
 31
0.0
  0
LINE
  8
0
  6
CONTINUOUS
 62
     2
 10
145.566666612
 20
128.733333367
 30
0.0
 11
145.566666612
 21
124.933333371
 31
0.0
  0
LINE
  8
0
  6
CONTINUOUS
 62
     2
 10
144.899999946
 20
127.766666701
 30
0.0
 11
143.566666614
 21
127.766666701
 31
0.0
  0
LINE
  8
0
  6
CONTINUOUS
 62
     2
 10
144.899999946
 20
127.690000035
 30
0.0
 11
143.566666614
 21
127.690000035
 31
0.0
  0
LINE
  8
0
  6
CONTINUOUS
 62
     2
 10
144.899999946
 20
125.916666703
 30
0.0
 11
143.566666614
 21
125.916666703
 31
0.0
  0
LINE
  8
0
  6
CONTINUOUS
 62
     2
 10
143.566666614
 20
125.836666703
 30
0.0
 11
144.899999946
 21
125.836666703
 31
0.0
  0
LINE
  8
0
  6
CONTINUOUS
 62
     2
 10
143.266666614
 20
124.833333371
 30
0.0
 11
143.566666614
 21
124.833333371
 31
0.0
  0
LINE
  8
0
  6
CONTINUOUS
 62
     2
 10
143.566666614
 20
124.833333371
 30
0.0
 11
143.566666614
 21
128.833333367
 31
0.0
  0
LINE
  8
0
  6
CONTINUOUS
 62
     2
 10
143.566666614
 20
128.833333367
 30
0.0
 11
143.266666614
 21
128.833333367
 31
0.0
  0
LINE
  8
0
  6
CONTINUOUS
 62
     2
 10
134.099999957
 20
140.833333354
 30
0.0
 11
134.099999957
 21
113.0
 31
0.0
  0
LINE
  8
0
  6
CONTINUOUS
 62
     2
 10
143.566666614
 20
124.483333372
 30
0.0
 11
143.566666614
 21
113.0
 31
0.0
  0
LINE
  8
0
  6
CONTINUOUS
 62
     2
 10
148.566616614
 20
124.83333337
 30
0.0
 11
148.566616614
 21
118.833333371
 31
0.0
  0
LINE
  8
0
  6
CONTINUOUS
 62
     2
 10
143.266666614
 20
122.983333372
 30
0.0
 11
143.266666614
 21
118.833333372
 31
0.0
  0
LINE
  8
0
  6
CONTINUOUS
 62
     2
 10
143.266666614
 20
120.833333371
 30
0.0
 11
140.851852049
 21
121.480380983
 31
0.0
  0
LINE
  8
0
  6
CONTINUOUS
 62
     2
 10
143.266666614
 20
120.833333371
 30
0.0
 11
140.851852049
 21
120.186285758
 31
0.0
  0
LINE
  8
0
  6
CONTINUOUS
 62
     2
 10
143.266666614
 20
120.833333371
 30
0.0
 11
148.566616614
 21
120.833333371
 31
0.0
  0
LINE
  8
0
  6
CONTINUOUS
 62
     2
 10
143.566716614
 20
120.833333371
 30
0.0
 11
145.98153118
 21
120.186285758
 31
0.0
  0
LINE
  8
0
  6
CONTINUOUS
 62
     2
 10
143.566716614
 20
120.833333371
 30
0.0
 11
145.98153118
 21
121.480380983
 31
0.0
  0
LINE
  8
0
  6
CONTINUOUS
 62
     2
 10
148.566616614
 20
120.833333371
 30
0.0
 11
146.151802049
 21
120.186285758
 31
0.0
  0
LINE
  8
0
  6
CONTINUOUS
 62
     2
 10
148.566616614
 20
120.833333371
 30
0.0
 11
146.151802049
 21
121.480380983
 31
0.0
  0
TEXT
  8
0
  6
CONTINUOUS
 62
     2
 10
149.683333276
 20
121.333333371
 30
0.3
 40
3.0
  1
１５
 50
0.0
 41
0.6
 51
0.0
  7
KANJI2
  0
LINE
  8
0
  6
CONTINUOUS
 62
     2
 10
148.566616614
 20
120.833333371
 30
0.0
 11
153.816616614
 21
120.833333371
 31
0.0
  0
TEXT
  8
0
  6
CONTINUOUS
 62
     2
 10
137.783333276
 20
121.283333371
 30
0.3
 40
3.0
  1
１
 50
0.0
 41
0.6
 51
0.0
  7
KANJI2
  0
LINE
  8
0
  6
CONTINUOUS
 62
     2
 10
137.416616614
 20
120.833333371
 30
0.0
 11
143.266666614
 21
120.833333371
 31
0.0
  0
TEXT
  8
0
  6
CONTINUOUS
 62
     2
 10
135.233333286
 20
116.0
 30
0.3
 40
3.0
  1
（２８）
 50
0.0
 41
0.6
 51
0.0
  7
KANJI2
  0
LINE
  8
0
  6
CONTINUOUS
 62
     2
 10
134.099999957
 20
115.0
 30
0.0
 11
131.685185391
 21
115.647047613
 31
0.0
  0
LINE
  8
0
  6
CONTINUOUS
 62
     2
 10
134.099999957
 20
115.0
 30
0.0
 11
131.685185391
 21
114.352952387
 31
0.0
  0
LINE
  8
0
  6
CONTINUOUS
 62
     2
 10
143.566666614
 20
115.0
 30
0.0
 11
147.316666614
 21
115.0
 31
0.0
  0
LINE
  8
0
  6
CONTINUOUS
 62
     2
 10
143.566666614
 20
115.0
 30
0.0
 11
145.98148118
 21
114.352952387
 31
0.0
  0
LINE
  8
0
  6
CONTINUOUS
 62
     2
 10
143.566666614
 20
115.0
 30
0.0
 11
145.98148118
 21
115.647047613
 31
0.0
  0
LINE
  8
0
  6
CONTINUOUS
 62
     2
 10
143.566666614
 20
115.0
 30
0.0
 11
145.98148118
 21
114.352952387
 31
0.0
  0
LINE
  8
0
  6
CONTINUOUS
 62
     2
 10
143.566666614
 20
115.0
 30
0.0
 11
145.98148118
 21
115.647047613
 31
0.0
  0
LINE
  8
0
  6
CONTINUOUS
 62
     2
 10
134.099999957
 20
115.0
 30
0.0
 11
143.566666614
 21
115.0
 31
0.0
  0
TEXT
  8
0
  6
CONTINUOUS
 62
     1
 10
89.566666577
 20
29.366666704
 30
0.4
 40
4.0
  1
裏面図
 50
0.0
 41
0.9
 51
0.0
  7
KANJI4
  0
LINE
  8
0
  6
CONTINUOUS
 62
     1
 10
89.566666577
 20
28.366666704
 30
0.0
 11
101.566666577
 21
28.366666704
 31
0.0
  0
ARC
  8
0
  6
CONTINUOUS
 62
     1
 10
111.533333298
 20
125.500000037
 30
0.0
 40
1.999999998
 50
270.0
 51
0.0
  0
LINE
  8
0
  6
CONTINUOUS
 62
     1
 10
113.533333296
 20
125.500000037
 30
0.0
 11
113.533333296
 21
158.166666671
 31
0.0
  0
ARC
  8
0
  6
CONTINUOUS
 62
     1
 10
111.533333298
 20
158.166666671
 30
0.0
 40
1.999999998
 50
0.0
 51
90.0
  0
LINE
  8
0
  6
CONTINUOUS
 62
     1
 10
111.533333298
 20
160.166666669
 30
0.0
 11
78.866666664
 21
160.166666669
 31
0.0
  0
ARC
  8
0
  6
CONTINUOUS
 62
     1
 10
78.866666664
 20
158.166666671
 30
0.0
 40
1.999999998
 50
90.0
 51
180.0
  0
LINE
  8
0
  6
CONTINUOUS
 62
     1
 10
76.866666666
 20
158.166666671
 30
0.0
 11
76.866666666
 21
125.500000037
 31
0.0
  0
ARC
  8
0
  6
CONTINUOUS
 62
     1
 10
78.866666664
 20
125.500000037
 30
0.0
 40
1.999999998
 50
180.0
 51
270.0
  0
CIRCLE
  8
0
  6
CONTINUOUS
 62
     1
 10
95.199999981
 20
141.833333354
 30
0.0
 40
16.999999983
  0
CIRCLE
  8
0
  6
CONTINUOUS
 62
     2
 10
110.199999966
 20
156.833333339
 30
0.0
 40
0.999999999
  0
LINE
  8
0
  6
CONTINUOUS
 62
     2
 10
109.616666633
 20
156.966666672
 30
0.0
 11
109.933333299
 21
156.966666672
 31
0.0
  0
ARC
  8
0
  6
CONTINUOUS
 62
     2
 10
109.933333299
 20
157.100000005
 30
0.0
 40
0.133333333
 50
270.0
 51
0.0
  0
LINE
  8
0
  6
CONTINUOUS
 62
     2
 10
110.066666633
 20
157.100000005
 30
0.0
 11
110.066666633
 21
157.416666671
 31
0.0
  0
LINE
  8
0
  6
CONTINUOUS
 62
     2
 10
110.066666633
 20
157.416666671
 30
0.0
 11
110.333333299
 21
157.416666671
 31
0.0
  0
LINE
  8
0
  6
CONTINUOUS
 62
     2
 10
110.333333299
 20
157.416666671
 30
0.0
 11
110.333333299
 21
157.100000005
 31
0.0
  0
ARC
  8
0
  6
CONTINUOUS
 62
     2
 10
110.466666632
 20
157.100000005
 30
0.0
 40
0.133333333
 50
180.0
 51
270.0
  0
LINE
  8
0
  6
CONTINUOUS
 62
     2
 10
110.466666632
 20
156.966666672
 30
0.0
 11
110.783333299
 21
156.966666672
 31
0.0
  0
LINE
  8
0
  6
CONTINUOUS
 62
     2
 10
110.783333299
 20
156.966666672
 30
0.0
 11
110.783333299
 21
156.700000006
 31
0.0
  0
LINE
  8
0
  6
CONTINUOUS
 62
     2
 10
110.783333299
 20
156.700000006
 30
0.0
 11
110.466666632
 21
156.700000006
 31
0.0
  0
ARC
  8
0
  6
CONTINUOUS
 62
     2
 10
110.466666632
 20
156.566666672
 30
0.0
 40
0.133333333
 50
90.0
 51
180.0
  0
LINE
  8
0
  6
CONTINUOUS
 62
     2
 10
110.333333299
 20
156.566666672
 30
0.0
 11
110.333333299
 21
156.250000006
 31
0.0
  0
LINE
  8
0
  6
CONTINUOUS
 62
     2
 10
110.333333299
 20
156.250000006
 30
0.0
 11
110.066666633
 21
156.250000006
 31
0.0
  0
LINE
  8
0
  6
CONTINUOUS
 62
     2
 10
110.066666633
 20
156.250000006
 30
0.0
 11
110.066666633
 21
156.566666672
 31
0.0
  0
ARC
  8
0
  6
CONTINUOUS
 62
     2
 10
109.933333299
 20
156.566666672
 30
0.0
 40
0.133333333
 50
0.0
 51
90.0
  0
LINE
  8
0
  6
CONTINUOUS
 62
     2
 10
109.933333299
 20
156.700000006
 30
0.0
 11
109.616666633
 21
156.700000006
 31
0.0
  0
LINE
  8
0
  6
CONTINUOUS
 62
     2
 10
109.616666633
 20
156.700000006
 30
0.0
 11
109.616666633
 21
156.966666672
 31
0.0
  0
LINE
  8
0
  6
LTYPE1
 62
     2
 10
108.866666634
 20
156.833333339
 30
0.0
 11
111.533333298
 21
156.833333339
 31
0.0
  0
LINE
  8
0
  6
LTYPE1
 62
     2
 10
110.199999966
 20
158.166666671
 30
0.0
 11
110.199999966
 21
155.500000007
 31
0.0
  0
CIRCLE
  8
0
  6
CONTINUOUS
 62
     2
 10
80.199999996
 20
156.833333339
 30
0.0
 40
0.999999999
  0
LINE
  8
0
  6
CONTINUOUS
 62
     2
 10
79.616666663
 20
156.966666672
 30
0.0
 11
79.933333329
 21
156.966666672
 31
0.0
  0
ARC
  8
0
  6
CONTINUOUS
 62
     2
 10
79.933333329
 20
157.100000005
 30
0.0
 40
0.133333333
 50
270.0
 51
0.0
  0
LINE
  8
0
  6
CONTINUOUS
 62
     2
 10
80.066666663
 20
157.100000005
 30
0.0
 11
80.066666663
 21
157.416666671
 31
0.0
  0
LINE
  8
0
  6
CONTINUOUS
 62
     2
 10
80.066666663
 20
157.416666671
 30
0.0
 11
80.333333329
 21
157.416666671
 31
0.0
  0
LINE
  8
0
  6
CONTINUOUS
 62
     2
 10
80.333333329
 20
157.416666671
 30
0.0
 11
80.333333329
 21
157.100000005
 31
0.0
  0
ARC
  8
0
  6
CONTINUOUS
 62
     2
 10
80.466666662
 20
157.100000005
 30
0.0
 40
0.133333333
 50
180.0
 51
270.0
  0
LINE
  8
0
  6
CONTINUOUS
 62
     2
 10
80.466666662
 20
156.966666672
 30
0.0
 11
80.783333329
 21
156.966666672
 31
0.0
  0
LINE
  8
0
  6
CONTINUOUS
 62
     2
 10
80.783333329
 20
156.966666672
 30
0.0
 11
80.783333329
 21
156.700000006
 31
0.0
  0
LINE
  8
0
  6
CONTINUOUS
 62
     2
 10
80.783333329
 20
156.700000006
 30
0.0
 11
80.466666662
 21
156.700000006
 31
0.0
  0
ARC
  8
0
  6
CONTINUOUS
 62
     2
 10
80.466666662
 20
156.566666672
 30
0.0
 40
0.133333333
 50
90.0
 51
180.0
  0
LINE
  8
0
  6
CONTINUOUS
 62
     2
 10
80.333333329
 20
156.566666672
 30
0.0
 11
80.333333329
 21
156.250000006
 31
0.0
  0
LINE
  8
0
  6
CONTINUOUS
 62
     2
 10
80.333333329
 20
156.250000006
 30
0.0
 11
80.066666663
 21
156.250000006
 31
0.0
  0
LINE
  8
0
  6
CONTINUOUS
 62
     2
 10
80.066666663
 20
156.250000006
 30
0.0
 11
80.066666663
 21
156.566666672
 31
0.0
  0
ARC
  8
0
  6
CONTINUOUS
 62
     2
 10
79.933333329
 20
156.566666672
 30
0.0
 40
0.133333333
 50
0.0
 51
90.0
  0
LINE
  8
0
  6
CONTINUOUS
 62
     2
 10
79.933333329
 20
156.700000006
 30
0.0
 11
79.616666663
 21
156.700000006
 31
0.0
  0
LINE
  8
0
  6
CONTINUOUS
 62
     2
 10
79.616666663
 20
156.700000006
 30
0.0
 11
79.616666663
 21
156.966666672
 31
0.0
  0
LINE
  8
0
  6
LTYPE1
 62
     2
 10
78.866666664
 20
156.833333339
 30
0.0
 11
81.533333328
 21
156.833333339
 31
0.0
  0
LINE
  8
0
  6
LTYPE1
 62
     2
 10
80.199999996
 20
158.166666671
 30
0.0
 11
80.199999996
 21
155.500000007
 31
0.0
  0
CIRCLE
  8
0
  6
CONTINUOUS
 62
     2
 10
80.199999996
 20
126.833333369
 30
0.0
 40
0.999999999
  0
LINE
  8
0
  6
CONTINUOUS
 62
     2
 10
79.616666663
 20
126.966666702
 30
0.0
 11
79.933333329
 21
126.966666702
 31
0.0
  0
ARC
  8
0
  6
CONTINUOUS
 62
     2
 10
79.933333329
 20
127.100000035
 30
0.0
 40
0.133333333
 50
270.0
 51
0.0
  0
LINE
  8
0
  6
CONTINUOUS
 62
     2
 10
80.066666663
 20
127.100000035
 30
0.0
 11
80.066666663
 21
127.416666701
 31
0.0
  0
LINE
  8
0
  6
CONTINUOUS
 62
     2
 10
80.066666663
 20
127.416666701
 30
0.0
 11
80.333333329
 21
127.416666701
 31
0.0
  0
LINE
  8
0
  6
CONTINUOUS
 62
     2
 10
80.333333329
 20
127.416666701
 30
0.0
 11
80.333333329
 21
127.100000035
 31
0.0
  0
ARC
  8
0
  6
CONTINUOUS
 62
     2
 10
80.466666662
 20
127.100000035
 30
0.0
 40
0.133333333
 50
180.0
 51
270.0
  0
LINE
  8
0
  6
CONTINUOUS
 62
     2
 10
80.466666662
 20
126.966666702
 30
0.0
 11
80.783333329
 21
126.966666702
 31
0.0
  0
LINE
  8
0
  6
CONTINUOUS
 62
     2
 10
80.783333329
 20
126.966666702
 30
0.0
 11
80.783333329
 21
126.700000036
 31
0.0
  0
LINE
  8
0
  6
CONTINUOUS
 62
     2
 10
80.783333329
 20
126.700000036
 30
0.0
 11
80.466666662
 21
126.700000036
 31
0.0
  0
ARC
  8
0
  6
CONTINUOUS
 62
     2
 10
80.466666662
 20
126.566666702
 30
0.0
 40
0.133333333
 50
90.0
 51
180.0
  0
LINE
  8
0
  6
CONTINUOUS
 62
     2
 10
80.333333329
 20
126.566666702
 30
0.0
 11
80.333333329
 21
126.250000036
 31
0.0
  0
LINE
  8
0
  6
CONTINUOUS
 62
     2
 10
80.333333329
 20
126.250000036
 30
0.0
 11
80.066666663
 21
126.250000036
 31
0.0
  0
LINE
  8
0
  6
CONTINUOUS
 62
     2
 10
80.066666663
 20
126.250000036
 30
0.0
 11
80.066666663
 21
126.566666702
 31
0.0
  0
ARC
  8
0
  6
CONTINUOUS
 62
     2
 10
79.933333329
 20
126.566666702
 30
0.0
 40
0.133333333
 50
0.0
 51
90.0
  0
LINE
  8
0
  6
CONTINUOUS
 62
     2
 10
79.933333329
 20
126.700000036
 30
0.0
 11
79.616666663
 21
126.700000036
 31
0.0
  0
LINE
  8
0
  6
CONTINUOUS
 62
     2
 10
79.616666663
 20
126.700000036
 30
0.0
 11
79.616666663
 21
126.966666702
 31
0.0
  0
LINE
  8
0
  6
LTYPE1
 62
     2
 10
78.866666664
 20
126.833333369
 30
0.0
 11
81.533333328
 21
126.833333369
 31
0.0
  0
LINE
  8
0
  6
LTYPE1
 62
     2
 10
80.199999996
 20
128.166666701
 30
0.0
 11
80.199999996
 21
125.500000037
 31
0.0
  0
CIRCLE
  8
0
  6
CONTINUOUS
 62
     2
 10
110.199999966
 20
126.833333369
 30
0.0
 40
0.999999999
  0
LINE
  8
0
  6
CONTINUOUS
 62
     2
 10
109.616666633
 20
126.966666702
 30
0.0
 11
109.933333299
 21
126.966666702
 31
0.0
  0
ARC
  8
0
  6
CONTINUOUS
 62
     2
 10
109.933333299
 20
127.100000035
 30
0.0
 40
0.133333333
 50
270.0
 51
0.0
  0
LINE
  8
0
  6
CONTINUOUS
 62
     2
 10
110.066666633
 20
127.100000035
 30
0.0
 11
110.066666633
 21
127.416666701
 31
0.0
  0
LINE
  8
0
  6
CONTINUOUS
 62
     2
 10
110.066666633
 20
127.416666701
 30
0.0
 11
110.333333299
 21
127.416666701
 31
0.0
  0
LINE
  8
0
  6
CONTINUOUS
 62
     2
 10
110.333333299
 20
127.416666701
 30
0.0
 11
110.333333299
 21
127.100000035
 31
0.0
  0
ARC
  8
0
  6
CONTINUOUS
 62
     2
 10
110.466666632
 20
127.100000035
 30
0.0
 40
0.133333333
 50
180.0
 51
270.0
  0
LINE
  8
0
  6
CONTINUOUS
 62
     2
 10
110.466666632
 20
126.966666702
 30
0.0
 11
110.783333299
 21
126.966666702
 31
0.0
  0
LINE
  8
0
  6
CONTINUOUS
 62
     2
 10
110.783333299
 20
126.966666702
 30
0.0
 11
110.783333299
 21
126.700000036
 31
0.0
  0
LINE
  8
0
  6
CONTINUOUS
 62
     2
 10
110.783333299
 20
126.700000036
 30
0.0
 11
110.466666632
 21
126.700000036
 31
0.0
  0
ARC
  8
0
  6
CONTINUOUS
 62
     2
 10
110.466666632
 20
126.566666702
 30
0.0
 40
0.133333333
 50
90.0
 51
180.0
  0
LINE
  8
0
  6
CONTINUOUS
 62
     2
 10
110.333333299
 20
126.566666702
 30
0.0
 11
110.333333299
 21
126.250000036
 31
0.0
  0
LINE
  8
0
  6
CONTINUOUS
 62
     2
 10
110.333333299
 20
126.250000036
 30
0.0
 11
110.066666633
 21
126.250000036
 31
0.0
  0
LINE
  8
0
  6
CONTINUOUS
 62
     2
 10
110.066666633
 20
126.250000036
 30
0.0
 11
110.066666633
 21
126.566666702
 31
0.0
  0
ARC
  8
0
  6
CONTINUOUS
 62
     2
 10
109.933333299
 20
126.566666702
 30
0.0
 40
0.133333333
 50
0.0
 51
90.0
  0
LINE
  8
0
  6
CONTINUOUS
 62
     2
 10
109.933333299
 20
126.700000036
 30
0.0
 11
109.616666633
 21
126.700000036
 31
0.0
  0
LINE
  8
0
  6
CONTINUOUS
 62
     2
 10
109.616666633
 20
126.700000036
 30
0.0
 11
109.616666633
 21
126.966666702
 31
0.0
  0
LINE
  8
0
  6
LTYPE1
 62
     2
 10
108.866666634
 20
126.833333369
 30
0.0
 11
111.533333298
 21
126.833333369
 31
0.0
  0
LINE
  8
0
  6
LTYPE1
 62
     2
 10
110.199999966
 20
128.166666701
 30
0.0
 11
110.199999966
 21
125.500000037
 31
0.0
  0
CIRCLE
  8
0
  6
CONTINUOUS
 62
     2
 10
95.199999981
 20
141.833333354
 30
0.0
 40
16.166666651
  0
CIRCLE
  8
0
  6
CONTINUOUS
 62
     2
 10
89.53333332
 20
131.500000031
 30
0.0
 40
0.999999999
  0
LINE
  8
0
  6
CONTINUOUS
 62
     2
 10
89.02657346
 20
131.181801979
 30
0.0
 11
89.250490608
 21
131.405719127
 31
0.0
  0
ARC
  8
0
  6
CONTINUOUS
 62
     2
 10
89.156209704
 20
131.500000031
 30
0.0
 40
0.133333333
 50
315.0
 51
45.0
  0
LINE
  8
0
  6
CONTINUOUS
 62
     2
 10
89.250490608
 20
131.594280935
 30
0.0
 11
89.02657346
 21
131.818198082
 31
0.0
  0
LINE
  8
0
  6
CONTINUOUS
 62
     2
 10
89.02657346
 20
131.818198082
 30
0.0
 11
89.215135269
 21
132.00675989
 31
0.0
  0
LINE
  8
0
  6
CONTINUOUS
 62
     2
 10
89.215135269
 20
132.00675989
 30
0.0
 11
89.439052416
 21
131.782842743
 31
0.0
  0
ARC
  8
0
  6
CONTINUOUS
 62
     2
 10
89.53333332
 20
131.877123647
 30
0.0
 40
0.133333333
 50
225.0
 51
315.0
  0
LINE
  8
0
  6
CONTINUOUS
 62
     2
 10
89.627614224
 20
131.782842743
 30
0.0
 11
89.851531371
 21
132.00675989
 31
0.0
  0
LINE
  8
0
  6
CONTINUOUS
 62
     2
 10
89.851531371
 20
132.00675989
 30
0.0
 11
90.040093179
 21
131.818198082
 31
0.0
  0
LINE
  8
0
  6
CONTINUOUS
 62
     2
 10
90.040093179
 20
131.818198082
 30
0.0
 11
89.816176032
 21
131.594280935
 31
0.0
  0
ARC
  8
0
  6
CONTINUOUS
 62
     2
 10
89.910456936
 20
131.500000031
 30
0.0
 40
0.133333333
 50
135.0
 51
225.0
  0
LINE
  8
0
  6
CONTINUOUS
 62
     2
 10
89.816176032
 20
131.405719127
 30
0.0
 11
90.040093179
 21
131.181801979
 31
0.0
  0
LINE
  8
0
  6
CONTINUOUS
 62
     2
 10
90.040093179
 20
131.181801979
 30
0.0
 11
89.851531371
 21
130.993240171
 31
0.0
  0
LINE
  8
0
  6
CONTINUOUS
 62
     2
 10
89.851531371
 20
130.993240171
 30
0.0
 11
89.627614224
 21
131.217157319
 31
0.0
  0
ARC
  8
0
  6
CONTINUOUS
 62
     2
 10
89.53333332
 20
131.122876414
 30
0.0
 40
0.133333333
 50
45.0
 51
135.0
  0
LINE
  8
0
  6
CONTINUOUS
 62
     2
 10
89.439052416
 20
131.217157319
 30
0.0
 11
89.215135269
 21
130.993240171
 31
0.0
  0
LINE
  8
0
  6
CONTINUOUS
 62
     2
 10
89.215135269
 20
130.993240171
 30
0.0
 11
89.02657346
 21
131.181801979
 31
0.0
  0
CIRCLE
  8
0
  6
CONTINUOUS
 62
     2
 10
100.866666642
 20
131.500000031
 30
0.0
 40
0.999999999
  0
LINE
  8
0
  6
CONTINUOUS
 62
     2
 10
100.359906782
 20
131.181801979
 30
0.0
 11
100.58382393
 21
131.405719127
 31
0.0
  0
ARC
  8
0
  6
CONTINUOUS
 62
     2
 10
100.489543026
 20
131.500000031
 30
0.0
 40
0.133333333
 50
315.0
 51
45.0
  0
LINE
  8
0
  6
CONTINUOUS
 62
     2
 10
100.58382393
 20
131.594280935
 30
0.0
 11
100.359906782
 21
131.818198082
 31
0.0
  0
LINE
  8
0
  6
CONTINUOUS
 62
     2
 10
100.359906782
 20
131.818198082
 30
0.0
 11
100.548468591
 21
132.00675989
 31
0.0
  0
LINE
  8
0
  6
CONTINUOUS
 62
     2
 10
100.548468591
 20
132.00675989
 30
0.0
 11
100.772385738
 21
131.782842743
 31
0.0
  0
ARC
  8
0
  6
CONTINUOUS
 62
     2
 10
100.866666642
 20
131.877123647
 30
0.0
 40
0.133333333
 50
225.0
 51
315.0
  0
LINE
  8
0
  6
CONTINUOUS
 62
     2
 10
100.960947546
 20
131.782842743
 30
0.0
 11
101.184864693
 21
132.00675989
 31
0.0
  0
LINE
  8
0
  6
CONTINUOUS
 62
     2
 10
101.184864693
 20
132.00675989
 30
0.0
 11
101.373426501
 21
131.818198082
 31
0.0
  0
LINE
  8
0
  6
CONTINUOUS
 62
     2
 10
101.373426501
 20
131.818198082
 30
0.0
 11
101.149509354
 21
131.594280935
 31
0.0
  0
ARC
  8
0
  6
CONTINUOUS
 62
     2
 10
101.243790258
 20
131.500000031
 30
0.0
 40
0.133333333
 50
135.0
 51
225.0
  0
LINE
  8
0
  6
CONTINUOUS
 62
     2
 10
101.149509354
 20
131.405719127
 30
0.0
 11
101.373426501
 21
131.181801979
 31
0.0
  0
LINE
  8
0
  6
CONTINUOUS
 62
     2
 10
101.373426501
 20
131.181801979
 30
0.0
 11
101.184864693
 21
130.993240171
 31
0.0
  0
LINE
  8
0
  6
CONTINUOUS
 62
     2
 10
101.184864693
 20
130.993240171
 30
0.0
 11
100.960947546
 21
131.217157319
 31
0.0
  0
ARC
  8
0
  6
CONTINUOUS
 62
     2
 10
100.866666642
 20
131.122876414
 30
0.0
 40
0.133333333
 50
45.0
 51
135.0
  0
LINE
  8
0
  6
CONTINUOUS
 62
     2
 10
100.772385738
 20
131.217157319
 30
0.0
 11
100.548468591
 21
130.993240171
 31
0.0
  0
LINE
  8
0
  6
CONTINUOUS
 62
     2
 10
100.548468591
 20
130.993240171
 30
0.0
 11
100.359906782
 21
131.181801979
 31
0.0
  0
LINE
  8
0
  6
CONTINUOUS
 62
     2
 10
105.669274026
 20
150.618097344
 30
0.0
 11
103.667574458
 21
149.373607737
 31
0.0
  0
LINE
  8
0
  6
CONTINUOUS
 62
     2
 10
104.09609953
 20
148.862911442
 30
0.0
 11
105.669274026
 21
150.618097344
 31
0.0
  0
LINE
  8
0
  6
CONTINUOUS
 62
     2
 10
99.62156101
 20
145.372357822
 30
0.0
 11
104.392533289
 21
149.546784662
 31
0.0
  0
LINE
  8
0
  6
CONTINUOUS
 62
     2
 10
104.392533289
 20
149.546784662
 30
0.0
 11
99.45305473
 21
145.573175787
 31
0.0
  0
LINE
  8
0
  6
CONTINUOUS
 62
     2
 10
103.667574458
 20
149.373607737
 30
0.0
 11
99.28829864
 21
145.74247259
 31
0.0
  0
LINE
  8
0
  6
CONTINUOUS
 62
     2
 10
99.75967622
 20
145.180706665
 30
0.0
 11
104.09609953
 21
148.862911442
 31
0.0
  0
LINE
  8
0
  6
CONTINUOUS
 62
     1
 10
111.533333298
 20
123.500000039
 30
0.0
 11
78.866666664
 21
123.500000039
 31
0.0
  0
LINE
  8
0
  6
CONTINUOUS
 62
     2
 10
76.866666666
 20
124.500000037
 30
0.0
 11
76.866666666
 21
106.500000039
 31
0.0
  0
LINE
  8
0
  6
CONTINUOUS
 62
     2
 10
76.866666666
 20
108.500000039
 30
0.0
 11
79.281481232
 21
107.852952426
 31
0.0
  0
LINE
  8
0
  6
CONTINUOUS
 62
     2
 10
76.866666666
 20
108.500000039
 30
0.0
 11
79.281481232
 21
109.147047651
 31
0.0
  0
LINE
  8
0
  6
CONTINUOUS
 62
     2
 10
76.866666666
 20
108.500000039
 30
0.0
 11
113.533333296
 21
108.500000039
 31
0.0
  0
LINE
  8
0
  6
CONTINUOUS
 62
     2
 10
113.533333296
 20
108.500000039
 30
0.0
 11
111.11851873
 21
109.147047651
 31
0.0
  0
LINE
  8
0
  6
CONTINUOUS
 62
     2
 10
113.533333296
 20
108.500000039
 30
0.0
 11
111.11851873
 21
107.852952426
 31
0.0
  0
LINE
  8
0
  6
CONTINUOUS
 62
     2
 10
113.533333296
 20
124.500000037
 30
0.0
 11
113.533333296
 21
106.500000039
 31
0.0
  0
TEXT
  8
0
  6
CONTINUOUS
 62
     2
 10
92.199999981
 20
109.500000039
 30
0.3
 40
3.0
  1
１１０
 50
0.0
 41
0.6
 51
0.0
  7
KANJI2
  0
LINE
  8
0
  6
CONTINUOUS
 62
     2
 10
77.866666664
 20
160.166666669
 30
0.0
 11
67.866666666
 21
160.166666669
 31
0.0
  0
LINE
  8
0
  6
CONTINUOUS
 62
     2
 10
69.866666666
 20
160.166666669
 30
0.0
 11
69.219619053
 21
157.751852103
 31
0.0
  0
LINE
  8
0
  6
CONTINUOUS
 62
     2
 10
69.866666666
 20
160.166666669
 30
0.0
 11
70.513714279
 21
157.751852103
 31
0.0
  0
LINE
  8
0
  6
CONTINUOUS
 62
     2
 10
69.866666666
 20
160.166666669
 30
0.0
 11
69.866666666
 21
123.500000039
 31
0.0
  0
LINE
  8
0
  6
CONTINUOUS
 62
     2
 10
69.866666666
 20
123.500000039
 30
0.0
 11
70.513714279
 21
125.914814604
 31
0.0
  0
LINE
  8
0
  6
CONTINUOUS
 62
     2
 10
69.866666666
 20
123.500000039
 30
0.0
 11
69.219619053
 21
125.914814604
 31
0.0
  0
LINE
  8
0
  6
CONTINUOUS
 62
     2
 10
77.866666664
 20
123.500000039
 30
0.0
 11
67.866666666
 21
123.500000039
 31
0.0
  0
TEXT
  8
0
  6
CONTINUOUS
 62
     2
 10
68.866666666
 20
138.833333354
 30
0.3
 40
3.0
  1
１１０
 50
90.0
 41
0.6
 51
0.0
  7
KANJI2
  0
LINE
  8
0
  6
LTYPE2
 62
     2
 10
74.366666668
 20
141.833333354
 30
0.0
 11
116.733333293
 21
141.833333354
 31
0.0
  0
LINE
  8
0
  6
LTYPE2
 62
     2
 10
95.199999981
 20
162.833333333
 30
0.0
 11
95.199999981
 21
118.500000044
 31
0.0
  0
LINE
  8
0
  6
CONTINUOUS
 62
     2
 10
97.949465587
 20
152.839462695
 30
0.0
 11
97.924695082
 21
155.225637637
 31
0.0
  0
LINE
  8
0
  6
CONTINUOUS
 62
     2
 10
97.924695082
 20
155.225637637
 30
0.0
 11
96.969540883
 21
153.038830629
 31
0.0
  0
LINE
  8
0
  6
CONTINUOUS
 62
     2
 10
96.969540883
 20
153.038830629
 30
0.0
 11
95.835382841
 21
147.464265751
 31
0.0
  0
LINE
  8
0
  6
CONTINUOUS
 62
     2
 10
97.592415191
 20
153.592429797
 30
0.0
 11
96.102376196
 21
147.427690172
 31
0.0
  0
LINE
  8
0
  6
CONTINUOUS
 62
     2
 10
96.555247648
 20
147.335552434
 30
0.0
 11
97.592415191
 21
153.592429797
 31
0.0
  0
LINE
  8
0
  6
CONTINUOUS
 62
     2
 10
96.815307545
 20
147.264897817
 30
0.0
 11
97.949465587
 21
152.839462695
 31
0.0
  0
LINE
  8
0
  6
CONTINUOUS
 62
     2
 10
86.415235991
 20
152.302607399
 30
0.0
 11
87.659725598
 21
150.300907831
 31
0.0
  0
LINE
  8
0
  6
CONTINUOUS
 62
     2
 10
88.170421892
 20
150.729432903
 30
0.0
 11
86.415235991
 21
152.302607399
 31
0.0
  0
LINE
  8
0
  6
CONTINUOUS
 62
     2
 10
91.660975513
 20
146.254894383
 30
0.0
 11
87.486548672
 21
151.025866662
 31
0.0
  0
LINE
  8
0
  6
CONTINUOUS
 62
     2
 10
87.486548672
 20
151.025866662
 30
0.0
 11
91.460157548
 21
146.086388103
 31
0.0
  0
LINE
  8
0
  6
CONTINUOUS
 62
     2
 10
87.659725598
 20
150.300907831
 30
0.0
 11
91.290860745
 21
145.921632013
 31
0.0
  0
LINE
  8
0
  6
CONTINUOUS
 62
     2
 10
91.852626669
 20
146.393009593
 30
0.0
 11
88.170421892
 21
150.729432903
 31
0.0
  0
LINE
  8
0
  6
CONTINUOUS
 62
     2
 10
86.492299955
 20
152.428978153
 30
0.0
 11
86.482507373
 21
154.928958974
 31
0.0
  0
LINE
  8
0
  6
CONTINUOUS
 62
     2
 10
86.492299955
 20
152.428978153
 30
0.0
 11
85.23382892
 21
154.589128762
 31
0.0
  0
LINE
  8
0
  6
CONTINUOUS
 62
     2
 10
82.165084765
 20
168.328978153
 30
0.0
 11
61.992299955
 21
168.328978153
 31
0.0
  0
LINE
  8
0
  6
CONTINUOUS
 62
     2
 10
86.492299955
 20
152.428978153
 30
0.0
 11
82.165084765
 21
168.328978153
 31
0.0
  0
CIRCLE
  8
0
  6
CONTINUOUS
 62
     2
 10
95.199999981
 20
141.833333354
 30
0.0
 40
13.999999986
  0
LINE
  8
0
  6
LTYPE2
 62
     2
 10
74.366666668
 20
141.833333354
 30
0.0
 11
116.733333293
 21
141.833333354
 31
0.0
  0
CIRCLE
  8
0
  6
CONTINUOUS
 62
     5
 10
95.199999981
 20
141.833333354
 30
0.0
 40
5.666666661
  0
CIRCLE
  8
0
  6
CONTINUOUS
 62
     5
 10
95.199999981
 20
141.833333354
 30
0.0
 40
5.199999995
  0
CIRCLE
  8
0
  6
CONTINUOUS
 62
     5
 10
95.199999981
 20
141.833333354
 30
0.0
 40
4.733333329
  0
CIRCLE
  8
0
  6
CONTINUOUS
 62
     5
 10
95.199999981
 20
141.833333354
 30
0.0
 40
4.266666662
  0
CIRCLE
  8
0
  6
CONTINUOUS
 62
     5
 10
95.199999981
 20
141.833333354
 30
0.0
 40
3.799999996
  0
CIRCLE
  8
0
  6
CONTINUOUS
 62
     5
 10
95.199999981
 20
141.833333354
 30
0.0
 40
3.33333333
  0
CIRCLE
  8
0
  6
CONTINUOUS
 62
     2
 10
95.199999981
 20
141.833333354
 30
0.0
 40
1.499999999
  0
CIRCLE
  8
0
  6
CONTINUOUS
 62
     2
 10
95.199999981
 20
141.833333354
 30
0.0
 40
2.666666664
  0
CIRCLE
  8
0
  6
CONTINUOUS
 62
     2
 10
95.199999981
 20
141.833333354
 30
0.0
 40
1.999999998
  0
LINE
  8
0
  6
CONTINUOUS
 62
     2
 10
95.066666648
 20
144.49406234
 30
0.0
 11
95.066666648
 21
144.59406234
 31
0.0
  0
ARC
  8
0
  6
CONTINUOUS
 62
     2
 10
95.133333314
 20
144.59406234
 30
0.0
 40
0.066666667
 50
90.0
 51
180.0
  0
LINE
  8
0
  6
CONTINUOUS
 62
     2
 10
95.333333314
 20
144.59406234
 30
0.0
 11
95.333333314
 21
144.49406234
 31
0.0
  0
LINE
  8
0
  6
CONTINUOUS
 62
     2
 10
95.133333314
 20
144.660729006
 30
0.0
 11
95.266666647
 21
144.660729006
 31
0.0
  0
ARC
  8
0
  6
CONTINUOUS
 62
     2
 10
95.266666647
 20
144.59406234
 30
0.0
 40
0.066666667
 50
0.0
 51
90.0
  0
LINE
  8
0
  6
CONTINUOUS
 62
     2
 10
92.82907442
 20
143.048227793
 30
0.0
 11
92.742471879
 21
143.098227793
 31
0.0
  0
ARC
  8
0
  6
CONTINUOUS
 62
     2
 10
92.775805213
 20
143.15596282
 30
0.0
 40
0.066666667
 50
150.0
 51
240.0
  0
LINE
  8
0
  6
CONTINUOUS
 62
     2
 10
92.875805213
 20
143.3291679
 30
0.0
 11
92.962407753
 21
143.2791679
 31
0.0
  0
LINE
  8
0
  6
CONTINUOUS
 62
     2
 10
92.718070186
 20
143.189296153
 30
0.0
 11
92.784736852
 21
143.304766207
 31
0.0
  0
ARC
  8
0
  6
CONTINUOUS
 62
     2
 10
92.842471879
 20
143.271432874
 30
0.0
 40
0.066666667
 50
60.0
 51
150.0
  0
LINE
  8
0
  6
CONTINUOUS
 62
     2
 10
92.742471879
 20
140.568438914
 30
0.0
 11
92.82907442
 21
140.618438914
 31
0.0
  0
ARC
  8
0
  6
CONTINUOUS
 62
     2
 10
92.775805213
 20
140.510703888
 30
0.0
 40
0.066666667
 50
120.0
 51
210.0
  0
LINE
  8
0
  6
CONTINUOUS
 62
     2
 10
97.570925542
 20
140.618438914
 30
0.0
 11
97.657528082
 21
140.568438914
 31
0.0
  0
ARC
  8
0
  6
CONTINUOUS
 62
     2
 10
97.624194749
 20
140.510703888
 30
0.0
 40
0.066666667
 50
330.0
 51
60.0
  0
LINE
  8
0
  6
CONTINUOUS
 62
     2
 10
97.524194749
 20
140.337498807
 30
0.0
 11
97.437592209
 21
140.387498807
 31
0.0
  0
LINE
  8
0
  6
CONTINUOUS
 62
     2
 10
97.681929776
 20
140.477370554
 30
0.0
 11
97.615263109
 21
140.361900501
 31
0.0
  0
ARC
  8
0
  6
CONTINUOUS
 62
     2
 10
97.557528082
 20
140.395233834
 30
0.0
 40
0.066666667
 50
240.0
 51
330.0
  0
LINE
  8
0
  6
CONTINUOUS
 62
     2
 10
97.437592209
 20
143.2791679
 30
0.0
 11
97.524194749
 21
143.3291679
 31
0.0
  0
ARC
  8
0
  6
CONTINUOUS
 62
     2
 10
97.557528082
 20
143.271432874
 30
0.0
 40
0.066666667
 50
30.0
 51
120.0
  0
LINE
  8
0
  6
CONTINUOUS
 62
     2
 10
97.657528082
 20
143.098227793
 30
0.0
 11
97.570925542
 21
143.048227793
 31
0.0
  0
LINE
  8
0
  6
CONTINUOUS
 62
     2
 10
97.615263109
 20
143.304766207
 30
0.0
 11
97.681929776
 21
143.189296153
 31
0.0
  0
ARC
  8
0
  6
CONTINUOUS
 62
     2
 10
97.624194749
 20
143.15596282
 30
0.0
 40
0.066666667
 50
300.0
 51
30.0
  0
LINE
  8
0
  6
CONTINUOUS
 62
     2
 10
95.333333314
 20
139.172604368
 30
0.0
 11
95.333333314
 21
139.072604368
 31
0.0
  0
ARC
  8
0
  6
CONTINUOUS
 62
     2
 10
95.266666647
 20
139.072604368
 30
0.0
 40
0.066666667
 50
270.0
 51
0.0
  0
LINE
  8
0
  6
CONTINUOUS
 62
     2
 10
95.066666648
 20
139.072604368
 30
0.0
 11
95.066666648
 21
139.172604368
 31
0.0
  0
LINE
  8
0
  6
CONTINUOUS
 62
     2
 10
95.266666647
 20
139.005937701
 30
0.0
 11
95.133333314
 21
139.005937701
 31
0.0
  0
ARC
  8
0
  6
CONTINUOUS
 62
     2
 10
95.133333314
 20
139.072604368
 30
0.0
 40
0.066666667
 50
180.0
 51
270.0
  0
LINE
  8
0
  6
CONTINUOUS
 62
     2
 10
95.899999981
 20
140.333333372
 30
0.0
 11
95.527336806
 21
138.368359541
 31
0.0
  0
LINE
  8
0
  6
CONTINUOUS
 62
     2
 10
95.899999981
 20
140.333333372
 30
0.0
 11
96.55975112
 21
138.445284529
 31
0.0
  0
LINE
  8
0
  6
CONTINUOUS
 62
     2
 10
95.899999981
 20
140.333333372
 30
0.0
 11
97.799999981
 21
114.833333372
 31
0.0
  0
LINE
  8
0
  6
CONTINUOUS
 62
     2
 10
97.799999981
 20
114.833333372
 30
0.0
 11
112.199999981
 21
114.833333372
 31
0.0
  0
LINE
  8
0
  6
CONTINUOUS
 62
     2
 10
130.279999957
 20
115.0
 30
0.0
 11
134.029999957
 21
115.0
 31
0.0
  0
LINE
  8
0
  6
CONTINUOUS
 62
     2
 10
105.955161667
 20
150.795838401
 30
0.0
 11
107.307402302
 21
152.898561698
 31
0.0
  0
LINE
  8
0
  6
CONTINUOUS
 62
     2
 10
105.955161667
 20
150.795838401
 30
0.0
 11
106.074874761
 21
153.292970511
 31
0.0
  0
LINE
  8
0
  6
CONTINUOUS
 62
     2
 10
105.955161667
 20
150.795838401
 30
0.0
 11
113.955161667
 21
175.795838401
 31
0.0
  0
LINE
  8
0
  6
CONTINUOUS
 62
     2
 10
97.924695082
 20
155.225637637
 30
0.0
 11
98.315393118
 21
157.69491993
 31
0.0
  0
LINE
  8
0
  6
CONTINUOUS
 62
     2
 10
97.924695082
 20
155.225637637
 30
0.0
 11
97.02840836
 21
157.55944785
 31
0.0
  0
LINE
  8
0
  6
CONTINUOUS
 62
     2
 10
97.924695082
 20
155.225637637
 30
0.0
 11
95.924695082
 21
174.225637637
 31
0.0
  0
TEXT
  8
0
  6
CONTINUOUS
 62
     2
 10
113.955161667
 20
176.795838401
 30
0.3
 40
3.0
  1
最大指針（赤）
 50
0.0
 41
0.9
 51
0.0
  7
KANJI0
  0
TEXT
  8
0
  6
CONTINUOUS
 62
     2
 10
61.992299955
 20
169.328978153
 30
0.3
 40
3.0
  1
最小指針（緑）
 50
0.0
 41
0.9
 51
0.0
  7
KANJI0
  0
LINE
  8
0
  6
CONTINUOUS
 62
     2
 10
95.924695082
 20
174.225637637
 30
0.0
 11
80.224695082
 21
174.225637637
 31
0.0
  0
LINE
  8
0
  6
CONTINUOUS
 62
     2
 10
113.955161667
 20
175.795838401
 30
0.0
 11
134.624695082
 21
175.795838401
 31
0.0
  0
TEXT
  8
0
  6
CONTINUOUS
 62
     2
 10
97.799999981
 20
115.833333372
 30
0.3
 40
3.0
  1
零位調整器
 50
0.0
 41
0.9
 51
0.0
  7
KANJI0
  0
LINE
  8
0
  6
CONTINUOUS
 62
     2
 10
12.966666577
 20
69.966666704
 30
0.0
 11
19.966666577
 21
69.966666704
 31
0.0
  0
ARC
  8
0
  6
CONTINUOUS
 62
     1
 10
193.900293281
 20
126.166666703
 30
0.0
 40
0.333333333
 50
270.0
 51
0.0
  0
ARC
  8
0
  6
CONTINUOUS
 62
     1
 10
193.900293281
 20
157.500000004
 30
0.0
 40
0.333333333
 50
360.0
 51
90.0
  0
LINE
  8
0
  6
CONTINUOUS
 62
     1
 10
192.566959949
 20
157.833333337
 30
0.0
 11
192.566959949
 21
125.83333337
 31
0.0
  0
LINE
  8
0
  6
CONTINUOUS
 62
     1
 10
192.566959949
 20
125.83333337
 30
0.0
 11
193.900293281
 21
125.83333337
 31
0.0
  0
LINE
  8
0
  6
CONTINUOUS
 62
     1
 10
194.233626614
 20
157.500000004
 30
0.0
 11
194.233626614
 21
126.166666703
 31
0.0
  0
LINE
  8
0
  6
CONTINUOUS
 62
     1
 10
192.566959949
 20
157.833333337
 30
0.0
 11
193.900293281
 21
157.833333337
 31
0.0
  0
LINE
  8
0
  6
LTYPE2
 62
     2
 10
133.033333291
 20
141.833333354
 30
0.0
 11
199.866959943
 21
141.833333354
 31
0.0
  0
LINE
  8
0
  6
CONTINUOUS
 62
     1
 10
147.232128078
 20
125.371864774
 30
0.0
 11
192.566959949
 21
125.83333337
 31
0.0
  0
LINE
  8
0
  6
CONTINUOUS
 62
     1
 10
143.566666614
 20
125.33455361
 30
0.0
 11
144.899999946
 21
125.348125767
 31
0.0
  0
LINE
  8
0
  6
CONTINUOUS
 62
     1
 10
147.232128078
 20
158.294801933
 30
0.0
 11
192.566959949
 21
157.833333337
 31
0.0
  0
LINE
  8
0
  6
CONTINUOUS
 62
     1
 10
143.566666614
 20
158.332113097
 30
0.0
 11
144.899999946
 21
158.31854094
 31
0.0
  0
LINE
  8
0
  6
CONTINUOUS
 62
     2
 10
194.233626614
 20
115.0
 30
0.0
 11
191.818812049
 21
115.647047613
 31
0.0
  0
LINE
  8
0
  6
CONTINUOUS
 62
     2
 10
194.233626614
 20
115.0
 30
0.0
 11
191.818812049
 21
114.352952387
 31
0.0
  0
LINE
  8
0
  6
CONTINUOUS
 62
     2
 10
194.233626614
 20
115.0
 30
0.0
 11
191.818812049
 21
115.647047613
 31
0.0
  0
LINE
  8
0
  6
CONTINUOUS
 62
     2
 10
194.233626614
 20
115.0
 30
0.0
 11
191.818812049
 21
114.352952387
 31
0.0
  0
LINE
  8
0
  6
CONTINUOUS
 62
     2
 10
190.483626614
 20
115.0
 30
0.0
 11
194.233626614
 21
115.0
 31
0.0
  0
LINE
  8
0
  6
CONTINUOUS
 62
     2
 10
143.566666614
 20
115.0
 30
0.0
 11
194.233626614
 21
115.0
 31
0.0
  0
LINE
  8
0
  6
CONTINUOUS
 62
     2
 10
209.166959943
 20
158.333333354
 30
0.0
 11
208.51991233
 21
155.918518788
 31
0.0
  0
LINE
  8
0
  6
CONTINUOUS
 62
     2
 10
209.166959943
 20
158.333333354
 30
0.0
 11
209.814007556
 21
155.918518788
 31
0.0
  0
LINE
  8
0
  6
CONTINUOUS
 62
     2
 10
209.166959943
 20
125.333333354
 30
0.0
 11
209.814007556
 21
127.748147919
 31
0.0
  0
LINE
  8
0
  6
CONTINUOUS
 62
     2
 10
209.166959943
 20
125.333333354
 30
0.0
 11
208.51991233
 21
127.748147919
 31
0.0
  0
LINE
  8
0
  6
CONTINUOUS
 62
     2
 10
209.166959943
 20
158.333333354
 30
0.0
 11
209.166959943
 21
125.333333354
 31
0.0
  0
TEXT
  8
0
  6
CONTINUOUS
 62
     2
 10
208.166959943
 20
136.833333354
 30
0.3
 40
3.0
  1
φ１００
 50
90.0
 41
0.6
 51
0.0
  7
KANJI2
  0
LINE
  8
0
  6
CONTINUOUS
 62
     2
 10
153.266666614
 20
158.333333354
 30
0.0
 11
211.166959943
 21
158.333333354
 31
0.0
  0
LINE
  8
0
  6
CONTINUOUS
 62
     2
 10
153.266666614
 20
125.333333354
 30
0.0
 11
211.166959943
 21
125.333333354
 31
0.0
  0
TEXT
  8
0
  6
CONTINUOUS
 62
     2
 10
80.224695082
 20
175.225637637
 30
0.3
 40
3.0
  1
推針（黒）
 50
0.0
 41
0.9
 51
0.0
  7
KANJI0
  0
ARC
  8
0
  6
CONTINUOUS
 62
     1
 10
111.533333314
 20
48.833333372
 30
0.0
 40
2.0
 50
270.0
 51
0.0
  0
LINE
  8
0
  6
CONTINUOUS
 62
     1
 10
78.866666648
 20
46.833333372
 30
0.0
 11
111.533333314
 21
46.833333372
 31
0.0
  0
ARC
  8
0
  6
CONTINUOUS
 62
     1
 10
78.866666648
 20
48.833333372
 30
0.0
 40
2.0
 50
180.0
 51
270.0
  0
LINE
  8
0
  6
CONTINUOUS
 62
     1
 10
76.866666648
 20
81.500000039
 30
0.0
 11
76.866666648
 21
48.833333372
 31
0.0
  0
ARC
  8
0
  6
CONTINUOUS
 62
     1
 10
78.866666648
 20
81.500000039
 30
0.0
 40
2.0
 50
90.0
 51
180.0
  0
LINE
  8
0
  6
CONTINUOUS
 62
     1
 10
113.533333314
 20
48.833333372
 30
0.0
 11
113.533333314
 21
81.500000039
 31
0.0
  0
LINE
  8
0
  6
CONTINUOUS
 62
     1
 10
111.533333314
 20
83.500000039
 30
0.0
 11
78.866666648
 21
83.500000039
 31
0.0
  0
ARC
  8
0
  6
CONTINUOUS
 62
     1
 10
111.533333314
 20
81.500000039
 30
0.0
 40
2.0
 50
360.0
 51
90.0
  0
CIRCLE
  8
0
  6
CONTINUOUS
 62
     1
 10
95.199999981
 20
65.166666706
 30
0.0
 40
16.5
  0
ARC
  8
0
  6
CONTINUOUS
 62
     2
 10
78.699999981
 20
48.666666706
 30
0.0
 40
1.0
 50
180.0
 51
270.0
  0
LINE
  8
0
  6
CONTINUOUS
 62
     2
 10
77.699999981
 20
81.666666705
 30
0.0
 11
77.699999981
 21
48.666666706
 31
0.0
  0
ARC
  8
0
  6
CONTINUOUS
 62
     2
 10
78.699999981
 20
81.666666705
 30
0.0
 40
1.0
 50
90.0
 51
180.0
  0
LINE
  8
0
  6
CONTINUOUS
 62
     2
 10
111.699999981
 20
82.666666705
 30
0.0
 11
78.699999981
 21
82.666666705
 31
0.0
  0
ARC
  8
0
  6
CONTINUOUS
 62
     2
 10
111.699999981
 20
81.666666705
 30
0.0
 40
1.0
 50
0.0
 51
90.0
  0
LINE
  8
0
  6
CONTINUOUS
 62
     2
 10
78.699999981
 20
47.666666706
 30
0.0
 11
111.699999981
 21
47.666666706
 31
0.0
  0
LINE
  8
0
  6
CONTINUOUS
 62
     2
 10
112.699999981
 20
48.666666706
 30
0.0
 11
112.699999981
 21
81.666666705
 31
0.0
  0
ARC
  8
0
  6
CONTINUOUS
 62
     2
 10
111.699999981
 20
48.666666706
 30
0.0
 40
1.0
 50
270.0
 51
360.0
  0
LINE
  8
0
  6
CONTINUOUS
 62
     2
 10
111.816580734
 20
81.100000039
 30
0.0
 11
110.199999981
 21
82.033333372
 31
0.0
  0
LINE
  8
0
  6
CONTINUOUS
 62
     2
 10
110.199999981
 20
82.033333372
 30
0.0
 11
108.583419227
 21
81.100000039
 31
0.0
  0
LINE
  8
0
  6
CONTINUOUS
 62
     2
 10
108.583419227
 20
81.100000039
 30
0.0
 11
108.583419227
 21
79.233333372
 31
0.0
  0
LINE
  8
0
  6
CONTINUOUS
 62
     2
 10
108.583419227
 20
79.233333372
 30
0.0
 11
110.199999981
 21
78.300000039
 31
0.0
  0
LINE
  8
0
  6
CONTINUOUS
 62
     2
 10
110.199999981
 20
78.300000039
 30
0.0
 11
111.816580734
 21
79.233333372
 31
0.0
  0
LINE
  8
0
  6
CONTINUOUS
 62
     2
 10
111.816580734
 20
79.233333372
 30
0.0
 11
111.816580734
 21
81.100000039
 31
0.0
  0
CIRCLE
  8
0
  6
CONTINUOUS
 62
     2
 10
110.199999981
 20
80.166666705
 30
0.0
 40
1.0
  0
CIRCLE
  8
0
  6
CONTINUOUS
 62
     2
 10
110.199999981
 20
80.166666705
 30
0.0
 40
0.933333333
  0
CIRCLE
  8
0
  6
CONTINUOUS
 62
     2
 10
110.199999981
 20
80.166666705
 30
0.0
 40
2.0
  0
CIRCLE
  8
0
  6
CONTINUOUS
 62
     2
 10
110.199999981
 20
80.166666705
 30
0.0
 40
1.666666667
  0
LINE
  8
0
  6
LTYPE1
 62
     2
 10
107.616666647
 20
80.166666705
 30
0.0
 11
112.933333314
 21
80.166666705
 31
0.0
  0
LINE
  8
0
  6
LTYPE1
 62
     2
 10
110.199999981
 20
82.766666705
 30
0.0
 11
110.199999981
 21
77.616666705
 31
0.0
  0
LINE
  8
0
  6
CONTINUOUS
 62
     2
 10
81.816580735
 20
81.100000039
 30
0.0
 11
80.199999981
 21
82.033333372
 31
0.0
  0
LINE
  8
0
  6
CONTINUOUS
 62
     2
 10
80.199999981
 20
82.033333372
 30
0.0
 11
78.583419227
 21
81.100000039
 31
0.0
  0
LINE
  8
0
  6
CONTINUOUS
 62
     2
 10
78.583419227
 20
81.100000039
 30
0.0
 11
78.583419227
 21
79.233333372
 31
0.0
  0
LINE
  8
0
  6
CONTINUOUS
 62
     2
 10
78.583419227
 20
79.233333372
 30
0.0
 11
80.199999981
 21
78.300000039
 31
0.0
  0
LINE
  8
0
  6
CONTINUOUS
 62
     2
 10
80.199999981
 20
78.300000039
 30
0.0
 11
81.816580735
 21
79.233333372
 31
0.0
  0
LINE
  8
0
  6
CONTINUOUS
 62
     2
 10
81.816580735
 20
79.233333372
 30
0.0
 11
81.816580735
 21
81.100000039
 31
0.0
  0
CIRCLE
  8
0
  6
CONTINUOUS
 62
     2
 10
80.199999981
 20
80.166666705
 30
0.0
 40
1.0
  0
CIRCLE
  8
0
  6
CONTINUOUS
 62
     2
 10
80.199999981
 20
80.166666705
 30
0.0
 40
0.933333333
  0
CIRCLE
  8
0
  6
CONTINUOUS
 62
     2
 10
80.199999981
 20
80.166666705
 30
0.0
 40
2.0
  0
CIRCLE
  8
0
  6
CONTINUOUS
 62
     2
 10
80.199999981
 20
80.166666705
 30
0.0
 40
1.666666667
  0
LINE
  8
0
  6
LTYPE1
 62
     2
 10
77.616666648
 20
80.166666705
 30
0.0
 11
82.933333314
 21
80.166666705
 31
0.0
  0
LINE
  8
0
  6
LTYPE1
 62
     2
 10
80.199999981
 20
82.766666705
 30
0.0
 11
80.199999981
 21
77.616666705
 31
0.0
  0
LINE
  8
0
  6
CONTINUOUS
 62
     2
 10
81.816580735
 20
51.100000039
 30
0.0
 11
80.199999981
 21
52.033333372
 31
0.0
  0
LINE
  8
0
  6
CONTINUOUS
 62
     2
 10
80.199999981
 20
52.033333372
 30
0.0
 11
78.583419227
 21
51.100000039
 31
0.0
  0
LINE
  8
0
  6
CONTINUOUS
 62
     2
 10
78.583419227
 20
51.100000039
 30
0.0
 11
78.583419227
 21
49.233333372
 31
0.0
  0
LINE
  8
0
  6
CONTINUOUS
 62
     2
 10
78.583419227
 20
49.233333372
 30
0.0
 11
80.199999981
 21
48.300000039
 31
0.0
  0
LINE
  8
0
  6
CONTINUOUS
 62
     2
 10
80.199999981
 20
48.300000039
 30
0.0
 11
81.816580735
 21
49.233333372
 31
0.0
  0
LINE
  8
0
  6
CONTINUOUS
 62
     2
 10
81.816580735
 20
49.233333372
 30
0.0
 11
81.816580735
 21
51.100000039
 31
0.0
  0
CIRCLE
  8
0
  6
CONTINUOUS
 62
     2
 10
80.199999981
 20
50.166666706
 30
0.0
 40
1.0
  0
CIRCLE
  8
0
  6
CONTINUOUS
 62
     2
 10
80.199999981
 20
50.166666706
 30
0.0
 40
0.933333333
  0
CIRCLE
  8
0
  6
CONTINUOUS
 62
     2
 10
80.199999981
 20
50.166666706
 30
0.0
 40
2.0
  0
CIRCLE
  8
0
  6
CONTINUOUS
 62
     2
 10
80.199999981
 20
50.166666706
 30
0.0
 40
1.666666667
  0
LINE
  8
0
  6
LTYPE1
 62
     2
 10
77.616666648
 20
50.166666706
 30
0.0
 11
82.933333314
 21
50.166666706
 31
0.0
  0
LINE
  8
0
  6
LTYPE1
 62
     2
 10
80.199999981
 20
52.766666706
 30
0.0
 11
80.199999981
 21
47.616666706
 31
0.0
  0
LINE
  8
0
  6
CONTINUOUS
 62
     2
 10
111.816580734
 20
51.100000039
 30
0.0
 11
110.199999981
 21
52.033333372
 31
0.0
  0
LINE
  8
0
  6
CONTINUOUS
 62
     2
 10
110.199999981
 20
52.033333372
 30
0.0
 11
108.583419227
 21
51.100000039
 31
0.0
  0
LINE
  8
0
  6
CONTINUOUS
 62
     2
 10
108.583419227
 20
51.100000039
 30
0.0
 11
108.583419227
 21
49.233333372
 31
0.0
  0
LINE
  8
0
  6
CONTINUOUS
 62
     2
 10
108.583419227
 20
49.233333372
 30
0.0
 11
110.199999981
 21
48.300000039
 31
0.0
  0
LINE
  8
0
  6
CONTINUOUS
 62
     2
 10
110.199999981
 20
48.300000039
 30
0.0
 11
111.816580734
 21
49.233333372
 31
0.0
  0
LINE
  8
0
  6
CONTINUOUS
 62
     2
 10
111.816580734
 20
49.233333372
 30
0.0
 11
111.816580734
 21
51.100000039
 31
0.0
  0
CIRCLE
  8
0
  6
CONTINUOUS
 62
     2
 10
110.199999981
 20
50.166666706
 30
0.0
 40
1.0
  0
CIRCLE
  8
0
  6
CONTINUOUS
 62
     2
 10
110.199999981
 20
50.166666706
 30
0.0
 40
0.933333333
  0
CIRCLE
  8
0
  6
CONTINUOUS
 62
     2
 10
110.199999981
 20
50.166666706
 30
0.0
 40
2.0
  0
CIRCLE
  8
0
  6
CONTINUOUS
 62
     2
 10
110.199999981
 20
50.166666706
 30
0.0
 40
1.666666667
  0
LINE
  8
0
  6
LTYPE1
 62
     2
 10
107.616666647
 20
50.166666706
 30
0.0
 11
112.933333314
 21
50.166666706
 31
0.0
  0
LINE
  8
0
  6
LTYPE1
 62
     2
 10
110.199999981
 20
52.766666706
 30
0.0
 11
110.199999981
 21
47.616666706
 31
0.0
  0
CIRCLE
  8
0
  6
CONTINUOUS
 62
     2
 10
107.901705903
 20
57.833333372
 30
0.0
 40
1.166666667
  0
CIRCLE
  8
0
  6
CONTINUOUS
 62
     2
 10
95.199999981
 20
79.833333372
 30
0.0
 40
1.166666667
  0
CIRCLE
  8
0
  6
CONTINUOUS
 62
     2
 10
82.498294059
 20
57.833333372
 30
0.0
 40
1.166666667
  0
CIRCLE
  8
0
  6
CONTINUOUS
 62
     2
 10
82.498294059
 20
57.833333372
 30
0.0
 40
1.0
  0
LINE
  8
0
  6
CONTINUOUS
 62
     2
 10
81.914960725
 20
57.966666706
 30
0.0
 11
82.231627392
 21
57.966666706
 31
0.0
  0
ARC
  8
0
  6
CONTINUOUS
 62
     2
 10
82.231627392
 20
58.100000039
 30
0.0
 40
0.133333333
 50
270.0
 51
0.0
  0
LINE
  8
0
  6
CONTINUOUS
 62
     2
 10
82.364960725
 20
58.100000039
 30
0.0
 11
82.364960725
 21
58.416666706
 31
0.0
  0
LINE
  8
0
  6
CONTINUOUS
 62
     2
 10
82.364960725
 20
58.416666706
 30
0.0
 11
82.631627392
 21
58.416666706
 31
0.0
  0
LINE
  8
0
  6
CONTINUOUS
 62
     2
 10
82.631627392
 20
58.416666706
 30
0.0
 11
82.631627392
 21
58.100000039
 31
0.0
  0
ARC
  8
0
  6
CONTINUOUS
 62
     2
 10
82.764960725
 20
58.100000039
 30
0.0
 40
0.133333333
 50
180.0
 51
270.0
  0
LINE
  8
0
  6
CONTINUOUS
 62
     2
 10
82.764960725
 20
57.966666706
 30
0.0
 11
83.081627392
 21
57.966666706
 31
0.0
  0
LINE
  8
0
  6
CONTINUOUS
 62
     2
 10
83.081627392
 20
57.966666706
 30
0.0
 11
83.081627392
 21
57.700000039
 31
0.0
  0
LINE
  8
0
  6
CONTINUOUS
 62
     2
 10
83.081627392
 20
57.700000039
 30
0.0
 11
82.764960725
 21
57.700000039
 31
0.0
  0
ARC
  8
0
  6
CONTINUOUS
 62
     2
 10
82.764960725
 20
57.566666706
 30
0.0
 40
0.133333333
 50
90.0
 51
180.0
  0
LINE
  8
0
  6
CONTINUOUS
 62
     2
 10
82.631627392
 20
57.566666706
 30
0.0
 11
82.631627392
 21
57.250000039
 31
0.0
  0
LINE
  8
0
  6
CONTINUOUS
 62
     2
 10
82.631627392
 20
57.250000039
 30
0.0
 11
82.364960725
 21
57.250000039
 31
0.0
  0
LINE
  8
0
  6
CONTINUOUS
 62
     2
 10
82.364960725
 20
57.250000039
 30
0.0
 11
82.364960725
 21
57.566666706
 31
0.0
  0
ARC
  8
0
  6
CONTINUOUS
 62
     2
 10
82.231627392
 20
57.566666706
 30
0.0
 40
0.133333333
 50
0.0
 51
90.0
  0
LINE
  8
0
  6
CONTINUOUS
 62
     2
 10
82.231627392
 20
57.700000039
 30
0.0
 11
81.914960725
 21
57.700000039
 31
0.0
  0
LINE
  8
0
  6
CONTINUOUS
 62
     2
 10
81.914960725
 20
57.700000039
 30
0.0
 11
81.914960725
 21
57.966666706
 31
0.0
  0
LINE
  8
0
  6
LTYPE3
 62
     2
 10
81.164960725
 20
57.833333372
 30
0.0
 11
83.831627392
 21
57.833333372
 31
0.0
  0
LINE
  8
0
  6
LTYPE3
 62
     2
 10
82.498294059
 20
59.166666706
 30
0.0
 11
82.498294059
 21
56.500000039
 31
0.0
  0
CIRCLE
  8
0
  6
CONTINUOUS
 62
     2
 10
95.199999981
 20
79.833333372
 30
0.0
 40
1.0
  0
LINE
  8
0
  6
CONTINUOUS
 62
     2
 10
94.616666647
 20
79.966666705
 30
0.0
 11
94.933333314
 21
79.966666705
 31
0.0
  0
ARC
  8
0
  6
CONTINUOUS
 62
     2
 10
94.933333314
 20
80.100000039
 30
0.0
 40
0.133333333
 50
270.0
 51
0.0
  0
LINE
  8
0
  6
CONTINUOUS
 62
     2
 10
95.066666647
 20
80.100000039
 30
0.0
 11
95.066666647
 21
80.416666705
 31
0.0
  0
LINE
  8
0
  6
CONTINUOUS
 62
     2
 10
95.066666647
 20
80.416666705
 30
0.0
 11
95.333333314
 21
80.416666705
 31
0.0
  0
LINE
  8
0
  6
CONTINUOUS
 62
     2
 10
95.333333314
 20
80.416666705
 30
0.0
 11
95.333333314
 21
80.100000039
 31
0.0
  0
ARC
  8
0
  6
CONTINUOUS
 62
     2
 10
95.466666647
 20
80.100000039
 30
0.0
 40
0.133333333
 50
180.0
 51
270.0
  0
LINE
  8
0
  6
CONTINUOUS
 62
     2
 10
95.466666647
 20
79.966666705
 30
0.0
 11
95.783333314
 21
79.966666705
 31
0.0
  0
LINE
  8
0
  6
CONTINUOUS
 62
     2
 10
95.783333314
 20
79.966666705
 30
0.0
 11
95.783333314
 21
79.700000039
 31
0.0
  0
LINE
  8
0
  6
CONTINUOUS
 62
     2
 10
95.783333314
 20
79.700000039
 30
0.0
 11
95.466666647
 21
79.700000039
 31
0.0
  0
ARC
  8
0
  6
CONTINUOUS
 62
     2
 10
95.466666647
 20
79.566666705
 30
0.0
 40
0.133333333
 50
90.0
 51
180.0
  0
LINE
  8
0
  6
CONTINUOUS
 62
     2
 10
95.333333314
 20
79.566666705
 30
0.0
 11
95.333333314
 21
79.250000039
 31
0.0
  0
LINE
  8
0
  6
CONTINUOUS
 62
     2
 10
95.333333314
 20
79.250000039
 30
0.0
 11
95.066666647
 21
79.250000039
 31
0.0
  0
LINE
  8
0
  6
CONTINUOUS
 62
     2
 10
95.066666647
 20
79.250000039
 30
0.0
 11
95.066666647
 21
79.566666705
 31
0.0
  0
ARC
  8
0
  6
CONTINUOUS
 62
     2
 10
94.933333314
 20
79.566666705
 30
0.0
 40
0.133333333
 50
0.0
 51
90.0
  0
LINE
  8
0
  6
CONTINUOUS
 62
     2
 10
94.933333314
 20
79.700000039
 30
0.0
 11
94.616666647
 21
79.700000039
 31
0.0
  0
LINE
  8
0
  6
CONTINUOUS
 62
     2
 10
94.616666647
 20
79.700000039
 30
0.0
 11
94.616666647
 21
79.966666705
 31
0.0
  0
LINE
  8
0
  6
LTYPE3
 62
     2
 10
93.866666647
 20
79.833333372
 30
0.0
 11
96.533333314
 21
79.833333372
 31
0.0
  0
LINE
  8
0
  6
LTYPE3
 62
     2
 10
95.199999981
 20
81.166666705
 30
0.0
 11
95.199999981
 21
78.500000039
 31
0.0
  0
CIRCLE
  8
0
  6
CONTINUOUS
 62
     2
 10
107.901705903
 20
57.833333372
 30
0.0
 40
1.0
  0
LINE
  8
0
  6
CONTINUOUS
 62
     2
 10
107.31837257
 20
57.966666706
 30
0.0
 11
107.635039236
 21
57.966666706
 31
0.0
  0
ARC
  8
0
  6
CONTINUOUS
 62
     2
 10
107.635039236
 20
58.100000039
 30
0.0
 40
0.133333333
 50
270.0
 51
0.0
  0
LINE
  8
0
  6
CONTINUOUS
 62
     2
 10
107.76837257
 20
58.100000039
 30
0.0
 11
107.76837257
 21
58.416666706
 31
0.0
  0
LINE
  8
0
  6
CONTINUOUS
 62
     2
 10
107.76837257
 20
58.416666706
 30
0.0
 11
108.035039236
 21
58.416666706
 31
0.0
  0
LINE
  8
0
  6
CONTINUOUS
 62
     2
 10
108.035039236
 20
58.416666706
 30
0.0
 11
108.035039236
 21
58.100000039
 31
0.0
  0
ARC
  8
0
  6
CONTINUOUS
 62
     2
 10
108.16837257
 20
58.100000039
 30
0.0
 40
0.133333333
 50
180.0
 51
270.0
  0
LINE
  8
0
  6
CONTINUOUS
 62
     2
 10
108.16837257
 20
57.966666706
 30
0.0
 11
108.485039236
 21
57.966666706
 31
0.0
  0
LINE
  8
0
  6
CONTINUOUS
 62
     2
 10
108.485039236
 20
57.966666706
 30
0.0
 11
108.485039236
 21
57.700000039
 31
0.0
  0
LINE
  8
0
  6
CONTINUOUS
 62
     2
 10
108.485039236
 20
57.700000039
 30
0.0
 11
108.16837257
 21
57.700000039
 31
0.0
  0
ARC
  8
0
  6
CONTINUOUS
 62
     2
 10
108.16837257
 20
57.566666706
 30
0.0
 40
0.133333333
 50
90.0
 51
180.0
  0
LINE
  8
0
  6
CONTINUOUS
 62
     2
 10
108.035039236
 20
57.566666706
 30
0.0
 11
108.035039236
 21
57.250000039
 31
0.0
  0
LINE
  8
0
  6
CONTINUOUS
 62
     2
 10
108.035039236
 20
57.250000039
 30
0.0
 11
107.76837257
 21
57.250000039
 31
0.0
  0
LINE
  8
0
  6
CONTINUOUS
 62
     2
 10
107.76837257
 20
57.250000039
 30
0.0
 11
107.76837257
 21
57.566666706
 31
0.0
  0
ARC
  8
0
  6
CONTINUOUS
 62
     2
 10
107.635039236
 20
57.566666706
 30
0.0
 40
0.133333333
 50
0.0
 51
90.0
  0
LINE
  8
0
  6
CONTINUOUS
 62
     2
 10
107.635039236
 20
57.700000039
 30
0.0
 11
107.31837257
 21
57.700000039
 31
0.0
  0
LINE
  8
0
  6
CONTINUOUS
 62
     2
 10
107.31837257
 20
57.700000039
 30
0.0
 11
107.31837257
 21
57.966666706
 31
0.0
  0
LINE
  8
0
  6
LTYPE3
 62
     2
 10
106.56837257
 20
57.833333372
 30
0.0
 11
109.235039236
 21
57.833333372
 31
0.0
  0
LINE
  8
0
  6
LTYPE3
 62
     2
 10
107.901705903
 20
59.166666706
 30
0.0
 11
107.901705903
 21
56.500000039
 31
0.0
  0
LINE
  8
0
  6
CONTINUOUS
 62
     2
 10
84.366666648
 20
59.250000039
 30
0.0
 11
84.366666648
 21
54.416666706
 31
0.0
  0
LINE
  8
0
  6
CONTINUOUS
 62
     2
 10
106.033333314
 20
54.416666706
 30
0.0
 11
106.033333314
 21
59.250000039
 31
0.0
  0
LINE
  8
0
  6
CONTINUOUS
 62
     2
 10
106.033333314
 20
59.250000039
 30
0.0
 11
84.366666648
 21
59.250000039
 31
0.0
  0
LINE
  8
0
  6
CONTINUOUS
 62
     2
 10
84.366666648
 20
75.916666705
 30
0.0
 11
84.366666648
 21
71.083333372
 31
0.0
  0
LINE
  8
0
  6
CONTINUOUS
 62
     2
 10
84.366666648
 20
71.083333372
 30
0.0
 11
106.033333314
 21
71.083333372
 31
0.0
  0
LINE
  8
0
  6
CONTINUOUS
 62
     2
 10
106.033333314
 20
71.083333372
 30
0.0
 11
106.033333314
 21
75.916666705
 31
0.0
  0
LINE
  8
0
  6
CONTINUOUS
 62
     2
 10
106.033333314
 20
75.916666705
 30
0.0
 11
84.366666648
 21
75.916666705
 31
0.0
  0
ARC
  8
0
  6
CONTINUOUS
 62
     2
 10
107.449999981
 20
70.166666706
 30
0.0
 40
0.333333333
 50
0.0
 51
90.0
  0
LINE
  8
0
  6
CONTINUOUS
 62
     2
 10
107.783333314
 20
60.166666706
 30
0.0
 11
107.783333314
 21
70.166666706
 31
0.0
  0
ARC
  8
0
  6
CONTINUOUS
 62
     2
 10
107.449999981
 20
60.166666706
 30
0.0
 40
0.333333333
 50
270.0
 51
0.0
  0
LINE
  8
0
  6
CONTINUOUS
 62
     2
 10
107.449999981
 20
70.500000039
 30
0.0
 11
82.949999981
 21
70.500000039
 31
0.0
  0
ARC
  8
0
  6
CONTINUOUS
 62
     2
 10
82.949999981
 20
70.166666706
 30
0.0
 40
0.333333333
 50
90.0
 51
180.0
  0
LINE
  8
0
  6
CONTINUOUS
 62
     2
 10
82.949999981
 20
59.833333372
 30
0.0
 11
107.449999981
 21
59.833333372
 31
0.0
  0
LINE
  8
0
  6
CONTINUOUS
 62
     2
 10
82.616666648
 20
70.166666706
 30
0.0
 11
82.616666648
 21
60.166666706
 31
0.0
  0
ARC
  8
0
  6
CONTINUOUS
 62
     2
 10
82.949999981
 20
60.166666706
 30
0.0
 40
0.333333333
 50
180.0
 51
270.0
  0
LINE
  8
0
  6
CONTINUOUS
 62
     2
 10
80.199999981
 20
47.666666706
 30
0.0
 11
80.199999981
 21
35.666666706
 31
0.0
  0
LINE
  8
0
  6
CONTINUOUS
 62
     2
 10
80.199999981
 20
37.666666706
 30
0.0
 11
82.614814547
 21
37.019619093
 31
0.0
  0
LINE
  8
0
  6
CONTINUOUS
 62
     2
 10
80.199999981
 20
37.666666706
 30
0.0
 11
82.614814547
 21
38.313714318
 31
0.0
  0
LINE
  8
0
  6
CONTINUOUS
 62
     2
 10
80.199999981
 20
37.666666706
 30
0.0
 11
110.199999981
 21
37.666666706
 31
0.0
  0
LINE
  8
0
  6
CONTINUOUS
 62
     2
 10
110.199999981
 20
37.666666706
 30
0.0
 11
107.785185415
 21
38.313714318
 31
0.0
  0
LINE
  8
0
  6
CONTINUOUS
 62
     2
 10
110.199999981
 20
37.666666706
 30
0.0
 11
107.785185415
 21
37.019619093
 31
0.0
  0
LINE
  8
0
  6
CONTINUOUS
 62
     2
 10
110.199999981
 20
47.666666706
 30
0.0
 11
110.199999981
 21
35.666666706
 31
0.0
  0
TEXT
  8
0
  6
CONTINUOUS
 62
     2
 10
93.249999981
 20
38.666666706
 30
0.3
 40
3.0
  1
９０
 50
0.0
 41
0.6
 51
0.0
  7
KANJI2
  0
LINE
  8
0
  6
CONTINUOUS
 62
     2
 10
114.024045299
 20
50.166666706
 30
0.0
 11
125.024045299
 21
50.166666706
 31
0.0
  0
LINE
  8
0
  6
CONTINUOUS
 62
     2
 10
123.024045299
 20
50.166666706
 30
0.0
 11
123.671092912
 21
52.581481271
 31
0.0
  0
LINE
  8
0
  6
CONTINUOUS
 62
     2
 10
123.024045299
 20
50.166666706
 30
0.0
 11
122.376997686
 21
52.581481271
 31
0.0
  0
LINE
  8
0
  6
CONTINUOUS
 62
     2
 10
123.024045299
 20
50.166666706
 30
0.0
 11
123.024045299
 21
80.166666706
 31
0.0
  0
LINE
  8
0
  6
CONTINUOUS
 62
     2
 10
123.024045299
 20
80.166666706
 30
0.0
 11
122.376997686
 21
77.75185214
 31
0.0
  0
LINE
  8
0
  6
CONTINUOUS
 62
     2
 10
123.024045299
 20
80.166666706
 30
0.0
 11
123.671092912
 21
77.75185214
 31
0.0
  0
LINE
  8
0
  6
CONTINUOUS
 62
     2
 10
114.024045299
 20
80.166666706
 30
0.0
 11
125.024045299
 21
80.166666706
 31
0.0
  0
TEXT
  8
0
  6
CONTINUOUS
 62
     2
 10
122.024045299
 20
63.216666706
 30
0.3
 40
3.0
  1
９０
 50
90.0
 41
0.6
 51
0.0
  7
KANJI2
  0
TEXT
  8
0
  6
CONTINUOUS
 62
     2
 10
89.449999981
 20
63.666666706
 30
0.3
 40
3.0
  1
銘　　板
 50
0.0
 41
0.9
 51
0.0
  7
KANJI0
  0
TEXT
  8
0
  6
CONTINUOUS
 62
     2
 10
86.183333314
 20
68.833333372
 30
0.1
 40
1.5
  1
Ｒ１
 50
0.0
 41
0.8
 51
0.0
  7
KANJI5
  0
TEXT
  8
0
  6
CONTINUOUS
 62
     2
 10
102.183333314
 20
68.833333372
 30
0.1
 40
1.5
  1
Ｒ２
 50
0.0
 41
0.8
 51
0.0
  7
KANJI5
  0
LINE
  8
0
  6
CONTINUOUS
 62
     2
 10
92.466666577
 20
74.766666704
 30
0.0
 11
92.216561626
 21
77.254124746
 31
0.0
  0
LINE
  8
0
  6
CONTINUOUS
 62
     2
 10
92.466666577
 20
74.766666704
 30
0.0
 11
91.006340315
 21
76.795816084
 31
0.0
  0
LINE
  8
0
  6
CONTINUOUS
 62
     2
 10
92.466666577
 20
74.766666704
 30
0.0
 11
86.066666577
 21
91.666666704
 31
0.0
  0
LINE
  8
0
  6
CONTINUOUS
 62
     2
 10
97.666666577
 20
74.866666704
 30
0.0
 11
96.827044833
 21
77.221456572
 31
0.0
  0
LINE
  8
0
  6
CONTINUOUS
 62
     2
 10
97.666666577
 20
74.866666704
 30
0.0
 11
95.762137883
 21
76.486163678
 31
0.0
  0
LINE
  8
0
  6
CONTINUOUS
 62
     2
 10
97.666666577
 20
74.866666704
 30
0.0
 11
86.066666577
 21
91.666666704
 31
0.0
  0
LINE
  8
0
  6
CONTINUOUS
 62
     2
 10
86.066666577
 20
91.666666704
 30
0.0
 11
56.366666577
 21
91.666666704
 31
0.0
  0
TEXT
  8
0
  6
CONTINUOUS
 62
     2
 10
56.366666577
 20
92.666666704
 30
0.3
 40
3.0
  1
測定端子（２－Ｍ４）
 50
0.0
 41
0.9
 51
0.0
  7
KANJI0
  0
LINE
  8
0
  6
CONTINUOUS
 62
     2
 10
87.466666577
 20
74.866666704
 30
0.0
 11
89.692413971
 21
76.005107979
 31
0.0
  0
LINE
  8
0
  6
CONTINUOUS
 62
     2
 10
87.466666577
 20
74.866666704
 30
0.0
 11
88.824999725
 21
76.965459466
 31
0.0
  0
LINE
  8
0
  6
CONTINUOUS
 62
     2
 10
87.466666577
 20
74.866666704
 30
0.0
 11
106.066666577
 21
91.666666704
 31
0.0
  0
LINE
  8
0
  6
CONTINUOUS
 62
     2
 10
106.066666577
 20
91.666666704
 30
0.0
 11
141.766666577
 21
91.666666704
 31
0.0
  0
TEXT
  8
0
  6
CONTINUOUS
 62
     2
 10
106.066666577
 20
92.666666704
 30
0.3
 40
3.0
  1
電磁復帰端子（２－Ｍ４）
 50
0.0
 41
0.9
 51
0.0
  7
KANJI0
  0
LINE
  8
0
  6
CONTINUOUS
 62
     2
 10
103.266666577
 20
74.766666704
 30
0.0
 11
104.299719142
 21
77.043243607
 31
0.0
  0
LINE
  8
0
  6
CONTINUOUS
 62
     2
 10
103.266666577
 20
74.766666704
 30
0.0
 11
103.02302789
 21
77.254766418
 31
0.0
  0
LINE
  8
0
  6
CONTINUOUS
 62
     2
 10
103.266666577
 20
74.766666704
 30
0.0
 11
106.066666577
 21
91.666666704
 31
0.0
  0
LINE
  8
0
  6
CONTINUOUS
 62
     2
 10
84.366666648
 20
54.416666706
 30
0.0
 11
106.033333314
 21
54.416666706
 31
0.0
  0
LINE
  8
0
  6
CONTINUOUS
 62
     2
 10
92.766666577
 20
55.566666704
 30
0.0
 11
93.702019679
 21
53.24823737
 31
0.0
  0
LINE
  8
0
  6
CONTINUOUS
 62
     2
 10
92.766666577
 20
55.566666704
 30
0.0
 11
94.735920792
 21
54.026524554
 31
0.0
  0
LINE
  8
0
  6
CONTINUOUS
 62
     2
 10
92.766666577
 20
55.566666704
 30
0.0
 11
113.166666577
 21
28.466666704
 31
0.0
  0
POINT
  8
0
  6
LTYPE2
 62
     2
 10
95.199999981
 20
85.833333372
 30
0.0
  0
LINE
  8
0
  6
LTYPE2
 62
     2
 10
74.199999981
 20
65.166666706
 30
0.0
 11
116.066666647
 21
65.166666706
 31
0.0
  0
LINE
  8
0
  6
CONTINUOUS
 62
     2
 10
87.733333314
 20
55.633333372
 30
0.0
 11
88.911348312
 21
53.428275399
 31
0.0
  0
LINE
  8
0
  6
CONTINUOUS
 62
     2
 10
87.733333314
 20
55.633333372
 30
0.0
 11
89.856053215
 21
54.312704649
 31
0.0
  0
LINE
  8
0
  6
CONTINUOUS
 62
     2
 10
87.733333314
 20
55.633333372
 30
0.0
 11
113.166666577
 21
28.466666704
 31
0.0
  0
TEXT
  8
0
  6
CONTINUOUS
 62
     2
 10
86.616666648
 20
60.166666706
 30
0.1
 40
1.5
  1
±　　１１０Ｖ
 50
0.0
 41
0.8
 51
0.0
  7
KANJI5
  0
TEXT
  8
0
  6
CONTINUOUS
 62
     2
 10
92.116666648
 20
68.833333372
 30
0.1
 40
1.5
  1
＋
 50
0.0
 41
0.8
 51
0.0
  7
KANJI5
  0
TEXT
  8
0
  6
CONTINUOUS
 62
     2
 10
97.449999981
 20
68.833333372
 30
0.1
 40
1.5
  1
－
 50
0.0
 41
0.8
 51
0.0
  7
KANJI5
  0
TEXT
  8
0
  6
CONTINUOUS
 62
     2
 10
107.066666577
 20
87.666666704
 30
0.3
 40
3.0
  1
（オプション）
 50
0.0
 41
0.9
 51
0.0
  7
KANJI0
  0
LINE
  8
0
  6
LTYPE4
 62
     2
 10
105.699999981
 20
75.583333372
 30
0.0
 11
105.699999981
 21
71.416666705
 31
0.0
  0
LINE
  8
0
  6
LTYPE4
 62
     2
 10
105.699999981
 20
71.416666705
 30
0.0
 11
84.699999981
 21
71.416666705
 31
0.0
  0
LINE
  8
0
  6
LTYPE4
 62
     2
 10
84.699999981
 20
71.416666705
 30
0.0
 11
84.699999981
 21
75.583333372
 31
0.0
  0
LINE
  8
0
  6
LTYPE4
 62
     2
 10
84.699999981
 20
75.583333372
 30
0.0
 11
105.699999981
 21
75.583333372
 31
0.0
  0
LINE
  8
0
  6
LTYPE4
 62
     2
 10
89.616666648
 20
75.583333372
 30
0.0
 11
89.616666648
 21
71.416666705
 31
0.0
  0
LINE
  8
0
  6
LTYPE4
 62
     2
 10
90.116666648
 20
71.416666705
 30
0.0
 11
90.116666648
 21
75.616666705
 31
0.0
  0
CIRCLE
  8
0
  6
LTYPE4
 62
     2
 10
87.199999981
 20
73.500000039
 30
0.0
 40
1.166666667
  0
LINE
  8
0
  6
LTYPE4
 62
     2
 10
87.033333314
 20
72.816666705
 30
0.0
 11
87.366666648
 21
72.816666705
 31
0.0
  0
LINE
  8
0
  6
LTYPE4
 62
     2
 10
87.366666648
 20
74.183333372
 30
0.0
 11
87.033333314
 21
74.183333372
 31
0.0
  0
LINE
  8
0
  6
LTYPE4
 62
     2
 10
87.883333314
 20
73.333333372
 30
0.0
 11
87.883333314
 21
73.666666705
 31
0.0
  0
LINE
  8
0
  6
LTYPE4
 62
     2
 10
86.516666648
 20
73.666666705
 30
0.0
 11
86.516666648
 21
73.333333372
 31
0.0
  0
LINE
  8
0
  6
LTYPE4
 62
     2
 10
87.033333314
 20
74.183333372
 30
0.0
 11
87.033333314
 21
73.833333372
 31
0.0
  0
LINE
  8
0
  6
LTYPE4
 62
     2
 10
86.866666648
 20
73.666666705
 30
0.0
 11
86.516666648
 21
73.666666705
 31
0.0
  0
ARC
  8
0
  6
LTYPE4
 62
     2
 10
86.866666648
 20
73.833333372
 30
0.0
 40
0.166666667
 50
270.0
 51
0.0
  0
LINE
  8
0
  6
LTYPE4
 62
     2
 10
87.366666648
 20
73.833333372
 30
0.0
 11
87.366666648
 21
74.183333372
 31
0.0
  0
LINE
  8
0
  6
LTYPE4
 62
     2
 10
87.883333314
 20
73.666666705
 30
0.0
 11
87.533333314
 21
73.666666705
 31
0.0
  0
ARC
  8
0
  6
LTYPE4
 62
     2
 10
87.533333314
 20
73.833333372
 30
0.0
 40
0.166666667
 50
180.0
 51
270.0
  0
LINE
  8
0
  6
LTYPE4
 62
     2
 10
87.366666648
 20
72.816666705
 30
0.0
 11
87.366666648
 21
73.166666705
 31
0.0
  0
LINE
  8
0
  6
LTYPE4
 62
     2
 10
87.533333314
 20
73.333333372
 30
0.0
 11
87.883333314
 21
73.333333372
 31
0.0
  0
ARC
  8
0
  6
LTYPE4
 62
     2
 10
87.533333314
 20
73.166666705
 30
0.0
 40
0.166666667
 50
90.0
 51
180.0
  0
LINE
  8
0
  6
LTYPE4
 62
     2
 10
87.033333314
 20
73.166666705
 30
0.0
 11
87.033333314
 21
72.816666705
 31
0.0
  0
LINE
  8
0
  6
LTYPE4
 62
     2
 10
86.516666648
 20
73.333333372
 30
0.0
 11
86.866666648
 21
73.333333372
 31
0.0
  0
ARC
  8
0
  6
LTYPE4
 62
     2
 10
86.866666648
 20
73.166666705
 30
0.0
 40
0.166666667
 50
0.0
 51
90.0
  0
CIRCLE
  8
0
  6
LTYPE4
 62
     2
 10
87.199999981
 20
73.500000039
 30
0.0
 40
1.333333333
  0
LINE
  8
0
  6
LTYPE4
 62
     2
 10
94.949999981
 20
75.583333372
 30
0.0
 11
94.949999981
 21
71.416666705
 31
0.0
  0
LINE
  8
0
  6
LTYPE4
 62
     2
 10
95.449999981
 20
71.416666705
 30
0.0
 11
95.449999981
 21
75.616666705
 31
0.0
  0
LINE
  8
0
  6
LTYPE4
 62
     2
 10
100.283333314
 20
75.583333372
 30
0.0
 11
100.283333314
 21
71.416666705
 31
0.0
  0
LINE
  8
0
  6
LTYPE4
 62
     2
 10
100.783333314
 20
71.416666705
 30
0.0
 11
100.783333314
 21
75.616666705
 31
0.0
  0
LINE
  8
0
  6
LTYPE4
 62
     2
 10
85.366666648
 20
75.583333372
 30
0.0
 11
85.366666648
 21
71.416666705
 31
0.0
  0
LINE
  8
0
  6
LTYPE4
 62
     2
 10
105.033333314
 20
75.583333372
 30
0.0
 11
105.033333314
 21
71.416666705
 31
0.0
  0
CIRCLE
  8
0
  6
LTYPE4
 62
     2
 10
92.533333314
 20
73.500000039
 30
0.0
 40
1.166666667
  0
LINE
  8
0
  6
LTYPE4
 62
     2
 10
92.366666647
 20
72.816666705
 30
0.0
 11
92.699999981
 21
72.816666705
 31
0.0
  0
LINE
  8
0
  6
LTYPE4
 62
     2
 10
92.699999981
 20
74.183333372
 30
0.0
 11
92.366666647
 21
74.183333372
 31
0.0
  0
LINE
  8
0
  6
LTYPE4
 62
     2
 10
93.216666647
 20
73.333333372
 30
0.0
 11
93.216666647
 21
73.666666705
 31
0.0
  0
LINE
  8
0
  6
LTYPE4
 62
     2
 10
91.849999981
 20
73.666666705
 30
0.0
 11
91.849999981
 21
73.333333372
 31
0.0
  0
LINE
  8
0
  6
LTYPE4
 62
     2
 10
92.366666647
 20
74.183333372
 30
0.0
 11
92.366666647
 21
73.833333372
 31
0.0
  0
LINE
  8
0
  6
LTYPE4
 62
     2
 10
92.199999981
 20
73.666666705
 30
0.0
 11
91.849999981
 21
73.666666705
 31
0.0
  0
ARC
  8
0
  6
LTYPE4
 62
     2
 10
92.199999981
 20
73.833333372
 30
0.0
 40
0.166666667
 50
270.0
 51
0.0
  0
LINE
  8
0
  6
LTYPE4
 62
     2
 10
92.699999981
 20
73.833333372
 30
0.0
 11
92.699999981
 21
74.183333372
 31
0.0
  0
LINE
  8
0
  6
LTYPE4
 62
     2
 10
93.216666647
 20
73.666666705
 30
0.0
 11
92.866666647
 21
73.666666705
 31
0.0
  0
ARC
  8
0
  6
LTYPE4
 62
     2
 10
92.866666647
 20
73.833333372
 30
0.0
 40
0.166666667
 50
180.0
 51
270.0
  0
LINE
  8
0
  6
LTYPE4
 62
     2
 10
92.699999981
 20
72.816666705
 30
0.0
 11
92.699999981
 21
73.166666705
 31
0.0
  0
LINE
  8
0
  6
LTYPE4
 62
     2
 10
92.866666647
 20
73.333333372
 30
0.0
 11
93.216666647
 21
73.333333372
 31
0.0
  0
ARC
  8
0
  6
LTYPE4
 62
     2
 10
92.866666647
 20
73.166666705
 30
0.0
 40
0.166666667
 50
90.0
 51
180.0
  0
LINE
  8
0
  6
LTYPE4
 62
     2
 10
92.366666647
 20
73.166666705
 30
0.0
 11
92.366666647
 21
72.816666705
 31
0.0
  0
LINE
  8
0
  6
LTYPE4
 62
     2
 10
91.849999981
 20
73.333333372
 30
0.0
 11
92.199999981
 21
73.333333372
 31
0.0
  0
ARC
  8
0
  6
LTYPE4
 62
     2
 10
92.199999981
 20
73.166666705
 30
0.0
 40
0.166666667
 50
0.0
 51
90.0
  0
CIRCLE
  8
0
  6
LTYPE4
 62
     2
 10
92.533333314
 20
73.500000039
 30
0.0
 40
1.333333333
  0
CIRCLE
  8
0
  6
LTYPE4
 62
     2
 10
97.866666647
 20
73.500000039
 30
0.0
 40
1.166666667
  0
LINE
  8
0
  6
LTYPE4
 62
     2
 10
97.699999981
 20
72.816666705
 30
0.0
 11
98.033333314
 21
72.816666705
 31
0.0
  0
LINE
  8
0
  6
LTYPE4
 62
     2
 10
98.033333314
 20
74.183333372
 30
0.0
 11
97.699999981
 21
74.183333372
 31
0.0
  0
LINE
  8
0
  6
LTYPE4
 62
     2
 10
98.549999981
 20
73.333333372
 30
0.0
 11
98.549999981
 21
73.666666705
 31
0.0
  0
LINE
  8
0
  6
LTYPE4
 62
     2
 10
97.183333314
 20
73.666666705
 30
0.0
 11
97.183333314
 21
73.333333372
 31
0.0
  0
LINE
  8
0
  6
LTYPE4
 62
     2
 10
97.699999981
 20
74.183333372
 30
0.0
 11
97.699999981
 21
73.833333372
 31
0.0
  0
LINE
  8
0
  6
LTYPE4
 62
     2
 10
97.533333314
 20
73.666666705
 30
0.0
 11
97.183333314
 21
73.666666705
 31
0.0
  0
ARC
  8
0
  6
LTYPE4
 62
     2
 10
97.533333314
 20
73.833333372
 30
0.0
 40
0.166666667
 50
270.0
 51
0.0
  0
LINE
  8
0
  6
LTYPE4
 62
     2
 10
98.033333314
 20
73.833333372
 30
0.0
 11
98.033333314
 21
74.183333372
 31
0.0
  0
LINE
  8
0
  6
LTYPE4
 62
     2
 10
98.549999981
 20
73.666666705
 30
0.0
 11
98.199999981
 21
73.666666705
 31
0.0
  0
ARC
  8
0
  6
LTYPE4
 62
     2
 10
98.199999981
 20
73.833333372
 30
0.0
 40
0.166666667
 50
180.0
 51
270.0
  0
LINE
  8
0
  6
LTYPE4
 62
     2
 10
98.033333314
 20
72.816666705
 30
0.0
 11
98.033333314
 21
73.166666705
 31
0.0
  0
LINE
  8
0
  6
LTYPE4
 62
     2
 10
98.199999981
 20
73.333333372
 30
0.0
 11
98.549999981
 21
73.333333372
 31
0.0
  0
ARC
  8
0
  6
LTYPE4
 62
     2
 10
98.199999981
 20
73.166666705
 30
0.0
 40
0.166666667
 50
90.0
 51
180.0
  0
LINE
  8
0
  6
LTYPE4
 62
     2
 10
97.699999981
 20
73.166666705
 30
0.0
 11
97.699999981
 21
72.816666705
 31
0.0
  0
LINE
  8
0
  6
LTYPE4
 62
     2
 10
97.183333314
 20
73.333333372
 30
0.0
 11
97.533333314
 21
73.333333372
 31
0.0
  0
ARC
  8
0
  6
LTYPE4
 62
     2
 10
97.533333314
 20
73.166666705
 30
0.0
 40
0.166666667
 50
0.0
 51
90.0
  0
CIRCLE
  8
0
  6
LTYPE4
 62
     2
 10
97.866666647
 20
73.500000039
 30
0.0
 40
1.333333333
  0
CIRCLE
  8
0
  6
LTYPE4
 62
     2
 10
103.199999981
 20
73.500000039
 30
0.0
 40
1.166666667
  0
LINE
  8
0
  6
LTYPE4
 62
     2
 10
103.033333314
 20
72.816666705
 30
0.0
 11
103.366666647
 21
72.816666705
 31
0.0
  0
LINE
  8
0
  6
LTYPE4
 62
     2
 10
103.366666647
 20
74.183333372
 30
0.0
 11
103.033333314
 21
74.183333372
 31
0.0
  0
LINE
  8
0
  6
LTYPE4
 62
     2
 10
103.883333314
 20
73.333333372
 30
0.0
 11
103.883333314
 21
73.666666705
 31
0.0
  0
LINE
  8
0
  6
LTYPE4
 62
     2
 10
102.516666647
 20
73.666666705
 30
0.0
 11
102.516666647
 21
73.333333372
 31
0.0
  0
LINE
  8
0
  6
LTYPE4
 62
     2
 10
103.033333314
 20
74.183333372
 30
0.0
 11
103.033333314
 21
73.833333372
 31
0.0
  0
LINE
  8
0
  6
LTYPE4
 62
     2
 10
102.866666647
 20
73.666666705
 30
0.0
 11
102.516666647
 21
73.666666705
 31
0.0
  0
ARC
  8
0
  6
LTYPE4
 62
     2
 10
102.866666647
 20
73.833333372
 30
0.0
 40
0.166666667
 50
270.0
 51
0.0
  0
LINE
  8
0
  6
LTYPE4
 62
     2
 10
103.366666647
 20
73.833333372
 30
0.0
 11
103.366666647
 21
74.183333372
 31
0.0
  0
LINE
  8
0
  6
LTYPE4
 62
     2
 10
103.883333314
 20
73.666666705
 30
0.0
 11
103.533333314
 21
73.666666705
 31
0.0
  0
ARC
  8
0
  6
LTYPE4
 62
     2
 10
103.533333314
 20
73.833333372
 30
0.0
 40
0.166666667
 50
180.0
 51
270.0
  0
LINE
  8
0
  6
LTYPE4
 62
     2
 10
103.366666647
 20
72.816666705
 30
0.0
 11
103.366666647
 21
73.166666705
 31
0.0
  0
LINE
  8
0
  6
LTYPE4
 62
     2
 10
103.533333314
 20
73.333333372
 30
0.0
 11
103.883333314
 21
73.333333372
 31
0.0
  0
ARC
  8
0
  6
LTYPE4
 62
     2
 10
103.533333314
 20
73.166666705
 30
0.0
 40
0.166666667
 50
90.0
 51
180.0
  0
LINE
  8
0
  6
LTYPE4
 62
     2
 10
103.033333314
 20
73.166666705
 30
0.0
 11
103.033333314
 21
72.816666705
 31
0.0
  0
LINE
  8
0
  6
LTYPE4
 62
     2
 10
102.516666647
 20
73.333333372
 30
0.0
 11
102.866666647
 21
73.333333372
 31
0.0
  0
ARC
  8
0
  6
LTYPE4
 62
     2
 10
102.866666647
 20
73.166666705
 30
0.0
 40
0.166666667
 50
0.0
 51
90.0
  0
CIRCLE
  8
0
  6
LTYPE4
 62
     2
 10
103.199999981
 20
73.500000039
 30
0.0
 40
1.333333333
  0
LINE
  8
0
  6
LTYPE4
 62
     2
 10
89.616666648
 20
58.916666706
 30
0.0
 11
89.616666648
 21
54.750000039
 31
0.0
  0
LINE
  8
0
  6
LTYPE4
 62
     2
 10
90.116666648
 20
54.750000039
 30
0.0
 11
90.116666648
 21
58.950000039
 31
0.0
  0
LINE
  8
0
  6
LTYPE4
 62
     2
 10
94.949999981
 20
58.916666706
 30
0.0
 11
94.949999981
 21
54.750000039
 31
0.0
  0
LINE
  8
0
  6
LTYPE4
 62
     2
 10
85.366666648
 20
58.916666706
 30
0.0
 11
85.366666648
 21
54.750000039
 31
0.0
  0
CIRCLE
  8
0
  6
LTYPE4
 62
     2
 10
92.533333314
 20
56.833333372
 30
0.0
 40
1.166666667
  0
LINE
  8
0
  6
LTYPE4
 62
     2
 10
92.699999981
 20
56.150000039
 30
0.0
 11
92.366666647
 21
56.150000039
 31
0.0
  0
LINE
  8
0
  6
LTYPE4
 62
     2
 10
92.366666647
 20
57.516666706
 30
0.0
 11
92.699999981
 21
57.516666706
 31
0.0
  0
LINE
  8
0
  6
LTYPE4
 62
     2
 10
91.849999981
 20
56.666666706
 30
0.0
 11
91.849999981
 21
57.000000039
 31
0.0
  0
LINE
  8
0
  6
LTYPE4
 62
     2
 10
93.216666647
 20
57.000000039
 30
0.0
 11
93.216666647
 21
56.666666706
 31
0.0
  0
LINE
  8
0
  6
LTYPE4
 62
     2
 10
92.699999981
 20
57.516666706
 30
0.0
 11
92.699999981
 21
57.166666706
 31
0.0
  0
LINE
  8
0
  6
LTYPE4
 62
     2
 10
92.866666647
 20
57.000000039
 30
0.0
 11
93.216666647
 21
57.000000039
 31
0.0
  0
ARC
  8
0
  6
LTYPE4
 62
     2
 10
92.866666647
 20
57.166666706
 30
0.0
 40
0.166666667
 50
180.0
 51
270.0
  0
LINE
  8
0
  6
LTYPE4
 62
     2
 10
92.366666647
 20
57.166666706
 30
0.0
 11
92.366666647
 21
57.516666706
 31
0.0
  0
LINE
  8
0
  6
LTYPE4
 62
     2
 10
91.849999981
 20
57.000000039
 30
0.0
 11
92.199999981
 21
57.000000039
 31
0.0
  0
ARC
  8
0
  6
LTYPE4
 62
     2
 10
92.199999981
 20
57.166666706
 30
0.0
 40
0.166666667
 50
270.0
 51
0.0
  0
LINE
  8
0
  6
LTYPE4
 62
     2
 10
92.366666647
 20
56.150000039
 30
0.0
 11
92.366666647
 21
56.500000039
 31
0.0
  0
LINE
  8
0
  6
LTYPE4
 62
     2
 10
92.199999981
 20
56.666666706
 30
0.0
 11
91.849999981
 21
56.666666706
 31
0.0
  0
ARC
  8
0
  6
LTYPE4
 62
     2
 10
92.199999981
 20
56.500000039
 30
0.0
 40
0.166666667
 50
0.0
 51
90.0
  0
LINE
  8
0
  6
LTYPE4
 62
     2
 10
92.699999981
 20
56.500000039
 30
0.0
 11
92.699999981
 21
56.150000039
 31
0.0
  0
LINE
  8
0
  6
LTYPE4
 62
     2
 10
93.216666647
 20
56.666666706
 30
0.0
 11
92.866666647
 21
56.666666706
 31
0.0
  0
ARC
  8
0
  6
LTYPE4
 62
     2
 10
92.866666647
 20
56.500000039
 30
0.0
 40
0.166666667
 50
90.0
 51
180.0
  0
CIRCLE
  8
0
  6
LTYPE4
 62
     2
 10
92.533333314
 20
56.833333372
 30
0.0
 40
1.333333333
  0
CIRCLE
  8
0
  6
LTYPE4
 62
     2
 10
87.199999981
 20
56.833333372
 30
0.0
 40
1.166666667
  0
LINE
  8
0
  6
LTYPE4
 62
     2
 10
87.366666648
 20
56.150000039
 30
0.0
 11
87.033333314
 21
56.150000039
 31
0.0
  0
LINE
  8
0
  6
LTYPE4
 62
     2
 10
87.033333314
 20
57.516666706
 30
0.0
 11
87.366666648
 21
57.516666706
 31
0.0
  0
LINE
  8
0
  6
LTYPE4
 62
     2
 10
86.516666648
 20
56.666666706
 30
0.0
 11
86.516666648
 21
57.000000039
 31
0.0
  0
LINE
  8
0
  6
LTYPE4
 62
     2
 10
87.883333314
 20
57.000000039
 30
0.0
 11
87.883333314
 21
56.666666706
 31
0.0
  0
LINE
  8
0
  6
LTYPE4
 62
     2
 10
87.366666648
 20
57.516666706
 30
0.0
 11
87.366666648
 21
57.166666706
 31
0.0
  0
LINE
  8
0
  6
LTYPE4
 62
     2
 10
87.533333314
 20
57.000000039
 30
0.0
 11
87.883333314
 21
57.000000039
 31
0.0
  0
ARC
  8
0
  6
LTYPE4
 62
     2
 10
87.533333314
 20
57.166666706
 30
0.0
 40
0.166666667
 50
180.0
 51
270.0
  0
LINE
  8
0
  6
LTYPE4
 62
     2
 10
87.033333314
 20
57.166666706
 30
0.0
 11
87.033333314
 21
57.516666706
 31
0.0
  0
LINE
  8
0
  6
LTYPE4
 62
     2
 10
86.516666648
 20
57.000000039
 30
0.0
 11
86.866666648
 21
57.000000039
 31
0.0
  0
ARC
  8
0
  6
LTYPE4
 62
     2
 10
86.866666648
 20
57.166666706
 30
0.0
 40
0.166666667
 50
270.0
 51
0.0
  0
LINE
  8
0
  6
LTYPE4
 62
     2
 10
87.033333314
 20
56.150000039
 30
0.0
 11
87.033333314
 21
56.500000039
 31
0.0
  0
LINE
  8
0
  6
LTYPE4
 62
     2
 10
86.866666648
 20
56.666666706
 30
0.0
 11
86.516666648
 21
56.666666706
 31
0.0
  0
ARC
  8
0
  6
LTYPE4
 62
     2
 10
86.866666648
 20
56.500000039
 30
0.0
 40
0.166666667
 50
0.0
 51
90.0
  0
LINE
  8
0
  6
LTYPE4
 62
     2
 10
87.366666648
 20
56.500000039
 30
0.0
 11
87.366666648
 21
56.150000039
 31
0.0
  0
LINE
  8
0
  6
LTYPE4
 62
     2
 10
87.883333314
 20
56.666666706
 30
0.0
 11
87.533333314
 21
56.666666706
 31
0.0
  0
ARC
  8
0
  6
LTYPE4
 62
     2
 10
87.533333314
 20
56.500000039
 30
0.0
 40
0.166666667
 50
90.0
 51
180.0
  0
CIRCLE
  8
0
  6
LTYPE4
 62
     2
 10
87.199999981
 20
56.833333372
 30
0.0
 40
1.333333333
  0
LINE
  8
0
  6
LTYPE4
 62
     2
 10
84.699999981
 20
58.916666706
 30
0.0
 11
95.2
 21
58.916666706
 31
0.0
  0
LINE
  8
0
  6
LTYPE4
 62
     2
 10
84.699999981
 20
54.750000039
 30
0.0
 11
84.699999981
 21
58.916666706
 31
0.0
  0
LINE
  8
0
  6
LTYPE4
 62
     2
 10
95.2
 20
54.750000039
 30
0.0
 11
84.699999981
 21
54.750000039
 31
0.0
  0
LINE
  8
0
  6
LTYPE4
 62
     2
 10
95.449999981
 20
54.750000039
 30
0.0
 11
95.449999981
 21
58.950000039
 31
0.0
  0
LINE
  8
0
  6
LTYPE4
 62
     2
 10
95.199999981
 20
43.333333372
 30
0.0
 11
95.199999981
 21
85.833333372
 31
0.0
  0
LINE
  8
0
  6
LTYPE4
 62
     2
 10
100.283333314
 20
58.916666706
 30
0.0
 11
100.283333314
 21
54.750000039
 31
0.0
  0
LINE
  8
0
  6
LTYPE4
 62
     2
 10
100.783333314
 20
54.750000039
 30
0.0
 11
100.783333314
 21
58.950000039
 31
0.0
  0
LINE
  8
0
  6
LTYPE4
 62
     2
 10
103.199999981
 20
58.218974018
 30
0.0
 11
104.399999981
 21
57.526153695
 31
0.0
  0
LINE
  8
0
  6
LTYPE4
 62
     2
 10
104.399999981
 20
57.526153695
 30
0.0
 11
104.399999981
 21
56.140513049
 31
0.0
  0
LINE
  8
0
  6
LTYPE4
 62
     2
 10
104.399999981
 20
56.140513049
 30
0.0
 11
103.199999981
 21
55.447692726
 31
0.0
  0
LINE
  8
0
  6
LTYPE4
 62
     2
 10
103.199999981
 20
55.447692726
 30
0.0
 11
101.999999981
 21
56.140513049
 31
0.0
  0
LINE
  8
0
  6
LTYPE4
 62
     2
 10
101.999999981
 20
56.140513049
 30
0.0
 11
101.999999981
 21
57.526153695
 31
0.0
  0
LINE
  8
0
  6
LTYPE4
 62
     2
 10
101.999999981
 20
57.526153695
 30
0.0
 11
103.199999981
 21
58.218974018
 31
0.0
  0
LINE
  8
0
  6
LTYPE4
 62
     2
 10
97.866666647
 20
58.218974018
 30
0.0
 11
99.066666647
 21
57.526153695
 31
0.0
  0
LINE
  8
0
  6
LTYPE4
 62
     2
 10
99.066666647
 20
57.526153695
 30
0.0
 11
99.066666647
 21
56.140513049
 31
0.0
  0
LINE
  8
0
  6
LTYPE4
 62
     2
 10
99.066666647
 20
56.140513049
 30
0.0
 11
97.866666647
 21
55.447692726
 31
0.0
  0
LINE
  8
0
  6
LTYPE4
 62
     2
 10
97.866666647
 20
55.447692726
 30
0.0
 11
96.666666647
 21
56.140513049
 31
0.0
  0
LINE
  8
0
  6
LTYPE4
 62
     2
 10
96.666666647
 20
57.526153695
 30
0.0
 11
97.866666647
 21
58.218974018
 31
0.0
  0
LINE
  8
0
  6
LTYPE4
 62
     2
 10
95.2
 20
58.916666706
 30
0.0
 11
105.699999981
 21
58.916666706
 31
0.0
  0
LINE
  8
0
  6
LTYPE4
 62
     2
 10
105.033333314
 20
58.916666706
 30
0.0
 11
105.033333314
 21
54.750000039
 31
0.0
  0
LINE
  8
0
  6
LTYPE4
 62
     2
 10
105.699999981
 20
58.916666706
 30
0.0
 11
105.699999981
 21
54.750000039
 31
0.0
  0
LINE
  8
0
  6
LTYPE4
 62
     2
 10
105.699999981
 20
54.750000039
 30
0.0
 11
95.2
 21
54.750000039
 31
0.0
  0
LINE
  8
0
  6
LTYPE4
 62
     2
 10
96.666666647
 20
56.140513049
 30
0.0
 11
96.666666647
 21
57.526153695
 31
0.0
  0
TEXT
  8
0
  6
CONTINUOUS
 62
     2
 10
113.166666577
 20
29.466666704
 30
0.3
 40
3.0
  1
補助電源端子
 50
0.0
 41
0.9
 51
0.0
  7
KANJI0
  0
LINE
  8
0
  6
CONTINUOUS
 62
     2
 10
113.166666577
 20
28.466666704
 30
0.0
 11
131.266666577
 21
28.466666704
 31
0.0
  0
TEXT
  8
0
  6
CONTINUOUS
 62
     2
 10
113.166666577
 20
24.466666704
 30
0.3
 40
3.0
  1
（２－Ｍ４）
 50
0.0
 41
0.9
 51
0.0
  7
KANJI0
  0
TEXT
  8
0
  6
CONTINUOUS
 62
     2
 10
166.350149919
 20
116.0
 30
0.3
 40
3.0
  1
１６８．５
 50
0.0
 41
0.6
 51
0.0
  7
KANJI2
  0
TEXT
  8
0
  6
CONTINUOUS
 62
     2
 10
12.966666577
 20
49.966666704
 30
0.3
 40
3.0
  1
２）端子記号
 50
0.0
 41
0.9
 51
0.0
  7
KANJI0
  0
TEXT
  8
0
  6
CONTINUOUS
 62
     2
 10
21.966666577
 20
44.966666704
 30
0.3
 40
3.0
  1
測定端子　　　　＋　　，－
 50
0.0
 41
0.9
 51
0.0
  7
KANJI0
  0
TEXT
  8
0
  6
CONTINUOUS
 62
     2
 10
21.966666577
 20
39.966666704
 30
0.3
 40
3.0
  1
電磁復帰端子　　Ｒ１　，Ｒ２
 50
0.0
 41
0.9
 51
0.0
  7
KANJI0
  0
TEXT
  8
0
  6
CONTINUOUS
 62
     2
 10
18.466666577
 20
54.966666704
 30
0.3
 40
3.0
  1
ありません。
 50
0.0
 41
0.9
 51
0.0
  7
KANJI0
  0
TEXT
  8
0
  6
CONTINUOUS
 62
     2
 10
12.966666577
 20
59.966666704
 30
0.3
 40
3.0
  1
１）最小指針は，ＷＷⅠ－１１Ｃ形には
 50
0.0
 41
0.9
 51
0.0
  7
KANJI0
  0
LINE
  8
0
  6
CONTINUOUS
 62
     2
 10
12.966666577
 20
58.966666704
 30
0.0
 11
72.966666577
 21
58.966666704
 31
0.0
  0
LINE
  8
0
  6
CONTINUOUS
 62
     2
 10
12.966666577
 20
53.966666704
 30
0.0
 11
72.966666577
 21
53.966666704
 31
0.0
  0
LINE
  8
0
  6
CONTINUOUS
 62
     2
 10
12.966666577
 20
48.966666704
 30
0.0
 11
72.966666577
 21
48.966666704
 31
0.0
  0
LINE
  8
0
  6
CONTINUOUS
 62
     2
 10
12.966666577
 20
43.966666704
 30
0.0
 11
72.966666577
 21
43.966666704
 31
0.0
  0
LINE
  8
0
  6
CONTINUOUS
 62
     2
 10
12.966666577
 20
38.966666704
 30
0.0
 11
72.966666577
 21
38.966666704
 31
0.0
  0
LINE
  8
0
  6
CONTINUOUS
 62
     2
 10
12.966666577
 20
33.966666704
 30
0.0
 11
72.966666577
 21
33.966666704
 31
0.0
  0
LINE
  8
0
  6
CONTINUOUS
 62
     2
 10
12.966666577
 20
28.966666704
 30
0.0
 11
72.966666577
 21
28.966666704
 31
0.0
  0
LINE
  8
0
  6
CONTINUOUS
 62
     2
 10
12.966666577
 20
18.966666704
 30
0.0
 11
72.966666577
 21
18.966666704
 31
0.0
  0
LINE
  8
0
  6
CONTINUOUS
 62
     2
 10
12.966666577
 20
23.966666704
 30
0.0
 11
72.966666577
 21
23.966666704
 31
0.0
  0
TEXT
  8
0
  6
CONTINUOUS
 62
     2
 10
12.966666577
 20
29.966666704
 30
0.3
 40
3.0
  1
３）端子記号”１１０Ｖ”は，仕様により
 50
0.0
 41
0.9
 51
0.0
  7
KANJI0
  0
TEXT
  8
0
  6
CONTINUOUS
 62
     2
 10
18.466666577
 20
24.966666704
 30
0.3
 40
3.0
  1
異なる場合があります。
 50
0.0
 41
0.9
 51
0.0
  7
KANJI0
  0
LINE
  8
0
  6
CONTINUOUS
 62
     2
 10
12.966666577
 20
13.966666704
 30
0.0
 11
72.966666577
 21
13.966666704
 31
0.0
  0
TEXT
  8
0
  6
CONTINUOUS
 62
     2
 10
12.966666577
 20
19.966666704
 30
0.3
 40
3.0
  1
４）手動復帰の場合は，電磁復帰端子は
 50
0.0
 41
0.9
 51
0.0
  7
KANJI0
  0
TEXT
  8
0
  6
CONTINUOUS
 62
     2
 10
18.466666577
 20
14.966666704
 30
0.3
 40
3.0
  1
ありません。
 50
0.0
 41
0.9
 51
0.0
  7
KANJI0
  0
TEXT
  8
0
  6
CONTINUOUS
 62
     2
 10
97.799999981
 20
119.333333372
 30
0.3
 40
3.0
  1
機械的
 50
0.0
 41
0.9
 51
0.0
  7
KANJI0
  0
TEXT
  8
0
  6
CONTINUOUS
 62
     2
 10
21.966666577
 20
34.966666704
 30
0.3
 40
3.0
  1
補助電源端子　　±　　，１１０Ｖ
 50
0.0
 41
0.9
 51
0.0
  7
KANJI0
  0
TEXT
  8
0
  6
CONTINUOUS
 62
     3
 10
235.0
 20
12.0
 30
0.6
 40
6.0
  1
ＭＳ－１２７５９
 50
0.0
 41
0.9
 51
0.0
  7
KANJI6
  0
LINE
  8
0
  6
CONTINUOUS
 62
     2
 10
199.066959943
 20
152.50000001
 30
0.0
 11
199.066959943
 21
147.833333348
 31
0.0
  0
LINE
  8
0
  6
CONTINUOUS
 62
     2
 10
199.066959943
 20
147.833333348
 30
0.0
 11
198.000293277
 21
147.833333348
 31
0.0
  0
LINE
  8
0
  6
CONTINUOUS
 62
     2
 10
198.000293277
 20
147.833333348
 30
0.0
 11
198.000293277
 21
148.166666681
 31
0.0
  0
LINE
  8
0
  6
CONTINUOUS
 62
     2
 10
198.000293277
 20
148.166666681
 30
0.0
 11
195.666959946
 21
148.166666681
 31
0.0
  0
LINE
  8
0
  6
CONTINUOUS
 62
     2
 10
194.90029328
 20
151.416666677
 30
0.0
 11
194.90029328
 21
148.91666668
 31
0.0
  0
LINE
  8
0
  6
CONTINUOUS
 62
     2
 10
195.666959946
 20
148.166666681
 30
0.0
 11
194.90029328
 21
148.91666668
 31
0.0
  0
LINE
  8
0
  6
CONTINUOUS
 62
     2
 10
199.066959943
 20
152.50000001
 30
0.0
 11
198.000293277
 21
152.50000001
 31
0.0
  0
LINE
  8
0
  6
CONTINUOUS
 62
     2
 10
198.000293277
 20
152.50000001
 30
0.0
 11
198.000293277
 21
152.166666677
 31
0.0
  0
LINE
  8
0
  6
CONTINUOUS
 62
     2
 10
198.000293277
 20
152.166666677
 30
0.0
 11
195.666959946
 21
152.166666677
 31
0.0
  0
LINE
  8
0
  6
CONTINUOUS
 62
     2
 10
195.666959946
 20
152.166666677
 30
0.0
 11
194.90029328
 21
151.416666677
 31
0.0
  0
LINE
  8
0
  6
CONTINUOUS
 62
     2
 10
195.833626613
 20
150.733333345
 30
0.0
 11
195.833626613
 21
149.600000013
 31
0.0
  0
LINE
  8
0
  6
CONTINUOUS
 62
     2
 10
196.566959945
 20
150.733333345
 30
0.0
 11
195.833626613
 21
150.733333345
 31
0.0
  0
LINE
  8
0
  6
CONTINUOUS
 62
     2
 10
196.566959945
 20
149.600000013
 30
0.0
 11
196.566959945
 21
150.733333345
 31
0.0
  0
LINE
  8
0
  6
CONTINUOUS
 62
     2
 10
195.833626613
 20
149.600000013
 30
0.0
 11
196.566959945
 21
149.600000013
 31
0.0
  0
LINE
  8
0
  6
CONTINUOUS
 62
     2
 10
194.233626614
 20
152.10000001
 30
0.0
 11
195.598811798
 21
152.10000001
 31
0.0
  0
LINE
  8
0
  6
CONTINUOUS
 62
     2
 10
194.233626614
 20
148.233333347
 30
0.0
 11
195.598811798
 21
148.233333347
 31
0.0
  0
LINE
  8
0
  6
CONTINUOUS
 62
     2
 10
198.900293372
 20
152.433333372
 30
0.0
 11
200.806827414
 21
154.050469095
 31
0.0
  0
LINE
  8
0
  6
CONTINUOUS
 62
     2
 10
198.900293372
 20
152.433333372
 30
0.0
 11
199.742832425
 21
154.78708101
 31
0.0
  0
LINE
  8
0
  6
CONTINUOUS
 62
     2
 10
198.900293372
 20
152.433333372
 30
0.0
 11
207.900293372
 21
165.433333372
 31
0.0
  0
LINE
  8
0
  6
CONTINUOUS
 62
     2
 10
207.900293372
 20
165.433333372
 30
0.0
 11
222.600293372
 21
165.433333372
 31
0.0
  0
TEXT
  8
0
  6
CONTINUOUS
 62
     2
 10
207.900293372
 20
166.433333372
 30
0.3
 40
3.0
  1
端子カバー
 50
0.0
 41
0.9
 51
0.0
  7
KANJI0
  0
LINE
  8
0
  6
CONTINUOUS
 62
     2
 10
194.233626614
 20
115.0
 30
0.0
 11
199.066959943
 21
115.0
 31
0.0
  0
LINE
  8
0
  6
CONTINUOUS
 62
     2
 10
199.066959943
 20
115.0
 30
0.0
 11
201.481774509
 21
114.352952387
 31
0.0
  0
LINE
  8
0
  6
CONTINUOUS
 62
     2
 10
199.066959943
 20
115.0
 30
0.0
 11
201.481774509
 21
115.647047613
 31
0.0
  0
LINE
  8
0
  6
CONTINUOUS
 62
     2
 10
194.233626614
 20
113.0
 30
0.0
 11
194.233626614
 21
125.0
 31
0.0
  0
LINE
  8
0
  6
CONTINUOUS
 62
     2
 10
199.066959943
 20
131.166666698
 30
0.0
 11
199.066959943
 21
135.83333336
 31
0.0
  0
LINE
  8
0
  6
CONTINUOUS
 62
     2
 10
199.066959943
 20
135.83333336
 30
0.0
 11
198.000293277
 21
135.83333336
 31
0.0
  0
LINE
  8
0
  6
CONTINUOUS
 62
     2
 10
198.000293277
 20
135.83333336
 30
0.0
 11
198.000293277
 21
135.500000027
 31
0.0
  0
LINE
  8
0
  6
CONTINUOUS
 62
     2
 10
198.000293277
 20
135.500000027
 30
0.0
 11
195.666959946
 21
135.500000027
 31
0.0
  0
LINE
  8
0
  6
CONTINUOUS
 62
     2
 10
194.90029328
 20
132.25000003
 30
0.0
 11
194.90029328
 21
134.750000027
 31
0.0
  0
LINE
  8
0
  6
CONTINUOUS
 62
     2
 10
195.666959946
 20
135.500000027
 30
0.0
 11
194.90029328
 21
134.750000027
 31
0.0
  0
LINE
  8
0
  6
CONTINUOUS
 62
     2
 10
199.066959943
 20
131.166666698
 30
0.0
 11
198.000293277
 21
131.166666698
 31
0.0
  0
LINE
  8
0
  6
CONTINUOUS
 62
     2
 10
198.000293277
 20
131.166666698
 30
0.0
 11
198.000293277
 21
131.500000031
 31
0.0
  0
LINE
  8
0
  6
CONTINUOUS
 62
     2
 10
198.000293277
 20
131.500000031
 30
0.0
 11
195.666959946
 21
131.500000031
 31
0.0
  0
LINE
  8
0
  6
CONTINUOUS
 62
     2
 10
195.666959946
 20
131.500000031
 30
0.0
 11
194.90029328
 21
132.25000003
 31
0.0
  0
LINE
  8
0
  6
CONTINUOUS
 62
     2
 10
195.833626613
 20
132.933333363
 30
0.0
 11
195.833626613
 21
134.066666695
 31
0.0
  0
LINE
  8
0
  6
CONTINUOUS
 62
     2
 10
196.566959945
 20
132.933333363
 30
0.0
 11
195.833626613
 21
132.933333363
 31
0.0
  0
LINE
  8
0
  6
CONTINUOUS
 62
     2
 10
196.566959945
 20
134.066666695
 30
0.0
 11
196.566959945
 21
132.933333363
 31
0.0
  0
LINE
  8
0
  6
CONTINUOUS
 62
     2
 10
195.833626613
 20
134.066666695
 30
0.0
 11
196.566959945
 21
134.066666695
 31
0.0
  0
LINE
  8
0
  6
CONTINUOUS
 62
     2
 10
194.233626614
 20
131.566666697
 30
0.0
 11
195.598811798
 21
131.566666697
 31
0.0
  0
LINE
  8
0
  6
CONTINUOUS
 62
     2
 10
194.233626614
 20
135.43333336
 30
0.0
 11
195.598811798
 21
135.43333336
 31
0.0
  0
LINE
  8
0
  6
CONTINUOUS
 62
     2
 10
199.066959943
 20
130.733333354
 30
0.0
 11
199.066959943
 21
113.0
 31
0.0
  0
TEXT
  8
0
  6
CONTINUOUS
 62
     2
 10
201.316959943
 20
116.0
 30
0.3
 40
3.0
  1
（１４．５）
 50
0.0
 41
0.6
 51
0.0
  7
KANJI2
  0
LINE
  8
0
  6
CONTINUOUS
 62
     2
 10
199.066959943
 20
115.0
 30
0.0
 11
211.733626614
 21
115.0
 31
0.0
  0
TEXT
  8
0
  6
CONTINUOUS
 62
     2
 10
53.992299955
 20
169.328978153
 30
0.3
 40
3.0
  1
注１）
 50
0.0
 41
0.9
 51
0.0
  7
KANJI0
  0
TEXT
  8
0
  6
CONTINUOUS
 62
     2
 10
14.966666577
 20
70.966666704
 30
0.3
 40
3.0
  1
注
 50
0.0
 41
0.9
 51
0.0
  7
KANJI0
  0
LINE
  8
0
  6
CONTINUOUS
 62
     2
 10
79.89556973
 20
136.611151419
 30
0.0
 11
80.119372389
 21
135.996258667
 31
0.0
  0
LINE
  8
0
  6
CONTINUOUS
 62
     2
 10
80.119372389
 20
135.996258667
 30
0.0
 11
82.156204633
 21
136.737604976
 31
0.0
  0
LINE
  8
0
  6
CONTINUOUS
 62
     2
 10
82.156204633
 20
136.737604976
 30
0.0
 11
81.932401973
 21
137.352497728
 31
0.0
  0
LINE
  8
0
  6
CONTINUOUS
 62
     2
 10
81.932401973
 20
137.352497728
 30
0.0
 11
79.89556973
 21
136.611151419
 31
0.0
  0
LINE
  8
0
  6
CONTINUOUS
 62
     2
 10
80.000406656
 20
136.562265158
 30
0.0
 11
80.168258651
 21
136.101095593
 31
0.0
  0
LINE
  8
0
  6
CONTINUOUS
 62
     2
 10
80.168258651
 20
136.101095593
 30
0.0
 11
82.051367706
 21
136.786491237
 31
0.0
  0
LINE
  8
0
  6
CONTINUOUS
 62
     2
 10
82.051367706
 20
136.786491237
 30
0.0
 11
81.883515712
 21
137.247660802
 31
0.0
  0
LINE
  8
0
  6
CONTINUOUS
 62
     2
 10
81.883515712
 20
137.247660802
 30
0.0
 11
80.000406656
 21
136.562265158
 31
0.0
  0
LINE
  8
0
  6
CONTINUOUS
 62
     2
 10
80.105243583
 20
136.513378896
 30
0.0
 11
80.217144912
 21
136.20593252
 31
0.0
  0
LINE
  8
0
  6
CONTINUOUS
 62
     2
 10
80.217144912
 20
136.20593252
 30
0.0
 11
81.94653078
 21
136.835377499
 31
0.0
  0
LINE
  8
0
  6
CONTINUOUS
 62
     2
 10
81.94653078
 20
136.835377499
 30
0.0
 11
81.83462945
 21
137.142823875
 31
0.0
  0
LINE
  8
0
  6
CONTINUOUS
 62
     2
 10
81.83462945
 20
137.142823875
 30
0.0
 11
80.105243583
 21
136.513378896
 31
0.0
  0
LINE
  8
0
  6
CONTINUOUS
 62
     2
 10
80.210080509
 20
136.464492634
 30
0.0
 11
80.266031174
 21
136.310769446
 31
0.0
  0
LINE
  8
0
  6
CONTINUOUS
 62
     2
 10
80.266031174
 20
136.310769446
 30
0.0
 11
81.841693853
 21
136.884263761
 31
0.0
  0
LINE
  8
0
  6
CONTINUOUS
 62
     2
 10
81.841693853
 20
136.884263761
 30
0.0
 11
81.785743188
 21
137.037986949
 31
0.0
  0
LINE
  8
0
  6
CONTINUOUS
 62
     2
 10
81.785743188
 20
137.037986949
 30
0.0
 11
80.210080509
 21
136.464492634
 31
0.0
  0
LINE
  8
0
  6
CONTINUOUS
 62
     2
 10
81.736856927
 20
136.933150022
 30
0.0
 11
80.314917436
 21
136.415606373
 31
0.0
  0
LINE
  8
0
  6
CONTINUOUS
 62
     2
 10
110.504430232
 20
136.611151419
 30
0.0
 11
110.280627573
 21
135.996258667
 31
0.0
  0
LINE
  8
0
  6
CONTINUOUS
 62
     2
 10
110.280627573
 20
135.996258667
 30
0.0
 11
108.243795329
 21
136.737604976
 31
0.0
  0
LINE
  8
0
  6
CONTINUOUS
 62
     2
 10
108.243795329
 20
136.737604976
 30
0.0
 11
108.467597988
 21
137.352497728
 31
0.0
  0
LINE
  8
0
  6
CONTINUOUS
 62
     2
 10
108.467597988
 20
137.352497728
 30
0.0
 11
110.504430232
 21
136.611151419
 31
0.0
  0
LINE
  8
0
  6
CONTINUOUS
 62
     2
 10
110.399593305
 20
136.562265158
 30
0.0
 11
110.231741311
 21
136.101095593
 31
0.0
  0
LINE
  8
0
  6
CONTINUOUS
 62
     2
 10
110.231741311
 20
136.101095593
 30
0.0
 11
108.348632256
 21
136.786491237
 31
0.0
  0
LINE
  8
0
  6
CONTINUOUS
 62
     2
 10
108.348632256
 20
136.786491237
 30
0.0
 11
108.51648425
 21
137.247660802
 31
0.0
  0
LINE
  8
0
  6
CONTINUOUS
 62
     2
 10
108.51648425
 20
137.247660802
 30
0.0
 11
110.399593305
 21
136.562265158
 31
0.0
  0
LINE
  8
0
  6
CONTINUOUS
 62
     2
 10
110.294756379
 20
136.513378896
 30
0.0
 11
110.182855049
 21
136.20593252
 31
0.0
  0
LINE
  8
0
  6
CONTINUOUS
 62
     2
 10
110.182855049
 20
136.20593252
 30
0.0
 11
108.453469182
 21
136.835377499
 31
0.0
  0
LINE
  8
0
  6
CONTINUOUS
 62
     2
 10
108.453469182
 20
136.835377499
 30
0.0
 11
108.565370512
 21
137.142823875
 31
0.0
  0
LINE
  8
0
  6
CONTINUOUS
 62
     2
 10
108.565370512
 20
137.142823875
 30
0.0
 11
110.294756379
 21
136.513378896
 31
0.0
  0
LINE
  8
0
  6
CONTINUOUS
 62
     2
 10
110.189919452
 20
136.464492634
 30
0.0
 11
110.133968788
 21
136.310769446
 31
0.0
  0
LINE
  8
0
  6
CONTINUOUS
 62
     2
 10
110.133968788
 20
136.310769446
 30
0.0
 11
108.558306109
 21
136.884263761
 31
0.0
  0
LINE
  8
0
  6
CONTINUOUS
 62
     2
 10
108.558306109
 20
136.884263761
 30
0.0
 11
108.614256773
 21
137.037986949
 31
0.0
  0
LINE
  8
0
  6
CONTINUOUS
 62
     2
 10
108.614256773
 20
137.037986949
 30
0.0
 11
110.189919452
 21
136.464492634
 31
0.0
  0
LINE
  8
0
  6
CONTINUOUS
 62
     2
 10
108.663143035
 20
136.933150022
 30
0.0
 11
110.085082526
 21
136.415606373
 31
0.0
  0
TEXT
  8
0
  6
CONTINUOUS
 62
     2
 10
236.0
 20
27.0
 30
0.3
 40
3.0
  1
電力計デマンドメータ　外形図
 50
0.0
 41
0.9
 51
0.0
  7
KANJI0
  0
TEXT
  8
0
  6
CONTINUOUS
 62
     2
 10
236.0
 20
37.0
 30
0.3
 40
3.0
  1
ＷＷⅠ（Ｄ）－１１Ｃ
 50
0.0
 41
0.9
 51
0.0
  7
KANJI0
  0
ENDSEC
  0
EOF
