  0
SECTION
  2
HEADER
  9
$ACADVER
  1
AC1009
  9
$DWGCODEPAGE
  3
dos932
  9
$EXTMIN
 10
0.0
 20
0.0
 30
0.0
  9
$EXTMAX
 10
297.0
 20
210.0
 30
0.0
  9
$LIMMIN
 10
0.0
 20
0.0
  9
$LIMMAX
 10
297.0
 20
210.0
  9
$LTSCALE
 40
1.0
  9
$PDMODE
 70
     0
  0
ENDSEC
  0
SECTION
  2
TABLES
  0
TABLE
  2
VPORT
 70
     1
  0
VPORT
  2
*ACTIVE
 70
     0
 10
0.0
 20
0.0
 11
1.0
 21
1.0
 12
148.5
 22
105.0
 13
0.0
 23
0.0
 14
10.0
 24
10.0
 15
10.0
 25
10.0
 16
0.0
 26
0.0
 36
1.0
 17
0.0
 27
0.0
 37
0.0
 40
297.0
 41
1.414285714
 42
50.0
 43
0.0
 44
0.0
 50
0.0
 51
0.0
 71
     0
 72
  1000
 73
     1
 74
     3
 75
     0
 76
     0
 77
     0
 78
     0
  0
ENDTAB
  0
TABLE
  2
LTYPE
 70
     3
  0
LTYPE
  2
CONTINUOUS
 70
    64
  3
Solid line
 72
    65
 73
     0
 40
0.0
  0
LTYPE
  2
LTYPE1
 70
    64
  3
HIDDEN
 72
    65
 73
     2
 40
0.5
 49
0.3
 49
-0.2
  0
LTYPE
  2
LTYPE2
 70
    64
  3
CENTER
 72
    65
 73
     4
 40
0.5
 49
0.35
 49
-0.05
 49
0.05
 49
-0.05
  0
ENDTAB
  0
TABLE
  2
LAYER
 70
   128
  0
LAYER
  2
0
 70
     0
 62
     7
  6
CONTINUOUS
  0
LAYER
  2
2
 70
     0
 62
     7
  6
CONTINUOUS
  0
LAYER
  2
3
 70
     0
 62
     7
  6
CONTINUOUS
  0
LAYER
  2
4
 70
     0
 62
     7
  6
CONTINUOUS
  0
LAYER
  2
5
 70
     0
 62
     7
  6
CONTINUOUS
  0
LAYER
  2
6
 70
     0
 62
     7
  6
CONTINUOUS
  0
LAYER
  2
7
 70
     0
 62
     7
  6
CONTINUOUS
  0
LAYER
  2
8
 70
     0
 62
     7
  6
CONTINUOUS
  0
LAYER
  2
9
 70
     0
 62
     7
  6
CONTINUOUS
  0
LAYER
  2
10
 70
     0
 62
     7
  6
CONTINUOUS
  0
LAYER
  2
11
 70
     0
 62
     7
  6
CONTINUOUS
  0
LAYER
  2
12
 70
     0
 62
     7
  6
CONTINUOUS
  0
LAYER
  2
13
 70
     0
 62
     7
  6
CONTINUOUS
  0
LAYER
  2
14
 70
     0
 62
     7
  6
CONTINUOUS
  0
LAYER
  2
15
 70
     0
 62
     7
  6
CONTINUOUS
  0
LAYER
  2
16
 70
     0
 62
     7
  6
CONTINUOUS
  0
LAYER
  2
17
 70
     0
 62
     7
  6
CONTINUOUS
  0
LAYER
  2
18
 70
     0
 62
     7
  6
CONTINUOUS
  0
LAYER
  2
19
 70
     0
 62
     7
  6
CONTINUOUS
  0
LAYER
  2
20
 70
     0
 62
     7
  6
CONTINUOUS
  0
LAYER
  2
21
 70
     0
 62
     7
  6
CONTINUOUS
  0
LAYER
  2
22
 70
     0
 62
     7
  6
CONTINUOUS
  0
LAYER
  2
23
 70
     0
 62
     7
  6
CONTINUOUS
  0
LAYER
  2
24
 70
     0
 62
     7
  6
CONTINUOUS
  0
LAYER
  2
25
 70
     0
 62
     7
  6
CONTINUOUS
  0
LAYER
  2
26
 70
     0
 62
     7
  6
CONTINUOUS
  0
LAYER
  2
27
 70
     0
 62
     7
  6
CONTINUOUS
  0
LAYER
  2
28
 70
     0
 62
     7
  6
CONTINUOUS
  0
LAYER
  2
29
 70
     0
 62
     7
  6
CONTINUOUS
  0
LAYER
  2
30
 70
     0
 62
     7
  6
CONTINUOUS
  0
LAYER
  2
31
 70
     0
 62
     7
  6
CONTINUOUS
  0
LAYER
  2
32
 70
     0
 62
     7
  6
CONTINUOUS
  0
LAYER
  2
33
 70
     0
 62
     7
  6
CONTINUOUS
  0
LAYER
  2
34
 70
     0
 62
     7
  6
CONTINUOUS
  0
LAYER
  2
35
 70
     0
 62
     7
  6
CONTINUOUS
  0
LAYER
  2
36
 70
     0
 62
     7
  6
CONTINUOUS
  0
LAYER
  2
37
 70
     0
 62
     7
  6
CONTINUOUS
  0
LAYER
  2
38
 70
     0
 62
     7
  6
CONTINUOUS
  0
LAYER
  2
39
 70
     0
 62
     7
  6
CONTINUOUS
  0
LAYER
  2
40
 70
     0
 62
     7
  6
CONTINUOUS
  0
LAYER
  2
41
 70
     0
 62
     7
  6
CONTINUOUS
  0
LAYER
  2
42
 70
     0
 62
     7
  6
CONTINUOUS
  0
LAYER
  2
43
 70
     0
 62
     7
  6
CONTINUOUS
  0
LAYER
  2
44
 70
     0
 62
     7
  6
CONTINUOUS
  0
LAYER
  2
45
 70
     0
 62
     7
  6
CONTINUOUS
  0
LAYER
  2
46
 70
     0
 62
     7
  6
CONTINUOUS
  0
LAYER
  2
47
 70
     0
 62
     7
  6
CONTINUOUS
  0
LAYER
  2
48
 70
     0
 62
     7
  6
CONTINUOUS
  0
LAYER
  2
49
 70
     0
 62
     7
  6
CONTINUOUS
  0
LAYER
  2
50
 70
     0
 62
     7
  6
CONTINUOUS
  0
LAYER
  2
51
 70
     0
 62
     7
  6
CONTINUOUS
  0
LAYER
  2
52
 70
     0
 62
     7
  6
CONTINUOUS
  0
LAYER
  2
53
 70
     0
 62
     7
  6
CONTINUOUS
  0
LAYER
  2
54
 70
     0
 62
     7
  6
CONTINUOUS
  0
LAYER
  2
55
 70
     0
 62
     7
  6
CONTINUOUS
  0
LAYER
  2
56
 70
     0
 62
     7
  6
CONTINUOUS
  0
LAYER
  2
57
 70
     0
 62
     7
  6
CONTINUOUS
  0
LAYER
  2
58
 70
     0
 62
     7
  6
CONTINUOUS
  0
LAYER
  2
59
 70
     0
 62
     7
  6
CONTINUOUS
  0
LAYER
  2
60
 70
     0
 62
     7
  6
CONTINUOUS
  0
LAYER
  2
61
 70
     0
 62
     7
  6
CONTINUOUS
  0
LAYER
  2
62
 70
     0
 62
     7
  6
CONTINUOUS
  0
LAYER
  2
63
 70
     0
 62
     7
  6
CONTINUOUS
  0
LAYER
  2
64
 70
     0
 62
     7
  6
CONTINUOUS
  0
LAYER
  2
65
 70
     0
 62
     7
  6
CONTINUOUS
  0
LAYER
  2
66
 70
     0
 62
     7
  6
CONTINUOUS
  0
LAYER
  2
67
 70
     0
 62
     7
  6
CONTINUOUS
  0
LAYER
  2
68
 70
     0
 62
     7
  6
CONTINUOUS
  0
LAYER
  2
69
 70
     0
 62
     7
  6
CONTINUOUS
  0
LAYER
  2
70
 70
     0
 62
     7
  6
CONTINUOUS
  0
LAYER
  2
71
 70
     0
 62
     7
  6
CONTINUOUS
  0
LAYER
  2
72
 70
     0
 62
     7
  6
CONTINUOUS
  0
LAYER
  2
73
 70
     0
 62
     7
  6
CONTINUOUS
  0
LAYER
  2
74
 70
     0
 62
     7
  6
CONTINUOUS
  0
LAYER
  2
75
 70
     0
 62
     7
  6
CONTINUOUS
  0
LAYER
  2
76
 70
     0
 62
     7
  6
CONTINUOUS
  0
LAYER
  2
77
 70
     0
 62
     7
  6
CONTINUOUS
  0
LAYER
  2
78
 70
     0
 62
     7
  6
CONTINUOUS
  0
LAYER
  2
79
 70
     0
 62
     7
  6
CONTINUOUS
  0
LAYER
  2
80
 70
     0
 62
     7
  6
CONTINUOUS
  0
LAYER
  2
81
 70
     0
 62
     7
  6
CONTINUOUS
  0
LAYER
  2
82
 70
     0
 62
     7
  6
CONTINUOUS
  0
LAYER
  2
83
 70
     0
 62
     7
  6
CONTINUOUS
  0
LAYER
  2
84
 70
     0
 62
     7
  6
CONTINUOUS
  0
LAYER
  2
85
 70
     0
 62
     7
  6
CONTINUOUS
  0
LAYER
  2
86
 70
     0
 62
     7
  6
CONTINUOUS
  0
LAYER
  2
87
 70
     0
 62
     7
  6
CONTINUOUS
  0
LAYER
  2
88
 70
     0
 62
     7
  6
CONTINUOUS
  0
LAYER
  2
89
 70
     0
 62
     7
  6
CONTINUOUS
  0
LAYER
  2
90
 70
     0
 62
     7
  6
CONTINUOUS
  0
LAYER
  2
91
 70
     0
 62
     7
  6
CONTINUOUS
  0
LAYER
  2
92
 70
     0
 62
     7
  6
CONTINUOUS
  0
LAYER
  2
93
 70
     0
 62
     7
  6
CONTINUOUS
  0
LAYER
  2
94
 70
     0
 62
     7
  6
CONTINUOUS
  0
LAYER
  2
95
 70
     0
 62
     7
  6
CONTINUOUS
  0
LAYER
  2
96
 70
     0
 62
     7
  6
CONTINUOUS
  0
LAYER
  2
97
 70
     0
 62
     7
  6
CONTINUOUS
  0
LAYER
  2
98
 70
     0
 62
     7
  6
CONTINUOUS
  0
LAYER
  2
99
 70
     0
 62
     7
  6
CONTINUOUS
  0
LAYER
  2
100
 70
     0
 62
     7
  6
CONTINUOUS
  0
LAYER
  2
101
 70
     0
 62
     7
  6
CONTINUOUS
  0
LAYER
  2
102
 70
     0
 62
     7
  6
CONTINUOUS
  0
LAYER
  2
103
 70
     0
 62
     7
  6
CONTINUOUS
  0
LAYER
  2
104
 70
     0
 62
     7
  6
CONTINUOUS
  0
LAYER
  2
105
 70
     0
 62
     7
  6
CONTINUOUS
  0
LAYER
  2
106
 70
     0
 62
     7
  6
CONTINUOUS
  0
LAYER
  2
107
 70
     0
 62
     7
  6
CONTINUOUS
  0
LAYER
  2
108
 70
     0
 62
     7
  6
CONTINUOUS
  0
LAYER
  2
109
 70
     0
 62
     7
  6
CONTINUOUS
  0
LAYER
  2
110
 70
     0
 62
     7
  6
CONTINUOUS
  0
LAYER
  2
111
 70
     0
 62
     7
  6
CONTINUOUS
  0
LAYER
  2
112
 70
     0
 62
     7
  6
CONTINUOUS
  0
LAYER
  2
113
 70
     0
 62
     7
  6
CONTINUOUS
  0
LAYER
  2
114
 70
     0
 62
     7
  6
CONTINUOUS
  0
LAYER
  2
115
 70
     0
 62
     7
  6
CONTINUOUS
  0
LAYER
  2
116
 70
     0
 62
     7
  6
CONTINUOUS
  0
LAYER
  2
117
 70
     0
 62
     7
  6
CONTINUOUS
  0
LAYER
  2
118
 70
     0
 62
     7
  6
CONTINUOUS
  0
LAYER
  2
119
 70
     0
 62
     7
  6
CONTINUOUS
  0
LAYER
  2
120
 70
     0
 62
     7
  6
CONTINUOUS
  0
LAYER
  2
121
 70
     0
 62
     7
  6
CONTINUOUS
  0
LAYER
  2
122
 70
     0
 62
     7
  6
CONTINUOUS
  0
LAYER
  2
123
 70
     0
 62
     7
  6
CONTINUOUS
  0
LAYER
  2
124
 70
     0
 62
     7
  6
CONTINUOUS
  0
LAYER
  2
125
 70
     0
 62
     7
  6
CONTINUOUS
  0
LAYER
  2
126
 70
     0
 62
     7
  6
CONTINUOUS
  0
LAYER
  2
127
 70
     0
 62
     7
  6
CONTINUOUS
  0
LAYER
  2
128
 70
     0
 62
     7
  6
CONTINUOUS
  0
ENDTAB
  0
TABLE
  2
STYLE
 70
    16
  0
STYLE
  2
STANDARD
 70
     0
 40
0.0
 41
1.0
 50
0.0
 71
     0
 42
0.2
  3
txt.shx
  4
extfont.shx
  0
STYLE
  2
KANJI0
 70
     0
 40
4.0
 41
0.9
 50
0.0
 71
     0
 42
4.0
  3
txt.shx
  4
extfont.shx
  0
STYLE
  2
KANJI1
 70
     0
 40
1.8
 41
0.8
 50
0.0
 71
     0
 42
1.8
  3
txt.shx
  4
extfont.shx
  0
STYLE
  2
KANJI2
 70
     0
 40
3.0
 41
0.8
 50
0.0
 71
     0
 42
3.0
  3
txt.shx
  4
extfont.shx
  0
STYLE
  2
KANJI3
 70
     0
 40
2.7
 41
0.8
 50
0.0
 71
     0
 42
2.7
  3
txt.shx
  4
extfont.shx
  0
STYLE
  2
KANJI4
 70
     0
 40
1.35
 41
0.533333333
 50
0.0
 71
     0
 42
1.35
  3
txt.shx
  4
extfont.shx
  0
STYLE
  2
KANJI5
 70
     0
 40
2.7
 41
1.0
 50
0.0
 71
     0
 42
2.7
  3
txt.shx
  4
extfont.shx
  0
STYLE
  2
KANJI6
 70
     0
 40
1.0
 41
0.8
 50
0.0
 71
     0
 42
1.0
  3
txt.shx
  4
extfont.shx
  0
STYLE
  2
KANJI7
 70
     0
 40
2.76
 41
1.0
 50
0.0
 71
     0
 42
2.76
  3
txt.shx
  4
extfont.shx
  0
STYLE
  2
KANJI8
 70
     0
 40
2.4
 41
0.8
 50
0.0
 71
     0
 42
2.4
  3
txt.shx
  4
extfont.shx
  0
STYLE
  2
KANJI9
 70
     0
 40
3.0
 41
0.9
 50
0.0
 71
     0
 42
3.0
  3
txt.shx
  4
extfont.shx
  0
STYLE
  2
KANJI10
 70
     0
 40
5.4
 41
0.9
 50
0.0
 71
     0
 42
5.4
  3
txt.shx
  4
extfont.shx
  0
STYLE
  2
KANJI11
 70
     0
 40
3.0
 41
0.9
 50
0.0
 71
     0
 42
3.0
  3
txt.shx
  4
extfont.shx
  0
STYLE
  2
KANJI12
 70
     0
 40
3.8
 41
0.842105263
 50
0.0
 71
     0
 42
3.8
  3
txt.shx
  4
extfont.shx
  0
STYLE
  2
KANJI13
 70
     0
 40
4.0
 41
0.9
 50
0.0
 71
     0
 42
4.0
  3
txt.shx
  4
extfont.shx
  0
STYLE
  2
KANJI14
 70
     0
 40
3.9
 41
0.9
 50
0.0
 71
     0
 42
3.9
  3
txt.shx
  4
extfont.shx
  0
ENDTAB
  0
TABLE
  2
VIEW
 70
     0
  0
ENDTAB
  0
ENDSEC
  0
SECTION
  2
BLOCKS
  0
ENDSEC
  0
SECTION
  2
ENTITIES
  0
LINE
  8
0
  6
CONTINUOUS
 62
     1
 10
153.125
 20
32.125
 30
0.0
 11
198.875
 21
32.125
 31
0.0
  0
LINE
  8
0
  6
CONTINUOUS
 62
     1
 10
198.875
 20
32.125
 30
0.0
 11
198.875
 21
77.875
 31
0.0
  0
LINE
  8
0
  6
CONTINUOUS
 62
     1
 10
198.875
 20
77.875
 30
0.0
 11
153.125
 21
77.875
 31
0.0
  0
LINE
  8
0
  6
CONTINUOUS
 62
     1
 10
153.125
 20
77.875
 30
0.0
 11
153.125
 21
32.125
 31
0.0
  0
TEXT
  8
0
  6
CONTINUOUS
 62
     1
 10
165.275
 20
21.375
 30
0.4
 40
4.0
  1
パネルカット
 50
0.0
 41
0.9
 51
0.0
  7
KANJI0
  0
LINE
  8
0
  6
CONTINUOUS
 62
     1
 10
164.375
 20
20.275
 30
0.0
 11
188.375
 21
20.275
 31
0.0
  0
CIRCLE
  8
0
  6
CONTINUOUS
 62
     1
 10
66.5
 20
110.5
 30
0.0
 40
2.0
  0
LINE
  8
0
  6
CONTINUOUS
 62
     1
 10
64.540408206
 20
110.1
 30
0.0
 11
68.359591794
 21
110.1
 31
0.0
  0
LINE
  8
0
  6
CONTINUOUS
 62
     1
 10
68.425
 20
110.9
 30
0.0
 11
64.540408206
 21
110.9
 31
0.0
  0
LINE
  8
0
  6
CONTINUOUS
 62
     1
 10
34.101157432
 20
113.85
 30
0.0
 11
35.951157432
 21
113.85
 31
0.0
  0
LINE
  8
0
  6
CONTINUOUS
 62
     1
 10
35.951157432
 20
113.85
 30
0.0
 11
35.951157432
 21
114.15
 31
0.0
  0
LINE
  8
0
  6
CONTINUOUS
 62
     1
 10
35.951157432
 20
114.15
 30
0.0
 11
34.101157432
 21
114.15
 31
0.0
  0
LINE
  8
0
  6
CONTINUOUS
 62
     1
 10
34.101157432
 20
114.15
 30
0.0
 11
34.101157432
 21
113.85
 31
0.0
  0
LINE
  8
0
  6
CONTINUOUS
 62
     1
 10
34.201157432
 20
114.0
 30
0.0
 11
35.851157432
 21
114.0
 31
0.0
  0
LINE
  8
0
  6
CONTINUOUS
 62
     1
 10
62.85
 20
142.898842568
 30
0.0
 11
62.85
 21
141.048842568
 31
0.0
  0
LINE
  8
0
  6
CONTINUOUS
 62
     1
 10
62.85
 20
141.048842568
 30
0.0
 11
63.15
 21
141.048842568
 31
0.0
  0
LINE
  8
0
  6
CONTINUOUS
 62
     1
 10
63.15
 20
141.048842568
 30
0.0
 11
63.15
 21
142.898842568
 31
0.0
  0
LINE
  8
0
  6
CONTINUOUS
 62
     1
 10
63.15
 20
142.898842568
 30
0.0
 11
62.85
 21
142.898842568
 31
0.0
  0
LINE
  8
0
  6
CONTINUOUS
 62
     1
 10
63.0
 20
142.798842568
 30
0.0
 11
63.0
 21
141.148842568
 31
0.0
  0
LINE
  8
0
  6
CONTINUOUS
 62
     1
 10
42.458604452
 20
134.329263514
 30
0.0
 11
43.766751997
 21
133.021115968
 31
0.0
  0
LINE
  8
0
  6
CONTINUOUS
 62
     1
 10
43.766751997
 20
133.021115968
 30
0.0
 11
43.978884032
 21
133.233248003
 31
0.0
  0
LINE
  8
0
  6
CONTINUOUS
 62
     1
 10
43.978884032
 20
133.233248003
 30
0.0
 11
42.670736486
 21
134.541395548
 31
0.0
  0
LINE
  8
0
  6
CONTINUOUS
 62
     1
 10
42.670736486
 20
134.541395548
 30
0.0
 11
42.458604452
 21
134.329263514
 31
0.0
  0
LINE
  8
0
  6
CONTINUOUS
 62
     1
 10
42.635381147
 20
134.364618853
 30
0.0
 11
43.802107336
 21
133.197892664
 31
0.0
  0
LINE
  8
0
  6
CONTINUOUS
 62
     1
 10
99.0
 20
115.0
 30
0.0
 11
99.0
 21
114.25
 31
0.0
  0
LINE
  8
0
  6
CONTINUOUS
 62
     1
 10
99.5
 20
114.25
 30
0.0
 11
99.5
 21
115.0
 31
0.0
  0
LINE
  8
0
  6
CONTINUOUS
 62
     1
 10
96.0
 20
115.0
 30
0.0
 11
99.5
 21
115.0
 31
0.0
  0
LINE
  8
0
  6
CONTINUOUS
 62
     1
 10
99.5
 20
114.25
 30
0.0
 11
96.0
 21
114.25
 31
0.0
  0
LINE
  8
0
  6
CONTINUOUS
 62
     1
 10
96.0
 20
103.0
 30
0.0
 11
96.0
 21
151.0
 31
0.0
  0
ARC
  8
0
  6
CONTINUOUS
 62
     1
 10
152.3
 20
150.7
 30
0.0
 40
0.3
 50
90.0
 51
180.0
  0
ARC
  8
0
  6
CONTINUOUS
 62
     1
 10
198.2
 20
149.2
 30
0.0
 40
0.3
 50
0.0
 51
90.0
  0
LINE
  8
0
  6
CONTINUOUS
 62
     1
 10
152.3
 20
151.0
 30
0.0
 11
199.7
 21
151.0
 31
0.0
  0
ARC
  8
0
  6
CONTINUOUS
 62
     1
 10
199.7
 20
150.7
 30
0.0
 40
0.3
 50
0.0
 51
90.0
  0
ARC
  8
0
  6
CONTINUOUS
 62
     1
 10
199.7
 20
103.3
 30
0.0
 40
0.3
 50
270.0
 51
0.0
  0
LINE
  8
0
  6
CONTINUOUS
 62
     1
 10
198.5
 20
104.8
 30
0.0
 11
198.5
 21
149.2
 31
0.0
  0
LINE
  8
0
  6
CONTINUOUS
 62
     1
 10
152.3
 20
103.0
 30
0.0
 11
199.7
 21
103.0
 31
0.0
  0
ARC
  8
0
  6
CONTINUOUS
 62
     1
 10
152.3
 20
103.3
 30
0.0
 40
0.3
 50
180.0
 51
270.0
  0
LINE
  8
0
  6
CONTINUOUS
 62
     1
 10
153.5
 20
139.95
 30
0.0
 11
153.5
 21
104.8
 31
0.0
  0
ARC
  8
0
  6
CONTINUOUS
 62
     1
 10
153.8
 20
104.8
 30
0.0
 40
0.3
 50
180.0
 51
270.0
  0
LINE
  8
0
  6
CONTINUOUS
 62
     1
 10
29.0
 20
106.0
 30
0.0
 11
71.0
 21
106.0
 31
0.0
  0
LINE
  8
0
  6
CONTINUOUS
 62
     1
 10
71.0
 20
106.0
 30
0.0
 11
71.0
 21
148.0
 31
0.0
  0
LINE
  8
0
  6
CONTINUOUS
 62
     1
 10
29.0
 20
148.0
 30
0.0
 11
71.0
 21
148.0
 31
0.0
  0
LINE
  8
0
  6
CONTINUOUS
 62
     1
 10
29.0
 20
148.0
 30
0.0
 11
29.0
 21
106.0
 31
0.0
  0
ARC
  8
0
  6
CONTINUOUS
 62
     1
 10
26.3
 20
150.7
 30
0.0
 40
0.3
 50
90.0
 51
180.0
  0
LINE
  8
0
  6
CONTINUOUS
 62
     1
 10
26.0
 20
150.7
 30
0.0
 11
26.0
 21
103.3
 31
0.0
  0
ARC
  8
0
  6
CONTINUOUS
 62
     1
 10
26.3
 20
103.3
 30
0.0
 40
0.3
 50
180.0
 51
270.0
  0
LINE
  8
0
  6
CONTINUOUS
 62
     1
 10
26.3
 20
103.0
 30
0.0
 11
73.7
 21
103.0
 31
0.0
  0
ARC
  8
0
  6
CONTINUOUS
 62
     1
 10
73.7
 20
103.3
 30
0.0
 40
0.3
 50
270.0
 51
0.0
  0
LINE
  8
0
  6
CONTINUOUS
 62
     1
 10
73.7
 20
151.0
 30
0.0
 11
26.3
 21
151.0
 31
0.0
  0
LINE
  8
0
  6
CONTINUOUS
 62
     1
 10
74.0
 20
103.3
 30
0.0
 11
74.0
 21
150.7
 31
0.0
  0
ARC
  8
0
  6
CONTINUOUS
 62
     1
 10
73.7
 20
150.7
 30
0.0
 40
0.3
 50
0.0
 51
90.0
  0
LINE
  8
0
  6
CONTINUOUS
 62
     1
 10
153.0
 20
115.0
 30
0.0
 11
153.5
 21
115.0
 31
0.0
  0
LINE
  8
0
  6
CONTINUOUS
 62
     1
 10
153.0
 20
115.0
 30
0.0
 11
153.0
 21
114.25
 31
0.0
  0
LINE
  8
0
  6
CONTINUOUS
 62
     1
 10
153.0
 20
114.25
 30
0.0
 11
153.5
 21
114.25
 31
0.0
  0
LINE
  8
0
  6
CONTINUOUS
 62
     1
 10
163.125
 20
104.0
 30
0.0
 11
163.125
 21
104.5
 31
0.0
  0
LINE
  8
0
  6
CONTINUOUS
 62
     1
 10
163.125
 20
104.0
 30
0.0
 11
163.875
 21
104.0
 31
0.0
  0
LINE
  8
0
  6
CONTINUOUS
 62
     1
 10
163.875
 20
104.0
 30
0.0
 11
163.875
 21
104.5
 31
0.0
  0
LINE
  8
0
  6
CONTINUOUS
 62
     1
 10
188.125
 20
104.0
 30
0.0
 11
188.125
 21
104.5
 31
0.0
  0
LINE
  8
0
  6
CONTINUOUS
 62
     1
 10
188.125
 20
104.0
 30
0.0
 11
188.875
 21
104.0
 31
0.0
  0
LINE
  8
0
  6
CONTINUOUS
 62
     1
 10
188.875
 20
104.0
 30
0.0
 11
188.875
 21
104.5
 31
0.0
  0
LINE
  8
0
  6
CONTINUOUS
 62
     1
 10
199.0
 20
114.25
 30
0.0
 11
198.5
 21
114.25
 31
0.0
  0
LINE
  8
0
  6
CONTINUOUS
 62
     1
 10
199.0
 20
114.25
 30
0.0
 11
199.0
 21
115.0
 31
0.0
  0
LINE
  8
0
  6
CONTINUOUS
 62
     1
 10
199.0
 20
115.0
 30
0.0
 11
198.5
 21
115.0
 31
0.0
  0
LINE
  8
0
  6
CONTINUOUS
 62
     1
 10
188.875
 20
150.0
 30
0.0
 11
188.875
 21
149.5
 31
0.0
  0
LINE
  8
0
  6
CONTINUOUS
 62
     1
 10
188.875
 20
150.0
 30
0.0
 11
188.125
 21
150.0
 31
0.0
  0
LINE
  8
0
  6
CONTINUOUS
 62
     1
 10
188.125
 20
150.0
 30
0.0
 11
188.125
 21
149.5
 31
0.0
  0
LINE
  8
0
  6
CONTINUOUS
 62
     1
 10
163.875
 20
150.0
 30
0.0
 11
163.875
 21
149.5
 31
0.0
  0
LINE
  8
0
  6
CONTINUOUS
 62
     1
 10
163.875
 20
150.0
 30
0.0
 11
163.125
 21
150.0
 31
0.0
  0
LINE
  8
0
  6
CONTINUOUS
 62
     1
 10
163.125
 20
150.0
 30
0.0
 11
163.125
 21
149.5
 31
0.0
  0
ARC
  8
0
  6
CONTINUOUS
 62
     1
 10
124.3
 20
149.3
 30
0.0
 40
0.2
 50
0.0
 51
90.0
  0
ARC
  8
0
  6
CONTINUOUS
 62
     1
 10
105.95
 20
149.3
 30
0.0
 40
0.2
 50
90.0
 51
180.0
  0
LINE
  8
0
  6
CONTINUOUS
 62
     1
 10
112.55
 20
149.5
 30
0.0
 11
105.95
 21
149.5
 31
0.0
  0
ARC
  8
0
  6
CONTINUOUS
 62
     1
 10
112.55
 20
149.3
 30
0.0
 40
0.2
 50
0.0
 51
90.0
  0
LINE
  8
0
  6
CONTINUOUS
 62
     1
 10
112.75
 20
146.0
 30
0.0
 11
112.75
 21
149.3
 31
0.0
  0
LINE
  8
0
  6
CONTINUOUS
 62
     1
 10
101.25
 20
149.5
 30
0.0
 11
105.75
 21
149.5
 31
0.0
  0
LINE
  8
0
  6
CONTINUOUS
 62
     1
 10
96.0
 20
149.5
 30
0.0
 11
101.05
 21
149.5
 31
0.0
  0
ARC
  8
0
  6
CONTINUOUS
 62
     1
 10
101.05
 20
149.3
 30
0.0
 40
0.2
 50
0.0
 51
90.0
  0
LINE
  8
0
  6
CONTINUOUS
 62
     1
 10
124.3
 20
149.5
 30
0.0
 11
112.75
 21
149.5
 31
0.0
  0
LINE
  8
0
  6
CONTINUOUS
 62
     1
 10
105.75
 20
149.3
 30
0.0
 11
105.75
 21
146.0
 31
0.0
  0
LINE
  8
0
  6
CONTINUOUS
 62
     1
 10
105.75
 20
146.0
 30
0.0
 11
105.75
 21
149.0
 31
0.0
  0
LINE
  8
0
  6
CONTINUOUS
 62
     1
 10
96.0
 20
150.0
 30
0.0
 11
99.0
 21
150.0
 31
0.0
  0
LINE
  8
0
  6
CONTINUOUS
 62
     1
 10
99.0
 20
150.0
 30
0.0
 11
99.5
 21
149.5
 31
0.0
  0
POINT
  8
0
  6
CONTINUOUS
 62
     1
 10
125.2
 20
147.2
 30
0.0
  0
LINE
  8
0
  6
CONTINUOUS
 62
     1
 10
125.2
 20
147.2
 30
0.0
 11
124.9
 21
147.2
 31
0.0
  0
LINE
  8
0
  6
CONTINUOUS
 62
     1
 10
124.9
 20
147.2
 30
0.0
 11
124.9
 21
146.8
 31
0.0
  0
LINE
  8
0
  6
CONTINUOUS
 62
     1
 10
124.9
 20
146.8
 30
0.0
 11
125.2
 21
146.8
 31
0.0
  0
ARC
  8
0
  6
CONTINUOUS
 62
     1
 10
124.5
 20
148.05
 30
0.0
 40
0.7
 50
0.0
 51
89.999805166
  0
LINE
  8
0
  6
CONTINUOUS
 62
     1
 10
125.2
 20
147.2
 30
0.0
 11
125.2
 21
148.0
 31
0.0
  0
LINE
  8
0
  6
CONTINUOUS
 62
     1
 10
123.8
 20
148.75
 30
0.0
 11
124.5
 21
148.75
 31
0.0
  0
LINE
  8
0
  6
CONTINUOUS
 62
     1
 10
123.8
 20
148.75
 30
0.0
 11
123.8
 21
145.25
 31
0.0
  0
LINE
  8
0
  6
CONTINUOUS
 62
     1
 10
123.8
 20
145.25
 30
0.0
 11
124.5
 21
145.25
 31
0.0
  0
ARC
  8
0
  6
CONTINUOUS
 62
     1
 10
124.5
 20
145.95
 30
0.0
 40
0.7
 50
269.999882946
 51
0.0
  0
LINE
  8
0
  6
CONTINUOUS
 62
     1
 10
125.2
 20
146.0
 30
0.0
 11
125.2
 21
146.8
 31
0.0
  0
LINE
  8
0
  6
CONTINUOUS
 62
     1
 10
110.0
 20
140.0
 30
0.0
 11
112.75
 21
140.0
 31
0.0
  0
LINE
  8
0
  6
CONTINUOUS
 62
     1
 10
112.75
 20
140.0
 30
0.0
 11
112.75
 21
146.3
 31
0.0
  0
LINE
  8
0
  6
CONTINUOUS
 62
     1
 10
116.75
 20
145.85
 30
0.0
 11
116.75
 21
140.0
 31
0.0
  0
LINE
  8
0
  6
CONTINUOUS
 62
     1
 10
105.75
 20
146.3
 30
0.0
 11
105.75
 21
140.0
 31
0.0
  0
LINE
  8
0
  6
CONTINUOUS
 62
     1
 10
116.75
 20
140.1
 30
0.0
 11
124.5
 21
140.1
 31
0.0
  0
LINE
  8
0
  6
CONTINUOUS
 62
     1
 10
108.5
 20
145.0
 30
0.0
 11
110.0
 21
145.0
 31
0.0
  0
LINE
  8
0
  6
CONTINUOUS
 62
     1
 10
108.5
 20
145.0
 30
0.0
 11
108.5
 21
140.0
 31
0.0
  0
LINE
  8
0
  6
CONTINUOUS
 62
     1
 10
110.0
 20
145.0
 30
0.0
 11
110.0
 21
140.0
 31
0.0
  0
LINE
  8
0
  6
CONTINUOUS
 62
     1
 10
101.75
 20
148.5
 30
0.0
 11
105.75
 21
148.5
 31
0.0
  0
LINE
  8
0
  6
CONTINUOUS
 62
     1
 10
101.75
 20
148.5
 30
0.0
 11
101.75
 21
145.5
 31
0.0
  0
LINE
  8
0
  6
CONTINUOUS
 62
     1
 10
101.75
 20
145.5
 30
0.0
 11
105.682287566
 21
145.5
 31
0.0
  0
LINE
  8
0
  6
CONTINUOUS
 62
     1
 10
101.25
 20
145.5
 30
0.0
 11
105.55
 21
145.5
 31
0.0
  0
LINE
  8
0
  6
CONTINUOUS
 62
     1
 10
101.25
 20
145.5
 30
0.0
 11
101.25
 21
149.3
 31
0.0
  0
LINE
  8
0
  6
CONTINUOUS
 62
     1
 10
124.500002697
 20
148.75
 30
0.0
 11
124.5
 21
149.3
 31
0.0
  0
CIRCLE
  8
0
  6
CONTINUOUS
 62
     1
 10
156.0
 20
142.5
 30
0.0
 40
1.0
  0
LINE
  8
0
  6
CONTINUOUS
 62
     1
 10
153.5
 20
144.3
 30
0.0
 11
153.5
 21
144.250001907
 31
0.0
  0
ARC
  8
0
  6
CONTINUOUS
 62
     1
 10
157.95
 20
146.05
 30
0.0
 40
0.3
 50
270.0
 51
0.0
  0
CIRCLE
  8
0
  6
CONTINUOUS
 62
     1
 10
156.0
 20
147.0
 30
0.0
 40
1.75
  0
LINE
  8
0
  6
CONTINUOUS
 62
     1
 10
157.0
 20
147.25
 30
0.0
 11
157.0
 21
146.75
 31
0.0
  0
LINE
  8
0
  6
CONTINUOUS
 62
     1
 10
155.0
 20
146.75
 30
0.0
 11
155.0
 21
147.25
 31
0.0
  0
LINE
  8
0
  6
CONTINUOUS
 62
     1
 10
156.55
 20
147.25
 30
0.0
 11
157.0
 21
147.25
 31
0.0
  0
ARC
  8
0
  6
CONTINUOUS
 62
     1
 10
156.55
 20
147.55
 30
0.0
 40
0.3
 50
180.0
 51
270.0
  0
LINE
  8
0
  6
CONTINUOUS
 62
     1
 10
157.0
 20
146.75
 30
0.0
 11
156.55
 21
146.75
 31
0.0
  0
ARC
  8
0
  6
CONTINUOUS
 62
     1
 10
156.55
 20
146.45
 30
0.0
 40
0.3
 50
90.0
 51
180.0
  0
LINE
  8
0
  6
CONTINUOUS
 62
     1
 10
155.45
 20
146.75
 30
0.0
 11
155.0
 21
146.75
 31
0.0
  0
ARC
  8
0
  6
CONTINUOUS
 62
     1
 10
155.45
 20
146.45
 30
0.0
 40
0.3
 50
0.0
 51
90.0
  0
LINE
  8
0
  6
CONTINUOUS
 62
     1
 10
155.0
 20
147.25
 30
0.0
 11
155.45
 21
147.25
 31
0.0
  0
ARC
  8
0
  6
CONTINUOUS
 62
     1
 10
155.45
 20
147.55
 30
0.0
 40
0.3
 50
270.0
 51
0.0
  0
LINE
  8
0
  6
CONTINUOUS
 62
     1
 10
155.75
 20
145.367949192
 30
0.0
 11
155.75
 21
146.45
 31
0.0
  0
LINE
  8
0
  6
CONTINUOUS
 62
     1
 10
156.25
 20
146.45
 30
0.0
 11
156.25
 21
145.367949192
 31
0.0
  0
LINE
  8
0
  6
CONTINUOUS
 62
     1
 10
156.25
 20
148.632050808
 30
0.0
 11
156.25
 21
147.55
 31
0.0
  0
LINE
  8
0
  6
CONTINUOUS
 62
     1
 10
155.75
 20
147.55
 30
0.0
 11
155.75
 21
148.632050808
 31
0.0
  0
LINE
  8
0
  6
CONTINUOUS
 62
     1
 10
157.80133284
 20
145.96
 30
0.0
 11
157.80133284
 21
148.04
 31
0.0
  0
LINE
  8
0
  6
CONTINUOUS
 62
     1
 10
157.80133284
 20
148.04
 30
0.0
 11
156.0
 21
149.08
 31
0.0
  0
LINE
  8
0
  6
CONTINUOUS
 62
     1
 10
156.0
 20
144.92
 30
0.0
 11
157.80133284
 21
145.96
 31
0.0
  0
LINE
  8
0
  6
CONTINUOUS
 62
     1
 10
156.0
 20
149.08
 30
0.0
 11
154.19866716
 21
148.04
 31
0.0
  0
LINE
  8
0
  6
CONTINUOUS
 62
     1
 10
154.19866716
 20
148.04
 30
0.0
 11
154.19866716
 21
145.96
 31
0.0
  0
LINE
  8
0
  6
CONTINUOUS
 62
     1
 10
154.19866716
 20
145.96
 30
0.0
 11
156.0
 21
144.92
 31
0.0
  0
LINE
  8
0
  6
CONTINUOUS
 62
     1
 10
153.5
 20
144.25
 30
0.0
 11
153.5
 21
139.45
 31
0.0
  0
ARC
  8
0
  6
CONTINUOUS
 62
     1
 10
153.8
 20
149.2
 30
0.0
 40
0.3
 50
90.0
 51
180.0
  0
LINE
  8
0
  6
CONTINUOUS
 62
     1
 10
156.0
 20
140.1
 30
0.0
 11
153.8
 21
140.1
 31
0.0
  0
ARC
  8
0
  6
CONTINUOUS
 62
     1
 10
153.8
 20
139.8
 30
0.0
 40
0.3
 50
90.0
 51
180.0
  0
ARC
  8
0
  6
CONTINUOUS
 62
     1
 10
156.0000027
 20
142.35
 30
0.0
 40
2.25
 50
0.0
 51
0.00004857
  0
ARC
  8
0
  6
CONTINUOUS
 62
     1
 10
156.0000027
 20
142.35
 30
0.0
 40
2.25
 50
269.999931246
 51
0.0
  0
LINE
  8
0
  6
CONTINUOUS
 62
     1
 10
158.25
 20
142.2
 30
0.0
 11
158.25
 21
146.05
 31
0.0
  0
LINE
  8
0
  6
CONTINUOUS
 62
     1
 10
157.95
 20
145.75
 30
0.0
 11
157.5
 21
145.75
 31
0.0
  0
ARC
  8
0
  6
CONTINUOUS
 62
     1
 10
155.0
 20
144.25
 30
0.0
 40
1.5
 50
106.504361382
 51
180.0
  0
LINE
  8
0
  6
CONTINUOUS
 62
     1
 10
96.0
 20
104.5
 30
0.0
 11
124.3
 21
104.5
 31
0.0
  0
ARC
  8
0
  6
CONTINUOUS
 62
     1
 10
124.3
 20
104.7
 30
0.0
 40
0.2
 50
270.0
 51
0.0
  0
LINE
  8
0
  6
CONTINUOUS
 62
     1
 10
124.5
 20
104.700001349
 30
0.0
 11
124.5
 21
145.25
 31
0.0
  0
LINE
  8
0
  6
CONTINUOUS
 62
     1
 10
198.5
 20
109.7
 30
0.0
 11
198.5
 21
109.749998093
 31
0.0
  0
LINE
  8
0
  6
CONTINUOUS
 62
     1
 10
198.5
 20
109.75
 30
0.0
 11
198.5
 21
114.55
 31
0.0
  0
ARC
  8
0
  6
CONTINUOUS
 62
     1
 10
198.2
 20
104.8
 30
0.0
 40
0.3
 50
270.0
 51
0.0
  0
ARC
  8
0
  6
CONTINUOUS
 62
     1
 10
198.2
 20
104.8
 30
0.0
 40
0.3
 50
270.0
 51
0.0
  0
LINE
  8
0
  6
CONTINUOUS
 62
     1
 10
93.3
 20
103.0
 30
0.0
 11
96.0
 21
103.0
 31
0.0
  0
ARC
  8
0
  6
CONTINUOUS
 62
     1
 10
93.3
 20
103.3
 30
0.0
 40
0.3
 50
180.0
 51
270.0
  0
LINE
  8
0
  6
CONTINUOUS
 62
     1
 10
96.0
 20
151.0
 30
0.0
 11
93.3
 21
151.0
 31
0.0
  0
LINE
  8
0
  6
CONTINUOUS
 62
     1
 10
93.0
 20
150.7
 30
0.0
 11
93.0
 21
103.3
 31
0.0
  0
ARC
  8
0
  6
CONTINUOUS
 62
     1
 10
93.3
 20
150.7
 30
0.0
 40
0.3
 50
90.0
 51
180.0
  0
LINE
  8
0
  6
CONTINUOUS
 62
     1
 10
152.0
 20
140.0
 30
0.0
 11
152.0
 21
103.3
 31
0.0
  0
LINE
  8
0
  6
CONTINUOUS
 62
     1
 10
152.0
 20
150.7
 30
0.0
 11
152.0
 21
145.0
 31
0.0
  0
LINE
  8
0
  6
CONTINUOUS
 62
     1
 10
200.0
 20
114.0
 30
0.0
 11
200.0
 21
150.7
 31
0.0
  0
LINE
  8
0
  6
CONTINUOUS
 62
     1
 10
200.0
 20
103.3
 30
0.0
 11
200.0
 21
109.0
 31
0.0
  0
CIRCLE
  8
0
  6
CONTINUOUS
 62
     1
 10
196.0
 20
111.5
 30
0.0
 40
1.0
  0
LINE
  8
0
  6
CONTINUOUS
 62
     1
 10
198.5
 20
109.7
 30
0.0
 11
198.5
 21
109.749998093
 31
0.0
  0
ARC
  8
0
  6
CONTINUOUS
 62
     1
 10
194.05
 20
107.95
 30
0.0
 40
0.3
 50
90.0
 51
180.0
  0
CIRCLE
  8
0
  6
CONTINUOUS
 62
     1
 10
196.0
 20
107.0
 30
0.0
 40
1.75
  0
LINE
  8
0
  6
CONTINUOUS
 62
     1
 10
195.0
 20
106.75
 30
0.0
 11
195.0
 21
107.25
 31
0.0
  0
LINE
  8
0
  6
CONTINUOUS
 62
     1
 10
197.0
 20
107.25
 30
0.0
 11
197.0
 21
106.75
 31
0.0
  0
LINE
  8
0
  6
CONTINUOUS
 62
     1
 10
195.45
 20
106.75
 30
0.0
 11
195.0
 21
106.75
 31
0.0
  0
ARC
  8
0
  6
CONTINUOUS
 62
     1
 10
195.45
 20
106.45
 30
0.0
 40
0.3
 50
0.0
 51
90.0
  0
LINE
  8
0
  6
CONTINUOUS
 62
     1
 10
195.0
 20
107.25
 30
0.0
 11
195.45
 21
107.25
 31
0.0
  0
ARC
  8
0
  6
CONTINUOUS
 62
     1
 10
195.45
 20
107.55
 30
0.0
 40
0.3
 50
270.0
 51
0.0
  0
LINE
  8
0
  6
CONTINUOUS
 62
     1
 10
196.55
 20
107.25
 30
0.0
 11
197.0
 21
107.25
 31
0.0
  0
ARC
  8
0
  6
CONTINUOUS
 62
     1
 10
196.55
 20
107.55
 30
0.0
 40
0.3
 50
180.0
 51
270.0
  0
LINE
  8
0
  6
CONTINUOUS
 62
     1
 10
197.0
 20
106.75
 30
0.0
 11
196.55
 21
106.75
 31
0.0
  0
ARC
  8
0
  6
CONTINUOUS
 62
     1
 10
196.55
 20
106.45
 30
0.0
 40
0.3
 50
90.0
 51
180.0
  0
LINE
  8
0
  6
CONTINUOUS
 62
     1
 10
196.25
 20
108.632050808
 30
0.0
 11
196.25
 21
107.55
 31
0.0
  0
LINE
  8
0
  6
CONTINUOUS
 62
     1
 10
195.75
 20
107.55
 30
0.0
 11
195.75
 21
108.632050808
 31
0.0
  0
LINE
  8
0
  6
CONTINUOUS
 62
     1
 10
195.75
 20
105.367949192
 30
0.0
 11
195.75
 21
106.45
 31
0.0
  0
LINE
  8
0
  6
CONTINUOUS
 62
     1
 10
196.25
 20
106.45
 30
0.0
 11
196.25
 21
105.367949192
 31
0.0
  0
LINE
  8
0
  6
CONTINUOUS
 62
     1
 10
194.19866716
 20
108.04
 30
0.0
 11
194.19866716
 21
105.96
 31
0.0
  0
LINE
  8
0
  6
CONTINUOUS
 62
     1
 10
194.19866716
 20
105.96
 30
0.0
 11
196.0
 21
104.92
 31
0.0
  0
LINE
  8
0
  6
CONTINUOUS
 62
     1
 10
196.0
 20
109.08
 30
0.0
 11
194.19866716
 21
108.04
 31
0.0
  0
LINE
  8
0
  6
CONTINUOUS
 62
     1
 10
196.0
 20
104.92
 30
0.0
 11
197.80133284
 21
105.96
 31
0.0
  0
LINE
  8
0
  6
CONTINUOUS
 62
     1
 10
197.80133284
 20
105.96
 30
0.0
 11
197.80133284
 21
108.04
 31
0.0
  0
LINE
  8
0
  6
CONTINUOUS
 62
     1
 10
197.80133284
 20
108.04
 30
0.0
 11
196.0
 21
109.08
 31
0.0
  0
LINE
  8
0
  6
CONTINUOUS
 62
     1
 10
198.5
 20
109.75
 30
0.0
 11
198.5
 21
114.55
 31
0.0
  0
LINE
  8
0
  6
CONTINUOUS
 62
     1
 10
198.5
 20
104.8
 30
0.0
 11
198.5
 21
109.0
 31
0.0
  0
LINE
  8
0
  6
CONTINUOUS
 62
     1
 10
196.0
 20
113.9
 30
0.0
 11
198.2
 21
113.9
 31
0.0
  0
ARC
  8
0
  6
CONTINUOUS
 62
     1
 10
198.2
 20
114.2
 30
0.0
 40
0.3
 50
270.0
 51
0.0
  0
ARC
  8
0
  6
CONTINUOUS
 62
     1
 10
195.9999973
 20
111.65
 30
0.0
 40
2.25
 50
180.0
 51
180.00004857
  0
ARC
  8
0
  6
CONTINUOUS
 62
     1
 10
195.9999973
 20
111.65
 30
0.0
 40
2.25
 50
89.999931246
 51
180.0
  0
ARC
  8
0
  6
CONTINUOUS
 62
     1
 10
197.0
 20
109.75
 30
0.0
 40
1.5
 50
286.504361382
 51
0.0
  0
LINE
  8
0
  6
CONTINUOUS
 62
     1
 10
153.8
 20
104.5
 30
0.0
 11
193.45
 21
104.5
 31
0.0
  0
ARC
  8
0
  6
CONTINUOUS
 62
     1
 10
193.45
 20
104.8
 30
0.0
 40
0.3
 50
270.0
 51
0.0
  0
LINE
  8
0
  6
CONTINUOUS
 62
     1
 10
193.95
 20
108.25
 30
0.0
 11
194.5
 21
108.25
 31
0.0
  0
LINE
  8
0
  6
CONTINUOUS
 62
     1
 10
198.2
 20
149.5
 30
0.0
 11
158.55
 21
149.5
 31
0.0
  0
ARC
  8
0
  6
CONTINUOUS
 62
     1
 10
158.55
 20
149.2
 30
0.0
 40
0.3
 50
90.0
 51
180.0
  0
LINE
  8
0
  6
CONTINUOUS
 62
     1
 10
105.75
 20
140.0
 30
0.0
 11
110.0
 21
140.0
 31
0.0
  0
LINE
  8
0
  6
CONTINUOUS
 62
     1
 10
193.75
 20
111.8
 30
0.0
 11
193.75
 21
104.8
 31
0.0
  0
LINE
  8
0
  6
CONTINUOUS
 62
     1
 10
194.05
 20
104.5
 30
0.0
 11
198.2
 21
104.5
 31
0.0
  0
ARC
  8
0
  6
CONTINUOUS
 62
     1
 10
194.05
 20
104.8
 30
0.0
 40
0.3
 50
180.0
 51
270.0
  0
LINE
  8
0
  6
CONTINUOUS
 62
     1
 10
157.95
 20
149.5
 30
0.0
 11
153.8
 21
149.5
 31
0.0
  0
LINE
  8
0
  6
CONTINUOUS
 62
     1
 10
158.25
 20
146.05
 30
0.0
 11
158.25
 21
149.2
 31
0.0
  0
ARC
  8
0
  6
CONTINUOUS
 62
     1
 10
157.95
 20
149.2
 30
0.0
 40
0.3
 50
360.0
 51
90.0
  0
LINE
  8
0
  6
CONTINUOUS
 62
     1
 10
153.5
 20
149.2
 30
0.0
 11
153.5
 21
144.3
 31
0.0
  0
CIRCLE
  8
0
  6
CONTINUOUS
 62
     1
 10
32.85
 20
112.6
 30
0.0
 40
0.2
  0
LINE
  8
0
  6
CONTINUOUS
 62
     1
 10
99.0
 20
139.85
 30
0.0
 11
99.0
 21
139.1
 31
0.0
  0
LINE
  8
0
  6
CONTINUOUS
 62
     1
 10
99.5
 20
139.1
 30
0.0
 11
99.5
 21
139.85
 31
0.0
  0
LINE
  8
0
  6
CONTINUOUS
 62
     1
 10
96.0
 20
139.85
 30
0.0
 11
99.5
 21
139.85
 31
0.0
  0
LINE
  8
0
  6
CONTINUOUS
 62
     1
 10
99.5
 20
139.1
 30
0.0
 11
96.0
 21
139.1
 31
0.0
  0
LINE
  8
0
  6
CONTINUOUS
 62
     1
 10
153.05
 20
139.775
 30
0.0
 11
153.5
 21
139.775
 31
0.0
  0
LINE
  8
0
  6
CONTINUOUS
 62
     1
 10
153.05
 20
139.775
 30
0.0
 11
153.05
 21
139.1
 31
0.0
  0
LINE
  8
0
  6
CONTINUOUS
 62
     1
 10
153.05
 20
139.1
 30
0.0
 11
153.5
 21
139.1
 31
0.0
  0
LINE
  8
0
  6
CONTINUOUS
 62
     1
 10
199.0
 20
139.1
 30
0.0
 11
198.5
 21
139.1
 31
0.0
  0
LINE
  8
0
  6
CONTINUOUS
 62
     1
 10
199.0
 20
139.1
 30
0.0
 11
199.0
 21
139.85
 31
0.0
  0
LINE
  8
0
  6
CONTINUOUS
 62
     1
 10
199.0
 20
139.85
 30
0.0
 11
198.5
 21
139.85
 31
0.0
  0
TEXT
  8
0
  6
CONTINUOUS
 62
     2
 10
207.075
 20
57.04
 30
0.12
 40
1.8
  1
－０
 50
90.0
 41
0.8
 51
0.0
  7
KANJI1
  0
TEXT
  8
0
  6
CONTINUOUS
 62
     2
 10
207.075
 20
46.84
 30
0.2
 40
3.0
  1
９１．５
 50
90.0
 41
0.8
 51
0.0
  7
KANJI2
  0
TEXT
  8
0
  6
CONTINUOUS
 62
     2
 10
205.275
 20
57.04
 30
0.12
 40
1.8
  1
＋０．５
 50
90.0
 41
0.8
 51
0.0
  7
KANJI1
  0
TEXT
  8
0
  6
CONTINUOUS
 62
     2
 10
170.9
 20
84.375
 30
0.2
 40
3.0
  1
９１．５
 50
0.0
 41
0.8
 51
0.0
  7
KANJI2
  0
TEXT
  8
0
  6
CONTINUOUS
 62
     2
 10
181.34
 20
84.175
 30
0.12
 40
1.8
  1
－０
 50
0.0
 41
0.8
 51
0.0
  7
KANJI1
  0
TEXT
  8
0
  6
CONTINUOUS
 62
     2
 10
181.34
 20
85.975
 30
0.12
 40
1.8
  1
＋０．５
 50
0.0
 41
0.8
 51
0.0
  7
KANJI1
  0
LINE
  8
0
  6
CONTINUOUS
 62
     2
 10
61.5
 20
121.5
 30
0.0
 11
55.5
 21
115.5
 31
0.0
  0
LINE
  8
0
  6
CONTINUOUS
 62
     2
 10
32.0
 20
114.0
 30
0.0
 11
34.0
 21
114.0
 31
0.0
  0
LINE
  8
0
  6
CONTINUOUS
 62
     2
 10
34.001077606
 20
113.75
 30
0.0
 11
36.001157432
 21
113.75
 31
0.0
  0
LINE
  8
0
  6
CONTINUOUS
 62
     2
 10
36.001157432
 20
113.75
 30
0.0
 11
36.001157432
 21
114.25
 31
0.0
  0
LINE
  8
0
  6
CONTINUOUS
 62
     2
 10
36.001157432
 20
114.25
 30
0.0
 11
34.001077606
 21
114.25
 31
0.0
  0
LINE
  8
0
  6
CONTINUOUS
 62
     2
 10
34.001077606
 20
114.25
 30
0.0
 11
34.001077606
 21
113.75
 31
0.0
  0
LINE
  8
0
  6
CONTINUOUS
 62
     2
 10
63.0
 20
145.0
 30
0.0
 11
63.0
 21
143.0
 31
0.0
  0
LINE
  8
0
  6
CONTINUOUS
 62
     2
 10
62.75
 20
142.998922394
 30
0.0
 11
62.75
 21
140.998842568
 31
0.0
  0
LINE
  8
0
  6
CONTINUOUS
 62
     2
 10
62.75
 20
140.998842568
 30
0.0
 11
63.25
 21
140.998842568
 31
0.0
  0
LINE
  8
0
  6
CONTINUOUS
 62
     2
 10
63.25
 20
140.998842568
 30
0.0
 11
63.25
 21
142.998922394
 31
0.0
  0
LINE
  8
0
  6
CONTINUOUS
 62
     2
 10
63.25
 20
142.998922394
 30
0.0
 11
62.75
 21
142.998922394
 31
0.0
  0
LINE
  8
0
  6
CONTINUOUS
 62
     2
 10
32.095562654
 20
116.432231968
 30
0.0
 11
34.089397322
 21
116.275313776
 31
0.0
  0
LINE
  8
0
  6
CONTINUOUS
 62
     2
 10
32.856532468
 20
121.23680628
 30
0.0
 11
34.801272308
 21
120.769915552
 31
0.0
  0
LINE
  8
0
  6
CONTINUOUS
 62
     2
 10
34.359734492
 20
125.863186403
 30
0.0
 11
36.207493557
 21
125.097819539
 31
0.0
  0
LINE
  8
0
  6
CONTINUOUS
 62
     2
 10
36.568154905
 20
130.197455506
 30
0.0
 11
38.273435234
 21
129.152458377
 31
0.0
  0
LINE
  8
0
  6
CONTINUOUS
 62
     2
 10
39.427415066
 20
134.132889498
 30
0.0
 11
40.948226998
 21
132.833993402
 31
0.0
  0
LINE
  8
0
  6
CONTINUOUS
 62
     2
 10
41.079689783
 20
135.920310217
 30
0.0
 11
42.493903346
 21
134.506096654
 31
0.0
  0
LINE
  8
0
  6
CONTINUOUS
 62
     2
 10
42.867110502
 20
137.572584934
 30
0.0
 11
44.166006598
 21
136.051773002
 31
0.0
  0
LINE
  8
0
  6
CONTINUOUS
 62
     2
 10
46.802544494
 20
140.431845095
 30
0.0
 11
47.847541623
 21
138.726564766
 31
0.0
  0
LINE
  8
0
  6
CONTINUOUS
 62
     2
 10
51.136813597
 20
142.640265508
 30
0.0
 11
51.902180461
 21
140.792506443
 31
0.0
  0
LINE
  8
0
  6
CONTINUOUS
 62
     2
 10
55.76319372
 20
144.143467532
 30
0.0
 11
56.230084448
 21
142.198727692
 31
0.0
  0
LINE
  8
0
  6
CONTINUOUS
 62
     2
 10
60.567768032
 20
144.904437346
 30
0.0
 11
60.724686224
 21
142.910602678
 31
0.0
  0
LINE
  8
0
  6
CONTINUOUS
 62
     2
 10
32.381661442
 20
118.849468416
 30
0.0
 11
35.3
 21
118.387248997
 31
0.0
  0
LINE
  8
0
  6
CONTINUOUS
 62
     2
 10
33.517247995
 20
123.579526826
 30
0.0
 11
36.35
 21
122.659109905
 31
0.0
  0
LINE
  8
0
  6
CONTINUOUS
 62
     2
 10
35.37879775
 20
128.073705492
 30
0.0
 11
38.05
 21
126.712659965
 31
0.0
  0
LINE
  8
0
  6
CONTINUOUS
 62
     2
 10
37.920473174
 20
132.221342821
 30
0.0
 11
40.35
 21
130.456188259
 31
0.0
  0
LINE
  8
0
  6
CONTINUOUS
 62
     2
 10
42.31712665
 20
134.329319959
 30
0.0
 11
43.731396658
 21
132.915049951
 31
0.0
  0
LINE
  8
0
  6
CONTINUOUS
 62
     2
 10
43.731396658
 20
132.915049951
 30
0.0
 11
44.084950049
 21
133.268603342
 31
0.0
  0
LINE
  8
0
  6
CONTINUOUS
 62
     2
 10
44.084950049
 20
133.268603342
 30
0.0
 11
42.670680041
 21
134.68287335
 31
0.0
  0
LINE
  8
0
  6
CONTINUOUS
 62
     2
 10
42.670680041
 20
134.68287335
 30
0.0
 11
42.31712665
 21
134.329319959
 31
0.0
  0
LINE
  8
0
  6
CONTINUOUS
 62
     2
 10
44.778657179
 20
139.079526826
 30
0.0
 11
46.539382262
 21
136.656096654
 31
0.0
  0
LINE
  8
0
  6
CONTINUOUS
 62
     2
 10
48.926294508
 20
141.62120225
 30
0.0
 11
50.284233635
 21
138.956096654
 31
0.0
  0
LINE
  8
0
  6
CONTINUOUS
 62
     2
 10
53.420473174
 20
143.482752005
 30
0.0
 11
54.338909172
 21
140.656096654
 31
0.0
  0
LINE
  8
0
  6
CONTINUOUS
 62
     2
 10
58.150531584
 20
144.618338558
 30
0.0
 11
58.61970461
 21
141.656096654
 31
0.0
  0
ARC
  8
0
  6
CONTINUOUS
 62
     2
 10
38.268077812
 20
114.03819167
 30
0.0
 40
1.762398068
 50
148.86336332
 51
211.13663668
  0
ARC
  8
0
  6
CONTINUOUS
 62
     2
 10
37.3
 20
113.47968524
 30
0.0
 40
0.645385208
 50
213.137051675
 51
326.862948325
  0
ARC
  8
0
  6
CONTINUOUS
 62
     2
 10
36.331922188
 20
114.03819167
 30
0.0
 40
1.762398068
 50
328.86336332
 51
31.13663668
  0
ARC
  8
0
  6
CONTINUOUS
 62
     2
 10
37.3
 20
114.5966981
 30
0.0
 40
0.645385208
 50
33.137051675
 51
146.862948325
  0
ARC
  8
0
  6
CONTINUOUS
 62
     2
 10
38.640415432
 20
114.03819167
 30
0.0
 40
1.998211894
 50
157.380132345
 51
202.619861855
  0
ARC
  8
0
  6
CONTINUOUS
 62
     2
 10
37.3
 20
113.47968524
 30
0.0
 40
0.546095176
 50
202.61985363
 51
337.380139367
  0
ARC
  8
0
  6
CONTINUOUS
 62
     2
 10
35.959584568
 20
114.03819167
 30
0.0
 40
1.998211894
 50
337.380136231
 51
22.619866134
  0
ARC
  8
0
  6
CONTINUOUS
 62
     2
 10
37.3
 20
114.5966981
 30
0.0
 40
0.546095176
 50
22.619869287
 51
157.380125147
  0
ARC
  8
0
  6
CONTINUOUS
 62
     2
 10
38.640415432
 20
114.03819167
 30
0.0
 40
2.059539894
 50
157.380091384
 51
202.619823617
  0
ARC
  8
0
  6
CONTINUOUS
 62
     2
 10
37.3
 20
113.47968524
 30
0.0
 40
0.607423176
 50
202.619724809
 51
337.380390505
  0
ARC
  8
0
  6
CONTINUOUS
 62
     2
 10
35.959584568
 20
114.03819167
 30
0.0
 40
2.059539894
 50
337.380210393
 51
22.619940035
  0
ARC
  8
0
  6
CONTINUOUS
 62
     2
 10
37.3
 20
114.5966981
 30
0.0
 40
0.607423176
 50
22.62011954
 51
157.37998699
  0
LINE
  8
0
  6
CONTINUOUS
 62
     2
 10
44.647609365
 20
131.551715894
 30
0.0
 11
44.540607926
 21
131.470034727
 31
0.0
  0
ARC
  8
0
  6
CONTINUOUS
 62
     2
 10
45.15286
 20
132.059615
 30
0.0
 40
0.849975
 50
223.919279842
 51
0.000003354
  0
LINE
  8
0
  6
CONTINUOUS
 62
     2
 10
46.002835
 20
132.05961505
 30
0.0
 11
46.002835
 21
132.108185026
 31
0.0
  0
ARC
  8
0
  6
CONTINUOUS
 62
     2
 10
45.371425
 20
132.108185
 30
0.0
 40
0.63141
 50
0.0
 51
89.999997607
  0
LINE
  8
0
  6
CONTINUOUS
 62
     2
 10
45.371425013
 20
132.739595
 30
0.0
 11
45.045637236
 21
132.739595
 31
0.0
  0
LINE
  8
0
  6
CONTINUOUS
 62
     2
 10
45.045637236
 20
132.739595
 30
0.0
 11
45.197016355
 21
133.39529
 31
0.0
  0
LINE
  8
0
  6
CONTINUOUS
 62
     2
 10
45.197016355
 20
133.39529
 30
0.0
 11
46.002835
 21
133.39529
 31
0.0
  0
LINE
  8
0
  6
CONTINUOUS
 62
     2
 10
46.002835
 20
133.39529
 30
0.0
 11
46.002835
 21
133.49243
 31
0.0
  0
ARC
  8
0
  6
CONTINUOUS
 62
     2
 10
45.15286
 20
132.059615
 30
0.0
 40
0.7164075
 50
225.149776308
 51
0.00000438
  0
LINE
  8
0
  6
CONTINUOUS
 62
     2
 10
45.8692675
 20
132.059615055
 30
0.0
 11
45.8692675
 21
132.083900024
 31
0.0
  0
ARC
  8
0
  6
CONTINUOUS
 62
     2
 10
45.2864275
 20
132.0839
 30
0.0
 40
0.58284
 50
0.0
 51
89.997905354
  0
LINE
  8
0
  6
CONTINUOUS
 62
     2
 10
45.286448783
 20
132.66674
 30
0.0
 11
45.163824672
 21
132.666791393
 31
0.0
  0
ARC
  8
0
  6
CONTINUOUS
 62
     2
 10
45.170761005
 20
131.841130528
 30
0.0
 40
0.82569
 50
90.481327431
 51
108.541234321
  0
LINE
  8
0
  6
CONTINUOUS
 62
     2
 10
44.90820227
 20
132.623963133
 30
0.0
 11
45.108703645
 21
133.49243
 31
0.0
  0
LINE
  8
0
  6
CONTINUOUS
 62
     2
 10
45.108703645
 20
133.49243
 30
0.0
 11
46.002835
 21
133.49243
 31
0.0
  0
LINE
  8
0
  6
CONTINUOUS
 62
     2
 10
45.9367675
 20
132.059616802
 30
0.0
 11
45.9367675
 21
132.083901485
 31
0.0
  0
ARC
  8
0
  6
CONTINUOUS
 62
     2
 10
45.2864275
 20
132.0839
 30
0.0
 40
0.65034
 50
0.00013086
 51
89.955234035
  0
LINE
  8
0
  6
CONTINUOUS
 62
     2
 10
45.150464031
 20
133.43993
 30
0.0
 11
45.925
 21
133.43993
 31
0.0
  0
LINE
  8
0
  6
CONTINUOUS
 62
     2
 10
45.371425013
 20
132.702095
 30
0.0
 11
44.980121399
 21
132.702095
 31
0.0
  0
LINE
  8
0
  6
CONTINUOUS
 62
     2
 10
44.980121399
 20
132.702095
 30
0.0
 11
45.150464031
 21
133.43993
 31
0.0
  0
ARC
  8
0
  6
CONTINUOUS
 62
     2
 10
45.15286
 20
132.059615
 30
0.0
 40
0.7839075
 50
230.481416445
 51
0.000131712
  0
ARC
  8
0
  6
CONTINUOUS
 62
     2
 10
48.447115
 20
132.3874625
 30
0.0
 40
1.724235
 50
148.86336332
 51
211.13663668
  0
ARC
  8
0
  6
CONTINUOUS
 62
     2
 10
47.5
 20
131.84105
 30
0.0
 40
0.63141
 50
213.137051675
 51
326.862948325
  0
ARC
  8
0
  6
CONTINUOUS
 62
     2
 10
46.552885
 20
132.3874625
 30
0.0
 40
1.724235
 50
328.86336332
 51
31.13663668
  0
ARC
  8
0
  6
CONTINUOUS
 62
     2
 10
47.5
 20
132.933875
 30
0.0
 40
0.63141
 50
33.137051675
 51
146.862948325
  0
ARC
  8
0
  6
CONTINUOUS
 62
     2
 10
48.81139
 20
132.3874625
 30
0.0
 40
1.9549425
 50
157.380132345
 51
202.619861855
  0
ARC
  8
0
  6
CONTINUOUS
 62
     2
 10
47.5
 20
131.84105
 30
0.0
 40
0.53427
 50
202.61985363
 51
337.380139367
  0
ARC
  8
0
  6
CONTINUOUS
 62
     2
 10
46.18861
 20
132.3874625
 30
0.0
 40
1.9549425
 50
337.380136231
 51
22.619866134
  0
ARC
  8
0
  6
CONTINUOUS
 62
     2
 10
47.5
 20
132.933875
 30
0.0
 40
0.53427
 50
22.619869287
 51
157.380125147
  0
ARC
  8
0
  6
CONTINUOUS
 62
     2
 10
48.81139
 20
132.3874625
 30
0.0
 40
2.0149425
 50
157.380091384
 51
202.619823617
  0
ARC
  8
0
  6
CONTINUOUS
 62
     2
 10
47.5
 20
131.84105
 30
0.0
 40
0.59427
 50
202.619724809
 51
337.380390505
  0
ARC
  8
0
  6
CONTINUOUS
 62
     2
 10
46.18861
 20
132.3874625
 30
0.0
 40
2.0149425
 50
337.380210393
 51
22.619940035
  0
ARC
  8
0
  6
CONTINUOUS
 62
     2
 10
47.5
 20
132.933875
 30
0.0
 40
0.59427
 50
22.62011954
 51
157.37998699
  0
ARC
  8
0
  6
CONTINUOUS
 62
     2
 10
63.897107328
 20
139.29884448
 30
0.0
 40
1.633195392
 50
148.86336332
 51
211.13663668
  0
ARC
  8
0
  6
CONTINUOUS
 62
     2
 10
63.0
 20
138.78128256
 30
0.0
 40
0.598071552
 50
213.137051675
 51
326.862948325
  0
ARC
  8
0
  6
CONTINUOUS
 62
     2
 10
62.102892672
 20
139.29884448
 30
0.0
 40
1.633195392
 50
328.86336332
 51
31.13663668
  0
ARC
  8
0
  6
CONTINUOUS
 62
     2
 10
63.0
 20
139.8164064
 30
0.0
 40
0.598071552
 50
33.137051675
 51
146.862948325
  0
ARC
  8
0
  6
CONTINUOUS
 62
     2
 10
64.242148608
 20
139.29884448
 30
0.0
 40
1.851721536
 50
157.380132345
 51
202.619861855
  0
ARC
  8
0
  6
CONTINUOUS
 62
     2
 10
63.0
 20
138.78128256
 30
0.0
 40
0.506060544
 50
202.61985363
 51
337.380139367
  0
ARC
  8
0
  6
CONTINUOUS
 62
     2
 10
61.757851392
 20
139.29884448
 30
0.0
 40
1.851721536
 50
337.380136231
 51
22.619866134
  0
ARC
  8
0
  6
CONTINUOUS
 62
     2
 10
63.0
 20
139.8164064
 30
0.0
 40
0.506060544
 50
22.619869287
 51
157.380125147
  0
ARC
  8
0
  6
CONTINUOUS
 62
     2
 10
64.242148608
 20
139.29884448
 30
0.0
 40
1.908553536
 50
157.380091384
 51
202.619823617
  0
ARC
  8
0
  6
CONTINUOUS
 62
     2
 10
63.0
 20
138.78128256
 30
0.0
 40
0.562892544
 50
202.619724809
 51
337.380390505
  0
ARC
  8
0
  6
CONTINUOUS
 62
     2
 10
61.757851392
 20
139.29884448
 30
0.0
 40
1.908553536
 50
337.380210393
 51
22.619940035
  0
ARC
  8
0
  6
CONTINUOUS
 62
     2
 10
63.0
 20
139.8164064
 30
0.0
 40
0.562892544
 50
22.62011954
 51
157.37998699
  0
ARC
  8
0
  6
CONTINUOUS
 62
     2
 10
65.850707328
 20
139.29884448
 30
0.0
 40
1.633195392
 50
148.86336332
 51
211.13663668
  0
ARC
  8
0
  6
CONTINUOUS
 62
     2
 10
64.9536
 20
138.78128256
 30
0.0
 40
0.598071552
 50
213.137051675
 51
326.862948325
  0
ARC
  8
0
  6
CONTINUOUS
 62
     2
 10
64.056492672
 20
139.29884448
 30
0.0
 40
1.633195392
 50
328.86336332
 51
31.13663668
  0
ARC
  8
0
  6
CONTINUOUS
 62
     2
 10
64.9536
 20
139.8164064
 30
0.0
 40
0.598071552
 50
33.137051675
 51
146.862948325
  0
ARC
  8
0
  6
CONTINUOUS
 62
     2
 10
66.195748608
 20
139.29884448
 30
0.0
 40
1.851721536
 50
157.380132345
 51
202.619861855
  0
ARC
  8
0
  6
CONTINUOUS
 62
     2
 10
64.9536
 20
138.78128256
 30
0.0
 40
0.506060544
 50
202.61985363
 51
337.380139367
  0
ARC
  8
0
  6
CONTINUOUS
 62
     2
 10
63.711451392
 20
139.29884448
 30
0.0
 40
1.851721536
 50
337.380136231
 51
22.619866134
  0
ARC
  8
0
  6
CONTINUOUS
 62
     2
 10
64.9536
 20
139.8164064
 30
0.0
 40
0.506060544
 50
22.619869287
 51
157.380125147
  0
ARC
  8
0
  6
CONTINUOUS
 62
     2
 10
66.195748608
 20
139.29884448
 30
0.0
 40
1.908553536
 50
157.380091384
 51
202.619823617
  0
ARC
  8
0
  6
CONTINUOUS
 62
     2
 10
64.9536
 20
138.78128256
 30
0.0
 40
0.562892544
 50
202.619724809
 51
337.380390505
  0
ARC
  8
0
  6
CONTINUOUS
 62
     2
 10
63.711451392
 20
139.29884448
 30
0.0
 40
1.908553536
 50
337.380210393
 51
22.619940035
  0
ARC
  8
0
  6
CONTINUOUS
 62
     2
 10
64.9536
 20
139.8164064
 30
0.0
 40
0.562892544
 50
22.62011954
 51
157.37998699
  0
LINE
  8
0
  6
CONTINUOUS
 62
     2
 10
60.977391744
 20
138.183211008
 30
0.0
 11
60.977391744
 21
140.184450432
 31
0.0
  0
LINE
  8
0
  6
CONTINUOUS
 62
     2
 10
60.977391744
 20
140.184450432
 30
0.0
 11
60.605301976
 21
140.184450432
 31
0.0
  0
LINE
  8
0
  6
CONTINUOUS
 62
     2
 10
60.605301976
 20
140.184450432
 30
0.0
 11
60.649538037
 21
140.299464192
 31
0.0
  0
LINE
  8
0
  6
CONTINUOUS
 62
     2
 10
60.649538037
 20
140.299464192
 30
0.0
 11
61.115408256
 21
140.299464192
 31
0.0
  0
LINE
  8
0
  6
CONTINUOUS
 62
     2
 10
61.115408256
 20
140.299464192
 30
0.0
 11
61.115408256
 21
138.183211008
 31
0.0
  0
LINE
  8
0
  6
CONTINUOUS
 62
     2
 10
61.115408256
 20
138.183211008
 30
0.0
 11
60.977391744
 21
138.183211008
 31
0.0
  0
LINE
  8
0
  6
CONTINUOUS
 62
     2
 10
61.051472256
 20
140.235528192
 30
0.0
 11
61.051472256
 21
138.183211008
 31
0.0
  0
LINE
  8
0
  6
CONTINUOUS
 62
     2
 10
60.649538037
 20
140.235528192
 30
0.0
 11
61.051472256
 21
140.235528192
 31
0.0
  0
TEXT
  8
0
  6
CONTINUOUS
 62
     2
 10
16.7
 20
125.0
 30
0.2
 40
3.0
  1
９６
 50
90.0
 41
0.8
 51
0.0
  7
KANJI2
  0
LINE
  8
0
  6
CONTINUOUS
 62
     2
 10
37.315648048
 20
128.71339746
 30
0.0
 11
39.480711557
 21
127.46339746
 31
0.0
  0
LINE
  8
0
  6
CONTINUOUS
 62
     2
 10
37.315648048
 20
128.71339746
 30
0.0
 11
37.415648048
 21
128.88660254
 31
0.0
  0
LINE
  8
0
  6
CONTINUOUS
 62
     2
 10
37.415648048
 20
128.88660254
 30
0.0
 11
39.580711557
 21
127.63660254
 31
0.0
  0
LINE
  8
0
  6
CONTINUOUS
 62
     2
 10
39.580711557
 20
127.63660254
 30
0.0
 11
40.2503268
 21
127.596410162
 31
0.0
  0
LINE
  8
0
  6
CONTINUOUS
 62
     2
 10
39.480711557
 20
127.46339746
 30
0.0
 11
39.8503268
 21
126.903589838
 31
0.0
  0
LINE
  8
0
  6
CONTINUOUS
 62
     2
 10
40.2503268
 20
127.596410162
 30
0.0
 11
57.8
 21
117.890610132
 31
0.0
  0
LINE
  8
0
  6
CONTINUOUS
 62
     2
 10
39.8503268
 20
126.903589838
 30
0.0
 11
56.7
 21
116.757126066
 31
0.0
  0
TEXT
  8
0
  6
CONTINUOUS
 62
     2
 10
47.5
 20
160.1
 30
0.2
 40
3.0
  1
９６
 50
0.0
 41
0.8
 51
0.0
  7
KANJI2
  0
TEXT
  8
0
  6
CONTINUOUS
 62
     2
 10
93.3
 20
156.85
 30
0.2
 40
3.0
  1
６
 50
0.0
 41
0.8
 51
0.0
  7
KANJI2
  0
TEXT
  8
0
  6
CONTINUOUS
 62
     2
 10
106.246820854
 20
162.45
 30
0.2
 40
3.0
  1
６３
 50
0.0
 41
0.8
 51
0.0
  7
KANJI2
  0
LINE
  8
0
  6
CONTINUOUS
 62
     2
 10
167.0
 20
123.0
 30
0.0
 11
170.0
 21
123.0
 31
0.0
  0
LINE
  8
0
  6
CONTINUOUS
 62
     2
 10
170.0
 20
123.0
 30
0.0
 11
170.0
 21
126.0
 31
0.0
  0
LINE
  8
0
  6
CONTINUOUS
 62
     2
 10
170.0
 20
126.0
 30
0.0
 11
167.0
 21
126.0
 31
0.0
  0
LINE
  8
0
  6
CONTINUOUS
 62
     2
 10
167.0
 20
126.0
 30
0.0
 11
167.0
 21
123.0
 31
0.0
  0
LINE
  8
0
  6
CONTINUOUS
 62
     2
 10
185.0
 20
126.0
 30
0.0
 11
182.0
 21
126.0
 31
0.0
  0
LINE
  8
0
  6
CONTINUOUS
 62
     2
 10
182.0
 20
126.0
 30
0.0
 11
182.0
 21
123.0
 31
0.0
  0
LINE
  8
0
  6
CONTINUOUS
 62
     2
 10
182.0
 20
123.0
 30
0.0
 11
185.0
 21
123.0
 31
0.0
  0
LINE
  8
0
  6
CONTINUOUS
 62
     2
 10
185.0
 20
123.0
 30
0.0
 11
185.0
 21
126.0
 31
0.0
  0
CIRCLE
  8
0
  6
CONTINUOUS
 62
     2
 10
168.0
 20
109.75
 30
0.0
 40
1.5
  0
CIRCLE
  8
0
  6
CONTINUOUS
 62
     2
 10
158.75
 20
119.0
 30
0.0
 40
1.5
  0
TEXT
  8
0
  6
CONTINUOUS
 62
     2
 10
218.7
 20
124.5
 30
0.2
 40
3.0
  1
９０
 50
90.0
 41
0.8
 51
0.0
  7
KANJI2
  0
TEXT
  8
0
  6
CONTINUOUS
 62
     2
 10
204.7
 20
116.5
 30
0.2
 40
3.0
  1
３１
 50
90.0
 41
0.8
 51
0.0
  7
KANJI2
  0
TEXT
  8
0
  6
CONTINUOUS
 62
     2
 10
210.7
 20
114.25
 30
0.2
 40
3.0
  1
４０
 50
90.0
 41
0.8
 51
0.0
  7
KANJI2
  0
TEXT
  8
0
  6
CONTINUOUS
 62
     2
 10
173.5
 20
162.45
 30
0.2
 40
3.0
  1
９０
 50
0.0
 41
0.8
 51
0.0
  7
KANJI2
  0
LINE
  8
0
  6
CONTINUOUS
 62
     2
 10
69.0
 20
146.0
 30
0.0
 11
69.0
 21
121.5
 31
0.0
  0
LINE
  8
0
  6
CONTINUOUS
 62
     2
 10
70.4
 20
121.5
 30
0.0
 11
70.4
 21
147.4
 31
0.0
  0
LINE
  8
0
  6
CONTINUOUS
 62
     2
 10
70.4
 20
147.4
 30
0.0
 11
29.6
 21
147.4
 31
0.0
  0
LINE
  8
0
  6
CONTINUOUS
 62
     2
 10
29.6
 20
147.4
 30
0.0
 11
29.6
 21
106.6
 31
0.0
  0
LINE
  8
0
  6
CONTINUOUS
 62
     2
 10
29.6
 20
106.6
 30
0.0
 11
55.5
 21
106.6
 31
0.0
  0
LINE
  8
0
  6
CONTINUOUS
 62
     2
 10
55.5
 20
115.5
 30
0.0
 11
55.5
 21
106.6
 31
0.0
  0
LINE
  8
0
  6
CONTINUOUS
 62
     2
 10
61.5
 20
121.5
 30
0.0
 11
70.4
 21
121.5
 31
0.0
  0
LINE
  8
0
  6
CONTINUOUS
 62
     2
 10
36.85882759
 20
143.503259213
 30
0.0
 11
37.35677833
 21
143.503259213
 31
0.0
  0
LINE
  8
0
  6
CONTINUOUS
 62
     2
 10
37.35677833
 20
143.503259213
 30
0.0
 11
35.116
 21
139.5
 31
0.0
  0
LINE
  8
0
  6
CONTINUOUS
 62
     2
 10
35.116
 20
139.5
 30
0.0
 11
34.61804926
 21
139.5
 31
0.0
  0
LINE
  8
0
  6
CONTINUOUS
 62
     2
 10
34.61804926
 20
139.5
 30
0.0
 11
36.85882759
 21
143.503259213
 31
0.0
  0
ARC
  8
0
  6
CONTINUOUS
 62
     2
 10
37.450594352
 20
141.128104926
 30
0.0
 40
0.6426
 50
30.242707509
 51
149.757292491
  0
ARC
  8
0
  6
CONTINUOUS
 62
     2
 10
36.615214352
 20
140.646154926
 30
0.0
 40
1.6065
 50
329.910618205
 51
30.085979973
  0
ARC
  8
0
  6
CONTINUOUS
 62
     2
 10
37.450594352
 20
140.164204926
 30
0.0
 40
0.6426
 50
210.251219067
 51
329.748780933
  0
ARC
  8
0
  6
CONTINUOUS
 62
     2
 10
38.285974352
 20
140.646154926
 30
0.0
 40
1.6065
 50
149.914020027
 51
210.089381795
  0
ARC
  8
0
  6
CONTINUOUS
 62
     2
 10
37.450594352
 20
141.128104926
 30
0.0
 40
0.38556
 50
23.574706202
 51
156.425293798
  0
ARC
  8
0
  6
CONTINUOUS
 62
     2
 10
36.293914352
 20
140.646154926
 30
0.0
 40
1.63863
 50
337.152072811
 51
22.844529268
  0
ARC
  8
0
  6
CONTINUOUS
 62
     2
 10
37.450594352
 20
140.164204926
 30
0.0
 40
0.38556
 50
203.574706202
 51
336.425293798
  0
ARC
  8
0
  6
CONTINUOUS
 62
     2
 10
38.607274352
 20
140.646154926
 30
0.0
 40
1.63863
 50
157.155470732
 51
202.847927189
  0
ARC
  8
0
  6
CONTINUOUS
 62
     2
 10
37.450594352
 20
141.128104926
 30
0.0
 40
0.48195
 50
30.000950869
 51
149.99930417
  0
ARC
  8
0
  6
CONTINUOUS
 62
     2
 10
37.450594352
 20
141.128104926
 30
0.0
 40
0.54621
 50
30.499976605
 51
149.500023395
  0
ARC
  8
0
  6
CONTINUOUS
 62
     2
 10
37.450594352
 20
140.164204926
 30
0.0
 40
0.48195
 50
210.00069583
 51
329.999049131
  0
ARC
  8
0
  6
CONTINUOUS
 62
     2
 10
37.450594352
 20
140.164204926
 30
0.0
 40
0.54621
 50
210.499976605
 51
329.500023395
  0
ARC
  8
0
  6
CONTINUOUS
 62
     2
 10
38.285974352
 20
140.646154926
 30
0.0
 40
1.51011
 50
149.819450703
 51
210.135027252
  0
ARC
  8
0
  6
CONTINUOUS
 62
     2
 10
38.285974352
 20
140.646154926
 30
0.0
 40
1.44585
 50
149.999768057
 51
209.987989172
  0
ARC
  8
0
  6
CONTINUOUS
 62
     2
 10
36.615214352
 20
140.646154926
 30
0.0
 40
1.51011
 50
329.864972748
 51
30.180549297
  0
ARC
  8
0
  6
CONTINUOUS
 62
     2
 10
36.615214352
 20
140.646154926
 30
0.0
 40
1.44585
 50
330.012010828
 51
30.000231943
  0
ARC
  8
0
  6
CONTINUOUS
 62
     2
 10
34.584865315
 20
142.841704926
 30
0.0
 40
0.6426
 50
30.242707509
 51
149.757292491
  0
ARC
  8
0
  6
CONTINUOUS
 62
     2
 10
33.749485315
 20
142.359754926
 30
0.0
 40
1.6065
 50
329.910618205
 51
30.085979973
  0
ARC
  8
0
  6
CONTINUOUS
 62
     2
 10
34.584865315
 20
141.877804926
 30
0.0
 40
0.6426
 50
210.251219067
 51
329.748780933
  0
ARC
  8
0
  6
CONTINUOUS
 62
     2
 10
35.420245315
 20
142.359754926
 30
0.0
 40
1.6065
 50
149.914020027
 51
210.089381795
  0
ARC
  8
0
  6
CONTINUOUS
 62
     2
 10
34.584865315
 20
142.841704926
 30
0.0
 40
0.38556
 50
23.574706202
 51
156.425293798
  0
ARC
  8
0
  6
CONTINUOUS
 62
     2
 10
33.428185315
 20
142.359754926
 30
0.0
 40
1.63863
 50
337.152072811
 51
22.844529268
  0
ARC
  8
0
  6
CONTINUOUS
 62
     2
 10
34.584865315
 20
141.877804926
 30
0.0
 40
0.38556
 50
203.574706202
 51
336.425293798
  0
ARC
  8
0
  6
CONTINUOUS
 62
     2
 10
35.741545315
 20
142.359754926
 30
0.0
 40
1.63863
 50
157.155470732
 51
202.847927189
  0
ARC
  8
0
  6
CONTINUOUS
 62
     2
 10
34.584865315
 20
142.841704926
 30
0.0
 40
0.48195
 50
30.000950869
 51
149.99930417
  0
ARC
  8
0
  6
CONTINUOUS
 62
     2
 10
34.584865315
 20
142.841704926
 30
0.0
 40
0.54621
 50
30.499976605
 51
149.500023395
  0
ARC
  8
0
  6
CONTINUOUS
 62
     2
 10
34.584865315
 20
141.877804926
 30
0.0
 40
0.48195
 50
210.00069583
 51
329.999049131
  0
ARC
  8
0
  6
CONTINUOUS
 62
     2
 10
34.584865315
 20
141.877804926
 30
0.0
 40
0.54621
 50
210.499976605
 51
329.500023395
  0
ARC
  8
0
  6
CONTINUOUS
 62
     2
 10
35.420245315
 20
142.359754926
 30
0.0
 40
1.51011
 50
149.819450703
 51
210.135027252
  0
ARC
  8
0
  6
CONTINUOUS
 62
     2
 10
35.420245315
 20
142.359754926
 30
0.0
 40
1.44585
 50
149.999768057
 51
209.987989172
  0
ARC
  8
0
  6
CONTINUOUS
 62
     2
 10
33.749485315
 20
142.359754926
 30
0.0
 40
1.51011
 50
329.864972748
 51
30.180549297
  0
ARC
  8
0
  6
CONTINUOUS
 62
     2
 10
33.749485315
 20
142.359754926
 30
0.0
 40
1.44585
 50
330.012010828
 51
30.000231943
  0
LINE
  8
0
  6
CONTINUOUS
 62
     2
 10
36.917453355
 20
143.403259213
 30
0.0
 11
37.186204864
 21
143.403259213
 31
0.0
  0
LINE
  8
0
  6
CONTINUOUS
 62
     2
 10
37.186204864
 20
143.403259213
 30
0.0
 11
35.057374235
 21
139.6
 31
0.0
  0
LINE
  8
0
  6
CONTINUOUS
 62
     2
 10
35.057374235
 20
139.6
 30
0.0
 11
34.788622726
 21
139.6
 31
0.0
  0
LINE
  8
0
  6
CONTINUOUS
 62
     2
 10
34.788622726
 20
139.6
 30
0.0
 11
36.917453355
 21
143.403259213
 31
0.0
  0
LINE
  8
0
  6
CONTINUOUS
 62
     2
 10
36.976079121
 20
143.303259213
 30
0.0
 11
37.015631397
 21
143.303259213
 31
0.0
  0
LINE
  8
0
  6
CONTINUOUS
 62
     2
 10
37.015631397
 20
143.303259213
 30
0.0
 11
34.998748469
 21
139.7
 31
0.0
  0
LINE
  8
0
  6
CONTINUOUS
 62
     2
 10
34.998748469
 20
139.7
 30
0.0
 11
34.959196193
 21
139.7
 31
0.0
  0
LINE
  8
0
  6
CONTINUOUS
 62
     2
 10
34.959196193
 20
139.7
 30
0.0
 11
36.976079121
 21
143.303259213
 31
0.0
  0
ARC
  8
0
  6
CONTINUOUS
 62
     2
 10
199.3
 20
150.3
 30
0.0
 40
0.2
 50
0.0
 51
90.0
  0
LINE
  8
0
  6
CONTINUOUS
 62
     2
 10
199.3
 20
150.5
 30
0.0
 11
152.7
 21
150.5
 31
0.0
  0
ARC
  8
0
  6
CONTINUOUS
 62
     2
 10
152.7
 20
103.7
 30
0.0
 40
0.2
 50
180.0
 51
270.0
  0
LINE
  8
0
  6
CONTINUOUS
 62
     2
 10
152.7
 20
103.5
 30
0.0
 11
199.3
 21
103.5
 31
0.0
  0
TEXT
  8
0
  6
CONTINUOUS
 62
     2
 10
150.0
 20
162.75
 30
0.2
 40
3.0
  1
９
 50
0.0
 41
0.8
 51
0.0
  7
KANJI2
  0
TEXT
  8
0
  6
CONTINUOUS
 62
     2
 10
172.2
 20
96.775
 30
0.2
 40
3.0
  1
１０８
 50
0.0
 41
0.8
 51
0.0
  7
KANJI2
  0
TEXT
  8
0
  6
CONTINUOUS
 62
     2
 10
163.5
 20
155.7
 30
0.2
 40
3.0
  1
４０
 50
0.0
 41
0.8
 51
0.0
  7
KANJI2
  0
TEXT
  8
0
  6
CONTINUOUS
 62
     2
 10
139.9
 20
134.75
 30
0.2
 40
3.0
  1
４０
 50
90.0
 41
0.8
 51
0.0
  7
KANJI2
  0
TEXT
  8
0
  6
CONTINUOUS
 62
     2
 10
144.3825
 20
132.73
 30
0.18
 40
2.7
  1
３１
 50
90.0
 41
0.8
 51
0.0
  7
KANJI3
  0
LINE
  8
0
  6
CONTINUOUS
 62
     2
 10
199.5
 20
103.7
 30
0.0
 11
199.5
 21
109.0
 31
0.0
  0
ARC
  8
0
  6
CONTINUOUS
 62
     2
 10
199.3
 20
103.7
 30
0.0
 40
0.2
 50
270.0
 51
0.0
  0
LINE
  8
0
  6
CONTINUOUS
 62
     2
 10
69.0
 20
146.0
 30
0.0
 11
31.0
 21
146.0
 31
0.0
  0
TEXT
  8
0
  6
CONTINUOUS
 62
     2
 10
60.4125
 20
122.01
 30
0.18
 40
1.35
  1
ＴＯＹＯ　ＫＥＩＫＩ
 50
0.0
 41
0.533333333
 51
0.0
  7
KANJI4
  0
ARC
  8
0
  6
LTYPE1
 62
     2
 10
149.3
 20
144.7
 30
0.0
 40
0.3
 50
90.0
 51
180.0
  0
LINE
  8
0
  6
LTYPE1
 62
     2
 10
149.69866716
 20
143.54
 30
0.0
 11
149.69866716
 21
141.46
 31
0.0
  0
LINE
  8
0
  6
LTYPE1
 62
     2
 10
151.5
 20
144.58
 30
0.0
 11
149.69866716
 21
143.54
 31
0.0
  0
LINE
  8
0
  6
LTYPE1
 62
     2
 10
151.25
 20
143.05
 30
0.0
 11
151.25
 21
143.5
 31
0.0
  0
ARC
  8
0
  6
LTYPE1
 62
     2
 10
150.95
 20
143.05
 30
0.0
 40
0.3
 50
270.0
 51
0.0
  0
LINE
  8
0
  6
LTYPE1
 62
     2
 10
149.867949192
 20
142.75
 30
0.0
 11
150.95
 21
142.75
 31
0.0
  0
LINE
  8
0
  6
LTYPE1
 62
     2
 10
151.75
 20
143.5
 30
0.0
 11
151.75
 21
143.05
 31
0.0
  0
ARC
  8
0
  6
LTYPE1
 62
     2
 10
152.05
 20
143.05
 30
0.0
 40
0.3
 50
180.0
 51
270.0
  0
LINE
  8
0
  6
LTYPE1
 62
     2
 10
152.05
 20
142.75
 30
0.0
 11
153.132050808
 21
142.75
 31
0.0
  0
LINE
  8
0
  6
LTYPE1
 62
     2
 10
153.30133284
 20
143.54
 30
0.0
 11
151.5
 21
144.58
 31
0.0
  0
LINE
  8
0
  6
LTYPE1
 62
     2
 10
151.25
 20
143.5
 30
0.0
 11
151.75
 21
143.5
 31
0.0
  0
LINE
  8
0
  6
LTYPE1
 62
     2
 10
151.5
 20
140.42
 30
0.0
 11
153.30133284
 21
141.46
 31
0.0
  0
LINE
  8
0
  6
LTYPE1
 62
     2
 10
153.30133284
 20
141.46
 30
0.0
 11
153.30133284
 21
143.54
 31
0.0
  0
LINE
  8
0
  6
LTYPE1
 62
     2
 10
151.75
 20
141.95
 30
0.0
 11
151.75
 21
141.5
 31
0.0
  0
ARC
  8
0
  6
LTYPE1
 62
     2
 10
152.05
 20
141.95
 30
0.0
 40
0.3
 50
90.0
 51
180.0
  0
LINE
  8
0
  6
LTYPE1
 62
     2
 10
153.132050808
 20
142.25
 30
0.0
 11
152.05
 21
142.25
 31
0.0
  0
LINE
  8
0
  6
LTYPE1
 62
     2
 10
151.75
 20
141.5
 30
0.0
 11
151.25
 21
141.5
 31
0.0
  0
LINE
  8
0
  6
LTYPE1
 62
     2
 10
149.69866716
 20
141.46
 30
0.0
 11
151.5
 21
140.42
 31
0.0
  0
CIRCLE
  8
0
  6
LTYPE1
 62
     2
 10
151.5
 20
142.5
 30
0.0
 40
1.75
  0
ARC
  8
0
  6
LTYPE1
 62
     2
 10
149.3
 20
140.3
 30
0.0
 40
0.3
 50
180.0
 51
270.0
  0
LINE
  8
0
  6
LTYPE1
 62
     2
 10
149.0
 20
140.3
 30
0.0
 11
149.0
 21
144.7
 31
0.0
  0
LINE
  8
0
  6
LTYPE1
 62
     2
 10
153.5
 20
140.0
 30
0.0
 11
149.3
 21
140.0
 31
0.0
  0
LINE
  8
0
  6
CONTINUOUS
 62
     2
 10
152.5
 20
140.0
 30
0.0
 11
152.5
 21
103.7
 31
0.0
  0
ARC
  8
0
  6
CONTINUOUS
 62
     2
 10
152.7
 20
150.32
 30
0.0
 40
0.18
 50
90.0
 51
180.0
  0
LINE
  8
0
  6
CONTINUOUS
 62
     2
 10
152.52
 20
150.32
 30
0.0
 11
152.52
 21
145.0
 31
0.0
  0
LINE
  8
0
  6
CONTINUOUS
 62
     2
 10
199.5
 20
114.0
 30
0.0
 11
199.5
 21
150.3
 31
0.0
  0
ARC
  8
0
  6
LTYPE1
 62
     2
 10
202.7
 20
109.3
 30
0.0
 40
0.3
 50
270.0
 51
0.0
  0
LINE
  8
0
  6
LTYPE1
 62
     2
 10
202.30133284
 20
110.46
 30
0.0
 11
202.30133284
 21
112.54
 31
0.0
  0
LINE
  8
0
  6
LTYPE1
 62
     2
 10
200.5
 20
109.42
 30
0.0
 11
202.30133284
 21
110.46
 31
0.0
  0
LINE
  8
0
  6
LTYPE1
 62
     2
 10
200.75
 20
110.95
 30
0.0
 11
200.75
 21
110.5
 31
0.0
  0
ARC
  8
0
  6
LTYPE1
 62
     2
 10
201.05
 20
110.95
 30
0.0
 40
0.3
 50
90.0
 51
180.0
  0
LINE
  8
0
  6
LTYPE1
 62
     2
 10
202.132050808
 20
111.25
 30
0.0
 11
201.05
 21
111.25
 31
0.0
  0
LINE
  8
0
  6
LTYPE1
 62
     2
 10
200.25
 20
110.5
 30
0.0
 11
200.25
 21
110.95
 31
0.0
  0
ARC
  8
0
  6
LTYPE1
 62
     2
 10
199.95
 20
110.95
 30
0.0
 40
0.3
 50
0.0
 51
90.0
  0
LINE
  8
0
  6
LTYPE1
 62
     2
 10
199.95
 20
111.25
 30
0.0
 11
198.867949192
 21
111.25
 31
0.0
  0
LINE
  8
0
  6
LTYPE1
 62
     2
 10
198.69866716
 20
110.46
 30
0.0
 11
200.5
 21
109.42
 31
0.0
  0
LINE
  8
0
  6
LTYPE1
 62
     2
 10
200.75
 20
110.5
 30
0.0
 11
200.25
 21
110.5
 31
0.0
  0
LINE
  8
0
  6
LTYPE1
 62
     2
 10
200.5
 20
113.58
 30
0.0
 11
198.69866716
 21
112.54
 31
0.0
  0
LINE
  8
0
  6
LTYPE1
 62
     2
 10
198.69866716
 20
112.54
 30
0.0
 11
198.69866716
 21
110.46
 31
0.0
  0
LINE
  8
0
  6
LTYPE1
 62
     2
 10
200.25
 20
112.05
 30
0.0
 11
200.25
 21
112.5
 31
0.0
  0
ARC
  8
0
  6
LTYPE1
 62
     2
 10
199.95
 20
112.05
 30
0.0
 40
0.3
 50
270.0
 51
0.0
  0
LINE
  8
0
  6
LTYPE1
 62
     2
 10
198.867949192
 20
111.75
 30
0.0
 11
199.95
 21
111.75
 31
0.0
  0
LINE
  8
0
  6
LTYPE1
 62
     2
 10
200.25
 20
112.5
 30
0.0
 11
200.75
 21
112.5
 31
0.0
  0
LINE
  8
0
  6
LTYPE1
 62
     2
 10
202.30133284
 20
112.54
 30
0.0
 11
200.5
 21
113.58
 31
0.0
  0
CIRCLE
  8
0
  6
LTYPE1
 62
     2
 10
200.5
 20
111.5
 30
0.0
 40
1.75
  0
ARC
  8
0
  6
LTYPE1
 62
     2
 10
202.7
 20
113.7
 30
0.0
 40
0.3
 50
0.0
 51
90.0
  0
LINE
  8
0
  6
LTYPE1
 62
     2
 10
203.0
 20
113.7
 30
0.0
 11
203.0
 21
109.3
 31
0.0
  0
LINE
  8
0
  6
LTYPE1
 62
     2
 10
198.5
 20
114.0
 30
0.0
 11
202.7
 21
114.0
 31
0.0
  0
LINE
  8
0
  6
LTYPE1
 62
     2
 10
201.05
 20
111.75
 30
0.0
 11
202.132050808
 21
111.75
 31
0.0
  0
LINE
  8
0
  6
LTYPE1
 62
     2
 10
200.75
 20
112.5
 30
0.0
 11
200.75
 21
112.05
 31
0.0
  0
ARC
  8
0
  6
LTYPE1
 62
     2
 10
201.05
 20
112.05
 30
0.0
 40
0.3
 50
180.0
 51
270.0
  0
TEXT
  8
0
  6
CONTINUOUS
 62
     2
 10
39.7
 20
90.7
 30
0.2
 40
3.0
  1
機械的零位調整器
 50
0.0
 41
0.8
 51
0.0
  7
KANJI2
  0
TEXT
  8
0
  6
CONTINUOUS
 62
     2
 10
33.0
 20
95.0
 30
0.2
 40
3.0
  1
指　針
 50
0.0
 41
0.8
 51
0.0
  7
KANJI2
  0
LINE
  8
0
  6
LTYPE1
 62
     2
 10
202.7
 20
109.0
 30
0.0
 11
198.5
 21
109.0
 31
0.0
  0
LINE
  8
0
  6
LTYPE1
 62
     2
 10
149.3
 20
145.0
 30
0.0
 11
153.5
 21
145.0
 31
0.0
  0
LINE
  8
0
  6
LTYPE1
 62
     2
 10
150.95
 20
142.25
 30
0.0
 11
149.867949192
 21
142.25
 31
0.0
  0
ARC
  8
0
  6
LTYPE1
 62
     2
 10
150.95
 20
141.95
 30
0.0
 40
0.3
 50
0.0
 51
90.0
  0
LINE
  8
0
  6
LTYPE1
 62
     2
 10
151.25
 20
141.5
 30
0.0
 11
151.25
 21
141.95
 31
0.0
  0
CIRCLE
  8
0
  6
CONTINUOUS
 62
     2
 10
142.725
 20
152.475
 30
0.0
 40
3.0
  0
TEXT
  8
0
  6
CONTINUOUS
 62
     2
 10
141.375
 20
151.125
 30
0.0
 40
2.7
  1
Ａ
 50
0.0
 41
1.0
 51
0.0
  7
KANJI5
  0
CIRCLE
  8
0
  6
CONTINUOUS
 62
     2
 10
209.025
 20
98.675
 30
0.0
 40
3.0
  0
TEXT
  8
0
  6
CONTINUOUS
 62
     2
 10
207.675
 20
97.325
 30
0.0
 40
2.7
  1
Ｂ
 50
0.0
 41
1.0
 51
0.0
  7
KANJI5
  0
LINE
  8
0
  6
CONTINUOUS
 62
     2
 10
45.3
 20
140.3
 30
0.0
 11
45.442339253
 21
142.795944618
 31
0.0
  0
LINE
  8
0
  6
CONTINUOUS
 62
     2
 10
45.3
 20
140.3
 30
0.0
 11
44.1752971
 21
142.532721072
 31
0.0
  0
LINE
  8
0
  6
CONTINUOUS
 62
     2
 10
40.17189042
 20
109.7349937
 30
0.0
 11
40.175941839
 21
109.770996933
 31
0.0
  0
LINE
  8
0
  6
CONTINUOUS
 62
     2
 10
40.175941839
 20
109.770996933
 30
0.0
 11
40.187587065
 21
109.804558616
 31
0.0
  0
LINE
  8
0
  6
CONTINUOUS
 62
     2
 10
40.187587065
 20
109.804558616
 30
0.0
 11
40.203894632
 21
109.831663195
 31
0.0
  0
LINE
  8
0
  6
CONTINUOUS
 62
     2
 10
40.203894632
 20
109.831663195
 30
0.0
 11
40.225382677
 21
109.855284583
 31
0.0
  0
LINE
  8
0
  6
CONTINUOUS
 62
     2
 10
40.225382677
 20
109.855284583
 30
0.0
 11
40.250304233
 21
109.873763636
 31
0.0
  0
LINE
  8
0
  6
CONTINUOUS
 62
     2
 10
40.250304233
 20
109.873763636
 30
0.0
 11
40.282818804
 21
109.888731563
 31
0.0
  0
LINE
  8
0
  6
CONTINUOUS
 62
     2
 10
40.282818804
 20
109.888731563
 30
0.0
 11
40.327932373
 21
109.896882539
 31
0.0
  0
LINE
  8
0
  6
CONTINUOUS
 62
     2
 10
40.327932373
 20
109.896882539
 30
0.0
 11
40.374533124
 21
109.891810517
 31
0.0
  0
LINE
  8
0
  6
CONTINUOUS
 62
     2
 10
40.374533124
 20
109.891810517
 30
0.0
 11
40.407610642
 21
109.879245442
 31
0.0
  0
LINE
  8
0
  6
CONTINUOUS
 62
     2
 10
40.407610642
 20
109.879245442
 30
0.0
 11
40.434335523
 21
109.862091815
 31
0.0
  0
LINE
  8
0
  6
CONTINUOUS
 62
     2
 10
40.434335523
 20
109.862091815
 30
0.0
 11
40.457275262
 21
109.839966345
 31
0.0
  0
LINE
  8
0
  6
CONTINUOUS
 62
     2
 10
40.457275262
 20
109.839966345
 30
0.0
 11
40.474912179
 21
109.814717484
 31
0.0
  0
LINE
  8
0
  6
CONTINUOUS
 62
     2
 10
40.474912179
 20
109.814717484
 30
0.0
 11
40.488972976
 21
109.781816487
 31
0.0
  0
LINE
  8
0
  6
CONTINUOUS
 62
     2
 10
40.488972976
 20
109.781816487
 30
0.0
 11
40.495389133
 21
109.747686915
 31
0.0
  0
LINE
  8
0
  6
CONTINUOUS
 62
     2
 10
40.495389133
 20
109.747686915
 30
0.0
 11
40.494527584
 21
109.714049581
 31
0.0
  0
LINE
  8
0
  6
CONTINUOUS
 62
     2
 10
40.494527584
 20
109.714049581
 30
0.0
 11
40.486012261
 21
109.679298749
 31
0.0
  0
LINE
  8
0
  6
CONTINUOUS
 62
     2
 10
40.486012261
 20
109.679298749
 30
0.0
 11
40.470659655
 21
109.64793498
 31
0.0
  0
LINE
  8
0
  6
CONTINUOUS
 62
     2
 10
40.470659655
 20
109.64793498
 30
0.0
 11
40.451180871
 21
109.614439793
 31
0.0
  0
LINE
  8
0
  6
CONTINUOUS
 62
     2
 10
40.451180871
 20
109.614439793
 30
0.0
 11
40.421847527
 21
109.563998974
 31
0.0
  0
LINE
  8
0
  6
CONTINUOUS
 62
     2
 10
40.421847527
 20
109.563998974
 30
0.0
 11
40.392514184
 21
109.513558155
 31
0.0
  0
LINE
  8
0
  6
CONTINUOUS
 62
     2
 10
40.392514184
 20
109.513558155
 30
0.0
 11
40.363180841
 21
109.463117337
 31
0.0
  0
LINE
  8
0
  6
CONTINUOUS
 62
     2
 10
40.363180841
 20
109.463117337
 30
0.0
 11
40.333847498
 21
109.412676518
 31
0.0
  0
LINE
  8
0
  6
CONTINUOUS
 62
     2
 10
40.333847498
 20
109.412676518
 30
0.0
 11
40.304514155
 21
109.362235699
 31
0.0
  0
LINE
  8
0
  6
CONTINUOUS
 62
     2
 10
40.304514155
 20
109.362235699
 30
0.0
 11
40.275180811
 21
109.31179488
 31
0.0
  0
LINE
  8
0
  6
CONTINUOUS
 62
     2
 10
40.275180811
 20
109.31179488
 30
0.0
 11
40.245847468
 21
109.261354062
 31
0.0
  0
LINE
  8
0
  6
CONTINUOUS
 62
     2
 10
40.245847468
 20
109.261354062
 30
0.0
 11
40.216514125
 21
109.210913243
 31
0.0
  0
LINE
  8
0
  6
CONTINUOUS
 62
     2
 10
40.216514125
 20
109.210913243
 30
0.0
 11
40.187180782
 21
109.160472424
 31
0.0
  0
LINE
  8
0
  6
CONTINUOUS
 62
     2
 10
40.187180782
 20
109.160472424
 30
0.0
 11
40.15492136
 21
109.105
 31
0.0
  0
LINE
  8
0
  6
CONTINUOUS
 62
     2
 10
40.15492136
 20
109.105
 30
0.0
 11
40.222420685
 21
109.105
 31
0.0
  0
LINE
  8
0
  6
CONTINUOUS
 62
     2
 10
40.222420685
 20
109.105
 30
0.0
 11
40.28992001
 21
109.105
 31
0.0
  0
LINE
  8
0
  6
CONTINUOUS
 62
     2
 10
40.28992001
 20
109.105
 30
0.0
 11
40.357419335
 21
109.105
 31
0.0
  0
LINE
  8
0
  6
CONTINUOUS
 62
     2
 10
40.357419335
 20
109.105
 30
0.0
 11
40.42491866
 21
109.105
 31
0.0
  0
LINE
  8
0
  6
CONTINUOUS
 62
     2
 10
40.42491866
 20
109.105
 30
0.0
 11
40.495887184
 21
109.105
 31
0.0
  0
LINE
  8
0
  6
CONTINUOUS
 62
     2
 10
31.0
 20
108.0
 30
0.0
 11
55.5
 21
108.0
 31
0.0
  0
LINE
  8
0
  6
CONTINUOUS
 62
     2
 10
31.0
 20
146.0
 30
0.0
 11
31.0
 21
108.0
 31
0.0
  0
LINE
  8
0
  6
CONTINUOUS
 62
     5
 10
208.075
 20
32.125
 30
0.0
 11
208.722047613
 21
34.539814566
 31
0.0
  0
LINE
  8
0
  6
CONTINUOUS
 62
     5
 10
208.075
 20
32.125
 30
0.0
 11
207.427952387
 21
34.539814566
 31
0.0
  0
LINE
  8
0
  6
CONTINUOUS
 62
     5
 10
208.075
 20
32.125
 30
0.0
 11
208.075
 21
77.875
 31
0.0
  0
LINE
  8
0
  6
CONTINUOUS
 62
     5
 10
208.075
 20
77.875
 30
0.0
 11
207.427952387
 21
75.460185434
 31
0.0
  0
LINE
  8
0
  6
CONTINUOUS
 62
     5
 10
208.075
 20
77.875
 30
0.0
 11
208.722047613
 21
75.460185434
 31
0.0
  0
LINE
  8
0
  6
CONTINUOUS
 62
     5
 10
199.875
 20
77.875
 30
0.0
 11
209.575
 21
77.875
 31
0.0
  0
LINE
  8
0
  6
CONTINUOUS
 62
     5
 10
199.875
 20
32.125
 30
0.0
 11
209.575
 21
32.125
 31
0.0
  0
LINE
  8
0
  6
CONTINUOUS
 62
     5
 10
153.125
 20
83.375
 30
0.0
 11
155.539814566
 21
82.727952387
 31
0.0
  0
LINE
  8
0
  6
CONTINUOUS
 62
     5
 10
153.125
 20
83.375
 30
0.0
 11
155.539814566
 21
84.022047613
 31
0.0
  0
LINE
  8
0
  6
CONTINUOUS
 62
     5
 10
153.125
 20
83.375
 30
0.0
 11
198.875
 21
83.375
 31
0.0
  0
LINE
  8
0
  6
CONTINUOUS
 62
     5
 10
198.875
 20
83.375
 30
0.0
 11
196.460185434
 21
84.022047613
 31
0.0
  0
LINE
  8
0
  6
CONTINUOUS
 62
     5
 10
198.875
 20
83.375
 30
0.0
 11
196.460185434
 21
82.727952387
 31
0.0
  0
LINE
  8
0
  6
CONTINUOUS
 62
     5
 10
153.125
 20
78.875
 30
0.0
 11
153.125
 21
84.375
 31
0.0
  0
LINE
  8
0
  6
CONTINUOUS
 62
     5
 10
198.875
 20
78.875
 30
0.0
 11
198.875
 21
84.375
 31
0.0
  0
LINE
  8
0
  6
CONTINUOUS
 62
     5
 10
25.0
 20
103.0
 30
0.0
 11
15.7
 21
103.0
 31
0.0
  0
LINE
  8
0
  6
CONTINUOUS
 62
     5
 10
17.7
 20
103.0
 30
0.0
 11
18.347047613
 21
105.414814566
 31
0.0
  0
LINE
  8
0
  6
CONTINUOUS
 62
     5
 10
17.7
 20
103.0
 30
0.0
 11
17.052952387
 21
105.414814566
 31
0.0
  0
LINE
  8
0
  6
CONTINUOUS
 62
     5
 10
37.365648048
 20
128.8
 30
0.0
 11
57.3
 21
117.290896534
 31
0.0
  0
LINE
  8
0
  6
CONTINUOUS
 62
     5
 10
47.5
 20
121.5
 30
0.0
 11
46.197025392
 21
119.366398076
 31
0.0
  0
LINE
  8
0
  6
CONTINUOUS
 62
     5
 10
47.5
 20
121.5
 30
0.0
 11
47.438391851
 21
119.000759228
 31
0.0
  0
LINE
  8
0
  6
CONTINUOUS
 62
     5
 10
47.5
 20
121.5
 30
0.0
 11
39.4
 21
94.0
 31
0.0
  0
LINE
  8
0
  6
CONTINUOUS
 62
     5
 10
39.4
 20
94.0
 30
0.0
 11
33.0
 21
94.0
 31
0.0
  0
LINE
  8
0
  6
CONTINUOUS
 62
     5
 10
65.5
 20
108.5
 30
0.0
 11
64.232612428
 21
106.345068738
 31
0.0
  0
LINE
  8
0
  6
CONTINUOUS
 62
     5
 10
65.5
 20
108.5
 30
0.0
 11
65.479875797
 21
106.000080998
 31
0.0
  0
LINE
  8
0
  6
CONTINUOUS
 62
     5
 10
65.5
 20
108.5
 30
0.0
 11
60.3
 21
89.7
 31
0.0
  0
LINE
  8
0
  6
CONTINUOUS
 62
     5
 10
60.3
 20
89.7
 30
0.0
 11
39.7
 21
89.7
 31
0.0
  0
LINE
  8
0
  6
CONTINUOUS
 62
     5
 10
25.5
 20
151.0
 30
0.0
 11
16.2
 21
151.0
 31
0.0
  0
LINE
  8
0
  6
CONTINUOUS
 62
     5
 10
17.7
 20
151.0
 30
0.0
 11
17.052952387
 21
148.585185434
 31
0.0
  0
LINE
  8
0
  6
CONTINUOUS
 62
     5
 10
17.7
 20
151.0
 30
0.0
 11
18.347047613
 21
148.585185434
 31
0.0
  0
LINE
  8
0
  6
CONTINUOUS
 62
     5
 10
26.0
 20
152.0
 30
0.0
 11
26.0
 21
161.1
 31
0.0
  0
LINE
  8
0
  6
CONTINUOUS
 62
     5
 10
26.0
 20
159.1
 30
0.0
 11
28.414814566
 21
158.452952387
 31
0.0
  0
LINE
  8
0
  6
CONTINUOUS
 62
     5
 10
26.0
 20
159.1
 30
0.0
 11
28.414814566
 21
159.747047613
 31
0.0
  0
LINE
  8
0
  6
CONTINUOUS
 62
     5
 10
26.0
 20
159.1
 30
0.0
 11
74.0
 21
159.1
 31
0.0
  0
LINE
  8
0
  6
CONTINUOUS
 62
     5
 10
74.0
 20
159.1
 30
0.0
 11
71.585185434
 21
159.747047613
 31
0.0
  0
LINE
  8
0
  6
CONTINUOUS
 62
     5
 10
74.0
 20
159.1
 30
0.0
 11
71.585185434
 21
158.452952387
 31
0.0
  0
LINE
  8
0
  6
CONTINUOUS
 62
     5
 10
74.0
 20
152.0
 30
0.0
 11
74.0
 21
161.1
 31
0.0
  0
LINE
  8
0
  6
CONTINUOUS
 62
     5
 10
93.0
 20
155.85
 30
0.0
 11
90.585185434
 21
156.497047613
 31
0.0
  0
LINE
  8
0
  6
CONTINUOUS
 62
     5
 10
93.0
 20
155.85
 30
0.0
 11
90.585185434
 21
155.202952387
 31
0.0
  0
LINE
  8
0
  6
CONTINUOUS
 62
     5
 10
88.0
 20
155.85
 30
0.0
 11
101.0
 21
155.85
 31
0.0
  0
LINE
  8
0
  6
CONTINUOUS
 62
     5
 10
96.0
 20
155.85
 30
0.0
 11
98.414814566
 21
155.202952387
 31
0.0
  0
LINE
  8
0
  6
CONTINUOUS
 62
     5
 10
96.0
 20
155.85
 30
0.0
 11
98.414814566
 21
156.497047613
 31
0.0
  0
LINE
  8
0
  6
CONTINUOUS
 62
     5
 10
93.0
 20
161.45
 30
0.0
 11
95.414814566
 21
160.802952387
 31
0.0
  0
LINE
  8
0
  6
CONTINUOUS
 62
     5
 10
93.0
 20
161.45
 30
0.0
 11
95.414814566
 21
162.097047613
 31
0.0
  0
LINE
  8
0
  6
CONTINUOUS
 62
     5
 10
93.0
 20
161.45
 30
0.0
 11
124.493641709
 21
161.45
 31
0.0
  0
LINE
  8
0
  6
CONTINUOUS
 62
     5
 10
124.493641709
 20
161.45
 30
0.0
 11
122.078827143
 21
162.097047613
 31
0.0
  0
LINE
  8
0
  6
CONTINUOUS
 62
     5
 10
124.493641709
 20
161.45
 30
0.0
 11
122.078827143
 21
160.802952387
 31
0.0
  0
LINE
  8
0
  6
CONTINUOUS
 62
     5
 10
124.493641709
 20
161.45
 30
0.0
 11
122.078827143
 21
162.097047613
 31
0.0
  0
LINE
  8
0
  6
CONTINUOUS
 62
     5
 10
124.493641709
 20
161.45
 30
0.0
 11
122.078827143
 21
160.802952387
 31
0.0
  0
LINE
  8
0
  6
CONTINUOUS
 62
     5
 10
124.493641709
 20
150.749971122
 30
0.0
 11
124.493641709
 21
163.45
 31
0.0
  0
LINE
  8
0
  6
CONTINUOUS
 62
     5
 10
93.0
 20
152.0
 30
0.0
 11
93.0
 21
162.75
 31
0.0
  0
LINE
  8
0
  6
CONTINUOUS
 62
     5
 10
96.0
 20
152.0
 30
0.0
 11
96.0
 21
157.85
 31
0.0
  0
LINE
  8
0
  6
CONTINUOUS
 62
     5
 10
203.0
 20
95.775
 30
0.0
 11
200.585185434
 21
96.422047613
 31
0.0
  0
LINE
  8
0
  6
CONTINUOUS
 62
     5
 10
203.0
 20
95.775
 30
0.0
 11
200.585185434
 21
95.127952387
 31
0.0
  0
LINE
  8
0
  6
CONTINUOUS
 62
     5
 10
203.0
 20
95.775
 30
0.0
 11
149.0
 21
95.775
 31
0.0
  0
LINE
  8
0
  6
CONTINUOUS
 62
     5
 10
149.0
 20
95.775
 30
0.0
 11
151.414814566
 21
95.127952387
 31
0.0
  0
LINE
  8
0
  6
CONTINUOUS
 62
     5
 10
149.0
 20
95.775
 30
0.0
 11
151.414814566
 21
96.422047613
 31
0.0
  0
LINE
  8
0
  6
CONTINUOUS
 62
     5
 10
149.0
 20
139.8
 30
0.0
 11
149.0
 21
93.775
 31
0.0
  0
LINE
  8
0
  6
CONTINUOUS
 62
     5
 10
199.200002697
 20
149.5
 30
0.0
 11
221.7
 21
149.5
 31
0.0
  0
LINE
  8
0
  6
CONTINUOUS
 62
     5
 10
219.7
 20
149.5
 30
0.0
 11
219.052952387
 21
147.085185434
 31
0.0
  0
LINE
  8
0
  6
CONTINUOUS
 62
     5
 10
219.7
 20
149.5
 30
0.0
 11
220.347047613
 21
147.085185434
 31
0.0
  0
LINE
  8
0
  6
CONTINUOUS
 62
     5
 10
219.7
 20
149.5
 30
0.0
 11
219.7
 21
104.5
 31
0.0
  0
LINE
  8
0
  6
CONTINUOUS
 62
     5
 10
219.7
 20
104.5
 30
0.0
 11
220.347047613
 21
106.914814566
 31
0.0
  0
LINE
  8
0
  6
CONTINUOUS
 62
     5
 10
219.7
 20
104.5
 30
0.0
 11
219.052952387
 21
106.914814566
 31
0.0
  0
LINE
  8
0
  6
CONTINUOUS
 62
     5
 10
199.2
 20
104.5
 30
0.0
 11
221.7
 21
104.5
 31
0.0
  0
LINE
  8
0
  6
CONTINUOUS
 62
     5
 10
205.7
 20
127.0
 30
0.0
 11
205.052952387
 21
124.585185434
 31
0.0
  0
LINE
  8
0
  6
CONTINUOUS
 62
     5
 10
205.7
 20
127.0
 30
0.0
 11
206.347047613
 21
124.585185434
 31
0.0
  0
LINE
  8
0
  6
CONTINUOUS
 62
     5
 10
211.7
 20
127.0
 30
0.0
 11
211.052952387
 21
124.585185434
 31
0.0
  0
LINE
  8
0
  6
CONTINUOUS
 62
     5
 10
211.7
 20
127.0
 30
0.0
 11
212.347047613
 21
124.585185434
 31
0.0
  0
LINE
  8
0
  6
CONTINUOUS
 62
     5
 10
153.5
 20
161.45
 30
0.0
 11
155.914814566
 21
160.802952387
 31
0.0
  0
LINE
  8
0
  6
CONTINUOUS
 62
     5
 10
153.5
 20
161.45
 30
0.0
 11
155.914814566
 21
162.097047613
 31
0.0
  0
LINE
  8
0
  6
CONTINUOUS
 62
     5
 10
153.5
 20
161.45
 30
0.0
 11
198.5
 21
161.45
 31
0.0
  0
LINE
  8
0
  6
CONTINUOUS
 62
     5
 10
198.5
 20
161.45
 30
0.0
 11
196.085185434
 21
162.097047613
 31
0.0
  0
LINE
  8
0
  6
CONTINUOUS
 62
     5
 10
198.5
 20
161.45
 30
0.0
 11
196.085185434
 21
160.802952387
 31
0.0
  0
LINE
  8
0
  6
CONTINUOUS
 62
     5
 10
198.5
 20
150.2
 30
0.0
 11
198.5
 21
163.45
 31
0.0
  0
LINE
  8
0
  6
CONTINUOUS
 62
     5
 10
149.0
 20
161.45
 30
0.0
 11
146.585185434
 21
162.097047613
 31
0.0
  0
LINE
  8
0
  6
CONTINUOUS
 62
     5
 10
149.0
 20
161.45
 30
0.0
 11
146.585185434
 21
160.802952387
 31
0.0
  0
LINE
  8
0
  6
CONTINUOUS
 62
     5
 10
153.5
 20
150.200002697
 30
0.0
 11
153.5
 21
162.75
 31
0.0
  0
LINE
  8
0
  6
CONTINUOUS
 62
     5
 10
149.0
 20
146.2
 30
0.0
 11
149.0
 21
162.75
 31
0.0
  0
LINE
  8
0
  6
CONTINUOUS
 62
     5
 10
157.0
 20
161.45
 30
0.0
 11
143.6
 21
161.45
 31
0.0
  0
LINE
  8
0
  6
CONTINUOUS
 62
     5
 10
176.0
 20
154.7
 30
0.0
 11
173.585185434
 21
155.347047613
 31
0.0
  0
LINE
  8
0
  6
CONTINUOUS
 62
     5
 10
176.0
 20
154.7
 30
0.0
 11
173.585185434
 21
154.052952387
 31
0.0
  0
LINE
  8
0
  6
CONTINUOUS
 62
     5
 10
176.0
 20
154.7
 30
0.0
 11
156.0
 21
154.7
 31
0.0
  0
LINE
  8
0
  6
CONTINUOUS
 62
     5
 10
156.0
 20
154.7
 30
0.0
 11
158.414814566
 21
154.052952387
 31
0.0
  0
LINE
  8
0
  6
CONTINUOUS
 62
     5
 10
156.0
 20
154.7
 30
0.0
 11
158.414814566
 21
155.347047613
 31
0.0
  0
LINE
  8
0
  6
CONTINUOUS
 62
     5
 10
156.0
 20
151.35
 30
0.0
 11
156.0
 21
156.7
 31
0.0
  0
LINE
  8
0
  6
CONTINUOUS
 62
     5
 10
140.9
 20
127.0
 30
0.0
 11
141.547047613
 21
129.414814566
 31
0.0
  0
LINE
  8
0
  6
CONTINUOUS
 62
     5
 10
140.9
 20
127.0
 30
0.0
 11
140.252952387
 21
129.414814566
 31
0.0
  0
LINE
  8
0
  6
LTYPE2
 62
     5
 10
139.2
 20
127.0
 30
0.0
 11
213.225
 21
127.0
 31
0.0
  0
LINE
  8
0
  6
CONTINUOUS
 62
     5
 10
144.9
 20
127.0
 30
0.0
 11
145.547047613
 21
129.414814566
 31
0.0
  0
LINE
  8
0
  6
CONTINUOUS
 62
     5
 10
144.9
 20
127.0
 30
0.0
 11
144.252952387
 21
129.414814566
 31
0.0
  0
LINE
  8
0
  6
CONTINUOUS
 62
     5
 10
116.75
 20
145.85
 30
0.0
 11
112.75
 21
145.85
 31
0.0
  0
LINE
  8
0
  6
LTYPE2
 62
     5
 10
95.25
 20
147.0
 30
0.0
 11
130.25
 21
147.0
 31
0.0
  0
LINE
  8
0
  6
LTYPE2
 62
     5
 10
148.5
 20
142.5
 30
0.0
 11
153.9
 21
142.5
 31
0.0
  0
LINE
  8
0
  6
LTYPE2
 62
     5
 10
153.325
 20
147.0
 30
0.0
 11
158.8
 21
147.0
 31
0.0
  0
LINE
  8
0
  6
LTYPE2
 62
     5
 10
156.0
 20
149.85
 30
0.0
 11
156.0
 21
144.3
 31
0.0
  0
LINE
  8
0
  6
LTYPE2
 62
     5
 10
156.0
 20
144.3
 30
0.0
 11
156.0
 21
141.3
 31
0.0
  0
LINE
  8
0
  6
LTYPE2
 62
     5
 10
154.6
 20
142.5
 30
0.0
 11
157.6
 21
142.5
 31
0.0
  0
LINE
  8
0
  6
CONTINUOUS
 62
     5
 10
144.9
 20
142.5
 30
0.0
 11
144.252952387
 21
140.085185434
 31
0.0
  0
LINE
  8
0
  6
CONTINUOUS
 62
     5
 10
144.9
 20
142.5
 30
0.0
 11
145.547047613
 21
140.085185434
 31
0.0
  0
LINE
  8
0
  6
CONTINUOUS
 62
     5
 10
147.5
 20
142.5
 30
0.0
 11
142.9
 21
142.5
 31
0.0
  0
LINE
  8
0
  6
CONTINUOUS
 62
     5
 10
144.9
 20
127.0
 30
0.0
 11
144.9
 21
142.5
 31
0.0
  0
LINE
  8
0
  6
CONTINUOUS
 62
     5
 10
140.9
 20
147.0
 30
0.0
 11
140.252952387
 21
144.585185434
 31
0.0
  0
LINE
  8
0
  6
CONTINUOUS
 62
     5
 10
140.9
 20
147.0
 30
0.0
 11
141.547047613
 21
144.585185434
 31
0.0
  0
LINE
  8
0
  6
CONTINUOUS
 62
     5
 10
152.325
 20
147.0
 30
0.0
 11
138.9
 21
147.0
 31
0.0
  0
LINE
  8
0
  6
CONTINUOUS
 62
     5
 10
140.9
 20
127.0
 30
0.0
 11
140.9
 21
147.0
 31
0.0
  0
LINE
  8
0
  6
CONTINUOUS
 62
     5
 10
205.7
 20
111.5
 30
0.0
 11
206.347047613
 21
113.914814566
 31
0.0
  0
LINE
  8
0
  6
CONTINUOUS
 62
     5
 10
205.7
 20
111.5
 30
0.0
 11
205.052952387
 21
113.914814566
 31
0.0
  0
LINE
  8
0
  6
CONTINUOUS
 62
     5
 10
204.5
 20
111.5
 30
0.0
 11
207.7
 21
111.5
 31
0.0
  0
LINE
  8
0
  6
CONTINUOUS
 62
     5
 10
205.7
 20
127.0
 30
0.0
 11
205.7
 21
111.5
 31
0.0
  0
LINE
  8
0
  6
CONTINUOUS
 62
     5
 10
211.7
 20
107.0
 30
0.0
 11
212.347047613
 21
109.414814566
 31
0.0
  0
LINE
  8
0
  6
CONTINUOUS
 62
     5
 10
211.7
 20
107.0
 30
0.0
 11
211.052952387
 21
109.414814566
 31
0.0
  0
LINE
  8
0
  6
CONTINUOUS
 62
     5
 10
199.675
 20
107.0
 30
0.0
 11
213.7
 21
107.0
 31
0.0
  0
LINE
  8
0
  6
CONTINUOUS
 62
     5
 10
211.7
 20
127.0
 30
0.0
 11
211.7
 21
107.0
 31
0.0
  0
LINE
  8
0
  6
LTYPE2
 62
     5
 10
203.5
 20
111.5
 30
0.0
 11
198.1
 21
111.5
 31
0.0
  0
LINE
  8
0
  6
LTYPE2
 62
     5
 10
198.675
 20
107.0
 30
0.0
 11
193.2
 21
107.0
 31
0.0
  0
LINE
  8
0
  6
LTYPE2
 62
     5
 10
196.0
 20
109.7
 30
0.0
 11
196.0
 21
112.7
 31
0.0
  0
LINE
  8
0
  6
LTYPE2
 62
     5
 10
197.4
 20
111.5
 30
0.0
 11
194.4
 21
111.5
 31
0.0
  0
LINE
  8
0
  6
CONTINUOUS
 62
     5
 10
203.0
 20
108.4
 30
0.0
 11
203.0
 21
93.775
 31
0.0
  0
LINE
  8
0
  6
LTYPE2
 62
     5
 10
200.5
 20
109.7
 30
0.0
 11
200.5
 21
112.7
 31
0.0
  0
LINE
  8
0
  6
LTYPE2
 62
     5
 10
196.0
 20
104.7
 30
0.0
 11
196.0
 21
109.3
 31
0.0
  0
LINE
  8
0
  6
LTYPE2
 62
     5
 10
151.5
 20
145.3
 30
0.0
 11
151.5
 21
139.45
 31
0.0
  0
LINE
  8
0
  6
CONTINUOUS
 62
     5
 10
202.425
 20
109.675
 30
0.0
 11
207.481512734
 21
101.247478777
 31
0.0
  0
LINE
  8
0
  6
CONTINUOUS
 62
     5
 10
202.425
 20
109.675
 30
0.0
 11
203.112573094
 21
107.271410343
 31
0.0
  0
LINE
  8
0
  6
CONTINUOUS
 62
     5
 10
202.425
 20
109.675
 30
0.0
 11
204.222250595
 21
107.937216843
 31
0.0
  0
LINE
  8
0
  6
CONTINUOUS
 62
     5
 10
149.625
 20
144.675
 30
0.0
 11
144.712721647
 21
150.228010313
 31
0.0
  0
LINE
  8
0
  6
CONTINUOUS
 62
     5
 10
149.625
 20
144.675
 30
0.0
 11
148.509643376
 21
146.912404658
 31
0.0
  0
LINE
  8
0
  6
CONTINUOUS
 62
     5
 10
149.625
 20
144.675
 30
0.0
 11
147.540370501
 21
146.05497096
 31
0.0
  0
ARC
  8
0
  6
CONTINUOUS
 62
     5
 10
32.1
 20
109.35
 30
0.0
 40
0.6
 50
0.0
 51
180.0
  0
ARC
  8
0
  6
CONTINUOUS
 62
     5
 10
32.1
 20
109.35
 30
0.0
 40
0.36
 50
0.0
 51
180.0
  0
LINE
  8
0
  6
CONTINUOUS
 62
     5
 10
32.7
 20
109.35
 30
0.0
 11
32.7
 21
108.45
 31
0.0
  0
LINE
  8
0
  6
CONTINUOUS
 62
     5
 10
32.46
 20
108.45
 30
0.0
 11
32.46
 21
109.35
 31
0.0
  0
LINE
  8
0
  6
CONTINUOUS
 62
     5
 10
31.5
 20
109.35
 30
0.0
 11
31.5
 21
108.45
 31
0.0
  0
LINE
  8
0
  6
CONTINUOUS
 62
     5
 10
31.74
 20
108.45
 30
0.0
 11
31.74
 21
109.35
 31
0.0
  0
LINE
  8
0
  6
CONTINUOUS
 62
     5
 10
31.5
 20
108.45
 30
0.0
 11
31.74
 21
108.45
 31
0.0
  0
LINE
  8
0
  6
CONTINUOUS
 62
     5
 10
32.7
 20
108.45
 30
0.0
 11
32.46
 21
108.45
 31
0.0
  0
ARC
  8
0
  6
CONTINUOUS
 62
     5
 10
33.40468386
 20
108.864076881
 30
0.0
 40
0.05942522
 50
90.0
 51
270.0
  0
LINE
  8
0
  6
CONTINUOUS
 62
     5
 10
33.378971025
 20
108.884781428
 30
0.0
 11
33.378971025
 21
108.836212738
 31
0.0
  0
ARC
  8
0
  6
CONTINUOUS
 62
     5
 10
34.79531614
 20
108.864076881
 30
0.0
 40
0.05942522
 50
270.0
 51
0.0
  0
ARC
  8
0
  6
CONTINUOUS
 62
     5
 10
34.79531614
 20
108.864076881
 30
0.0
 40
0.05942522
 50
0.0
 51
90.0
  0
LINE
  8
0
  6
CONTINUOUS
 62
     5
 10
34.821771791
 20
108.878076091
 30
0.0
 11
34.821771791
 21
108.835221366
 31
0.0
  0
LINE
  8
0
  6
CONTINUOUS
 62
     5
 10
34.79531614
 20
108.923502101
 30
0.0
 11
33.40468386
 21
108.923502101
 31
0.0
  0
LINE
  8
0
  6
CONTINUOUS
 62
     5
 10
33.40468386
 20
108.892361
 30
0.0
 11
34.79531614
 21
108.892361
 31
0.0
  0
LINE
  8
0
  6
CONTINUOUS
 62
     5
 10
33.40468386
 20
108.863791183
 30
0.0
 11
34.79531614
 21
108.863791183
 31
0.0
  0
LINE
  8
0
  6
CONTINUOUS
 62
     5
 10
33.40468386
 20
108.835221366
 30
0.0
 11
34.79531614
 21
108.835221366
 31
0.0
  0
LINE
  8
0
  6
CONTINUOUS
 62
     5
 10
33.40468386
 20
108.804651661
 30
0.0
 11
34.79531614
 21
108.804651661
 31
0.0
  0
ARC
  8
0
  6
CONTINUOUS
 62
     5
 10
33.409454993
 20
108.50942522
 30
0.0
 40
0.05942522
 50
90.0
 51
270.0
  0
LINE
  8
0
  6
CONTINUOUS
 62
     5
 10
33.383742157
 20
108.533367677
 30
0.0
 11
33.383742157
 21
108.487655969
 31
0.0
  0
ARC
  8
0
  6
CONTINUOUS
 62
     5
 10
34.790545007
 20
108.50942522
 30
0.0
 40
0.05942522
 50
270.0
 51
0.0
  0
ARC
  8
0
  6
CONTINUOUS
 62
     5
 10
34.790545007
 20
108.50942522
 30
0.0
 40
0.05942522
 50
0.0
 51
90.0
  0
LINE
  8
0
  6
CONTINUOUS
 62
     5
 10
34.817000658
 20
108.52342443
 30
0.0
 11
34.817000658
 21
108.480569704
 31
0.0
  0
ARC
  8
0
  6
CONTINUOUS
 62
     5
 10
33.678685464
 20
108.50942522
 30
0.0
 40
0.05942522
 50
270.0
 51
0.0
  0
ARC
  8
0
  6
CONTINUOUS
 62
     5
 10
33.678685464
 20
108.50942522
 30
0.0
 40
0.05942522
 50
0.0
 51
90.0
  0
LINE
  8
0
  6
CONTINUOUS
 62
     5
 10
33.705141115
 20
108.52342443
 30
0.0
 11
33.705141115
 21
108.480569704
 31
0.0
  0
ARC
  8
0
  6
CONTINUOUS
 62
     5
 10
34.521314536
 20
108.50942522
 30
0.0
 40
0.05942522
 50
90.0
 51
270.0
  0
LINE
  8
0
  6
CONTINUOUS
 62
     5
 10
34.495601701
 20
108.52342443
 30
0.0
 11
34.495601701
 21
108.494854613
 31
0.0
  0
ARC
  8
0
  6
CONTINUOUS
 62
     5
 10
33.965384764
 20
108.50942522
 30
0.0
 40
0.05942522
 50
90.0
 51
270.0
  0
LINE
  8
0
  6
CONTINUOUS
 62
     5
 10
33.939671929
 20
108.533367677
 30
0.0
 11
33.939671929
 21
108.481942006
 31
0.0
  0
ARC
  8
0
  6
CONTINUOUS
 62
     5
 10
34.234615236
 20
108.50942522
 30
0.0
 40
0.05942522
 50
270.0
 51
0.0
  0
ARC
  8
0
  6
CONTINUOUS
 62
     5
 10
34.234615236
 20
108.50942522
 30
0.0
 40
0.05942522
 50
0.0
 51
90.0
  0
LINE
  8
0
  6
CONTINUOUS
 62
     5
 10
34.261070887
 20
108.52342443
 30
0.0
 11
34.261070887
 21
108.480569704
 31
0.0
  0
LINE
  8
0
  6
CONTINUOUS
 62
     5
 10
33.678685464
 20
108.568850439
 30
0.0
 11
33.40945501
 21
108.568850439
 31
0.0
  0
LINE
  8
0
  6
CONTINUOUS
 62
     5
 10
33.412311975
 20
108.537709339
 30
0.0
 11
33.678685464
 21
108.537709339
 31
0.0
  0
LINE
  8
0
  6
CONTINUOUS
 62
     5
 10
33.412311975
 20
108.509139522
 30
0.0
 11
33.678685464
 21
108.509139522
 31
0.0
  0
LINE
  8
0
  6
CONTINUOUS
 62
     5
 10
33.412311975
 20
108.480569704
 30
0.0
 11
33.678685464
 21
108.480569704
 31
0.0
  0
LINE
  8
0
  6
CONTINUOUS
 62
     5
 10
33.409454993
 20
108.45
 30
0.0
 11
33.678685464
 21
108.45
 31
0.0
  0
LINE
  8
0
  6
CONTINUOUS
 62
     5
 10
34.234615236
 20
108.568850439
 30
0.0
 11
33.965384782
 21
108.568850439
 31
0.0
  0
LINE
  8
0
  6
CONTINUOUS
 62
     5
 10
33.968241746
 20
108.537709339
 30
0.0
 11
34.234615236
 21
108.537709339
 31
0.0
  0
LINE
  8
0
  6
CONTINUOUS
 62
     5
 10
33.968241746
 20
108.480569704
 30
0.0
 11
34.234615236
 21
108.480569704
 31
0.0
  0
LINE
  8
0
  6
CONTINUOUS
 62
     5
 10
33.968241746
 20
108.509139522
 30
0.0
 11
34.234615236
 21
108.509139522
 31
0.0
  0
LINE
  8
0
  6
CONTINUOUS
 62
     5
 10
33.965384764
 20
108.45
 30
0.0
 11
34.234615236
 21
108.45
 31
0.0
  0
LINE
  8
0
  6
CONTINUOUS
 62
     5
 10
34.790545101
 20
108.568850439
 30
0.0
 11
34.521314536
 21
108.568850439
 31
0.0
  0
LINE
  8
0
  6
CONTINUOUS
 62
     5
 10
34.521314536
 20
108.537709339
 30
0.0
 11
34.790545101
 21
108.537709339
 31
0.0
  0
LINE
  8
0
  6
CONTINUOUS
 62
     5
 10
34.521314536
 20
108.509139522
 30
0.0
 11
34.790545101
 21
108.509139522
 31
0.0
  0
LINE
  8
0
  6
CONTINUOUS
 62
     5
 10
34.521314536
 20
108.480569704
 30
0.0
 11
34.790545007
 21
108.480569704
 31
0.0
  0
LINE
  8
0
  6
CONTINUOUS
 62
     5
 10
34.521314536
 20
108.45
 30
0.0
 11
34.790545101
 21
108.45
 31
0.0
  0
LINE
  8
0
  6
CONTINUOUS
 62
     5
 10
32.28
 20
108.64
 30
0.0
 11
31.92
 21
108.64
 31
0.0
  0
LINE
  8
0
  6
CONTINUOUS
 62
     5
 10
31.92
 20
108.64
 30
0.0
 11
31.92
 21
108.46
 31
0.0
  0
LINE
  8
0
  6
CONTINUOUS
 62
     5
 10
32.28
 20
108.46
 30
0.0
 11
32.28
 21
108.64
 31
0.0
  0
LINE
  8
0
  6
CONTINUOUS
 62
     5
 10
31.92
 20
108.46
 30
0.0
 11
32.28
 21
108.46
 31
0.0
  0
ARC
  8
0
  6
CONTINUOUS
 62
     5
 10
37.639234854
 20
108.47272931
 30
0.0
 40
0.03937931
 50
90.0
 51
270.0
  0
LINE
  8
0
  6
CONTINUOUS
 62
     5
 10
37.622195729
 20
108.486449592
 30
0.0
 11
37.622195729
 21
108.454264579
 31
0.0
  0
ARC
  8
0
  6
CONTINUOUS
 62
     5
 10
38.560765146
 20
108.47272931
 30
0.0
 40
0.03937931
 50
270.0
 51
0.0
  0
ARC
  8
0
  6
CONTINUOUS
 62
     5
 10
38.560765146
 20
108.47272931
 30
0.0
 40
0.03937931
 50
0.0
 51
90.0
  0
LINE
  8
0
  6
CONTINUOUS
 62
     5
 10
38.578296512
 20
108.482006167
 30
0.0
 11
38.578296512
 21
108.453607626
 31
0.0
  0
LINE
  8
0
  6
CONTINUOUS
 62
     5
 10
38.560765146
 20
108.512108621
 30
0.0
 11
37.639234854
 21
108.512108621
 31
0.0
  0
LINE
  8
0
  6
CONTINUOUS
 62
     5
 10
37.639234854
 20
108.491472347
 30
0.0
 11
38.560765146
 21
108.491472347
 31
0.0
  0
LINE
  8
0
  6
CONTINUOUS
 62
     5
 10
37.639234854
 20
108.472539987
 30
0.0
 11
38.560765146
 21
108.472539987
 31
0.0
  0
LINE
  8
0
  6
CONTINUOUS
 62
     5
 10
37.639234854
 20
108.453607626
 30
0.0
 11
38.560765146
 21
108.453607626
 31
0.0
  0
LINE
  8
0
  6
CONTINUOUS
 62
     5
 10
37.639234854
 20
108.43335
 30
0.0
 11
38.560765146
 21
108.43335
 31
0.0
  0
ARC
  8
0
  6
CONTINUOUS
 62
     5
 10
38.09961911
 20
109.389477621
 30
0.0
 40
0.03937931
 50
0.0
 51
180.0
  0
LINE
  8
0
  6
CONTINUOUS
 62
     5
 10
38.113339392
 20
109.406516746
 30
0.0
 11
38.081154379
 21
109.406516746
 31
0.0
  0
LINE
  8
0
  6
CONTINUOUS
 62
     5
 10
38.0602398
 20
109.389477621
 30
0.0
 11
38.0602398
 21
108.511230375
 31
0.0
  0
LINE
  8
0
  6
CONTINUOUS
 62
     5
 10
38.080497426
 20
109.389477621
 30
0.0
 11
38.080497426
 21
108.511230375
 31
0.0
  0
LINE
  8
0
  6
CONTINUOUS
 62
     5
 10
38.099429787
 20
109.389477621
 30
0.0
 11
38.099429787
 21
108.511230375
 31
0.0
  0
LINE
  8
0
  6
CONTINUOUS
 62
     5
 10
38.118362147
 20
109.389477621
 30
0.0
 11
38.118362147
 21
108.510468596
 31
0.0
  0
LINE
  8
0
  6
CONTINUOUS
 62
     5
 10
38.138998421
 20
108.510468596
 30
0.0
 11
38.138998421
 21
109.389477621
 31
0.0
  0
LINE
  8
0
  6
CONTINUOUS
 62
     5
 10
39.515571285
 20
109.31
 30
0.0
 11
39.568115626
 21
108.449342763
 31
0.0
  0
LINE
  8
0
  6
CONTINUOUS
 62
     5
 10
39.067222679
 20
109.962125725
 30
0.0
 11
39.515522659
 21
109.31
 31
0.0
  0
LINE
  8
0
  6
CONTINUOUS
 62
     5
 10
39.812926723
 20
110.255770926
 30
0.0
 11
39.067222679
 21
109.962125725
 31
0.0
  0
LINE
  8
0
  6
CONTINUOUS
 62
     5
 10
39.568115626
 20
108.449342763
 30
0.0
 11
40.33
 21
108.675115017
 31
0.0
  0
LINE
  8
0
  6
CONTINUOUS
 62
     5
 10
40.325
 20
110.925
 30
0.0
 11
40.844744787
 21
110.2475
 31
0.0
  0
LINE
  8
0
  6
CONTINUOUS
 62
     5
 10
40.325
 20
110.925
 30
0.0
 11
39.812926723
 21
110.2575
 31
0.0
  0
LINE
  8
0
  6
CONTINUOUS
 62
     5
 10
40.84
 20
110.250680609
 30
0.0
 11
41.572777321
 21
109.962125725
 31
0.0
  0
LINE
  8
0
  6
CONTINUOUS
 62
     5
 10
41.081884374
 20
108.449342763
 30
0.0
 11
40.325
 21
108.673633347
 31
0.0
  0
LINE
  8
0
  6
CONTINUOUS
 62
     5
 10
41.135398627
 20
109.325886799
 30
0.0
 11
41.081884374
 21
108.449342763
 31
0.0
  0
LINE
  8
0
  6
CONTINUOUS
 62
     5
 10
41.572777321
 20
109.962125725
 30
0.0
 11
41.135398627
 21
109.325886799
 31
0.0
  0
TEXT
  8
0
  6
CONTINUOUS
 62
     5
 10
31.6
 20
110.25
 30
0.2
 40
1.0
  1
ＤＲＫ－９６
 50
0.0
 41
0.8
 51
0.0
  7
KANJI6
  0
CIRCLE
  8
0
  6
CONTINUOUS
 62
     5
 10
36.1
 20
108.754695
 30
0.0
 40
0.01998
  0
LINE
  8
0
  6
CONTINUOUS
 62
     5
 10
35.86024
 20
109.268127986
 30
0.0
 11
35.86024
 21
109.223177482
 31
0.0
  0
LINE
  8
0
  6
CONTINUOUS
 62
     5
 10
35.86024
 20
109.223177482
 30
0.0
 11
35.86024
 21
109.178226977
 31
0.0
  0
LINE
  8
0
  6
CONTINUOUS
 62
     5
 10
35.86024
 20
109.178226977
 30
0.0
 11
35.86024
 21
109.133276473
 31
0.0
  0
LINE
  8
0
  6
CONTINUOUS
 62
     5
 10
35.86024
 20
109.133276473
 30
0.0
 11
35.86024
 21
109.088325968
 31
0.0
  0
LINE
  8
0
  6
CONTINUOUS
 62
     5
 10
35.86024
 20
109.088325968
 30
0.0
 11
35.86024
 21
109.043375464
 31
0.0
  0
LINE
  8
0
  6
CONTINUOUS
 62
     5
 10
35.86024
 20
109.043375464
 30
0.0
 11
35.86024
 21
108.998424959
 31
0.0
  0
LINE
  8
0
  6
CONTINUOUS
 62
     5
 10
35.86024
 20
108.998424959
 30
0.0
 11
35.86024
 21
108.953474455
 31
0.0
  0
LINE
  8
0
  6
CONTINUOUS
 62
     5
 10
35.86024
 20
108.953474455
 30
0.0
 11
35.86024
 21
108.90852395
 31
0.0
  0
LINE
  8
0
  6
CONTINUOUS
 62
     5
 10
35.86024
 20
108.90852395
 30
0.0
 11
35.86024
 21
108.863573446
 31
0.0
  0
LINE
  8
0
  6
CONTINUOUS
 62
     5
 10
35.86024
 20
108.863573446
 30
0.0
 11
35.86024
 21
108.818622941
 31
0.0
  0
LINE
  8
0
  6
CONTINUOUS
 62
     5
 10
35.86024
 20
108.818622941
 30
0.0
 11
35.86024
 21
108.773672437
 31
0.0
  0
LINE
  8
0
  6
CONTINUOUS
 62
     5
 10
35.86024
 20
108.773672437
 30
0.0
 11
35.86024
 21
108.740708734
 31
0.0
  0
LINE
  8
0
  6
CONTINUOUS
 62
     5
 10
36.243072885
 20
108.810774069
 30
0.0
 11
36.263682493
 21
108.771681583
 31
0.0
  0
LINE
  8
0
  6
CONTINUOUS
 62
     5
 10
36.263682493
 20
108.771681583
 30
0.0
 11
36.293439392
 21
108.748773727
 31
0.0
  0
LINE
  8
0
  6
CONTINUOUS
 62
     5
 10
36.293439392
 20
108.748773727
 30
0.0
 11
36.330777981
 21
108.738985307
 31
0.0
  0
LINE
  8
0
  6
CONTINUOUS
 62
     5
 10
36.330777981
 20
108.738985307
 30
0.0
 11
36.368894464
 21
108.744689975
 31
0.0
  0
LINE
  8
0
  6
CONTINUOUS
 62
     5
 10
36.368894464
 20
108.744689975
 30
0.0
 11
36.397540353
 21
108.761254032
 31
0.0
  0
LINE
  8
0
  6
CONTINUOUS
 62
     5
 10
36.397540353
 20
108.761254032
 30
0.0
 11
36.421099813
 21
108.790663559
 31
0.0
  0
LINE
  8
0
  6
CONTINUOUS
 62
     5
 10
36.421099813
 20
108.790663559
 30
0.0
 11
36.437238311
 21
108.820149789
 31
0.0
  0
LINE
  8
0
  6
CONTINUOUS
 62
     5
 10
36.437238311
 20
108.820149789
 30
0.0
 11
36.4464288
 21
108.849766535
 31
0.0
  0
LINE
  8
0
  6
CONTINUOUS
 62
     5
 10
36.4464288
 20
108.849766535
 30
0.0
 11
36.449789637
 21
108.87981006
 31
0.0
  0
LINE
  8
0
  6
CONTINUOUS
 62
     5
 10
36.449789637
 20
108.87981006
 30
0.0
 11
36.447595879
 21
108.909412643
 31
0.0
  0
LINE
  8
0
  6
CONTINUOUS
 62
     5
 10
36.447595879
 20
108.909412643
 30
0.0
 11
36.439630712
 21
108.939206202
 31
0.0
  0
LINE
  8
0
  6
CONTINUOUS
 62
     5
 10
36.439630712
 20
108.939206202
 30
0.0
 11
36.426711569
 21
108.966033889
 31
0.0
  0
LINE
  8
0
  6
CONTINUOUS
 62
     5
 10
36.426711569
 20
108.966033889
 30
0.0
 11
36.412162109
 21
108.988843515
 31
0.0
  0
LINE
  8
0
  6
CONTINUOUS
 62
     5
 10
36.412162109
 20
108.988843515
 30
0.0
 11
36.389111338
 21
109.010460156
 31
0.0
  0
LINE
  8
0
  6
CONTINUOUS
 62
     5
 10
36.389111338
 20
109.010460156
 30
0.0
 11
36.367749332
 21
109.021123649
 31
0.0
  0
LINE
  8
0
  6
CONTINUOUS
 62
     5
 10
36.367749332
 20
109.021123649
 30
0.0
 11
36.345272057
 21
109.024120619
 31
0.0
  0
LINE
  8
0
  6
CONTINUOUS
 62
     5
 10
36.345272057
 20
109.024120619
 30
0.0
 11
36.327290237
 21
109.025619104
 31
0.0
  0
LINE
  8
0
  6
CONTINUOUS
 62
     5
 10
36.327290237
 20
109.025619104
 30
0.0
 11
36.314187087
 21
109.026555911
 31
0.0
  0
LINE
  8
0
  6
CONTINUOUS
 62
     5
 10
36.314187087
 20
109.026555911
 30
0.0
 11
36.264003324
 21
109.026555911
 31
0.0
  0
LINE
  8
0
  6
CONTINUOUS
 62
     5
 10
36.264003324
 20
109.026555911
 30
0.0
 11
36.264003324
 21
109.071510461
 31
0.0
  0
LINE
  8
0
  6
CONTINUOUS
 62
     5
 10
36.264003324
 20
109.071510461
 30
0.0
 11
36.264003324
 21
109.116465012
 31
0.0
  0
LINE
  8
0
  6
CONTINUOUS
 62
     5
 10
36.264003324
 20
109.116465012
 30
0.0
 11
36.264003324
 21
109.161419562
 31
0.0
  0
LINE
  8
0
  6
CONTINUOUS
 62
     5
 10
36.264003324
 20
109.161419562
 30
0.0
 11
36.264003324
 21
109.206374113
 31
0.0
  0
LINE
  8
0
  6
CONTINUOUS
 62
     5
 10
36.264003324
 20
109.206374113
 30
0.0
 11
36.264003324
 21
109.251328663
 31
0.0
  0
LINE
  8
0
  6
CONTINUOUS
 62
     5
 10
36.264003324
 20
109.251328663
 30
0.0
 11
36.264003324
 21
109.266313513
 31
0.0
  0
LINE
  8
0
  6
CONTINUOUS
 62
     5
 10
36.264003324
 20
109.266313513
 30
0.0
 11
36.308957875
 21
109.266313513
 31
0.0
  0
LINE
  8
0
  6
CONTINUOUS
 62
     5
 10
36.308957875
 20
109.266313513
 30
0.0
 11
36.353912425
 21
109.266313513
 31
0.0
  0
LINE
  8
0
  6
CONTINUOUS
 62
     5
 10
36.353912425
 20
109.266313513
 30
0.0
 11
36.398866976
 21
109.266313513
 31
0.0
  0
LINE
  8
0
  6
CONTINUOUS
 62
     5
 10
36.398866976
 20
109.266313513
 30
0.0
 11
36.437827586
 21
109.266313513
 31
0.0
  0
LINE
  8
0
  6
CONTINUOUS
 62
     5
 10
35.4007
 20
109.39572
 30
0.0
 11
35.4007
 21
108.5499
 31
0.0
  0
LINE
  8
0
  6
CONTINUOUS
 62
     5
 10
36.7993
 20
109.39572
 30
0.0
 11
36.7993
 21
108.5499
 31
0.0
  0
LINE
  8
0
  6
CONTINUOUS
 62
     5
 10
17.7
 20
103.0
 30
0.0
 11
17.7
 21
108.7
 31
0.0
  0
LINE
  8
0
  6
CONTINUOUS
 62
     1
 10
163.65
 20
134.0
 30
0.0
 11
168.35
 21
134.0
 31
0.0
  0
LINE
  8
0
  6
CONTINUOUS
 62
     1
 10
168.35
 20
134.0
 30
0.0
 11
168.35
 21
134.5
 31
0.0
  0
LINE
  8
0
  6
CONTINUOUS
 62
     1
 10
163.65
 20
134.0
 30
0.0
 11
163.65
 21
134.5
 31
0.0
  0
LINE
  8
0
  6
CONTINUOUS
 62
     1
 10
163.65
 20
134.5
 30
0.0
 11
163.8
 21
134.65
 31
0.0
  0
LINE
  8
0
  6
CONTINUOUS
 62
     1
 10
168.35
 20
134.5
 30
0.0
 11
168.2
 21
134.65
 31
0.0
  0
LINE
  8
0
  6
CONTINUOUS
 62
     1
 10
168.2
 20
134.65
 30
0.0
 11
168.2
 21
140.05
 31
0.0
  0
LINE
  8
0
  6
CONTINUOUS
 62
     1
 10
163.8
 20
134.65
 30
0.0
 11
163.8
 21
140.05
 31
0.0
  0
POINT
  8
0
  6
CONTINUOUS
 62
     1
 10
163.8
 20
140.05
 30
0.0
  0
POINT
  8
0
  6
CONTINUOUS
 62
     1
 10
163.65
 20
140.7
 30
0.0
  0
LINE
  8
0
  6
CONTINUOUS
 62
     1
 10
168.35
 20
140.2
 30
0.0
 11
168.2
 21
140.05
 31
0.0
  0
CIRCLE
  8
0
  6
CONTINUOUS
 62
     1
 10
166.0
 20
137.0
 30
0.0
 40
1.75
  0
LINE
  8
0
  6
CONTINUOUS
 62
     1
 10
165.0
 20
136.75
 30
0.0
 11
165.0
 21
137.25
 31
0.0
  0
LINE
  8
0
  6
CONTINUOUS
 62
     1
 10
167.0
 20
137.25
 30
0.0
 11
167.0
 21
136.75
 31
0.0
  0
LINE
  8
0
  6
CONTINUOUS
 62
     1
 10
165.45
 20
136.75
 30
0.0
 11
165.0
 21
136.75
 31
0.0
  0
ARC
  8
0
  6
CONTINUOUS
 62
     1
 10
165.45
 20
136.45
 30
0.0
 40
0.3
 50
0.0
 51
90.0
  0
LINE
  8
0
  6
CONTINUOUS
 62
     1
 10
165.0
 20
137.25
 30
0.0
 11
165.45
 21
137.25
 31
0.0
  0
ARC
  8
0
  6
CONTINUOUS
 62
     1
 10
165.45
 20
137.55
 30
0.0
 40
0.3
 50
270.0
 51
0.0
  0
LINE
  8
0
  6
CONTINUOUS
 62
     1
 10
166.55
 20
137.25
 30
0.0
 11
167.0
 21
137.25
 31
0.0
  0
ARC
  8
0
  6
CONTINUOUS
 62
     1
 10
166.55
 20
137.55
 30
0.0
 40
0.3
 50
180.0
 51
270.0
  0
LINE
  8
0
  6
CONTINUOUS
 62
     1
 10
167.0
 20
136.75
 30
0.0
 11
166.55
 21
136.75
 31
0.0
  0
ARC
  8
0
  6
CONTINUOUS
 62
     1
 10
166.55
 20
136.45
 30
0.0
 40
0.3
 50
90.0
 51
180.0
  0
LINE
  8
0
  6
CONTINUOUS
 62
     1
 10
168.5
 20
140.775
 30
0.0
 11
163.5
 21
140.775
 31
0.0
  0
LINE
  8
0
  6
CONTINUOUS
 62
     1
 10
163.65
 20
140.7
 30
0.0
 11
168.35
 21
140.7
 31
0.0
  0
POINT
  8
0
  6
CONTINUOUS
 62
     1
 10
168.35
 20
140.7
 30
0.0
  0
LINE
  8
0
  6
CONTINUOUS
 62
     1
 10
168.35
 20
140.7
 30
0.0
 11
168.35
 21
140.2
 31
0.0
  0
LINE
  8
0
  6
CONTINUOUS
 62
     1
 10
163.8
 20
140.05
 30
0.0
 11
163.65
 21
140.2
 31
0.0
  0
LINE
  8
0
  6
CONTINUOUS
 62
     1
 10
163.65
 20
140.2
 30
0.0
 11
163.65
 21
140.7
 31
0.0
  0
LINE
  8
0
  6
CONTINUOUS
 62
     1
 10
166.25
 20
138.632050808
 30
0.0
 11
166.25
 21
137.55
 31
0.0
  0
LINE
  8
0
  6
CONTINUOUS
 62
     1
 10
165.75
 20
137.55
 30
0.0
 11
165.75
 21
138.632050808
 31
0.0
  0
LINE
  8
0
  6
CONTINUOUS
 62
     1
 10
165.75
 20
135.367949192
 30
0.0
 11
165.75
 21
136.45
 31
0.0
  0
LINE
  8
0
  6
CONTINUOUS
 62
     1
 10
166.25
 20
136.45
 30
0.0
 11
166.25
 21
135.367949192
 31
0.0
  0
LINE
  8
0
  6
CONTINUOUS
 62
     1
 10
183.65
 20
134.0
 30
0.0
 11
188.35
 21
134.0
 31
0.0
  0
LINE
  8
0
  6
CONTINUOUS
 62
     1
 10
188.35
 20
134.0
 30
0.0
 11
188.35
 21
134.5
 31
0.0
  0
LINE
  8
0
  6
CONTINUOUS
 62
     1
 10
183.65
 20
134.0
 30
0.0
 11
183.65
 21
134.5
 31
0.0
  0
LINE
  8
0
  6
CONTINUOUS
 62
     1
 10
183.65
 20
134.5
 30
0.0
 11
183.8
 21
134.65
 31
0.0
  0
LINE
  8
0
  6
CONTINUOUS
 62
     1
 10
188.35
 20
134.5
 30
0.0
 11
188.2
 21
134.65
 31
0.0
  0
LINE
  8
0
  6
CONTINUOUS
 62
     1
 10
188.2
 20
134.65
 30
0.0
 11
188.2
 21
140.05
 31
0.0
  0
LINE
  8
0
  6
CONTINUOUS
 62
     1
 10
183.8
 20
134.65
 30
0.0
 11
183.8
 21
140.05
 31
0.0
  0
POINT
  8
0
  6
CONTINUOUS
 62
     1
 10
183.8
 20
140.05
 30
0.0
  0
POINT
  8
0
  6
CONTINUOUS
 62
     1
 10
183.65
 20
140.7
 30
0.0
  0
LINE
  8
0
  6
CONTINUOUS
 62
     1
 10
188.35
 20
140.2
 30
0.0
 11
188.2
 21
140.05
 31
0.0
  0
CIRCLE
  8
0
  6
CONTINUOUS
 62
     1
 10
186.0
 20
137.0
 30
0.0
 40
1.75
  0
LINE
  8
0
  6
CONTINUOUS
 62
     1
 10
185.0
 20
136.75
 30
0.0
 11
185.0
 21
137.25
 31
0.0
  0
LINE
  8
0
  6
CONTINUOUS
 62
     1
 10
187.0
 20
137.25
 30
0.0
 11
187.0
 21
136.75
 31
0.0
  0
LINE
  8
0
  6
CONTINUOUS
 62
     1
 10
185.45
 20
136.75
 30
0.0
 11
185.0
 21
136.75
 31
0.0
  0
ARC
  8
0
  6
CONTINUOUS
 62
     1
 10
185.45
 20
136.45
 30
0.0
 40
0.3
 50
0.0
 51
90.0
  0
LINE
  8
0
  6
CONTINUOUS
 62
     1
 10
185.0
 20
137.25
 30
0.0
 11
185.45
 21
137.25
 31
0.0
  0
ARC
  8
0
  6
CONTINUOUS
 62
     1
 10
185.45
 20
137.55
 30
0.0
 40
0.3
 50
270.0
 51
0.0
  0
LINE
  8
0
  6
CONTINUOUS
 62
     1
 10
186.55
 20
137.25
 30
0.0
 11
187.0
 21
137.25
 31
0.0
  0
ARC
  8
0
  6
CONTINUOUS
 62
     1
 10
186.55
 20
137.55
 30
0.0
 40
0.3
 50
180.0
 51
270.0
  0
LINE
  8
0
  6
CONTINUOUS
 62
     1
 10
187.0
 20
136.75
 30
0.0
 11
186.55
 21
136.75
 31
0.0
  0
ARC
  8
0
  6
CONTINUOUS
 62
     1
 10
186.55
 20
136.45
 30
0.0
 40
0.3
 50
90.0
 51
180.0
  0
LINE
  8
0
  6
CONTINUOUS
 62
     1
 10
189.5
 20
138.775
 30
0.0
 11
188.5
 21
138.775
 31
0.0
  0
LINE
  8
0
  6
CONTINUOUS
 62
     1
 10
188.5
 20
140.775
 30
0.0
 11
183.5
 21
140.775
 31
0.0
  0
LINE
  8
0
  6
CONTINUOUS
 62
     1
 10
183.65
 20
140.7
 30
0.0
 11
188.35
 21
140.7
 31
0.0
  0
POINT
  8
0
  6
CONTINUOUS
 62
     1
 10
188.35
 20
140.7
 30
0.0
  0
LINE
  8
0
  6
CONTINUOUS
 62
     1
 10
188.35
 20
140.7
 30
0.0
 11
188.35
 21
140.2
 31
0.0
  0
LINE
  8
0
  6
CONTINUOUS
 62
     1
 10
188.5
 20
138.775
 30
0.0
 11
188.5
 21
140.775
 31
0.0
  0
LINE
  8
0
  6
CONTINUOUS
 62
     1
 10
183.5
 20
140.775
 30
0.0
 11
183.5
 21
138.775
 31
0.0
  0
LINE
  8
0
  6
CONTINUOUS
 62
     1
 10
183.8
 20
140.05
 30
0.0
 11
183.65
 21
140.2
 31
0.0
  0
LINE
  8
0
  6
CONTINUOUS
 62
     1
 10
183.65
 20
140.2
 30
0.0
 11
183.65
 21
140.7
 31
0.0
  0
LINE
  8
0
  6
CONTINUOUS
 62
     1
 10
183.5
 20
138.775
 30
0.0
 11
182.5
 21
138.775
 31
0.0
  0
LINE
  8
0
  6
CONTINUOUS
 62
     1
 10
185.75
 20
137.55
 30
0.0
 11
185.75
 21
138.632050808
 31
0.0
  0
LINE
  8
0
  6
CONTINUOUS
 62
     1
 10
186.25
 20
138.632050808
 30
0.0
 11
186.25
 21
137.55
 31
0.0
  0
LINE
  8
0
  6
CONTINUOUS
 62
     1
 10
185.75
 20
135.367949192
 30
0.0
 11
185.75
 21
136.45
 31
0.0
  0
LINE
  8
0
  6
CONTINUOUS
 62
     1
 10
186.25
 20
136.45
 30
0.0
 11
186.25
 21
135.367949192
 31
0.0
  0
ARC
  8
0
  6
CONTINUOUS
 62
     1
 10
163.0
 20
141.275
 30
0.0
 40
0.5
 50
90.0
 51
180.0
  0
LINE
  8
0
  6
CONTINUOUS
 62
     1
 10
169.5
 20
141.275
 30
0.0
 11
169.5
 21
138.775
 31
0.0
  0
LINE
  8
0
  6
CONTINUOUS
 62
     1
 10
163.0
 20
141.775
 30
0.0
 11
169.0
 21
141.775
 31
0.0
  0
ARC
  8
0
  6
CONTINUOUS
 62
     1
 10
169.0
 20
141.275
 30
0.0
 40
0.5
 50
0.0
 51
90.0
  0
LINE
  8
0
  6
CONTINUOUS
 62
     1
 10
182.5
 20
138.775
 30
0.0
 11
182.5
 21
141.275
 31
0.0
  0
ARC
  8
0
  6
CONTINUOUS
 62
     1
 10
183.0
 20
141.275
 30
0.0
 40
0.5
 50
90.0
 51
180.0
  0
LINE
  8
0
  6
CONTINUOUS
 62
     1
 10
189.5
 20
141.275
 30
0.0
 11
189.5
 21
138.775
 31
0.0
  0
LINE
  8
0
  6
CONTINUOUS
 62
     1
 10
183.0
 20
141.775
 30
0.0
 11
189.0
 21
141.775
 31
0.0
  0
ARC
  8
0
  6
CONTINUOUS
 62
     1
 10
189.0
 20
141.275
 30
0.0
 40
0.5
 50
0.0
 51
90.0
  0
LINE
  8
0
  6
CONTINUOUS
 62
     1
 10
162.5
 20
138.775
 30
0.0
 11
162.5
 21
141.275
 31
0.0
  0
LINE
  8
0
  6
CONTINUOUS
 62
     1
 10
163.5
 20
140.775
 30
0.0
 11
163.5
 21
138.775
 31
0.0
  0
LINE
  8
0
  6
CONTINUOUS
 62
     1
 10
163.5
 20
138.775
 30
0.0
 11
162.5
 21
138.775
 31
0.0
  0
LINE
  8
0
  6
CONTINUOUS
 62
     1
 10
168.5
 20
138.775
 30
0.0
 11
168.5
 21
140.775
 31
0.0
  0
LINE
  8
0
  6
CONTINUOUS
 62
     1
 10
169.5
 20
138.775
 30
0.0
 11
168.5125
 21
138.775
 31
0.0
  0
LINE
  8
0
  6
CONTINUOUS
 62
     1
 10
159.4
 20
137.0
 30
0.0
 11
159.4
 21
134.0
 31
0.0
  0
LINE
  8
0
  6
CONTINUOUS
 62
     1
 10
159.4
 20
134.0
 30
0.0
 11
160.15
 21
134.0
 31
0.0
  0
LINE
  8
0
  6
CONTINUOUS
 62
     1
 10
160.15
 20
134.0
 30
0.0
 11
160.15
 21
132.375
 31
0.0
  0
LINE
  8
0
  6
CONTINUOUS
 62
     1
 10
160.15
 20
132.375
 30
0.0
 11
161.45
 21
132.375
 31
0.0
  0
LINE
  8
0
  6
CONTINUOUS
 62
     1
 10
161.45
 20
132.375
 30
0.0
 11
161.45
 21
138.625
 31
0.0
  0
LINE
  8
0
  6
CONTINUOUS
 62
     1
 10
161.45
 20
138.625
 30
0.0
 11
160.15
 21
138.625
 31
0.0
  0
LINE
  8
0
  6
CONTINUOUS
 62
     1
 10
160.15
 20
138.625
 30
0.0
 11
160.15
 21
137.0
 31
0.0
  0
LINE
  8
0
  6
CONTINUOUS
 62
     1
 10
160.15
 20
137.0
 30
0.0
 11
159.4
 21
137.0
 31
0.0
  0
LINE
  8
0
  6
CONTINUOUS
 62
     1
 10
192.6
 20
137.0
 30
0.0
 11
192.6
 21
134.0
 31
0.0
  0
LINE
  8
0
  6
CONTINUOUS
 62
     1
 10
192.6
 20
134.0
 30
0.0
 11
191.85
 21
134.0
 31
0.0
  0
LINE
  8
0
  6
CONTINUOUS
 62
     1
 10
191.85
 20
134.0
 30
0.0
 11
191.85
 21
132.375
 31
0.0
  0
LINE
  8
0
  6
CONTINUOUS
 62
     1
 10
191.85
 20
132.375
 30
0.0
 11
190.55
 21
132.375
 31
0.0
  0
LINE
  8
0
  6
CONTINUOUS
 62
     1
 10
190.55
 20
132.375
 30
0.0
 11
190.55
 21
138.625
 31
0.0
  0
LINE
  8
0
  6
CONTINUOUS
 62
     1
 10
190.55
 20
138.625
 30
0.0
 11
191.85
 21
138.625
 31
0.0
  0
LINE
  8
0
  6
CONTINUOUS
 62
     1
 10
191.85
 20
138.625
 30
0.0
 11
191.85
 21
137.0
 31
0.0
  0
LINE
  8
0
  6
CONTINUOUS
 62
     1
 10
191.85
 20
137.0
 30
0.0
 11
192.6
 21
137.0
 31
0.0
  0
LINE
  8
0
  6
CONTINUOUS
 62
     1
 10
191.2
 20
138.625
 30
0.0
 11
191.2
 21
132.375
 31
0.0
  0
LINE
  8
0
  6
CONTINUOUS
 62
     1
 10
160.8
 20
138.625
 30
0.0
 11
160.8
 21
132.375
 31
0.0
  0
TEXT
  8
0
  6
CONTINUOUS
 62
     1
 10
164.67
 20
143.395
 30
0.276
 40
2.76
  1
＋
 50
0.0
 41
1.0
 51
0.0
  7
KANJI7
  0
LINE
  8
0
  6
CONTINUOUS
 62
     2
 10
191.2
 20
132.5
 30
0.0
 11
188.2
 21
130.5
 31
0.0
  0
LINE
  8
0
  6
CONTINUOUS
 62
     2
 10
160.8
 20
132.5
 30
0.0
 11
163.8
 21
130.5
 31
0.0
  0
LINE
  8
0
  6
CONTINUOUS
 62
     2
 10
160.8
 20
138.5
 30
0.0
 11
163.8
 21
140.5
 31
0.0
  0
LINE
  8
0
  6
CONTINUOUS
 62
     2
 10
163.8
 20
140.5
 30
0.0
 11
188.2
 21
140.5
 31
0.0
  0
LINE
  8
0
  6
CONTINUOUS
 62
     2
 10
188.2
 20
140.5
 30
0.0
 11
191.2
 21
138.5
 31
0.0
  0
LINE
  8
0
  6
CONTINUOUS
 62
     2
 10
188.2
 20
130.5
 30
0.0
 11
163.8
 21
130.5
 31
0.0
  0
CIRCLE
  8
0
  6
CONTINUOUS
 62
     2
 10
166.05
 20
144.775
 30
0.0
 40
1.5
  0
TEXT
  8
0
  6
CONTINUOUS
 62
     2
 10
192.55
 20
170.0
 30
0.2
 40
3.0
  1
２－Ｍ４　ターミナルネジ
 50
0.0
 41
0.8
 51
0.0
  7
KANJI2
  0
LINE
  8
0
  6
LTYPE2
 62
     5
 10
166.0
 20
142.0
 30
0.0
 11
166.0
 21
132.3
 31
0.0
  0
LINE
  8
0
  6
LTYPE2
 62
     5
 10
186.0
 20
142.0
 30
0.0
 11
186.0
 21
132.2
 31
0.0
  0
LINE
  8
0
  6
LTYPE2
 62
     5
 10
181.625
 20
137.0
 30
0.0
 11
189.625
 21
137.0
 31
0.0
  0
LINE
  8
0
  6
LTYPE2
 62
     5
 10
161.625
 20
137.0
 30
0.0
 11
169.925
 21
137.0
 31
0.0
  0
LINE
  8
0
  6
CONTINUOUS
 62
     5
 10
177.1
 20
131.95
 30
0.0
 11
177.358044746
 21
129.463353079
 31
0.0
  0
LINE
  8
0
  6
CONTINUOUS
 62
     5
 10
177.1
 20
131.95
 30
0.0
 11
178.566796765
 21
129.925522969
 31
0.0
  0
LINE
  8
0
  6
CONTINUOUS
 62
     5
 10
186.55
 20
139.1
 30
0.0
 11
187.659507429
 21
141.340310975
 31
0.0
  0
LINE
  8
0
  6
CONTINUOUS
 62
     5
 10
186.55
 20
139.1
 30
0.0
 11
186.390706131
 21
141.594919931
 31
0.0
  0
LINE
  8
0
  6
CONTINUOUS
 62
     5
 10
186.55
 20
139.1
 30
0.0
 11
192.55
 21
169.0
 31
0.0
  0
LINE
  8
0
  6
CONTINUOUS
 62
     5
 10
192.55
 20
169.0
 30
0.0
 11
222.35
 21
169.0
 31
0.0
  0
LINE
  8
0
  6
CONTINUOUS
 62
     1
 10
124.5
 20
141.025
 30
0.0
 11
127.75
 21
141.025
 31
0.0
  0
LINE
  8
0
  6
CONTINUOUS
 62
     1
 10
127.75
 20
141.025
 30
0.0
 11
127.75
 21
138.625
 31
0.0
  0
LINE
  8
0
  6
CONTINUOUS
 62
     1
 10
124.5
 20
134.0
 30
0.0
 11
130.75
 21
134.0
 31
0.0
  0
LINE
  8
0
  6
CONTINUOUS
 62
     1
 10
124.5
 20
137.0
 30
0.0
 11
130.75
 21
137.0
 31
0.0
  0
LINE
  8
0
  6
CONTINUOUS
 62
     1
 10
130.25
 20
132.375
 30
0.0
 11
124.5
 21
132.375
 31
0.0
  0
ARC
  8
0
  6
CONTINUOUS
 62
     1
 10
130.25
 20
132.875
 30
0.0
 40
0.5
 50
270.0
 51
0.0
  0
LINE
  8
0
  6
CONTINUOUS
 62
     1
 10
124.5
 20
138.625
 30
0.0
 11
130.25
 21
138.625
 31
0.0
  0
LINE
  8
0
  6
CONTINUOUS
 62
     1
 10
130.75
 20
138.125
 30
0.0
 11
130.75
 21
132.875
 31
0.0
  0
ARC
  8
0
  6
CONTINUOUS
 62
     1
 10
130.25
 20
138.125
 30
0.0
 40
0.5
 50
360.0
 51
90.0
  0
LINE
  8
0
  6
CONTINUOUS
 62
     2
 10
129.5
 20
132.375
 30
0.0
 11
129.5
 21
130.5
 31
0.0
  0
LINE
  8
0
  6
CONTINUOUS
 62
     2
 10
129.5
 20
130.5
 30
0.0
 11
129.9
 21
130.5
 31
0.0
  0
LINE
  8
0
  6
CONTINUOUS
 62
     2
 10
129.9
 20
130.5
 30
0.0
 11
129.9
 21
132.375
 31
0.0
  0
LINE
  8
0
  6
CONTINUOUS
 62
     2
 10
129.5
 20
138.625
 30
0.0
 11
129.5
 21
140.5
 31
0.0
  0
LINE
  8
0
  6
CONTINUOUS
 62
     2
 10
129.5
 20
140.5
 30
0.0
 11
129.9
 21
140.5
 31
0.0
  0
LINE
  8
0
  6
CONTINUOUS
 62
     2
 10
129.9
 20
140.5
 30
0.0
 11
129.9
 21
138.625
 31
0.0
  0
TEXT
  8
0
  6
CONTINUOUS
 62
     2
 10
125.40900294
 20
157.95
 30
0.18
 40
2.7
  1
７
 50
0.0
 41
0.8
 51
0.0
  7
KANJI3
  0
TEXT
  8
0
  6
CONTINUOUS
 62
     2
 10
122.821820854
 20
164.35
 30
0.2
 40
3.0
  1
１２．５
 50
0.0
 41
0.8
 51
0.0
  7
KANJI2
  0
TEXT
  8
0
  6
CONTINUOUS
 62
     2
 10
132.39
 20
166.0
 30
0.12
 40
1.8
  1
＋０．２
 50
0.0
 41
0.8
 51
0.0
  7
KANJI1
  0
TEXT
  8
0
  6
CONTINUOUS
 62
     2
 10
132.39
 20
164.2
 30
0.12
 40
1.8
  1
－０．２
 50
0.0
 41
0.8
 51
0.0
  7
KANJI1
  0
LINE
  8
0
  6
LTYPE2
 62
     5
 10
121.5
 20
135.5
 30
0.0
 11
133.5
 21
135.5
 31
0.0
  0
LINE
  8
0
  6
CONTINUOUS
 62
     5
 10
124.493641709
 20
156.95
 30
0.0
 11
122.078827143
 21
157.597047613
 31
0.0
  0
LINE
  8
0
  6
CONTINUOUS
 62
     5
 10
124.493641709
 20
156.95
 30
0.0
 11
122.078827143
 21
156.302952387
 31
0.0
  0
LINE
  8
0
  6
CONTINUOUS
 62
     5
 10
124.493641709
 20
156.95
 30
0.0
 11
122.078827143
 21
157.597047613
 31
0.0
  0
LINE
  8
0
  6
CONTINUOUS
 62
     5
 10
124.493641709
 20
156.95
 30
0.0
 11
122.078827143
 21
156.302952387
 31
0.0
  0
LINE
  8
0
  6
CONTINUOUS
 62
     5
 10
127.75
 20
156.95
 30
0.0
 11
130.164814566
 21
156.302952387
 31
0.0
  0
LINE
  8
0
  6
CONTINUOUS
 62
     5
 10
127.75
 20
156.95
 30
0.0
 11
130.164814566
 21
157.597047613
 31
0.0
  0
LINE
  8
0
  6
CONTINUOUS
 62
     5
 10
130.75
 20
161.45
 30
0.0
 11
133.164814566
 21
160.802952387
 31
0.0
  0
LINE
  8
0
  6
CONTINUOUS
 62
     5
 10
130.75
 20
161.45
 30
0.0
 11
133.164814566
 21
162.097047613
 31
0.0
  0
LINE
  8
0
  6
CONTINUOUS
 62
     5
 10
130.75
 20
138.625
 30
0.0
 11
130.75
 21
162.85
 31
0.0
  0
LINE
  8
0
  6
CONTINUOUS
 62
     5
 10
119.6
 20
156.95
 30
0.0
 11
133.3
 21
156.95
 31
0.0
  0
LINE
  8
0
  6
CONTINUOUS
 62
     5
 10
127.75
 20
142.5
 30
0.0
 11
127.75
 21
158.0
 31
0.0
  0
LINE
  8
0
  6
CONTINUOUS
 62
     5
 10
124.493641709
 20
149.9
 30
0.0
 11
124.493641709
 21
162.95
 31
0.0
  0
LINE
  8
0
  6
CONTINUOUS
 62
     5
 10
124.493641709
 20
161.45
 30
0.0
 11
132.75
 21
161.45
 31
0.0
  0
TEXT
  8
0
  6
CONTINUOUS
 62
     2
 10
181.73
 20
115.14
 30
0.16
 40
2.4
  1
（透明塩ビ樹脂）
 50
0.0
 41
0.8
 51
0.0
  7
KANJI8
  0
TEXT
  8
0
  6
CONTINUOUS
 62
     2
 10
183.25
 20
119.0
 30
0.2
 40
3.0
  1
端子カバー
 50
0.0
 41
0.9
 51
0.0
  7
KANJI9
  0
LINE
  8
0
  6
CONTINUOUS
 62
     5
 10
182.357352941
 20
118.2
 30
0.0
 11
197.85
 21
118.2
 31
0.0
  0
LINE
  8
0
  6
CONTINUOUS
 62
     5
 10
177.1
 20
131.95
 30
0.0
 11
182.357352941
 21
118.2
 31
0.0
  0
TEXT
  8
0
  6
CONTINUOUS
 62
     3
 10
233.94
 20
11.95
 30
0.54
 40
5.4
  1
ＭＳ－１０５４９Ｃ
 50
0.0
 41
0.9
 51
0.0
  7
KANJI10
  0
ARC
  8
0
  6
CONTINUOUS
 62
     1
 10
121.878012702
 20
145.5
 30
0.0
 40
0.625
 50
306.869897646
 51
53.130102354
  0
ARC
  8
0
  6
CONTINUOUS
 62
     1
 10
120.378012702
 20
147.0
 30
0.0
 40
2.125
 50
331.927513064
 51
28.072486936
  0
ARC
  8
0
  6
CONTINUOUS
 62
     1
 10
121.878012702
 20
148.5
 30
0.0
 40
0.625
 50
306.869897646
 51
53.130102354
  0
LINE
  8
0
  6
CONTINUOUS
 62
     1
 10
122.253012702
 20
149.0
 30
0.0
 11
117.503012702
 21
149.0
 31
0.0
  0
LINE
  8
0
  6
CONTINUOUS
 62
     1
 10
117.503012702
 20
149.0
 30
0.0
 11
117.503012702
 21
145.0
 31
0.0
  0
LINE
  8
0
  6
CONTINUOUS
 62
     1
 10
117.503012702
 20
145.0
 30
0.0
 11
122.253012702
 21
145.0
 31
0.0
  0
LINE
  8
0
  6
CONTINUOUS
 62
     1
 10
122.503012702
 20
148.5
 30
0.0
 11
122.503012702
 21
145.5
 31
0.0
  0
LINE
  8
0
  6
CONTINUOUS
 62
     1
 10
112.75
 20
148.0
 30
0.0
 11
117.503012702
 21
148.0
 31
0.0
  0
LINE
  8
0
  6
CONTINUOUS
 62
     2
 10
117.503012702
 20
147.8
 30
0.0
 11
112.75
 21
147.8
 31
0.0
  0
LINE
  8
0
  6
CONTINUOUS
 62
     1
 10
122.503012702
 20
148.0
 30
0.0
 11
123.8
 21
148.0
 31
0.0
  0
LINE
  8
0
  6
CONTINUOUS
 62
     2
 10
123.8
 20
147.8
 30
0.0
 11
122.503012702
 21
147.8
 31
0.0
  0
LINE
  8
0
  6
CONTINUOUS
 62
     2
 10
112.75
 20
146.2
 30
0.0
 11
117.503012702
 21
146.2
 31
0.0
  0
LINE
  8
0
  6
CONTINUOUS
 62
     1
 10
112.75
 20
146.0
 30
0.0
 11
117.503012702
 21
146.0
 31
0.0
  0
LINE
  8
0
  6
CONTINUOUS
 62
     2
 10
122.503012702
 20
146.2
 30
0.0
 11
123.8
 21
146.2
 31
0.0
  0
LINE
  8
0
  6
CONTINUOUS
 62
     1
 10
122.493012702
 20
146.0
 30
0.0
 11
123.75
 21
146.0
 31
0.0
  0
LINE
  8
0
  6
CONTINUOUS
 62
     1
 10
117.503012702
 20
148.0
 30
0.0
 11
122.253012702
 21
148.0
 31
0.0
  0
LINE
  8
0
  6
CONTINUOUS
 62
     1
 10
117.503012702
 20
146.0
 30
0.0
 11
122.253012702
 21
146.0
 31
0.0
  0
TEXT
  8
0
  6
CONTINUOUS
 62
     2
 10
39.4
 20
169.7
 30
0.2
 40
3.0
  1
目盛は、一例を示します
 50
0.0
 41
0.8
 51
0.0
  7
KANJI2
  0
LINE
  8
0
  6
CONTINUOUS
 62
     5
 10
45.3
 20
140.3
 30
0.0
 11
39.4
 21
168.7
 31
0.0
  0
LINE
  8
0
  6
CONTINUOUS
 62
     5
 10
67.8
 20
168.7
 30
0.0
 11
39.4
 21
168.7
 31
0.0
  0
LINE
  8
0
  6
CONTINUOUS
 62
     5
 10
119.235
 20
168.7
 30
0.0
 11
97.235
 21
168.7
 31
0.0
  0
LINE
  8
0
  6
CONTINUOUS
 62
     5
 10
119.235
 20
168.7
 30
0.0
 11
122.905
 21
148.0
 31
0.0
  0
LINE
  8
0
  6
CONTINUOUS
 62
     5
 10
75.475
 20
112.2
 30
0.0
 11
90.375
 21
112.2
 31
0.0
  0
LINE
  8
0
  6
CONTINUOUS
 62
     5
 10
66.275
 20
118.0
 30
0.0
 11
75.475
 21
112.2
 31
0.0
  0
LINE
  8
0
  6
CONTINUOUS
 62
     5
 10
66.275
 20
118.0
 30
0.0
 11
67.972682377
 21
116.164823021
 31
0.0
  0
LINE
  8
0
  6
CONTINUOUS
 62
     5
 10
66.275
 20
118.0
 30
0.0
 11
68.662824556
 21
117.259531304
 31
0.0
  0
TEXT
  8
0
  6
CONTINUOUS
 62
     2
 10
75.495
 20
112.83
 30
0.18
 40
2.7
  1
フード（白色）
 50
0.0
 41
0.8
 51
0.0
  7
KANJI3
  0
TEXT
  8
0
  6
CONTINUOUS
 62
     2
 10
97.235
 20
169.7
 30
0.2
 40
3.0
  1
２－Ｍ４　押しネジ
 50
0.0
 41
0.8
 51
0.0
  7
KANJI2
  0
LINE
  8
0
  6
CONTINUOUS
 62
     5
 10
122.905
 20
148.0
 30
0.0
 11
121.846328681
 21
150.26477704
 31
0.0
  0
LINE
  8
0
  6
CONTINUOUS
 62
     5
 10
122.905
 20
148.0
 30
0.0
 11
123.120552264
 21
150.49069011
 31
0.0
  0
TEXT
  8
0
  6
CONTINUOUS
 62
     2
 10
101.735
 20
154.1
 30
0.2
 40
3.0
  1
ネジ固定ナット
 50
0.0
 41
0.8
 51
0.0
  7
KANJI2
  0
LINE
  8
0
  6
CONTINUOUS
 62
     5
 10
100.998012702
 20
153.54
 30
0.0
 11
119.148012702
 21
153.54
 31
0.0
  0
POLYLINE
  8
0
  6
CONTINUOUS
 62
     5
 66
     1
  0
VERTEX
  8
0
  6
CONTINUOUS
 62
     5
 10
119.068012702
 20
153.54
 30
0.0
  0
VERTEX
  8
0
  6
CONTINUOUS
 62
     5
 10
120.648012702
 20
147.76
 30
0.0
  0
VERTEX
  8
0
  6
CONTINUOUS
 62
     5
 10
120.635417402
 20
150.259968271
 30
0.0
  0
SEQEND
  0
LINE
  8
0
  6
CONTINUOUS
 62
     5
 10
120.648012702
 20
147.76
 30
0.0
 11
119.387120716
 21
149.918738382
 31
0.0
  0
TEXT
  8
0
  6
CONTINUOUS
 62
     1
 10
20.725
 20
38.875
 30
0.3
 40
3.0
  1
注）
 50
0.0
 41
0.9
 51
0.0
  7
KANJI11
  0
CIRCLE
  8
0
  6
CONTINUOUS
 62
     2
 10
38.395
 20
60.415
 30
0.0
 40
1.6
  0
CIRCLE
  8
0
  6
CONTINUOUS
 62
     2
 10
34.455
 20
60.325
 30
0.0
 40
1.6
  0
CIRCLE
  8
0
  6
CONTINUOUS
 62
     2
 10
39.665
 20
40.195
 30
0.0
 40
1.6
  0
TEXT
  8
0
  6
CONTINUOUS
 62
     2
 10
22.355
 20
70.505
 30
0.3
 40
3.8
  1
計器取付方法
 50
0.0
 41
0.842105263
 51
0.0
  7
KANJI12
  0
TEXT
  8
0
  6
CONTINUOUS
 62
     2
 10
26.825
 20
58.975
 30
0.2
 40
3.0
  1
２．　Ａ　Ｂ　固定用蝶番を９０°回転させて、押しネジで締付ける。
 50
0.0
 41
0.8
 51
0.0
  7
KANJI2
  0
TEXT
  8
0
  6
CONTINUOUS
 62
     2
 10
26.825
 20
53.975
 30
0.2
 40
3.0
  1
３．ネジ固定ナットを右へ廻して、押しネジを固定する。
 50
0.0
 41
0.8
 51
0.0
  7
KANJI2
  0
TEXT
  8
0
  6
CONTINUOUS
 62
     2
 10
26.825
 20
38.975
 30
0.2
 40
3.0
  1
端子記号　＋　は、直流計器にだけ表示し、交流計器には表示しません。
 50
0.0
 41
0.8
 51
0.0
  7
KANJI2
  0
LINE
  8
0
  6
CONTINUOUS
 62
     2
 10
25.9
 20
38.075
 30
0.0
 11
107.675
 21
38.075
 31
0.0
  0
LINE
  8
0
  6
CONTINUOUS
 62
     2
 10
25.9
 20
53.075
 30
0.0
 11
91.855
 21
53.075
 31
0.0
  0
LINE
  8
0
  6
CONTINUOUS
 62
     2
 10
25.9
 20
58.075
 30
0.0
 11
103.705
 21
58.075
 31
0.0
  0
LINE
  8
0
  6
CONTINUOUS
 62
     2
 10
25.9
 20
63.075
 30
0.0
 11
73.625
 21
63.075
 31
0.0
  0
TEXT
  8
0
  6
CONTINUOUS
 62
     2
 10
26.825
 20
64.475
 30
0.2
 40
3.0
  1
１．取付穴に、前面から計器を挿入する。
 50
0.0
 41
0.8
 51
0.0
  7
KANJI2
  0
LINE
  8
0
  6
LTYPE2
 62
     5
 10
176.0
 20
157.175
 30
0.0
 11
176.0
 21
101.0
 31
0.0
  0
LINE
  8
0
  6
LTYPE2
 62
     5
 10
149.0
 20
55.0
 30
0.0
 11
201.675
 21
55.0
 31
0.0
  0
LINE
  8
0
  6
LTYPE2
 62
     5
 10
176.0
 20
81.0
 30
0.0
 11
176.0
 21
29.0
 31
0.0
  0
LINE
  8
0
  6
LTYPE2
 62
     5
 10
49.5
 20
99.0
 30
0.0
 11
49.5
 21
154.0
 31
0.0
  0
LINE
  8
0
  6
LTYPE2
 62
     5
 10
23.0
 20
127.0
 30
0.0
 11
78.0
 21
127.0
 31
0.0
  0
LINE
  8
0
  6
LTYPE2
 62
     5
 10
89.05
 20
127.0
 30
0.0
 11
128.0
 21
127.0
 31
0.0
  0
LINE
  8
0
  6
CONTINUOUS
 62
     5
 10
32.439961247
 20
112.322037057
 30
0.0
 11
30.127039701
 21
111.373146166
 31
0.0
  0
LINE
  8
0
  6
CONTINUOUS
 62
     5
 10
32.439961247
 20
112.322037057
 30
0.0
 11
30.911357877
 21
110.343812667
 31
0.0
  0
TEXT
  8
0
  6
CONTINUOUS
 62
     2
 10
10.05
 20
90.6
 30
0.2
 40
3.0
  1
機械的零位
 50
0.0
 41
0.8
 51
0.0
  7
KANJI2
  0
LINE
  8
0
  6
CONTINUOUS
 62
     5
 10
32.439961247
 20
112.322037057
 30
0.0
 11
2.619724207
 21
89.6
 31
0.0
  0
LINE
  8
0
  6
CONTINUOUS
 62
     5
 10
22.85
 20
89.6
 30
0.0
 11
2.619724207
 21
89.6
 31
0.0
  0
LINE
  8
0
  6
CONTINUOUS
 62
     5
 10
17.7
 20
108.7
 30
0.0
 11
17.7
 21
151.0
 31
0.0
  0
TEXT
  8
0
  6
CONTINUOUS
 62
     1
 10
235.7
 20
29.6
 30
0.4
 40
4.0
  1
□ＲＫ－９６
 50
0.0
 41
0.9
 51
0.0
  7
KANJI13
  0
TEXT
  8
0
  6
CONTINUOUS
 62
     2
 10
235.7
 20
34.6
 30
0.3
 40
3.0
  1
端子カバー付
 50
0.0
 41
0.9
 51
0.0
  7
KANJI11
  0
TEXT
  8
0
  6
CONTINUOUS
 62
     1
 10
235.59
 20
21.77
 30
0.39
 40
3.9
  1
固定用計器　外形図
 50
0.0
 41
0.9
 51
0.0
  7
KANJI14
  0
ENDSEC
  0
EOF
