  0
SECTION
  2
HEADER
  9
$ACADVER
  1
AC1009
  9
$DWGCODEPAGE
  3
dos932
  9
$EXTMIN
 10
0.0
 20
0.0
 30
0.0
  9
$EXTMAX
 10
297.0
 20
210.0
 30
0.0
  9
$LIMMIN
 10
0.0
 20
0.0
  9
$LIMMAX
 10
297.0
 20
210.0
  9
$LTSCALE
 40
1.0
  9
$PDMODE
 70
     0
  0
ENDSEC
  0
SECTION
  2
TABLES
  0
TABLE
  2
VPORT
 70
     1
  0
VPORT
  2
*ACTIVE
 70
     0
 10
0.0
 20
0.0
 11
1.0
 21
1.0
 12
148.5
 22
105.0
 13
0.0
 23
0.0
 14
10.0
 24
10.0
 15
10.0
 25
10.0
 16
0.0
 26
0.0
 36
1.0
 17
0.0
 27
0.0
 37
0.0
 40
297.0
 41
1.414285714
 42
50.0
 43
0.0
 44
0.0
 50
0.0
 51
0.0
 71
     0
 72
  1000
 73
     1
 74
     3
 75
     0
 76
     0
 77
     0
 78
     0
  0
ENDTAB
  0
TABLE
  2
LTYPE
 70
     6
  0
LTYPE
  2
CONTINUOUS
 70
    64
  3
Solid line
 72
    65
 73
     0
 40
0.0
  0
LTYPE
  2
LTYPE1
 70
    64
  3
CENTER
 72
    65
 73
     4
 40
5.0
 49
3.5
 49
-0.5
 49
0.5
 49
-0.5
  0
LTYPE
  2
LTYPE2
 70
    64
  3
HIDDEN
 72
    65
 73
     2
 40
1.0
 49
0.6
 49
-0.4
  0
LTYPE
  2
LTYPE3
 70
    64
  3
CENTER
 72
    65
 73
     4
 40
15.0
 49
10.5
 49
-1.5
 49
1.5
 49
-1.5
  0
LTYPE
  2
LTYPE4
 70
    64
  3
HIDDEN
 72
    65
 73
     2
 40
3.0
 49
1.8
 49
-1.2
  0
LTYPE
  2
LTYPE5
 70
    64
  3
HIDDEN
 72
    65
 73
     2
 40
1.5
 49
0.9
 49
-0.6
  0
ENDTAB
  0
TABLE
  2
LAYER
 70
   128
  0
LAYER
  2
0
 70
     0
 62
     7
  6
CONTINUOUS
  0
LAYER
  2
2
 70
     0
 62
     7
  6
CONTINUOUS
  0
LAYER
  2
3
 70
     0
 62
     7
  6
CONTINUOUS
  0
LAYER
  2
4
 70
     0
 62
     7
  6
CONTINUOUS
  0
LAYER
  2
5
 70
     0
 62
     7
  6
CONTINUOUS
  0
LAYER
  2
6
 70
     0
 62
     7
  6
CONTINUOUS
  0
LAYER
  2
7
 70
     0
 62
     7
  6
CONTINUOUS
  0
LAYER
  2
8
 70
     0
 62
     7
  6
CONTINUOUS
  0
LAYER
  2
9
 70
     0
 62
     7
  6
CONTINUOUS
  0
LAYER
  2
10
 70
     0
 62
     7
  6
CONTINUOUS
  0
LAYER
  2
11
 70
     0
 62
     7
  6
CONTINUOUS
  0
LAYER
  2
12
 70
     0
 62
     7
  6
CONTINUOUS
  0
LAYER
  2
13
 70
     0
 62
     7
  6
CONTINUOUS
  0
LAYER
  2
14
 70
     0
 62
     7
  6
CONTINUOUS
  0
LAYER
  2
15
 70
     0
 62
     7
  6
CONTINUOUS
  0
LAYER
  2
16
 70
     0
 62
     7
  6
CONTINUOUS
  0
LAYER
  2
17
 70
     0
 62
     7
  6
CONTINUOUS
  0
LAYER
  2
18
 70
     0
 62
     7
  6
CONTINUOUS
  0
LAYER
  2
19
 70
     0
 62
     7
  6
CONTINUOUS
  0
LAYER
  2
20
 70
     0
 62
     7
  6
CONTINUOUS
  0
LAYER
  2
21
 70
     0
 62
     7
  6
CONTINUOUS
  0
LAYER
  2
22
 70
     0
 62
     7
  6
CONTINUOUS
  0
LAYER
  2
23
 70
     0
 62
     7
  6
CONTINUOUS
  0
LAYER
  2
24
 70
     0
 62
     7
  6
CONTINUOUS
  0
LAYER
  2
25
 70
     0
 62
     7
  6
CONTINUOUS
  0
LAYER
  2
26
 70
     0
 62
     7
  6
CONTINUOUS
  0
LAYER
  2
27
 70
     0
 62
     7
  6
CONTINUOUS
  0
LAYER
  2
28
 70
     0
 62
     7
  6
CONTINUOUS
  0
LAYER
  2
29
 70
     0
 62
     7
  6
CONTINUOUS
  0
LAYER
  2
30
 70
     0
 62
     7
  6
CONTINUOUS
  0
LAYER
  2
31
 70
     0
 62
     7
  6
CONTINUOUS
  0
LAYER
  2
32
 70
     0
 62
     7
  6
CONTINUOUS
  0
LAYER
  2
33
 70
     0
 62
     7
  6
CONTINUOUS
  0
LAYER
  2
34
 70
     0
 62
     7
  6
CONTINUOUS
  0
LAYER
  2
35
 70
     0
 62
     7
  6
CONTINUOUS
  0
LAYER
  2
36
 70
     0
 62
     7
  6
CONTINUOUS
  0
LAYER
  2
37
 70
     0
 62
     7
  6
CONTINUOUS
  0
LAYER
  2
38
 70
     0
 62
     7
  6
CONTINUOUS
  0
LAYER
  2
39
 70
     0
 62
     7
  6
CONTINUOUS
  0
LAYER
  2
40
 70
     0
 62
     7
  6
CONTINUOUS
  0
LAYER
  2
41
 70
     0
 62
     7
  6
CONTINUOUS
  0
LAYER
  2
42
 70
     0
 62
     7
  6
CONTINUOUS
  0
LAYER
  2
43
 70
     0
 62
     7
  6
CONTINUOUS
  0
LAYER
  2
44
 70
     0
 62
     7
  6
CONTINUOUS
  0
LAYER
  2
45
 70
     0
 62
     7
  6
CONTINUOUS
  0
LAYER
  2
46
 70
     0
 62
     7
  6
CONTINUOUS
  0
LAYER
  2
47
 70
     0
 62
     7
  6
CONTINUOUS
  0
LAYER
  2
48
 70
     0
 62
     7
  6
CONTINUOUS
  0
LAYER
  2
49
 70
     0
 62
     7
  6
CONTINUOUS
  0
LAYER
  2
50
 70
     0
 62
     7
  6
CONTINUOUS
  0
LAYER
  2
51
 70
     0
 62
     7
  6
CONTINUOUS
  0
LAYER
  2
52
 70
     0
 62
     7
  6
CONTINUOUS
  0
LAYER
  2
53
 70
     0
 62
     7
  6
CONTINUOUS
  0
LAYER
  2
54
 70
     0
 62
     7
  6
CONTINUOUS
  0
LAYER
  2
55
 70
     0
 62
     7
  6
CONTINUOUS
  0
LAYER
  2
56
 70
     0
 62
     7
  6
CONTINUOUS
  0
LAYER
  2
57
 70
     0
 62
     7
  6
CONTINUOUS
  0
LAYER
  2
58
 70
     0
 62
     7
  6
CONTINUOUS
  0
LAYER
  2
59
 70
     0
 62
     7
  6
CONTINUOUS
  0
LAYER
  2
60
 70
     0
 62
     7
  6
CONTINUOUS
  0
LAYER
  2
61
 70
     0
 62
     7
  6
CONTINUOUS
  0
LAYER
  2
62
 70
     0
 62
     7
  6
CONTINUOUS
  0
LAYER
  2
63
 70
     0
 62
     7
  6
CONTINUOUS
  0
LAYER
  2
64
 70
     0
 62
     7
  6
CONTINUOUS
  0
LAYER
  2
65
 70
     0
 62
     7
  6
CONTINUOUS
  0
LAYER
  2
66
 70
     0
 62
     7
  6
CONTINUOUS
  0
LAYER
  2
67
 70
     0
 62
     7
  6
CONTINUOUS
  0
LAYER
  2
68
 70
     0
 62
     7
  6
CONTINUOUS
  0
LAYER
  2
69
 70
     0
 62
     7
  6
CONTINUOUS
  0
LAYER
  2
70
 70
     0
 62
     7
  6
CONTINUOUS
  0
LAYER
  2
71
 70
     0
 62
     7
  6
CONTINUOUS
  0
LAYER
  2
72
 70
     0
 62
     7
  6
CONTINUOUS
  0
LAYER
  2
73
 70
     0
 62
     7
  6
CONTINUOUS
  0
LAYER
  2
74
 70
     0
 62
     7
  6
CONTINUOUS
  0
LAYER
  2
75
 70
     0
 62
     7
  6
CONTINUOUS
  0
LAYER
  2
76
 70
     0
 62
     7
  6
CONTINUOUS
  0
LAYER
  2
77
 70
     0
 62
     7
  6
CONTINUOUS
  0
LAYER
  2
78
 70
     0
 62
     7
  6
CONTINUOUS
  0
LAYER
  2
79
 70
     0
 62
     7
  6
CONTINUOUS
  0
LAYER
  2
80
 70
     0
 62
     7
  6
CONTINUOUS
  0
LAYER
  2
81
 70
     0
 62
     7
  6
CONTINUOUS
  0
LAYER
  2
82
 70
     0
 62
     7
  6
CONTINUOUS
  0
LAYER
  2
83
 70
     0
 62
     7
  6
CONTINUOUS
  0
LAYER
  2
84
 70
     0
 62
     7
  6
CONTINUOUS
  0
LAYER
  2
85
 70
     0
 62
     7
  6
CONTINUOUS
  0
LAYER
  2
86
 70
     0
 62
     7
  6
CONTINUOUS
  0
LAYER
  2
87
 70
     0
 62
     7
  6
CONTINUOUS
  0
LAYER
  2
88
 70
     0
 62
     7
  6
CONTINUOUS
  0
LAYER
  2
89
 70
     0
 62
     7
  6
CONTINUOUS
  0
LAYER
  2
90
 70
     0
 62
     7
  6
CONTINUOUS
  0
LAYER
  2
91
 70
     0
 62
     7
  6
CONTINUOUS
  0
LAYER
  2
92
 70
     0
 62
     7
  6
CONTINUOUS
  0
LAYER
  2
93
 70
     0
 62
     7
  6
CONTINUOUS
  0
LAYER
  2
94
 70
     0
 62
     7
  6
CONTINUOUS
  0
LAYER
  2
95
 70
     0
 62
     7
  6
CONTINUOUS
  0
LAYER
  2
96
 70
     0
 62
     7
  6
CONTINUOUS
  0
LAYER
  2
97
 70
     0
 62
     7
  6
CONTINUOUS
  0
LAYER
  2
98
 70
     0
 62
     7
  6
CONTINUOUS
  0
LAYER
  2
99
 70
     0
 62
     7
  6
CONTINUOUS
  0
LAYER
  2
100
 70
     0
 62
     7
  6
CONTINUOUS
  0
LAYER
  2
101
 70
     0
 62
     7
  6
CONTINUOUS
  0
LAYER
  2
102
 70
     0
 62
     7
  6
CONTINUOUS
  0
LAYER
  2
103
 70
     0
 62
     7
  6
CONTINUOUS
  0
LAYER
  2
104
 70
     0
 62
     7
  6
CONTINUOUS
  0
LAYER
  2
105
 70
     0
 62
     7
  6
CONTINUOUS
  0
LAYER
  2
106
 70
     0
 62
     7
  6
CONTINUOUS
  0
LAYER
  2
107
 70
     0
 62
     7
  6
CONTINUOUS
  0
LAYER
  2
108
 70
     0
 62
     7
  6
CONTINUOUS
  0
LAYER
  2
109
 70
     0
 62
     7
  6
CONTINUOUS
  0
LAYER
  2
110
 70
     0
 62
     7
  6
CONTINUOUS
  0
LAYER
  2
111
 70
     0
 62
     7
  6
CONTINUOUS
  0
LAYER
  2
112
 70
     0
 62
     7
  6
CONTINUOUS
  0
LAYER
  2
113
 70
     0
 62
     7
  6
CONTINUOUS
  0
LAYER
  2
114
 70
     0
 62
     7
  6
CONTINUOUS
  0
LAYER
  2
115
 70
     0
 62
     7
  6
CONTINUOUS
  0
LAYER
  2
116
 70
     0
 62
     7
  6
CONTINUOUS
  0
LAYER
  2
117
 70
     0
 62
     7
  6
CONTINUOUS
  0
LAYER
  2
118
 70
     0
 62
     7
  6
CONTINUOUS
  0
LAYER
  2
119
 70
     0
 62
     7
  6
CONTINUOUS
  0
LAYER
  2
120
 70
     0
 62
     7
  6
CONTINUOUS
  0
LAYER
  2
121
 70
     0
 62
     7
  6
CONTINUOUS
  0
LAYER
  2
122
 70
     0
 62
     7
  6
CONTINUOUS
  0
LAYER
  2
123
 70
     0
 62
     7
  6
CONTINUOUS
  0
LAYER
  2
124
 70
     0
 62
     7
  6
CONTINUOUS
  0
LAYER
  2
125
 70
     0
 62
     7
  6
CONTINUOUS
  0
LAYER
  2
126
 70
     0
 62
     7
  6
CONTINUOUS
  0
LAYER
  2
127
 70
     0
 62
     7
  6
CONTINUOUS
  0
LAYER
  2
128
 70
     0
 62
     7
  6
CONTINUOUS
  0
ENDTAB
  0
TABLE
  2
STYLE
 70
     8
  0
STYLE
  2
STANDARD
 70
     0
 40
0.0
 41
1.0
 50
0.0
 71
     0
 42
0.2
  3
txt.shx
  4
extfont.shx
  0
STYLE
  2
KANJI0
 70
     0
 40
3.0
 41
0.666666667
 50
0.0
 71
     0
 42
3.0
  3
txt.shx
  4
extfont.shx
  0
STYLE
  2
KANJI1
 70
     0
 40
1.8
 41
0.666666667
 50
0.0
 71
     0
 42
1.8
  3
txt.shx
  4
extfont.shx
  0
STYLE
  2
KANJI2
 70
     0
 40
3.0
 41
0.6
 50
0.0
 71
     0
 42
3.0
  3
txt.shx
  4
extfont.shx
  0
STYLE
  2
KANJI3
 70
     0
 40
4.0
 41
0.9
 50
0.0
 71
     0
 42
4.0
  3
txt.shx
  4
extfont.shx
  0
STYLE
  2
KANJI4
 70
     0
 40
3.6
 41
0.9
 50
0.0
 71
     0
 42
3.6
  3
txt.shx
  4
extfont.shx
  0
STYLE
  2
KANJI5
 70
     0
 40
4.8
 41
0.9
 50
0.0
 71
     0
 42
4.8
  3
txt.shx
  4
extfont.shx
  0
STYLE
  2
KANJI6
 70
     0
 40
4.8
 41
0.9
 50
0.0
 71
     0
 42
4.8
  3
txt.shx
  4
extfont.shx
  0
ENDTAB
  0
TABLE
  2
VIEW
 70
     0
  0
ENDTAB
  0
ENDSEC
  0
SECTION
  2
BLOCKS
  0
ENDSEC
  0
SECTION
  2
ENTITIES
  0
ARC
  8
0
  6
CONTINUOUS
 62
     1
 10
150.5
 20
156.0
 30
0.0
 40
2.0
 50
0.0
 51
90.0
  0
LINE
  8
0
  6
CONTINUOUS
 62
     1
 10
152.5
 20
124.0
 30
0.0
 11
152.5
 21
156.0
 31
0.0
  0
ARC
  8
0
  6
CONTINUOUS
 62
     1
 10
150.5
 20
124.0
 30
0.0
 40
2.0
 50
270.0
 51
0.0
  0
LINE
  8
0
  6
CONTINUOUS
 62
     1
 10
89.5
 20
122.0
 30
0.0
 11
150.5
 21
122.0
 31
0.0
  0
ARC
  8
0
  6
CONTINUOUS
 62
     1
 10
89.5
 20
124.0
 30
0.0
 40
2.0
 50
180.0
 51
270.0
  0
LINE
  8
0
  6
CONTINUOUS
 62
     1
 10
150.5
 20
158.0
 30
0.0
 11
89.5
 21
158.0
 31
0.0
  0
LINE
  8
0
  6
CONTINUOUS
 62
     1
 10
87.5
 20
156.0
 30
0.0
 11
87.5
 21
124.0
 31
0.0
  0
ARC
  8
0
  6
CONTINUOUS
 62
     1
 10
89.5
 20
156.0
 30
0.0
 40
2.0
 50
90.0
 51
180.0
  0
LINE
  8
0
  6
CONTINUOUS
 62
     1
 10
152.5
 20
50.0
 30
0.0
 11
161.0
 21
50.0
 31
0.0
  0
LINE
  8
0
  6
CONTINUOUS
 62
     1
 10
161.0
 20
50.0
 30
0.0
 11
161.0
 21
53.5
 31
0.0
  0
LINE
  8
0
  6
CONTINUOUS
 62
     1
 10
161.0
 20
53.5
 30
0.0
 11
152.5
 21
53.5
 31
0.0
  0
LINE
  8
0
  6
CONTINUOUS
 62
     1
 10
87.5
 20
50.0
 30
0.0
 11
79.0
 21
50.0
 31
0.0
  0
LINE
  8
0
  6
CONTINUOUS
 62
     1
 10
79.0
 20
50.0
 30
0.0
 11
79.0
 21
53.5
 31
0.0
  0
LINE
  8
0
  6
CONTINUOUS
 62
     1
 10
79.0
 20
53.5
 30
0.0
 11
87.5
 21
53.5
 31
0.0
  0
ARC
  8
0
  6
CONTINUOUS
 62
     1
 10
148.25
 20
50.0
 30
0.0
 40
0.75
 50
0.0
 51
90.0
  0
ARC
  8
0
  6
CONTINUOUS
 62
     1
 10
91.75
 20
50.0
 30
0.0
 40
0.75
 50
90.0
 51
180.0
  0
LINE
  8
0
  6
CONTINUOUS
 62
     1
 10
91.75
 20
50.75
 30
0.0
 11
148.25
 21
50.75
 31
0.0
  0
CIRCLE
  8
0
  6
CONTINUOUS
 62
     1
 10
156.75
 20
140.0
 30
0.0
 40
1.375
  0
CIRCLE
  8
0
  6
CONTINUOUS
 62
     1
 10
83.25
 20
140.0
 30
0.0
 40
1.375
  0
LINE
  8
0
  6
CONTINUOUS
 62
     1
 10
160.472033969
 20
142.051575769
 30
0.0
 11
152.251545397
 21
156.965447421
 31
0.0
  0
LINE
  8
0
  6
CONTINUOUS
 62
     1
 10
160.472033969
 20
137.948424231
 30
0.0
 11
152.251545397
 21
123.034552579
 31
0.0
  0
LINE
  8
0
  6
CONTINUOUS
 62
     1
 10
79.527966031
 20
137.948424231
 30
0.0
 11
87.748454603
 21
123.034552579
 31
0.0
  0
LINE
  8
0
  6
CONTINUOUS
 62
     1
 10
79.527966031
 20
142.051575769
 30
0.0
 11
87.748454603
 21
156.965447421
 31
0.0
  0
ARC
  8
0
  6
CONTINUOUS
 62
     1
 10
83.25
 20
140.0
 30
0.0
 40
4.25
 50
151.136556553
 51
208.863443447
  0
ARC
  8
0
  6
CONTINUOUS
 62
     1
 10
156.75
 20
140.0
 30
0.0
 40
4.25
 50
331.136556553
 51
28.863443447
  0
LINE
  8
0
  6
CONTINUOUS
 62
     1
 10
149.0
 20
50.0
 30
0.0
 11
152.5
 21
50.0
 31
0.0
  0
LINE
  8
0
  6
CONTINUOUS
 62
     1
 10
87.5
 20
50.0
 30
0.0
 11
91.0
 21
50.0
 31
0.0
  0
LINE
  8
0
  6
CONTINUOUS
 62
     1
 10
152.5
 20
73.0
 30
0.0
 11
87.5
 21
73.0
 31
0.0
  0
LINE
  8
0
  6
CONTINUOUS
 62
     1
 10
87.5
 20
74.75
 30
0.0
 11
87.5
 21
73.0
 31
0.0
  0
ARC
  8
0
  6
CONTINUOUS
 62
     1
 10
88.25
 20
74.75
 30
0.0
 40
0.75
 50
90.0
 51
180.0
  0
LINE
  8
0
  6
CONTINUOUS
 62
     1
 10
152.5
 20
73.0
 30
0.0
 11
152.5
 21
74.75
 31
0.0
  0
LINE
  8
0
  6
CONTINUOUS
 62
     1
 10
151.75
 20
75.5
 30
0.0
 11
88.25
 21
75.5
 31
0.0
  0
ARC
  8
0
  6
CONTINUOUS
 62
     1
 10
151.75
 20
74.75
 30
0.0
 40
0.75
 50
0.0
 51
90.0
  0
LINE
  8
0
  6
CONTINUOUS
 62
     1
 10
87.5
 20
73.0
 30
0.0
 11
87.5
 21
50.0
 31
0.0
  0
LINE
  8
0
  6
CONTINUOUS
 62
     1
 10
152.5
 20
50.0
 30
0.0
 11
152.5
 21
73.0
 31
0.0
  0
LINE
  8
0
  6
CONTINUOUS
 62
     1
 10
119.0
 20
66.5
 30
0.0
 11
119.0
 21
50.75
 31
0.0
  0
LINE
  8
0
  6
CONTINUOUS
 62
     1
 10
121.0
 20
50.75
 30
0.0
 11
121.0
 21
66.5
 31
0.0
  0
ARC
  8
0
  6
CONTINUOUS
 62
     1
 10
120.0
 20
66.5
 30
0.0
 40
1.0
 50
0.0
 51
180.0
  0
LINE
  8
0
  6
CONTINUOUS
 62
     1
 10
119.0
 20
53.0
 30
0.0
 11
121.0
 21
53.0
 31
0.0
  0
LINE
  8
0
  6
CONTINUOUS
 62
     1
 10
111.5
 20
66.5
 30
0.0
 11
111.5
 21
50.75
 31
0.0
  0
LINE
  8
0
  6
CONTINUOUS
 62
     1
 10
113.5
 20
50.75
 30
0.0
 11
113.5
 21
66.5
 31
0.0
  0
ARC
  8
0
  6
CONTINUOUS
 62
     1
 10
112.5
 20
66.5
 30
0.0
 40
1.0
 50
0.0
 51
180.0
  0
LINE
  8
0
  6
CONTINUOUS
 62
     1
 10
111.5
 20
53.0
 30
0.0
 11
113.5
 21
53.0
 31
0.0
  0
LINE
  8
0
  6
CONTINUOUS
 62
     1
 10
104.0
 20
66.5
 30
0.0
 11
104.0
 21
50.75
 31
0.0
  0
LINE
  8
0
  6
CONTINUOUS
 62
     1
 10
106.0
 20
50.75
 30
0.0
 11
106.0
 21
66.5
 31
0.0
  0
ARC
  8
0
  6
CONTINUOUS
 62
     1
 10
105.0
 20
66.5
 30
0.0
 40
1.0
 50
0.0
 51
180.0
  0
LINE
  8
0
  6
CONTINUOUS
 62
     1
 10
104.0
 20
53.0
 30
0.0
 11
106.0
 21
53.0
 31
0.0
  0
LINE
  8
0
  6
CONTINUOUS
 62
     1
 10
96.5
 20
66.5
 30
0.0
 11
96.5
 21
50.75
 31
0.0
  0
LINE
  8
0
  6
CONTINUOUS
 62
     1
 10
98.5
 20
50.75
 30
0.0
 11
98.5
 21
66.5
 31
0.0
  0
ARC
  8
0
  6
CONTINUOUS
 62
     1
 10
97.5
 20
66.5
 30
0.0
 40
1.0
 50
0.0
 51
180.0
  0
LINE
  8
0
  6
CONTINUOUS
 62
     1
 10
96.5
 20
53.0
 30
0.0
 11
98.5
 21
53.0
 31
0.0
  0
LINE
  8
0
  6
CONTINUOUS
 62
     1
 10
128.5
 20
66.5
 30
0.0
 11
128.5
 21
50.75
 31
0.0
  0
LINE
  8
0
  6
CONTINUOUS
 62
     1
 10
126.5
 20
50.75
 30
0.0
 11
126.5
 21
66.5
 31
0.0
  0
ARC
  8
0
  6
CONTINUOUS
 62
     1
 10
127.5
 20
66.5
 30
0.0
 40
1.0
 50
0.0
 51
180.0
  0
LINE
  8
0
  6
CONTINUOUS
 62
     1
 10
128.5
 20
53.0
 30
0.0
 11
126.5
 21
53.0
 31
0.0
  0
LINE
  8
0
  6
CONTINUOUS
 62
     1
 10
136.0
 20
66.5
 30
0.0
 11
136.0
 21
50.75
 31
0.0
  0
LINE
  8
0
  6
CONTINUOUS
 62
     1
 10
134.0
 20
50.75
 30
0.0
 11
134.0
 21
66.5
 31
0.0
  0
ARC
  8
0
  6
CONTINUOUS
 62
     1
 10
135.0
 20
66.5
 30
0.0
 40
1.0
 50
0.0
 51
180.0
  0
LINE
  8
0
  6
CONTINUOUS
 62
     1
 10
136.0
 20
53.0
 30
0.0
 11
134.0
 21
53.0
 31
0.0
  0
LINE
  8
0
  6
CONTINUOUS
 62
     1
 10
143.5
 20
66.5
 30
0.0
 11
143.5
 21
50.75
 31
0.0
  0
LINE
  8
0
  6
CONTINUOUS
 62
     1
 10
141.5
 20
50.75
 30
0.0
 11
141.5
 21
66.5
 31
0.0
  0
ARC
  8
0
  6
CONTINUOUS
 62
     1
 10
142.5
 20
66.5
 30
0.0
 40
1.0
 50
0.0
 51
180.0
  0
LINE
  8
0
  6
CONTINUOUS
 62
     1
 10
143.5
 20
53.0
 30
0.0
 11
141.5
 21
53.0
 31
0.0
  0
LINE
  8
0
  6
CONTINUOUS
 62
     2
 10
88.5
 20
158.0
 30
0.0
 11
67.0
 21
158.0
 31
0.0
  0
LINE
  8
0
  6
CONTINUOUS
 62
     2
 10
69.0
 20
158.0
 30
0.0
 11
68.352952387
 21
155.585185434
 31
0.0
  0
LINE
  8
0
  6
CONTINUOUS
 62
     2
 10
69.0
 20
158.0
 30
0.0
 11
69.647047613
 21
155.585185434
 31
0.0
  0
LINE
  8
0
  6
CONTINUOUS
 62
     2
 10
69.0
 20
158.0
 30
0.0
 11
69.0
 21
122.0
 31
0.0
  0
LINE
  8
0
  6
CONTINUOUS
 62
     2
 10
69.0
 20
122.0
 30
0.0
 11
69.647047613
 21
124.414814566
 31
0.0
  0
LINE
  8
0
  6
CONTINUOUS
 62
     2
 10
69.0
 20
122.0
 30
0.0
 11
68.352952387
 21
124.414814566
 31
0.0
  0
LINE
  8
0
  6
CONTINUOUS
 62
     2
 10
88.5
 20
122.0
 30
0.0
 11
67.0
 21
122.0
 31
0.0
  0
TEXT
  8
0
  6
CONTINUOUS
 62
     2
 10
68.0
 20
137.85
 30
0.3
 40
3.0
  1
７２
 50
90.0
 41
0.666666667
 51
0.0
  7
KANJI0
  0
LINE
  8
0
  6
CONTINUOUS
 62
     2
 10
87.5
 20
157.0
 30
0.0
 11
87.5
 21
165.0
 31
0.0
  0
LINE
  8
0
  6
CONTINUOUS
 62
     2
 10
87.5
 20
163.0
 30
0.0
 11
89.914814566
 21
162.352952387
 31
0.0
  0
LINE
  8
0
  6
CONTINUOUS
 62
     2
 10
87.5
 20
163.0
 30
0.0
 11
89.914814566
 21
163.647047613
 31
0.0
  0
LINE
  8
0
  6
CONTINUOUS
 62
     2
 10
87.5
 20
163.0
 30
0.0
 11
152.5
 21
163.0
 31
0.0
  0
LINE
  8
0
  6
CONTINUOUS
 62
     2
 10
152.5
 20
163.0
 30
0.0
 11
150.085185434
 21
163.647047613
 31
0.0
  0
LINE
  8
0
  6
CONTINUOUS
 62
     2
 10
152.5
 20
163.0
 30
0.0
 11
150.085185434
 21
162.352952387
 31
0.0
  0
LINE
  8
0
  6
CONTINUOUS
 62
     2
 10
152.5
 20
157.0
 30
0.0
 11
152.5
 21
165.0
 31
0.0
  0
TEXT
  8
0
  6
CONTINUOUS
 62
     2
 10
116.7
 20
164.0
 30
0.3
 40
3.0
  1
１３０
 50
0.0
 41
0.666666667
 51
0.0
  7
KANJI0
  0
LINE
  8
0
  6
LTYPE1
 62
     2
 10
154.75
 20
140.0
 30
0.0
 11
158.75
 21
140.0
 31
0.0
  0
LINE
  8
0
  6
LTYPE1
 62
     2
 10
156.75
 20
142.0
 30
0.0
 11
156.75
 21
138.0
 31
0.0
  0
LINE
  8
0
  6
LTYPE1
 62
     2
 10
81.25
 20
140.0
 30
0.0
 11
85.25
 21
140.0
 31
0.0
  0
LINE
  8
0
  6
LTYPE1
 62
     2
 10
83.25
 20
142.0
 30
0.0
 11
83.25
 21
138.0
 31
0.0
  0
LINE
  8
0
  6
CONTINUOUS
 62
     2
 10
83.25
 20
142.0
 30
0.0
 11
83.25
 21
170.0
 31
0.0
  0
LINE
  8
0
  6
CONTINUOUS
 62
     2
 10
83.25
 20
168.0
 30
0.0
 11
85.664814566
 21
167.352952387
 31
0.0
  0
LINE
  8
0
  6
CONTINUOUS
 62
     2
 10
83.25
 20
168.0
 30
0.0
 11
85.664814566
 21
168.647047613
 31
0.0
  0
LINE
  8
0
  6
CONTINUOUS
 62
     2
 10
83.25
 20
168.0
 30
0.0
 11
156.75
 21
168.0
 31
0.0
  0
LINE
  8
0
  6
CONTINUOUS
 62
     2
 10
156.75
 20
168.0
 30
0.0
 11
154.335185434
 21
168.647047613
 31
0.0
  0
LINE
  8
0
  6
CONTINUOUS
 62
     2
 10
156.75
 20
168.0
 30
0.0
 11
154.335185434
 21
167.352952387
 31
0.0
  0
LINE
  8
0
  6
CONTINUOUS
 62
     2
 10
156.75
 20
142.0
 30
0.0
 11
156.75
 21
170.0
 31
0.0
  0
TEXT
  8
0
  6
CONTINUOUS
 62
     2
 10
122.16
 20
169.0
 30
0.18
 40
1.8
  1
±１
 50
0.0
 41
0.666666667
 51
0.0
  7
KANJI1
  0
TEXT
  8
0
  6
CONTINUOUS
 62
     2
 10
115.26
 20
169.0
 30
0.3
 40
3.0
  1
１４７
 50
0.0
 41
0.666666667
 51
0.0
  7
KANJI0
  0
LINE
  8
0
  6
CONTINUOUS
 62
     2
 10
79.0
 20
141.5
 30
0.0
 11
79.0
 21
175.0
 31
0.0
  0
LINE
  8
0
  6
CONTINUOUS
 62
     2
 10
79.0
 20
173.0
 30
0.0
 11
81.414814566
 21
172.352952387
 31
0.0
  0
LINE
  8
0
  6
CONTINUOUS
 62
     2
 10
79.0
 20
173.0
 30
0.0
 11
81.414814566
 21
173.647047613
 31
0.0
  0
LINE
  8
0
  6
CONTINUOUS
 62
     2
 10
79.0
 20
173.0
 30
0.0
 11
161.0
 21
173.0
 31
0.0
  0
LINE
  8
0
  6
CONTINUOUS
 62
     2
 10
161.0
 20
173.0
 30
0.0
 11
158.585185434
 21
173.647047613
 31
0.0
  0
LINE
  8
0
  6
CONTINUOUS
 62
     2
 10
161.0
 20
173.0
 30
0.0
 11
158.585185434
 21
172.352952387
 31
0.0
  0
LINE
  8
0
  6
CONTINUOUS
 62
     2
 10
161.0
 20
141.5
 30
0.0
 11
161.0
 21
175.0
 31
0.0
  0
TEXT
  8
0
  6
CONTINUOUS
 62
     2
 10
116.7
 20
174.0
 30
0.3
 40
3.0
  1
１６４
 50
0.0
 41
0.666666667
 51
0.0
  7
KANJI0
  0
LINE
  8
0
  6
CONTINUOUS
 62
     2
 10
78.0
 20
50.0
 30
0.0
 11
72.0
 21
50.0
 31
0.0
  0
LINE
  8
0
  6
CONTINUOUS
 62
     2
 10
74.0
 20
50.0
 30
0.0
 11
73.352952387
 21
47.585185434
 31
0.0
  0
LINE
  8
0
  6
CONTINUOUS
 62
     2
 10
74.0
 20
50.0
 30
0.0
 11
74.647047613
 21
47.585185434
 31
0.0
  0
LINE
  8
0
  6
CONTINUOUS
 62
     2
 10
74.0
 20
45.0
 30
0.0
 11
74.0
 21
58.5
 31
0.0
  0
LINE
  8
0
  6
CONTINUOUS
 62
     2
 10
74.0
 20
53.5
 30
0.0
 11
74.647047613
 21
55.914814566
 31
0.0
  0
LINE
  8
0
  6
CONTINUOUS
 62
     2
 10
74.0
 20
53.5
 30
0.0
 11
73.352952387
 21
55.914814566
 31
0.0
  0
LINE
  8
0
  6
CONTINUOUS
 62
     2
 10
78.0
 20
53.5
 30
0.0
 11
72.0
 21
53.5
 31
0.0
  0
TEXT
  8
0
  6
CONTINUOUS
 62
     2
 10
73.0
 20
50.75
 30
0.3
 40
3.0
  1
７
 50
90.0
 41
0.666666667
 51
0.0
  7
KANJI0
  0
LINE
  8
0
  6
LTYPE1
 62
     2
 10
70.0
 20
140.0
 30
0.0
 11
170.0
 21
140.0
 31
0.0
  0
LINE
  8
0
  6
LTYPE1
 62
     2
 10
120.0
 20
164.0
 30
0.0
 11
120.0
 21
115.0
 31
0.0
  0
LINE
  8
0
  6
LTYPE1
 62
     2
 10
120.0
 20
85.0
 30
0.0
 11
120.0
 21
45.0
 31
0.0
  0
LINE
  8
0
  6
LTYPE1
 62
     2
 10
83.25
 20
58.5
 30
0.0
 11
83.25
 21
45.0
 31
0.0
  0
LINE
  8
0
  6
LTYPE1
 62
     2
 10
156.75
 20
58.5
 30
0.0
 11
156.75
 21
45.0
 31
0.0
  0
CIRCLE
  8
0
  6
CONTINUOUS
 62
     2
 10
90.0
 20
155.5
 30
0.0
 40
1.5
  0
LINE
  8
0
  6
CONTINUOUS
 62
     2
 10
89.125
 20
155.7
 30
0.0
 11
89.6
 21
155.7
 31
0.0
  0
ARC
  8
0
  6
CONTINUOUS
 62
     2
 10
89.6
 20
155.9
 30
0.0
 40
0.2
 50
270.0
 51
0.0
  0
LINE
  8
0
  6
CONTINUOUS
 62
     2
 10
89.8
 20
155.9
 30
0.0
 11
89.8
 21
156.375
 31
0.0
  0
LINE
  8
0
  6
CONTINUOUS
 62
     2
 10
89.8
 20
156.375
 30
0.0
 11
90.2
 21
156.375
 31
0.0
  0
LINE
  8
0
  6
CONTINUOUS
 62
     2
 10
90.2
 20
156.375
 30
0.0
 11
90.2
 21
155.9
 31
0.0
  0
ARC
  8
0
  6
CONTINUOUS
 62
     2
 10
90.4
 20
155.9
 30
0.0
 40
0.2
 50
180.0
 51
270.0
  0
LINE
  8
0
  6
CONTINUOUS
 62
     2
 10
90.4
 20
155.7
 30
0.0
 11
90.875
 21
155.7
 31
0.0
  0
LINE
  8
0
  6
CONTINUOUS
 62
     2
 10
90.875
 20
155.7
 30
0.0
 11
90.875
 21
155.3
 31
0.0
  0
LINE
  8
0
  6
CONTINUOUS
 62
     2
 10
90.875
 20
155.3
 30
0.0
 11
90.4
 21
155.3
 31
0.0
  0
ARC
  8
0
  6
CONTINUOUS
 62
     2
 10
90.4
 20
155.1
 30
0.0
 40
0.2
 50
90.0
 51
180.0
  0
LINE
  8
0
  6
CONTINUOUS
 62
     2
 10
90.2
 20
155.1
 30
0.0
 11
90.2
 21
154.625
 31
0.0
  0
LINE
  8
0
  6
CONTINUOUS
 62
     2
 10
90.2
 20
154.625
 30
0.0
 11
89.8
 21
154.625
 31
0.0
  0
LINE
  8
0
  6
CONTINUOUS
 62
     2
 10
89.8
 20
154.625
 30
0.0
 11
89.8
 21
155.1
 31
0.0
  0
ARC
  8
0
  6
CONTINUOUS
 62
     2
 10
89.6
 20
155.1
 30
0.0
 40
0.2
 50
0.0
 51
90.0
  0
LINE
  8
0
  6
CONTINUOUS
 62
     2
 10
89.6
 20
155.3
 30
0.0
 11
89.125
 21
155.3
 31
0.0
  0
LINE
  8
0
  6
CONTINUOUS
 62
     2
 10
89.125
 20
155.3
 30
0.0
 11
89.125
 21
155.7
 31
0.0
  0
LINE
  8
0
  6
LTYPE1
 62
     2
 10
88.0
 20
155.5
 30
0.0
 11
92.0
 21
155.5
 31
0.0
  0
LINE
  8
0
  6
LTYPE1
 62
     2
 10
90.0
 20
157.5
 30
0.0
 11
90.0
 21
153.5
 31
0.0
  0
CIRCLE
  8
0
  6
CONTINUOUS
 62
     2
 10
150.0
 20
155.5
 30
0.0
 40
1.5
  0
LINE
  8
0
  6
CONTINUOUS
 62
     2
 10
149.125
 20
155.7
 30
0.0
 11
149.6
 21
155.7
 31
0.0
  0
ARC
  8
0
  6
CONTINUOUS
 62
     2
 10
149.6
 20
155.9
 30
0.0
 40
0.2
 50
270.0
 51
0.0
  0
LINE
  8
0
  6
CONTINUOUS
 62
     2
 10
149.8
 20
155.9
 30
0.0
 11
149.8
 21
156.375
 31
0.0
  0
LINE
  8
0
  6
CONTINUOUS
 62
     2
 10
149.8
 20
156.375
 30
0.0
 11
150.2
 21
156.375
 31
0.0
  0
LINE
  8
0
  6
CONTINUOUS
 62
     2
 10
150.2
 20
156.375
 30
0.0
 11
150.2
 21
155.9
 31
0.0
  0
ARC
  8
0
  6
CONTINUOUS
 62
     2
 10
150.4
 20
155.9
 30
0.0
 40
0.2
 50
180.0
 51
270.0
  0
LINE
  8
0
  6
CONTINUOUS
 62
     2
 10
150.4
 20
155.7
 30
0.0
 11
150.875
 21
155.7
 31
0.0
  0
LINE
  8
0
  6
CONTINUOUS
 62
     2
 10
150.875
 20
155.7
 30
0.0
 11
150.875
 21
155.3
 31
0.0
  0
LINE
  8
0
  6
CONTINUOUS
 62
     2
 10
150.875
 20
155.3
 30
0.0
 11
150.4
 21
155.3
 31
0.0
  0
ARC
  8
0
  6
CONTINUOUS
 62
     2
 10
150.4
 20
155.1
 30
0.0
 40
0.2
 50
90.0
 51
180.0
  0
LINE
  8
0
  6
CONTINUOUS
 62
     2
 10
150.2
 20
155.1
 30
0.0
 11
150.2
 21
154.625
 31
0.0
  0
LINE
  8
0
  6
CONTINUOUS
 62
     2
 10
150.2
 20
154.625
 30
0.0
 11
149.8
 21
154.625
 31
0.0
  0
LINE
  8
0
  6
CONTINUOUS
 62
     2
 10
149.8
 20
154.625
 30
0.0
 11
149.8
 21
155.1
 31
0.0
  0
ARC
  8
0
  6
CONTINUOUS
 62
     2
 10
149.6
 20
155.1
 30
0.0
 40
0.2
 50
0.0
 51
90.0
  0
LINE
  8
0
  6
CONTINUOUS
 62
     2
 10
149.6
 20
155.3
 30
0.0
 11
149.125
 21
155.3
 31
0.0
  0
LINE
  8
0
  6
CONTINUOUS
 62
     2
 10
149.125
 20
155.3
 30
0.0
 11
149.125
 21
155.7
 31
0.0
  0
LINE
  8
0
  6
LTYPE1
 62
     2
 10
148.0
 20
155.5
 30
0.0
 11
152.0
 21
155.5
 31
0.0
  0
LINE
  8
0
  6
LTYPE1
 62
     2
 10
150.0
 20
157.5
 30
0.0
 11
150.0
 21
153.5
 31
0.0
  0
CIRCLE
  8
0
  6
CONTINUOUS
 62
     2
 10
150.0
 20
124.5
 30
0.0
 40
1.5
  0
LINE
  8
0
  6
CONTINUOUS
 62
     2
 10
149.125
 20
124.7
 30
0.0
 11
149.6
 21
124.7
 31
0.0
  0
ARC
  8
0
  6
CONTINUOUS
 62
     2
 10
149.6
 20
124.9
 30
0.0
 40
0.2
 50
270.0
 51
0.0
  0
LINE
  8
0
  6
CONTINUOUS
 62
     2
 10
149.8
 20
124.9
 30
0.0
 11
149.8
 21
125.375
 31
0.0
  0
LINE
  8
0
  6
CONTINUOUS
 62
     2
 10
149.8
 20
125.375
 30
0.0
 11
150.2
 21
125.375
 31
0.0
  0
LINE
  8
0
  6
CONTINUOUS
 62
     2
 10
150.2
 20
125.375
 30
0.0
 11
150.2
 21
124.9
 31
0.0
  0
ARC
  8
0
  6
CONTINUOUS
 62
     2
 10
150.4
 20
124.9
 30
0.0
 40
0.2
 50
180.0
 51
270.0
  0
LINE
  8
0
  6
CONTINUOUS
 62
     2
 10
150.4
 20
124.7
 30
0.0
 11
150.875
 21
124.7
 31
0.0
  0
LINE
  8
0
  6
CONTINUOUS
 62
     2
 10
150.875
 20
124.7
 30
0.0
 11
150.875
 21
124.3
 31
0.0
  0
LINE
  8
0
  6
CONTINUOUS
 62
     2
 10
150.875
 20
124.3
 30
0.0
 11
150.4
 21
124.3
 31
0.0
  0
ARC
  8
0
  6
CONTINUOUS
 62
     2
 10
150.4
 20
124.1
 30
0.0
 40
0.2
 50
90.0
 51
180.0
  0
LINE
  8
0
  6
CONTINUOUS
 62
     2
 10
150.2
 20
124.1
 30
0.0
 11
150.2
 21
123.625
 31
0.0
  0
LINE
  8
0
  6
CONTINUOUS
 62
     2
 10
150.2
 20
123.625
 30
0.0
 11
149.8
 21
123.625
 31
0.0
  0
LINE
  8
0
  6
CONTINUOUS
 62
     2
 10
149.8
 20
123.625
 30
0.0
 11
149.8
 21
124.1
 31
0.0
  0
ARC
  8
0
  6
CONTINUOUS
 62
     2
 10
149.6
 20
124.1
 30
0.0
 40
0.2
 50
0.0
 51
90.0
  0
LINE
  8
0
  6
CONTINUOUS
 62
     2
 10
149.6
 20
124.3
 30
0.0
 11
149.125
 21
124.3
 31
0.0
  0
LINE
  8
0
  6
CONTINUOUS
 62
     2
 10
149.125
 20
124.3
 30
0.0
 11
149.125
 21
124.7
 31
0.0
  0
LINE
  8
0
  6
LTYPE1
 62
     2
 10
148.0
 20
124.5
 30
0.0
 11
152.0
 21
124.5
 31
0.0
  0
LINE
  8
0
  6
LTYPE1
 62
     2
 10
150.0
 20
126.5
 30
0.0
 11
150.0
 21
122.5
 31
0.0
  0
CIRCLE
  8
0
  6
CONTINUOUS
 62
     2
 10
90.0
 20
124.5
 30
0.0
 40
1.5
  0
LINE
  8
0
  6
CONTINUOUS
 62
     2
 10
89.125
 20
124.7
 30
0.0
 11
89.6
 21
124.7
 31
0.0
  0
ARC
  8
0
  6
CONTINUOUS
 62
     2
 10
89.6
 20
124.9
 30
0.0
 40
0.2
 50
270.0
 51
0.0
  0
LINE
  8
0
  6
CONTINUOUS
 62
     2
 10
89.8
 20
124.9
 30
0.0
 11
89.8
 21
125.375
 31
0.0
  0
LINE
  8
0
  6
CONTINUOUS
 62
     2
 10
89.8
 20
125.375
 30
0.0
 11
90.2
 21
125.375
 31
0.0
  0
LINE
  8
0
  6
CONTINUOUS
 62
     2
 10
90.2
 20
125.375
 30
0.0
 11
90.2
 21
124.9
 31
0.0
  0
ARC
  8
0
  6
CONTINUOUS
 62
     2
 10
90.4
 20
124.9
 30
0.0
 40
0.2
 50
180.0
 51
270.0
  0
LINE
  8
0
  6
CONTINUOUS
 62
     2
 10
90.4
 20
124.7
 30
0.0
 11
90.875
 21
124.7
 31
0.0
  0
LINE
  8
0
  6
CONTINUOUS
 62
     2
 10
90.875
 20
124.7
 30
0.0
 11
90.875
 21
124.3
 31
0.0
  0
LINE
  8
0
  6
CONTINUOUS
 62
     2
 10
90.875
 20
124.3
 30
0.0
 11
90.4
 21
124.3
 31
0.0
  0
ARC
  8
0
  6
CONTINUOUS
 62
     2
 10
90.4
 20
124.1
 30
0.0
 40
0.2
 50
90.0
 51
180.0
  0
LINE
  8
0
  6
CONTINUOUS
 62
     2
 10
90.2
 20
124.1
 30
0.0
 11
90.2
 21
123.625
 31
0.0
  0
LINE
  8
0
  6
CONTINUOUS
 62
     2
 10
90.2
 20
123.625
 30
0.0
 11
89.8
 21
123.625
 31
0.0
  0
LINE
  8
0
  6
CONTINUOUS
 62
     2
 10
89.8
 20
123.625
 30
0.0
 11
89.8
 21
124.1
 31
0.0
  0
ARC
  8
0
  6
CONTINUOUS
 62
     2
 10
89.6
 20
124.1
 30
0.0
 40
0.2
 50
0.0
 51
90.0
  0
LINE
  8
0
  6
CONTINUOUS
 62
     2
 10
89.6
 20
124.3
 30
0.0
 11
89.125
 21
124.3
 31
0.0
  0
LINE
  8
0
  6
CONTINUOUS
 62
     2
 10
89.125
 20
124.3
 30
0.0
 11
89.125
 21
124.7
 31
0.0
  0
LINE
  8
0
  6
LTYPE1
 62
     2
 10
88.0
 20
124.5
 30
0.0
 11
92.0
 21
124.5
 31
0.0
  0
LINE
  8
0
  6
LTYPE1
 62
     2
 10
90.0
 20
126.5
 30
0.0
 11
90.0
 21
122.5
 31
0.0
  0
CIRCLE
  8
0
  6
CONTINUOUS
 62
     2
 10
120.0
 20
150.0
 30
0.0
 40
2.5
  0
CIRCLE
  8
0
  6
CONTINUOUS
 62
     2
 10
120.0
 20
150.0
 30
0.0
 40
1.125
  0
LINE
  8
0
  6
CONTINUOUS
 62
     2
 10
120.0
 20
152.049593456
 30
0.0
 11
118.225
 21
151.024796728
 31
0.0
  0
LINE
  8
0
  6
CONTINUOUS
 62
     2
 10
118.225
 20
151.024796728
 30
0.0
 11
118.225
 21
148.975203272
 31
0.0
  0
LINE
  8
0
  6
CONTINUOUS
 62
     2
 10
118.225
 20
148.975203272
 30
0.0
 11
120.0
 21
147.950406544
 31
0.0
  0
LINE
  8
0
  6
CONTINUOUS
 62
     2
 10
120.0
 20
147.950406544
 30
0.0
 11
121.775
 21
148.975203272
 31
0.0
  0
LINE
  8
0
  6
CONTINUOUS
 62
     2
 10
121.775
 20
148.975203272
 30
0.0
 11
121.775
 21
151.024796728
 31
0.0
  0
LINE
  8
0
  6
CONTINUOUS
 62
     2
 10
121.775
 20
151.024796728
 30
0.0
 11
120.0
 21
152.049593456
 31
0.0
  0
CIRCLE
  8
0
  6
CONTINUOUS
 62
     2
 10
113.5
 20
150.0
 30
0.0
 40
2.5
  0
CIRCLE
  8
0
  6
CONTINUOUS
 62
     2
 10
113.5
 20
150.0
 30
0.0
 40
1.125
  0
LINE
  8
0
  6
CONTINUOUS
 62
     2
 10
113.5
 20
152.049593456
 30
0.0
 11
111.725
 21
151.024796728
 31
0.0
  0
LINE
  8
0
  6
CONTINUOUS
 62
     2
 10
111.725
 20
151.024796728
 30
0.0
 11
111.725
 21
148.975203272
 31
0.0
  0
LINE
  8
0
  6
CONTINUOUS
 62
     2
 10
111.725
 20
148.975203272
 30
0.0
 11
113.5
 21
147.950406544
 31
0.0
  0
LINE
  8
0
  6
CONTINUOUS
 62
     2
 10
113.5
 20
147.950406544
 30
0.0
 11
115.275
 21
148.975203272
 31
0.0
  0
LINE
  8
0
  6
CONTINUOUS
 62
     2
 10
115.275
 20
148.975203272
 30
0.0
 11
115.275
 21
151.024796728
 31
0.0
  0
LINE
  8
0
  6
CONTINUOUS
 62
     2
 10
115.275
 20
151.024796728
 30
0.0
 11
113.5
 21
152.049593456
 31
0.0
  0
CIRCLE
  8
0
  6
CONTINUOUS
 62
     2
 10
100.5
 20
150.0
 30
0.0
 40
2.5
  0
CIRCLE
  8
0
  6
CONTINUOUS
 62
     2
 10
100.5
 20
150.0
 30
0.0
 40
1.125
  0
LINE
  8
0
  6
CONTINUOUS
 62
     2
 10
100.5
 20
152.049593456
 30
0.0
 11
98.725
 21
151.024796728
 31
0.0
  0
LINE
  8
0
  6
CONTINUOUS
 62
     2
 10
98.725
 20
151.024796728
 30
0.0
 11
98.725
 21
148.975203272
 31
0.0
  0
LINE
  8
0
  6
CONTINUOUS
 62
     2
 10
98.725
 20
148.975203272
 30
0.0
 11
100.5
 21
147.950406544
 31
0.0
  0
LINE
  8
0
  6
CONTINUOUS
 62
     2
 10
100.5
 20
147.950406544
 30
0.0
 11
102.275
 21
148.975203272
 31
0.0
  0
LINE
  8
0
  6
CONTINUOUS
 62
     2
 10
102.275
 20
148.975203272
 30
0.0
 11
102.275
 21
151.024796728
 31
0.0
  0
LINE
  8
0
  6
CONTINUOUS
 62
     2
 10
102.275
 20
151.024796728
 30
0.0
 11
100.5
 21
152.049593456
 31
0.0
  0
CIRCLE
  8
0
  6
CONTINUOUS
 62
     2
 10
126.5
 20
150.0
 30
0.0
 40
2.5
  0
CIRCLE
  8
0
  6
CONTINUOUS
 62
     2
 10
126.5
 20
150.0
 30
0.0
 40
1.125
  0
LINE
  8
0
  6
CONTINUOUS
 62
     2
 10
126.5
 20
152.049593456
 30
0.0
 11
124.725
 21
151.024796728
 31
0.0
  0
LINE
  8
0
  6
CONTINUOUS
 62
     2
 10
124.725
 20
151.024796728
 30
0.0
 11
124.725
 21
148.975203272
 31
0.0
  0
LINE
  8
0
  6
CONTINUOUS
 62
     2
 10
124.725
 20
148.975203272
 30
0.0
 11
126.5
 21
147.950406544
 31
0.0
  0
LINE
  8
0
  6
CONTINUOUS
 62
     2
 10
126.5
 20
147.950406544
 30
0.0
 11
128.275
 21
148.975203272
 31
0.0
  0
LINE
  8
0
  6
CONTINUOUS
 62
     2
 10
128.275
 20
148.975203272
 30
0.0
 11
128.275
 21
151.024796728
 31
0.0
  0
LINE
  8
0
  6
CONTINUOUS
 62
     2
 10
128.275
 20
151.024796728
 30
0.0
 11
126.5
 21
152.049593456
 31
0.0
  0
CIRCLE
  8
0
  6
CONTINUOUS
 62
     2
 10
139.5
 20
150.0
 30
0.0
 40
2.5
  0
CIRCLE
  8
0
  6
CONTINUOUS
 62
     2
 10
139.5
 20
150.0
 30
0.0
 40
1.125
  0
LINE
  8
0
  6
CONTINUOUS
 62
     2
 10
139.5
 20
152.049593456
 30
0.0
 11
137.725
 21
151.024796728
 31
0.0
  0
LINE
  8
0
  6
CONTINUOUS
 62
     2
 10
137.725
 20
151.024796728
 30
0.0
 11
137.725
 21
148.975203272
 31
0.0
  0
LINE
  8
0
  6
CONTINUOUS
 62
     2
 10
137.725
 20
148.975203272
 30
0.0
 11
139.5
 21
147.950406544
 31
0.0
  0
LINE
  8
0
  6
CONTINUOUS
 62
     2
 10
139.5
 20
147.950406544
 30
0.0
 11
141.275
 21
148.975203272
 31
0.0
  0
LINE
  8
0
  6
CONTINUOUS
 62
     2
 10
141.275
 20
148.975203272
 30
0.0
 11
141.275
 21
151.024796728
 31
0.0
  0
LINE
  8
0
  6
CONTINUOUS
 62
     2
 10
141.275
 20
151.024796728
 30
0.0
 11
139.5
 21
152.049593456
 31
0.0
  0
LINE
  8
0
  6
CONTINUOUS
 62
     2
 10
157.4375
 20
138.80921507
 30
0.0
 11
158.084547613
 21
136.394400504
 31
0.0
  0
LINE
  8
0
  6
CONTINUOUS
 62
     2
 10
157.4375
 20
138.80921507
 30
0.0
 11
159.205266953
 21
137.041448117
 31
0.0
  0
LINE
  8
0
  6
CONTINUOUS
 62
     2
 10
157.4375
 20
138.80921507
 30
0.0
 11
162.523502692
 21
130.0
 31
0.0
  0
LINE
  8
0
  6
CONTINUOUS
 62
     2
 10
162.523502692
 20
130.0
 30
0.0
 11
176.923502692
 21
130.0
 31
0.0
  0
TEXT
  8
0
  6
CONTINUOUS
 62
     2
 10
162.523502692
 20
131.0
 30
0.3
 40
3.0
  1
２－φ５．５穴
 50
0.0
 41
0.6
 51
0.0
  7
KANJI2
  0
LINE
  8
0
  6
CONTINUOUS
 62
     2
 10
72.0
 20
50.0
 30
0.0
 11
67.0
 21
50.0
 31
0.0
  0
LINE
  8
0
  6
CONTINUOUS
 62
     2
 10
69.0
 20
50.0
 30
0.0
 11
69.647047613
 21
52.414814566
 31
0.0
  0
LINE
  8
0
  6
CONTINUOUS
 62
     2
 10
69.0
 20
50.0
 30
0.0
 11
68.352952387
 21
52.414814566
 31
0.0
  0
LINE
  8
0
  6
CONTINUOUS
 62
     2
 10
69.0
 20
50.0
 30
0.0
 11
69.0
 21
75.5
 31
0.0
  0
LINE
  8
0
  6
CONTINUOUS
 62
     2
 10
69.0
 20
75.5
 30
0.0
 11
68.352952387
 21
73.085185434
 31
0.0
  0
LINE
  8
0
  6
CONTINUOUS
 62
     2
 10
69.0
 20
75.5
 30
0.0
 11
69.647047613
 21
73.085185434
 31
0.0
  0
LINE
  8
0
  6
CONTINUOUS
 62
     2
 10
87.25
 20
75.5
 30
0.0
 11
67.0
 21
75.5
 31
0.0
  0
LINE
  8
0
  6
CONTINUOUS
 62
     2
 10
106.7
 20
127.770089688
 30
0.0
 11
106.7
 21
129.4
 31
0.0
  0
ARC
  8
0
  6
CONTINUOUS
 62
     2
 10
106.4
 20
129.4
 30
0.0
 40
0.3
 50
0.0
 51
90.0
  0
LINE
  8
0
  6
CONTINUOUS
 62
     2
 10
106.4
 20
129.7
 30
0.0
 11
105.8
 21
129.7
 31
0.0
  0
LINE
  8
0
  6
CONTINUOUS
 62
     2
 10
105.8
 20
129.7
 30
0.0
 11
105.8
 21
130.3
 31
0.0
  0
LINE
  8
0
  6
CONTINUOUS
 62
     2
 10
105.8
 20
130.3
 30
0.0
 11
106.4
 21
130.3
 31
0.0
  0
ARC
  8
0
  6
CONTINUOUS
 62
     2
 10
106.4
 20
130.6
 30
0.0
 40
0.3
 50
270.0
 51
0.0
  0
LINE
  8
0
  6
CONTINUOUS
 62
     2
 10
106.7
 20
130.6
 30
0.0
 11
106.7
 21
132.229910312
 31
0.0
  0
LINE
  8
0
  6
CONTINUOUS
 62
     2
 10
107.3
 20
132.229910312
 30
0.0
 11
107.3
 21
130.6
 31
0.0
  0
ARC
  8
0
  6
CONTINUOUS
 62
     2
 10
107.6
 20
130.6
 30
0.0
 40
0.3
 50
180.0
 51
270.0
  0
LINE
  8
0
  6
CONTINUOUS
 62
     2
 10
107.600000007
 20
130.3
 30
0.0
 11
108.200000007
 21
130.3
 31
0.0
  0
LINE
  8
0
  6
CONTINUOUS
 62
     2
 10
108.200000007
 20
130.3
 30
0.0
 11
108.200000007
 21
129.7
 31
0.0
  0
LINE
  8
0
  6
CONTINUOUS
 62
     2
 10
108.200000007
 20
129.7
 30
0.0
 11
107.6
 21
129.7
 31
0.0
  0
ARC
  8
0
  6
CONTINUOUS
 62
     2
 10
107.6
 20
129.4
 30
0.0
 40
0.3
 50
90.0
 51
180.0
  0
LINE
  8
0
  6
CONTINUOUS
 62
     2
 10
107.3
 20
129.4
 30
0.0
 11
107.3
 21
127.770089688
 31
0.0
  0
CIRCLE
  8
0
  6
CONTINUOUS
 62
     2
 10
107.0
 20
130.0
 30
0.0
 40
2.25
  0
LINE
  8
0
  6
LTYPE1
 62
     2
 10
107.0
 20
133.0
 30
0.0
 11
107.0
 21
127.0
 31
0.0
  0
LINE
  8
0
  6
LTYPE1
 62
     2
 10
104.0
 20
130.0
 30
0.0
 11
110.0
 21
130.0
 31
0.0
  0
LINE
  8
0
  6
LTYPE1
 62
     2
 10
100.5
 20
78.0
 30
0.0
 11
100.5
 21
73.5
 31
0.0
  0
LINE
  8
0
  6
CONTINUOUS
 62
     2
 10
103.0
 20
76.0
 30
0.0
 11
103.0
 21
75.5
 31
0.0
  0
LINE
  8
0
  6
CONTINUOUS
 62
     2
 10
98.0
 20
76.0
 30
0.0
 11
103.0
 21
76.0
 31
0.0
  0
LINE
  8
0
  6
LTYPE1
 62
     2
 10
113.5
 20
78.0
 30
0.0
 11
113.5
 21
73.5
 31
0.0
  0
LINE
  8
0
  6
LTYPE1
 62
     2
 10
120.0
 20
78.0
 30
0.0
 11
120.0
 21
73.5
 31
0.0
  0
LINE
  8
0
  6
LTYPE1
 62
     2
 10
126.5
 20
78.0
 30
0.0
 11
126.5
 21
73.5
 31
0.0
  0
LINE
  8
0
  6
LTYPE1
 62
     2
 10
139.5
 20
78.0
 30
0.0
 11
139.5
 21
73.5
 31
0.0
  0
LINE
  8
0
  6
CONTINUOUS
 62
     2
 10
105.25
 20
76.0
 30
0.0
 11
105.25
 21
80.25
 31
0.0
  0
LINE
  8
0
  6
CONTINUOUS
 62
     2
 10
105.25
 20
80.25
 30
0.0
 11
108.75
 21
80.25
 31
0.0
  0
LINE
  8
0
  6
CONTINUOUS
 62
     2
 10
108.75
 20
80.25
 30
0.0
 11
108.75
 21
76.0
 31
0.0
  0
LINE
  8
0
  6
CONTINUOUS
 62
     2
 10
104.75
 20
80.9
 30
0.0
 11
104.75
 21
81.75
 31
0.0
  0
ARC
  8
0
  6
CONTINUOUS
 62
     2
 10
105.55
 20
81.75
 30
0.0
 40
0.8
 50
90.0
 51
180.0
  0
LINE
  8
0
  6
CONTINUOUS
 62
     2
 10
105.55
 20
82.55
 30
0.0
 11
106.7
 21
82.55
 31
0.0
  0
LINE
  8
0
  6
CONTINUOUS
 62
     2
 10
106.7
 20
82.55
 30
0.0
 11
106.7
 21
81.65
 31
0.0
  0
LINE
  8
0
  6
CONTINUOUS
 62
     2
 10
106.7
 20
81.65
 30
0.0
 11
107.3
 21
81.65
 31
0.0
  0
LINE
  8
0
  6
CONTINUOUS
 62
     2
 10
109.25
 20
80.9
 30
0.0
 11
104.75
 21
80.9
 31
0.0
  0
LINE
  8
0
  6
CONTINUOUS
 62
     2
 10
104.8
 20
80.9
 30
0.0
 11
104.8
 21
80.25
 31
0.0
  0
LINE
  8
0
  6
CONTINUOUS
 62
     2
 10
104.8
 20
80.25
 30
0.0
 11
109.2
 21
80.25
 31
0.0
  0
LINE
  8
0
  6
CONTINUOUS
 62
     2
 10
107.0
 20
80.9
 30
0.0
 11
106.624722325
 21
80.25
 31
0.0
  0
LINE
  8
0
  6
CONTINUOUS
 62
     2
 10
107.3
 20
81.65
 30
0.0
 11
107.3
 21
82.55
 31
0.0
  0
LINE
  8
0
  6
CONTINUOUS
 62
     2
 10
107.3
 20
82.55
 30
0.0
 11
108.45
 21
82.55
 31
0.0
  0
ARC
  8
0
  6
CONTINUOUS
 62
     2
 10
108.45
 20
81.75
 30
0.0
 40
0.8
 50
0.0
 51
90.0
  0
LINE
  8
0
  6
CONTINUOUS
 62
     2
 10
109.25
 20
81.75
 30
0.0
 11
109.25
 21
80.9
 31
0.0
  0
LINE
  8
0
  6
CONTINUOUS
 62
     2
 10
109.2
 20
80.25
 30
0.0
 11
109.2
 21
80.9
 31
0.0
  0
LINE
  8
0
  6
CONTINUOUS
 62
     2
 10
107.0
 20
80.25
 30
0.0
 11
107.375277675
 21
80.9
 31
0.0
  0
LINE
  8
0
  6
LTYPE1
 62
     2
 10
107.0
 20
85.25
 30
0.0
 11
107.0
 21
73.5
 31
0.0
  0
LINE
  8
0
  6
CONTINUOUS
 62
     2
 10
131.25
 20
76.0
 30
0.0
 11
131.25
 21
80.25
 31
0.0
  0
LINE
  8
0
  6
CONTINUOUS
 62
     2
 10
131.25
 20
80.25
 30
0.0
 11
134.75
 21
80.25
 31
0.0
  0
LINE
  8
0
  6
CONTINUOUS
 62
     2
 10
134.75
 20
80.25
 30
0.0
 11
134.75
 21
76.0
 31
0.0
  0
LINE
  8
0
  6
CONTINUOUS
 62
     2
 10
130.75
 20
80.9
 30
0.0
 11
130.75
 21
81.75
 31
0.0
  0
ARC
  8
0
  6
CONTINUOUS
 62
     2
 10
131.55
 20
81.75
 30
0.0
 40
0.8
 50
90.0
 51
180.0
  0
LINE
  8
0
  6
CONTINUOUS
 62
     2
 10
131.55
 20
82.55
 30
0.0
 11
132.7
 21
82.55
 31
0.0
  0
LINE
  8
0
  6
CONTINUOUS
 62
     2
 10
132.7
 20
82.55
 30
0.0
 11
132.7
 21
81.65
 31
0.0
  0
LINE
  8
0
  6
CONTINUOUS
 62
     2
 10
132.7
 20
81.65
 30
0.0
 11
133.3
 21
81.65
 31
0.0
  0
LINE
  8
0
  6
CONTINUOUS
 62
     2
 10
135.25
 20
80.9
 30
0.0
 11
130.75
 21
80.9
 31
0.0
  0
LINE
  8
0
  6
CONTINUOUS
 62
     2
 10
130.8
 20
80.9
 30
0.0
 11
130.8
 21
80.25
 31
0.0
  0
LINE
  8
0
  6
CONTINUOUS
 62
     2
 10
130.8
 20
80.25
 30
0.0
 11
135.2
 21
80.25
 31
0.0
  0
LINE
  8
0
  6
CONTINUOUS
 62
     2
 10
133.0
 20
80.9
 30
0.0
 11
132.624722325
 21
80.25
 31
0.0
  0
LINE
  8
0
  6
CONTINUOUS
 62
     2
 10
133.3
 20
81.65
 30
0.0
 11
133.3
 21
82.55
 31
0.0
  0
LINE
  8
0
  6
CONTINUOUS
 62
     2
 10
133.3
 20
82.55
 30
0.0
 11
134.45
 21
82.55
 31
0.0
  0
ARC
  8
0
  6
CONTINUOUS
 62
     2
 10
134.45
 20
81.75
 30
0.0
 40
0.8
 50
0.0
 51
90.0
  0
LINE
  8
0
  6
CONTINUOUS
 62
     2
 10
135.25
 20
81.75
 30
0.0
 11
135.25
 21
80.9
 31
0.0
  0
LINE
  8
0
  6
CONTINUOUS
 62
     2
 10
135.2
 20
80.25
 30
0.0
 11
135.2
 21
80.9
 31
0.0
  0
LINE
  8
0
  6
CONTINUOUS
 62
     2
 10
133.0
 20
80.25
 30
0.0
 11
133.375277675
 21
80.9
 31
0.0
  0
LINE
  8
0
  6
LTYPE1
 62
     2
 10
133.0
 20
85.25
 30
0.0
 11
133.0
 21
73.5
 31
0.0
  0
LINE
  8
0
  6
CONTINUOUS
 62
     2
 10
69.0
 20
75.5
 30
0.0
 11
69.647047613
 21
77.914814566
 31
0.0
  0
LINE
  8
0
  6
CONTINUOUS
 62
     2
 10
69.0
 20
75.5
 30
0.0
 11
68.352952387
 21
77.914814566
 31
0.0
  0
LINE
  8
0
  6
CONTINUOUS
 62
     2
 10
69.0
 20
75.5
 30
0.0
 11
69.0
 21
82.55
 31
0.0
  0
LINE
  8
0
  6
CONTINUOUS
 62
     2
 10
69.0
 20
82.55
 30
0.0
 11
68.352952387
 21
80.135185434
 31
0.0
  0
LINE
  8
0
  6
CONTINUOUS
 62
     2
 10
69.0
 20
82.55
 30
0.0
 11
69.647047613
 21
80.135185434
 31
0.0
  0
LINE
  8
0
  6
CONTINUOUS
 62
     2
 10
104.55
 20
82.55
 30
0.0
 11
67.0
 21
82.55
 31
0.0
  0
TEXT
  8
0
  6
CONTINUOUS
 62
     2
 10
68.0
 20
76.875
 30
0.3
 40
3.0
  1
１４
 50
90.0
 41
0.666666667
 51
0.0
  7
KANJI0
  0
LINE
  8
0
  6
CONTINUOUS
 62
     2
 10
133.0
 20
82.55
 30
0.0
 11
134.767766953
 21
84.317766953
 31
0.0
  0
LINE
  8
0
  6
CONTINUOUS
 62
     2
 10
133.0
 20
82.55
 30
0.0
 11
133.647047613
 21
84.964814566
 31
0.0
  0
LINE
  8
0
  6
CONTINUOUS
 62
     2
 10
133.0
 20
82.55
 30
0.0
 11
135.886751346
 21
87.55
 31
0.0
  0
LINE
  8
0
  6
CONTINUOUS
 62
     2
 10
135.886751346
 20
87.55
 30
0.0
 11
143.986751346
 21
87.55
 31
0.0
  0
TEXT
  8
0
  6
CONTINUOUS
 62
     2
 10
135.886751346
 20
88.55
 30
0.3
 40
3.0
  1
Ｍ５ネジ
 50
0.0
 41
0.6
 51
0.0
  7
KANJI2
  0
LINE
  8
0
  6
LTYPE1
 62
     2
 10
139.5
 20
153.0
 30
0.0
 11
139.5
 21
147.0
 31
0.0
  0
LINE
  8
0
  6
LTYPE1
 62
     2
 10
136.5
 20
150.0
 30
0.0
 11
142.5
 21
150.0
 31
0.0
  0
LINE
  8
0
  6
LTYPE1
 62
     2
 10
126.5
 20
153.0
 30
0.0
 11
126.5
 21
147.0
 31
0.0
  0
LINE
  8
0
  6
LTYPE1
 62
     2
 10
123.5
 20
150.0
 30
0.0
 11
129.5
 21
150.0
 31
0.0
  0
LINE
  8
0
  6
LTYPE1
 62
     2
 10
113.5
 20
153.0
 30
0.0
 11
113.5
 21
147.0
 31
0.0
  0
LINE
  8
0
  6
LTYPE1
 62
     2
 10
110.5
 20
150.0
 30
0.0
 11
116.5
 21
150.0
 31
0.0
  0
LINE
  8
0
  6
LTYPE1
 62
     2
 10
100.5
 20
153.0
 30
0.0
 11
100.5
 21
147.0
 31
0.0
  0
LINE
  8
0
  6
LTYPE1
 62
     2
 10
97.5
 20
150.0
 30
0.0
 11
103.5
 21
150.0
 31
0.0
  0
LINE
  8
0
  6
LTYPE1
 62
     2
 10
117.0
 20
150.0
 30
0.0
 11
123.0
 21
150.0
 31
0.0
  0
ARC
  8
0
  6
CONTINUOUS
 62
     2
 10
111.0
 20
135.75
 30
0.0
 40
0.5
 50
180.0
 51
270.0
  0
LINE
  8
0
  6
CONTINUOUS
 62
     2
 10
111.0
 20
135.25
 30
0.0
 11
129.0
 21
135.25
 31
0.0
  0
ARC
  8
0
  6
CONTINUOUS
 62
     2
 10
129.0
 20
135.75
 30
0.0
 40
0.5
 50
270.0
 51
0.0
  0
LINE
  8
0
  6
CONTINUOUS
 62
     2
 10
129.5
 20
135.75
 30
0.0
 11
129.5
 21
144.25
 31
0.0
  0
ARC
  8
0
  6
CONTINUOUS
 62
     2
 10
129.0
 20
144.25
 30
0.0
 40
0.5
 50
0.0
 51
90.0
  0
LINE
  8
0
  6
CONTINUOUS
 62
     2
 10
129.0
 20
144.75
 30
0.0
 11
111.0
 21
144.75
 31
0.0
  0
ARC
  8
0
  6
CONTINUOUS
 62
     2
 10
111.0
 20
144.25
 30
0.0
 40
0.5
 50
90.0
 51
180.0
  0
LINE
  8
0
  6
CONTINUOUS
 62
     2
 10
110.5
 20
144.25
 30
0.0
 11
110.5
 21
135.75
 31
0.0
  0
TEXT
  8
0
  6
CONTINUOUS
 62
     2
 10
114.2
 20
138.0
 30
0.4
 40
4.0
  1
銘　板
 50
0.0
 41
0.9
 51
0.0
  7
KANJI3
  0
CIRCLE
  8
0
  6
CONTINUOUS
 62
     2
 10
133.0
 20
150.0
 30
0.0
 40
2.5
  0
CIRCLE
  8
0
  6
CONTINUOUS
 62
     2
 10
133.0
 20
150.0
 30
0.0
 40
1.125
  0
LINE
  8
0
  6
CONTINUOUS
 62
     2
 10
133.0
 20
152.049593456
 30
0.0
 11
131.225
 21
151.024796728
 31
0.0
  0
LINE
  8
0
  6
CONTINUOUS
 62
     2
 10
131.225
 20
151.024796728
 30
0.0
 11
131.225
 21
148.975203272
 31
0.0
  0
LINE
  8
0
  6
CONTINUOUS
 62
     2
 10
131.225
 20
148.975203272
 30
0.0
 11
133.0
 21
147.950406544
 31
0.0
  0
LINE
  8
0
  6
CONTINUOUS
 62
     2
 10
133.0
 20
147.950406544
 30
0.0
 11
134.775
 21
148.975203272
 31
0.0
  0
LINE
  8
0
  6
CONTINUOUS
 62
     2
 10
134.775
 20
148.975203272
 30
0.0
 11
134.775
 21
151.024796728
 31
0.0
  0
LINE
  8
0
  6
CONTINUOUS
 62
     2
 10
134.775
 20
151.024796728
 30
0.0
 11
133.0
 21
152.049593456
 31
0.0
  0
LINE
  8
0
  6
LTYPE1
 62
     2
 10
133.0
 20
153.0
 30
0.0
 11
133.0
 21
147.0
 31
0.0
  0
LINE
  8
0
  6
LTYPE1
 62
     2
 10
130.0
 20
150.0
 30
0.0
 11
136.0
 21
150.0
 31
0.0
  0
CIRCLE
  8
0
  6
CONTINUOUS
 62
     2
 10
107.0
 20
150.0
 30
0.0
 40
2.5
  0
CIRCLE
  8
0
  6
CONTINUOUS
 62
     2
 10
107.0
 20
150.0
 30
0.0
 40
1.125
  0
LINE
  8
0
  6
CONTINUOUS
 62
     2
 10
107.0
 20
152.049593456
 30
0.0
 11
105.225
 21
151.024796728
 31
0.0
  0
LINE
  8
0
  6
CONTINUOUS
 62
     2
 10
105.225
 20
151.024796728
 30
0.0
 11
105.225
 21
148.975203272
 31
0.0
  0
LINE
  8
0
  6
CONTINUOUS
 62
     2
 10
105.225
 20
148.975203272
 30
0.0
 11
107.0
 21
147.950406544
 31
0.0
  0
LINE
  8
0
  6
CONTINUOUS
 62
     2
 10
107.0
 20
147.950406544
 30
0.0
 11
108.775
 21
148.975203272
 31
0.0
  0
LINE
  8
0
  6
CONTINUOUS
 62
     2
 10
108.775
 20
148.975203272
 30
0.0
 11
108.775
 21
151.024796728
 31
0.0
  0
LINE
  8
0
  6
CONTINUOUS
 62
     2
 10
108.775
 20
151.024796728
 30
0.0
 11
107.0
 21
152.049593456
 31
0.0
  0
LINE
  8
0
  6
LTYPE1
 62
     2
 10
107.0
 20
153.0
 30
0.0
 11
107.0
 21
147.0
 31
0.0
  0
LINE
  8
0
  6
LTYPE1
 62
     2
 10
104.0
 20
150.0
 30
0.0
 11
110.0
 21
150.0
 31
0.0
  0
LINE
  8
0
  6
LTYPE2
 62
     2
 10
158.125
 20
53.5
 30
0.0
 11
158.125
 21
50.0
 31
0.0
  0
LINE
  8
0
  6
LTYPE2
 62
     2
 10
155.375
 20
50.0
 30
0.0
 11
155.375
 21
53.5
 31
0.0
  0
LINE
  8
0
  6
LTYPE2
 62
     2
 10
81.875
 20
53.5
 30
0.0
 11
81.875
 21
50.0
 31
0.0
  0
LINE
  8
0
  6
LTYPE2
 62
     2
 10
84.625
 20
50.0
 30
0.0
 11
84.625
 21
53.5
 31
0.0
  0
LINE
  8
0
  6
CONTINUOUS
 62
     2
 10
98.0
 20
76.0
 30
0.0
 11
98.0
 21
75.5
 31
0.0
  0
LINE
  8
0
  6
CONTINUOUS
 62
     2
 10
109.5
 20
76.0
 30
0.0
 11
109.5
 21
75.5
 31
0.0
  0
LINE
  8
0
  6
CONTINUOUS
 62
     2
 10
104.5
 20
76.0
 30
0.0
 11
109.5
 21
76.0
 31
0.0
  0
LINE
  8
0
  6
CONTINUOUS
 62
     2
 10
104.5
 20
76.0
 30
0.0
 11
104.5
 21
75.5
 31
0.0
  0
LINE
  8
0
  6
CONTINUOUS
 62
     2
 10
116.0
 20
76.0
 30
0.0
 11
116.0
 21
75.5
 31
0.0
  0
LINE
  8
0
  6
CONTINUOUS
 62
     2
 10
111.0
 20
76.0
 30
0.0
 11
116.0
 21
76.0
 31
0.0
  0
LINE
  8
0
  6
CONTINUOUS
 62
     2
 10
111.0
 20
76.0
 30
0.0
 11
111.0
 21
75.5
 31
0.0
  0
LINE
  8
0
  6
CONTINUOUS
 62
     2
 10
122.5
 20
76.0
 30
0.0
 11
122.5
 21
75.5
 31
0.0
  0
LINE
  8
0
  6
CONTINUOUS
 62
     2
 10
117.5
 20
76.0
 30
0.0
 11
122.5
 21
76.0
 31
0.0
  0
LINE
  8
0
  6
CONTINUOUS
 62
     2
 10
117.5
 20
76.0
 30
0.0
 11
117.5
 21
75.5
 31
0.0
  0
LINE
  8
0
  6
CONTINUOUS
 62
     2
 10
129.0
 20
76.0
 30
0.0
 11
129.0
 21
75.5
 31
0.0
  0
LINE
  8
0
  6
CONTINUOUS
 62
     2
 10
124.0
 20
76.0
 30
0.0
 11
129.0
 21
76.0
 31
0.0
  0
LINE
  8
0
  6
CONTINUOUS
 62
     2
 10
124.0
 20
76.0
 30
0.0
 11
124.0
 21
75.5
 31
0.0
  0
LINE
  8
0
  6
CONTINUOUS
 62
     2
 10
135.5
 20
76.0
 30
0.0
 11
135.5
 21
75.5
 31
0.0
  0
LINE
  8
0
  6
CONTINUOUS
 62
     2
 10
130.5
 20
76.0
 30
0.0
 11
135.5
 21
76.0
 31
0.0
  0
LINE
  8
0
  6
CONTINUOUS
 62
     2
 10
130.5
 20
76.0
 30
0.0
 11
130.5
 21
75.5
 31
0.0
  0
LINE
  8
0
  6
CONTINUOUS
 62
     2
 10
142.0
 20
76.0
 30
0.0
 11
142.0
 21
75.5
 31
0.0
  0
LINE
  8
0
  6
CONTINUOUS
 62
     2
 10
137.0
 20
76.0
 30
0.0
 11
142.0
 21
76.0
 31
0.0
  0
LINE
  8
0
  6
CONTINUOUS
 62
     2
 10
137.0
 20
76.0
 30
0.0
 11
137.0
 21
75.5
 31
0.0
  0
TEXT
  8
0
  6
CONTINUOUS
 62
     2
 10
68.0
 20
61.75
 30
0.3
 40
3.0
  1
５１
 50
90.0
 41
0.666666667
 51
0.0
  7
KANJI0
  0
LINE
  8
0
  6
LTYPE3
 62
     2
 10
107.0
 20
82.5
 30
0.0
 11
107.0
 21
78.5
 31
0.0
  0
LINE
  8
0
  6
LTYPE3
 62
     2
 10
133.0
 20
82.5
 30
0.0
 11
133.0
 21
78.5
 31
0.0
  0
LINE
  8
0
  6
LTYPE4
 62
     2
 10
132.3
 20
83.0
 30
0.0
 11
133.7
 21
83.0
 31
0.0
  0
LINE
  8
0
  6
LTYPE4
 62
     2
 10
130.8
 20
76.0
 30
0.0
 11
131.625
 21
76.476313972
 31
0.0
  0
LINE
  8
0
  6
CONTINUOUS
 62
     2
 10
133.3
 20
127.770089688
 30
0.0
 11
133.3
 21
129.4
 31
0.0
  0
ARC
  8
0
  6
CONTINUOUS
 62
     2
 10
133.6
 20
129.4
 30
0.0
 40
0.3
 50
90.0
 51
180.0
  0
LINE
  8
0
  6
CONTINUOUS
 62
     2
 10
133.6
 20
129.7
 30
0.0
 11
134.2
 21
129.7
 31
0.0
  0
LINE
  8
0
  6
CONTINUOUS
 62
     2
 10
134.2
 20
129.7
 30
0.0
 11
134.2
 21
130.3
 31
0.0
  0
LINE
  8
0
  6
CONTINUOUS
 62
     2
 10
134.2
 20
130.3
 30
0.0
 11
133.6
 21
130.3
 31
0.0
  0
ARC
  8
0
  6
CONTINUOUS
 62
     2
 10
133.6
 20
130.6
 30
0.0
 40
0.3
 50
180.0
 51
270.0
  0
LINE
  8
0
  6
CONTINUOUS
 62
     2
 10
133.3
 20
130.6
 30
0.0
 11
133.3
 21
132.229910312
 31
0.0
  0
LINE
  8
0
  6
CONTINUOUS
 62
     2
 10
132.7
 20
132.229910312
 30
0.0
 11
132.7
 21
130.6
 31
0.0
  0
ARC
  8
0
  6
CONTINUOUS
 62
     2
 10
132.4
 20
130.6
 30
0.0
 40
0.3
 50
270.0
 51
0.0
  0
LINE
  8
0
  6
CONTINUOUS
 62
     2
 10
132.399999993
 20
130.3
 30
0.0
 11
131.799999993
 21
130.3
 31
0.0
  0
LINE
  8
0
  6
CONTINUOUS
 62
     2
 10
131.799999993
 20
130.3
 30
0.0
 11
131.799999993
 21
129.7
 31
0.0
  0
LINE
  8
0
  6
CONTINUOUS
 62
     2
 10
131.799999993
 20
129.7
 30
0.0
 11
132.4
 21
129.7
 31
0.0
  0
ARC
  8
0
  6
CONTINUOUS
 62
     2
 10
132.4
 20
129.4
 30
0.0
 40
0.3
 50
0.0
 51
90.0
  0
LINE
  8
0
  6
CONTINUOUS
 62
     2
 10
132.7
 20
129.4
 30
0.0
 11
132.7
 21
127.770089688
 31
0.0
  0
CIRCLE
  8
0
  6
CONTINUOUS
 62
     2
 10
133.0
 20
130.0
 30
0.0
 40
2.25
  0
LINE
  8
0
  6
LTYPE1
 62
     2
 10
133.0
 20
133.0
 30
0.0
 11
133.0
 21
127.0
 31
0.0
  0
LINE
  8
0
  6
LTYPE1
 62
     2
 10
136.0
 20
130.0
 30
0.0
 11
130.0
 21
130.0
 31
0.0
  0
LINE
  8
0
  6
CONTINUOUS
 62
     2
 10
133.0
 20
118.15
 30
0.0
 11
133.647047613
 21
115.735185434
 31
0.0
  0
LINE
  8
0
  6
CONTINUOUS
 62
     2
 10
133.0
 20
118.15
 30
0.0
 11
134.767766953
 21
116.382233047
 31
0.0
  0
LINE
  8
0
  6
CONTINUOUS
 62
     2
 10
133.0
 20
118.15
 30
0.0
 11
138.086002692
 21
109.34078493
 31
0.0
  0
LINE
  8
0
  6
CONTINUOUS
 62
     2
 10
138.086002692
 20
109.34078493
 30
0.0
 11
152.486002692
 21
109.34078493
 31
0.0
  0
TEXT
  8
0
  6
CONTINUOUS
 62
     2
 10
139.086002692
 20
110.34078493
 30
0.3
 40
3.0
  1
端子キャップ
 50
0.0
 41
0.6
 51
0.0
  7
KANJI2
  0
LINE
  8
0
  6
LTYPE5
 62
     2
 10
104.05
 20
118.15
 30
0.0
 11
109.95
 21
118.15
 31
0.0
  0
ARC
  8
0
  6
LTYPE5
 62
     2
 10
107.0
 20
130.2
 30
0.0
 40
2.95
 50
0.0
 51
180.0
  0
LINE
  8
0
  6
LTYPE5
 62
     2
 10
104.05
 20
130.200000026
 30
0.0
 11
104.05
 21
118.15
 31
0.0
  0
LINE
  8
0
  6
LTYPE5
 62
     2
 10
109.95
 20
118.15
 30
0.0
 11
109.95
 21
130.200000026
 31
0.0
  0
ARC
  8
0
  6
LTYPE5
 62
     2
 10
107.0
 20
129.2
 30
0.0
 40
2.95
 50
180.0
 51
0.0
  0
ARC
  8
0
  6
LTYPE5
 62
     2
 10
133.0
 20
130.2
 30
0.0
 40
2.95
 50
0.0
 51
180.0
  0
ARC
  8
0
  6
LTYPE5
 62
     2
 10
133.0
 20
129.2
 30
0.0
 40
2.95
 50
180.0
 51
0.0
  0
LINE
  8
0
  6
LTYPE5
 62
     2
 10
130.05
 20
118.15
 30
0.0
 11
130.05
 21
130.200000026
 31
0.0
  0
LINE
  8
0
  6
LTYPE5
 62
     2
 10
135.95
 20
130.200000026
 30
0.0
 11
135.95
 21
118.15
 31
0.0
  0
LINE
  8
0
  6
LTYPE5
 62
     2
 10
135.95
 20
118.15
 30
0.0
 11
130.05
 21
118.15
 31
0.0
  0
LINE
  8
0
  6
LTYPE5
 62
     2
 10
133.7
 20
84.75
 30
0.0
 11
132.3
 21
84.75
 31
0.0
  0
ARC
  8
0
  6
LTYPE5
 62
     2
 10
132.3
 20
82.5
 30
0.0
 40
2.25
 50
90.0
 51
180.0
  0
ARC
  8
0
  6
LTYPE5
 62
     2
 10
132.3
 20
81.5
 30
0.0
 40
1.5
 50
90.0
 51
180.0
  0
ARC
  8
0
  6
LTYPE5
 62
     2
 10
133.7
 20
81.5
 30
0.0
 40
1.5
 50
0.0
 51
90.0
  0
LINE
  8
0
  6
LTYPE5
 62
     2
 10
130.8
 20
81.5
 30
0.0
 11
130.8
 21
76.0
 31
0.0
  0
LINE
  8
0
  6
LTYPE5
 62
     2
 10
131.2
 20
79.05
 30
0.0
 11
130.8
 21
79.45
 31
0.0
  0
LINE
  8
0
  6
LTYPE5
 62
     2
 10
131.2
 20
79.05
 30
0.0
 11
130.8
 21
78.65
 31
0.0
  0
LINE
  8
0
  6
LTYPE5
 62
     2
 10
130.8
 20
78.5
 30
0.0
 11
131.625
 21
78.023686028
 31
0.0
  0
LINE
  8
0
  6
LTYPE5
 62
     2
 10
131.625
 20
78.023686028
 30
0.0
 11
131.625
 21
76.476313972
 31
0.0
  0
LINE
  8
0
  6
LTYPE5
 62
     2
 10
135.2
 20
81.5
 30
0.0
 11
135.2
 21
76.0
 31
0.0
  0
LINE
  8
0
  6
LTYPE5
 62
     2
 10
134.8
 20
79.05
 30
0.0
 11
135.2
 21
79.45
 31
0.0
  0
LINE
  8
0
  6
LTYPE5
 62
     2
 10
134.8
 20
79.05
 30
0.0
 11
135.2
 21
78.65
 31
0.0
  0
LINE
  8
0
  6
LTYPE5
 62
     2
 10
135.95
 20
76.0
 30
0.0
 11
135.95
 21
82.5
 31
0.0
  0
LINE
  8
0
  6
LTYPE5
 62
     2
 10
135.2
 20
78.5
 30
0.0
 11
134.375
 21
78.023686028
 31
0.0
  0
LINE
  8
0
  6
LTYPE5
 62
     2
 10
135.2
 20
76.0
 30
0.0
 11
134.375
 21
76.476313972
 31
0.0
  0
LINE
  8
0
  6
LTYPE5
 62
     2
 10
134.375
 20
78.023686028
 30
0.0
 11
134.375
 21
76.476313972
 31
0.0
  0
LINE
  8
0
  6
LTYPE5
 62
     2
 10
130.05
 20
76.0
 30
0.0
 11
135.95
 21
76.0
 31
0.0
  0
LINE
  8
0
  6
LTYPE5
 62
     2
 10
130.05
 20
82.5
 30
0.0
 11
130.05
 21
76.0
 31
0.0
  0
ARC
  8
0
  6
LTYPE5
 62
     2
 10
133.7
 20
82.5
 30
0.0
 40
2.25
 50
0.0
 51
90.0
  0
LINE
  8
0
  6
LTYPE5
 62
     2
 10
107.7
 20
84.75
 30
0.0
 11
106.3
 21
84.75
 31
0.0
  0
LINE
  8
0
  6
LTYPE5
 62
     2
 10
106.3
 20
83.0
 30
0.0
 11
107.7
 21
83.0
 31
0.0
  0
LINE
  8
0
  6
LTYPE5
 62
     2
 10
105.2
 20
79.05
 30
0.0
 11
104.8
 21
79.45
 31
0.0
  0
LINE
  8
0
  6
LTYPE5
 62
     2
 10
105.2
 20
79.05
 30
0.0
 11
104.8
 21
78.65
 31
0.0
  0
LINE
  8
0
  6
LTYPE5
 62
     2
 10
109.2
 20
81.5
 30
0.0
 11
109.2
 21
76.0
 31
0.0
  0
LINE
  8
0
  6
LTYPE5
 62
     2
 10
108.8
 20
79.05
 30
0.0
 11
109.2
 21
79.45
 31
0.0
  0
LINE
  8
0
  6
LTYPE5
 62
     2
 10
108.8
 20
79.05
 30
0.0
 11
109.2
 21
78.65
 31
0.0
  0
LINE
  8
0
  6
LTYPE5
 62
     2
 10
109.2
 20
78.5
 30
0.0
 11
108.375
 21
78.023686028
 31
0.0
  0
LINE
  8
0
  6
LTYPE5
 62
     2
 10
109.2
 20
76.0
 30
0.0
 11
108.375
 21
76.476313972
 31
0.0
  0
LINE
  8
0
  6
LTYPE5
 62
     2
 10
108.375
 20
78.023686028
 30
0.0
 11
108.375
 21
76.476313972
 31
0.0
  0
LINE
  8
0
  6
LTYPE5
 62
     2
 10
104.05
 20
76.0
 30
0.0
 11
109.95
 21
76.0
 31
0.0
  0
LINE
  8
0
  6
LTYPE5
 62
     2
 10
104.05
 20
82.5
 30
0.0
 11
104.05
 21
76.0
 31
0.0
  0
LINE
  8
0
  6
LTYPE5
 62
     2
 10
104.8
 20
81.5
 30
0.0
 11
104.8
 21
76.0
 31
0.0
  0
LINE
  8
0
  6
LTYPE5
 62
     2
 10
104.8
 20
76.0
 30
0.0
 11
105.625
 21
76.476313972
 31
0.0
  0
LINE
  8
0
  6
LTYPE5
 62
     2
 10
105.625
 20
78.023686028
 30
0.0
 11
105.625
 21
76.476313972
 31
0.0
  0
LINE
  8
0
  6
LTYPE5
 62
     2
 10
104.8
 20
78.5
 30
0.0
 11
105.625
 21
78.023686028
 31
0.0
  0
LINE
  8
0
  6
LTYPE5
 62
     2
 10
109.95
 20
76.0
 30
0.0
 11
109.95
 21
82.5
 31
0.0
  0
ARC
  8
0
  6
LTYPE5
 62
     2
 10
107.7
 20
82.5
 30
0.0
 40
2.25
 50
0.0
 51
90.0
  0
ARC
  8
0
  6
LTYPE5
 62
     2
 10
106.3
 20
82.5
 30
0.0
 40
2.25
 50
90.0
 51
180.0
  0
ARC
  8
0
  6
LTYPE5
 62
     2
 10
106.3
 20
81.5
 30
0.0
 40
1.5
 50
90.0
 51
180.0
  0
ARC
  8
0
  6
LTYPE5
 62
     2
 10
107.7
 20
81.5
 30
0.0
 40
1.5
 50
0.0
 51
90.0
  0
LINE
  8
0
  6
CONTINUOUS
 62
     2
 10
134.0
 20
84.75
 30
0.0
 11
164.5
 21
84.75
 31
0.0
  0
LINE
  8
0
  6
CONTINUOUS
 62
     2
 10
162.5
 20
84.75
 30
0.0
 11
161.852952387
 21
82.335185434
 31
0.0
  0
LINE
  8
0
  6
CONTINUOUS
 62
     2
 10
162.5
 20
84.75
 30
0.0
 11
163.147047613
 21
82.335185434
 31
0.0
  0
LINE
  8
0
  6
CONTINUOUS
 62
     2
 10
162.5
 20
84.75
 30
0.0
 11
162.5
 21
75.5
 31
0.0
  0
LINE
  8
0
  6
CONTINUOUS
 62
     2
 10
162.5
 20
75.5
 30
0.0
 11
163.147047613
 21
77.914814566
 31
0.0
  0
LINE
  8
0
  6
CONTINUOUS
 62
     2
 10
162.5
 20
75.5
 30
0.0
 11
161.852952387
 21
77.914814566
 31
0.0
  0
LINE
  8
0
  6
CONTINUOUS
 62
     2
 10
152.75
 20
75.5
 30
0.0
 11
164.5
 21
75.5
 31
0.0
  0
TEXT
  8
0
  6
CONTINUOUS
 62
     2
 10
161.5
 20
78.175
 30
0.3
 40
3.0
  1
１９
 50
90.0
 41
0.6
 51
0.0
  7
KANJI2
  0
LINE
  8
0
  6
CONTINUOUS
 62
     2
 10
167.5
 20
84.75
 30
0.0
 11
166.852952387
 21
82.335185434
 31
0.0
  0
LINE
  8
0
  6
CONTINUOUS
 62
     2
 10
167.5
 20
84.75
 30
0.0
 11
168.147047613
 21
82.335185434
 31
0.0
  0
LINE
  8
0
  6
CONTINUOUS
 62
     2
 10
163.5
 20
84.75
 30
0.0
 11
169.5
 21
84.75
 31
0.0
  0
LINE
  8
0
  6
CONTINUOUS
 62
     2
 10
167.5
 20
50.0
 30
0.0
 11
168.147047613
 21
52.414814566
 31
0.0
  0
LINE
  8
0
  6
CONTINUOUS
 62
     2
 10
167.5
 20
50.0
 30
0.0
 11
166.852952387
 21
52.414814566
 31
0.0
  0
LINE
  8
0
  6
CONTINUOUS
 62
     2
 10
162.0
 20
50.0
 30
0.0
 11
169.5
 21
50.0
 31
0.0
  0
LINE
  8
0
  6
CONTINUOUS
 62
     2
 10
167.5
 20
84.75
 30
0.0
 11
167.5
 21
50.0
 31
0.0
  0
TEXT
  8
0
  6
CONTINUOUS
 62
     2
 10
166.5
 20
65.425
 30
0.3
 40
3.0
  1
７０
 50
90.0
 41
0.6
 51
0.0
  7
KANJI2
  0
TEXT
  8
0
  6
CONTINUOUS
 62
     2
 10
191.6
 20
78.4
 30
0.36
 40
3.6
  1
端子キャップ付
 50
0.0
 41
0.9
 51
0.0
  7
KANJI4
  0
TEXT
  8
0
  6
CONTINUOUS
 62
     2
 10
192.8
 20
85.6
 30
0.48
 40
4.8
  1
Ｍ－４Ａ
 50
0.0
 41
0.9
 51
0.0
  7
KANJI5
  0
TEXT
  8
0
  6
CONTINUOUS
 62
     3
 10
192.0
 20
59.2
 30
0.48
 40
4.8
  1
ＭＳ－１１６２７Ａ
 50
0.0
 41
0.9
 51
0.0
  7
KANJI6
  0
TEXT
  8
0
  6
CONTINUOUS
 62
     2
 10
191.6
 20
72.4
 30
0.48
 40
4.8
  1
直列抵抗器（２本端子）外形図
 50
0.0
 41
0.9
 51
0.0
  7
KANJI5
  0
ENDSEC
  0
EOF
