  0
SECTION
  2
HEADER
  9
$ACADVER
  1
AC1009
  9
$DWGCODEPAGE
  3
dos932
  9
$EXTMIN
 10
0.0
 20
0.0
 30
0.0
  9
$EXTMAX
 10
297.0
 20
210.0
 30
0.0
  9
$LIMMIN
 10
0.0
 20
0.0
  9
$LIMMAX
 10
297.0
 20
210.0
  9
$LTSCALE
 40
1.0
  9
$PDMODE
 70
     0
  0
ENDSEC
  0
SECTION
  2
TABLES
  0
TABLE
  2
VPORT
 70
     1
  0
VPORT
  2
*ACTIVE
 70
     0
 10
0.0
 20
0.0
 11
1.0
 21
1.0
 12
148.5
 22
105.0
 13
0.0
 23
0.0
 14
10.0
 24
10.0
 15
10.0
 25
10.0
 16
0.0
 26
0.0
 36
1.0
 17
0.0
 27
0.0
 37
0.0
 40
297.0
 41
1.414285714
 42
50.0
 43
0.0
 44
0.0
 50
0.0
 51
0.0
 71
     0
 72
  1000
 73
     1
 74
     3
 75
     0
 76
     0
 77
     0
 78
     0
  0
ENDTAB
  0
TABLE
  2
LTYPE
 70
     3
  0
LTYPE
  2
CONTINUOUS
 70
    64
  3
Solid line
 72
    65
 73
     0
 40
0.0
  0
LTYPE
  2
LTYPE1
 70
    64
  3
CENTER
 72
    65
 73
     4
 40
15.0
 49
10.5
 49
-1.5
 49
1.5
 49
-1.5
  0
LTYPE
  2
LTYPE2
 70
    64
  3
HIDDEN
 72
    65
 73
     2
 40
3.0
 49
1.8
 49
-1.2
  0
ENDTAB
  0
TABLE
  2
LAYER
 70
   128
  0
LAYER
  2
0
 70
     0
 62
     7
  6
CONTINUOUS
  0
LAYER
  2
2
 70
     0
 62
     7
  6
CONTINUOUS
  0
LAYER
  2
3
 70
     0
 62
     7
  6
CONTINUOUS
  0
LAYER
  2
4
 70
     0
 62
     7
  6
CONTINUOUS
  0
LAYER
  2
5
 70
     0
 62
     7
  6
CONTINUOUS
  0
LAYER
  2
6
 70
     0
 62
     7
  6
CONTINUOUS
  0
LAYER
  2
7
 70
     0
 62
     7
  6
CONTINUOUS
  0
LAYER
  2
8
 70
     0
 62
     7
  6
CONTINUOUS
  0
LAYER
  2
9
 70
     0
 62
     7
  6
CONTINUOUS
  0
LAYER
  2
10
 70
     0
 62
     7
  6
CONTINUOUS
  0
LAYER
  2
11
 70
     0
 62
     7
  6
CONTINUOUS
  0
LAYER
  2
12
 70
     0
 62
     7
  6
CONTINUOUS
  0
LAYER
  2
13
 70
     0
 62
     7
  6
CONTINUOUS
  0
LAYER
  2
14
 70
     0
 62
     7
  6
CONTINUOUS
  0
LAYER
  2
15
 70
     0
 62
     7
  6
CONTINUOUS
  0
LAYER
  2
16
 70
     0
 62
     7
  6
CONTINUOUS
  0
LAYER
  2
17
 70
     0
 62
     7
  6
CONTINUOUS
  0
LAYER
  2
18
 70
     0
 62
     7
  6
CONTINUOUS
  0
LAYER
  2
19
 70
     0
 62
     7
  6
CONTINUOUS
  0
LAYER
  2
20
 70
     0
 62
     7
  6
CONTINUOUS
  0
LAYER
  2
21
 70
     0
 62
     7
  6
CONTINUOUS
  0
LAYER
  2
22
 70
     0
 62
     7
  6
CONTINUOUS
  0
LAYER
  2
23
 70
     0
 62
     7
  6
CONTINUOUS
  0
LAYER
  2
24
 70
     0
 62
     7
  6
CONTINUOUS
  0
LAYER
  2
25
 70
     0
 62
     7
  6
CONTINUOUS
  0
LAYER
  2
26
 70
     0
 62
     7
  6
CONTINUOUS
  0
LAYER
  2
27
 70
     0
 62
     7
  6
CONTINUOUS
  0
LAYER
  2
28
 70
     0
 62
     7
  6
CONTINUOUS
  0
LAYER
  2
29
 70
     0
 62
     7
  6
CONTINUOUS
  0
LAYER
  2
30
 70
     0
 62
     7
  6
CONTINUOUS
  0
LAYER
  2
31
 70
     0
 62
     7
  6
CONTINUOUS
  0
LAYER
  2
32
 70
     0
 62
     7
  6
CONTINUOUS
  0
LAYER
  2
33
 70
     0
 62
     7
  6
CONTINUOUS
  0
LAYER
  2
34
 70
     0
 62
     7
  6
CONTINUOUS
  0
LAYER
  2
35
 70
     0
 62
     7
  6
CONTINUOUS
  0
LAYER
  2
36
 70
     0
 62
     7
  6
CONTINUOUS
  0
LAYER
  2
37
 70
     0
 62
     7
  6
CONTINUOUS
  0
LAYER
  2
38
 70
     0
 62
     7
  6
CONTINUOUS
  0
LAYER
  2
39
 70
     0
 62
     7
  6
CONTINUOUS
  0
LAYER
  2
40
 70
     0
 62
     7
  6
CONTINUOUS
  0
LAYER
  2
41
 70
     0
 62
     7
  6
CONTINUOUS
  0
LAYER
  2
42
 70
     0
 62
     7
  6
CONTINUOUS
  0
LAYER
  2
43
 70
     0
 62
     7
  6
CONTINUOUS
  0
LAYER
  2
44
 70
     0
 62
     7
  6
CONTINUOUS
  0
LAYER
  2
45
 70
     0
 62
     7
  6
CONTINUOUS
  0
LAYER
  2
46
 70
     0
 62
     7
  6
CONTINUOUS
  0
LAYER
  2
47
 70
     0
 62
     7
  6
CONTINUOUS
  0
LAYER
  2
48
 70
     0
 62
     7
  6
CONTINUOUS
  0
LAYER
  2
49
 70
     0
 62
     7
  6
CONTINUOUS
  0
LAYER
  2
50
 70
     0
 62
     7
  6
CONTINUOUS
  0
LAYER
  2
51
 70
     0
 62
     7
  6
CONTINUOUS
  0
LAYER
  2
52
 70
     0
 62
     7
  6
CONTINUOUS
  0
LAYER
  2
53
 70
     0
 62
     7
  6
CONTINUOUS
  0
LAYER
  2
54
 70
     0
 62
     7
  6
CONTINUOUS
  0
LAYER
  2
55
 70
     0
 62
     7
  6
CONTINUOUS
  0
LAYER
  2
56
 70
     0
 62
     7
  6
CONTINUOUS
  0
LAYER
  2
57
 70
     0
 62
     7
  6
CONTINUOUS
  0
LAYER
  2
58
 70
     0
 62
     7
  6
CONTINUOUS
  0
LAYER
  2
59
 70
     0
 62
     7
  6
CONTINUOUS
  0
LAYER
  2
60
 70
     0
 62
     7
  6
CONTINUOUS
  0
LAYER
  2
61
 70
     0
 62
     7
  6
CONTINUOUS
  0
LAYER
  2
62
 70
     0
 62
     7
  6
CONTINUOUS
  0
LAYER
  2
63
 70
     0
 62
     7
  6
CONTINUOUS
  0
LAYER
  2
64
 70
     0
 62
     7
  6
CONTINUOUS
  0
LAYER
  2
65
 70
     0
 62
     7
  6
CONTINUOUS
  0
LAYER
  2
66
 70
     0
 62
     7
  6
CONTINUOUS
  0
LAYER
  2
67
 70
     0
 62
     7
  6
CONTINUOUS
  0
LAYER
  2
68
 70
     0
 62
     7
  6
CONTINUOUS
  0
LAYER
  2
69
 70
     0
 62
     7
  6
CONTINUOUS
  0
LAYER
  2
70
 70
     0
 62
     7
  6
CONTINUOUS
  0
LAYER
  2
71
 70
     0
 62
     7
  6
CONTINUOUS
  0
LAYER
  2
72
 70
     0
 62
     7
  6
CONTINUOUS
  0
LAYER
  2
73
 70
     0
 62
     7
  6
CONTINUOUS
  0
LAYER
  2
74
 70
     0
 62
     7
  6
CONTINUOUS
  0
LAYER
  2
75
 70
     0
 62
     7
  6
CONTINUOUS
  0
LAYER
  2
76
 70
     0
 62
     7
  6
CONTINUOUS
  0
LAYER
  2
77
 70
     0
 62
     7
  6
CONTINUOUS
  0
LAYER
  2
78
 70
     0
 62
     7
  6
CONTINUOUS
  0
LAYER
  2
79
 70
     0
 62
     7
  6
CONTINUOUS
  0
LAYER
  2
80
 70
     0
 62
     7
  6
CONTINUOUS
  0
LAYER
  2
81
 70
     0
 62
     7
  6
CONTINUOUS
  0
LAYER
  2
82
 70
     0
 62
     7
  6
CONTINUOUS
  0
LAYER
  2
83
 70
     0
 62
     7
  6
CONTINUOUS
  0
LAYER
  2
84
 70
     0
 62
     7
  6
CONTINUOUS
  0
LAYER
  2
85
 70
     0
 62
     7
  6
CONTINUOUS
  0
LAYER
  2
86
 70
     0
 62
     7
  6
CONTINUOUS
  0
LAYER
  2
87
 70
     0
 62
     7
  6
CONTINUOUS
  0
LAYER
  2
88
 70
     0
 62
     7
  6
CONTINUOUS
  0
LAYER
  2
89
 70
     0
 62
     7
  6
CONTINUOUS
  0
LAYER
  2
90
 70
     0
 62
     7
  6
CONTINUOUS
  0
LAYER
  2
91
 70
     0
 62
     7
  6
CONTINUOUS
  0
LAYER
  2
92
 70
     0
 62
     7
  6
CONTINUOUS
  0
LAYER
  2
93
 70
     0
 62
     7
  6
CONTINUOUS
  0
LAYER
  2
94
 70
     0
 62
     7
  6
CONTINUOUS
  0
LAYER
  2
95
 70
     0
 62
     7
  6
CONTINUOUS
  0
LAYER
  2
96
 70
     0
 62
     7
  6
CONTINUOUS
  0
LAYER
  2
97
 70
     0
 62
     7
  6
CONTINUOUS
  0
LAYER
  2
98
 70
     0
 62
     7
  6
CONTINUOUS
  0
LAYER
  2
99
 70
     0
 62
     7
  6
CONTINUOUS
  0
LAYER
  2
100
 70
     0
 62
     7
  6
CONTINUOUS
  0
LAYER
  2
101
 70
     0
 62
     7
  6
CONTINUOUS
  0
LAYER
  2
102
 70
     0
 62
     7
  6
CONTINUOUS
  0
LAYER
  2
103
 70
     0
 62
     7
  6
CONTINUOUS
  0
LAYER
  2
104
 70
     0
 62
     7
  6
CONTINUOUS
  0
LAYER
  2
105
 70
     0
 62
     7
  6
CONTINUOUS
  0
LAYER
  2
106
 70
     0
 62
     7
  6
CONTINUOUS
  0
LAYER
  2
107
 70
     0
 62
     7
  6
CONTINUOUS
  0
LAYER
  2
108
 70
     0
 62
     7
  6
CONTINUOUS
  0
LAYER
  2
109
 70
     0
 62
     7
  6
CONTINUOUS
  0
LAYER
  2
110
 70
     0
 62
     7
  6
CONTINUOUS
  0
LAYER
  2
111
 70
     0
 62
     7
  6
CONTINUOUS
  0
LAYER
  2
112
 70
     0
 62
     7
  6
CONTINUOUS
  0
LAYER
  2
113
 70
     0
 62
     7
  6
CONTINUOUS
  0
LAYER
  2
114
 70
     0
 62
     7
  6
CONTINUOUS
  0
LAYER
  2
115
 70
     0
 62
     7
  6
CONTINUOUS
  0
LAYER
  2
116
 70
     0
 62
     7
  6
CONTINUOUS
  0
LAYER
  2
117
 70
     0
 62
     7
  6
CONTINUOUS
  0
LAYER
  2
118
 70
     0
 62
     7
  6
CONTINUOUS
  0
LAYER
  2
119
 70
     0
 62
     7
  6
CONTINUOUS
  0
LAYER
  2
120
 70
     0
 62
     7
  6
CONTINUOUS
  0
LAYER
  2
121
 70
     0
 62
     7
  6
CONTINUOUS
  0
LAYER
  2
122
 70
     0
 62
     7
  6
CONTINUOUS
  0
LAYER
  2
123
 70
     0
 62
     7
  6
CONTINUOUS
  0
LAYER
  2
124
 70
     0
 62
     7
  6
CONTINUOUS
  0
LAYER
  2
125
 70
     0
 62
     7
  6
CONTINUOUS
  0
LAYER
  2
126
 70
     0
 62
     7
  6
CONTINUOUS
  0
LAYER
  2
127
 70
     0
 62
     7
  6
CONTINUOUS
  0
LAYER
  2
128
 70
     0
 62
     7
  6
CONTINUOUS
  0
ENDTAB
  0
TABLE
  2
STYLE
 70
     6
  0
STYLE
  2
STANDARD
 70
     0
 40
0.0
 41
1.0
 50
0.0
 71
     0
 42
0.2
  3
txt.shx
  4
extfont.shx
  0
STYLE
  2
KANJI0
 70
     0
 40
4.0
 41
0.9
 50
0.0
 71
     0
 42
4.0
  3
txt.shx
  4
extfont.shx
  0
STYLE
  2
KANJI1
 70
     0
 40
3.0
 41
0.9
 50
0.0
 71
     0
 42
3.0
  3
txt.shx
  4
extfont.shx
  0
STYLE
  2
KANJI2
 70
     0
 40
3.0
 41
0.6
 50
0.0
 71
     0
 42
3.0
  3
txt.shx
  4
extfont.shx
  0
STYLE
  2
KANJI3
 70
     0
 40
1.8
 41
0.6
 50
0.0
 71
     0
 42
1.8
  3
txt.shx
  4
extfont.shx
  0
STYLE
  2
KANJI4
 70
     0
 40
5.8
 41
0.827586207
 50
0.0
 71
     0
 42
5.8
  3
txt.shx
  4
extfont.shx
  0
ENDTAB
  0
TABLE
  2
VIEW
 70
     0
  0
ENDTAB
  0
ENDSEC
  0
SECTION
  2
BLOCKS
  0
ENDSEC
  0
SECTION
  2
ENTITIES
  0
CIRCLE
  8
0
  6
CONTINUOUS
 62
     1
 10
64.0
 20
132.0
 30
0.0
 40
2.25
  0
CIRCLE
  8
0
  6
CONTINUOUS
 62
     1
 10
166.0
 20
132.0
 30
0.0
 40
2.25
  0
CIRCLE
  8
0
  6
CONTINUOUS
 62
     1
 10
82.0
 20
132.0
 30
0.0
 40
3.5
  0
LINE
  8
0
  6
CONTINUOUS
 62
     1
 10
81.5
 20
135.464101615
 30
0.0
 11
81.5
 21
133.0
 31
0.0
  0
ARC
  8
0
  6
CONTINUOUS
 62
     1
 10
81.0
 20
133.0
 30
0.0
 40
0.5
 50
270.0
 51
0.0
  0
LINE
  8
0
  6
CONTINUOUS
 62
     1
 10
81.0
 20
132.5
 30
0.0
 11
79.95
 21
132.5
 31
0.0
  0
LINE
  8
0
  6
CONTINUOUS
 62
     1
 10
79.95
 20
132.5
 30
0.0
 11
79.95
 21
131.5
 31
0.0
  0
LINE
  8
0
  6
CONTINUOUS
 62
     1
 10
79.95
 20
131.5
 30
0.0
 11
81.0
 21
131.5
 31
0.0
  0
ARC
  8
0
  6
CONTINUOUS
 62
     1
 10
81.0
 20
131.0
 30
0.0
 40
0.5
 50
0.0
 51
90.0
  0
LINE
  8
0
  6
CONTINUOUS
 62
     1
 10
81.5
 20
131.0
 30
0.0
 11
81.5
 21
128.535898385
 31
0.0
  0
LINE
  8
0
  6
CONTINUOUS
 62
     1
 10
82.5
 20
135.464101615
 30
0.0
 11
82.5
 21
133.0
 31
0.0
  0
ARC
  8
0
  6
CONTINUOUS
 62
     1
 10
83.0
 20
133.0
 30
0.0
 40
0.5
 50
180.0
 51
270.0
  0
LINE
  8
0
  6
CONTINUOUS
 62
     1
 10
83.0
 20
132.5
 30
0.0
 11
84.05
 21
132.5
 31
0.0
  0
LINE
  8
0
  6
CONTINUOUS
 62
     1
 10
84.05
 20
132.5
 30
0.0
 11
84.05
 21
131.5
 31
0.0
  0
LINE
  8
0
  6
CONTINUOUS
 62
     1
 10
84.05
 20
131.5
 30
0.0
 11
83.0
 21
131.5
 31
0.0
  0
ARC
  8
0
  6
CONTINUOUS
 62
     1
 10
83.0
 20
131.0
 30
0.0
 40
0.5
 50
90.0
 51
180.0
  0
LINE
  8
0
  6
CONTINUOUS
 62
     1
 10
82.5
 20
131.0
 30
0.0
 11
82.5
 21
128.535898385
 31
0.0
  0
CIRCLE
  8
0
  6
CONTINUOUS
 62
     1
 10
148.0
 20
132.0
 30
0.0
 40
3.5
  0
LINE
  8
0
  6
CONTINUOUS
 62
     1
 10
148.5
 20
135.464101615
 30
0.0
 11
148.5
 21
133.0
 31
0.0
  0
ARC
  8
0
  6
CONTINUOUS
 62
     1
 10
149.0
 20
133.0
 30
0.0
 40
0.5
 50
180.0
 51
270.0
  0
LINE
  8
0
  6
CONTINUOUS
 62
     1
 10
149.0
 20
132.5
 30
0.0
 11
150.05
 21
132.5
 31
0.0
  0
LINE
  8
0
  6
CONTINUOUS
 62
     1
 10
150.05
 20
132.5
 30
0.0
 11
150.05
 21
131.5
 31
0.0
  0
LINE
  8
0
  6
CONTINUOUS
 62
     1
 10
150.05
 20
131.5
 30
0.0
 11
149.0
 21
131.5
 31
0.0
  0
ARC
  8
0
  6
CONTINUOUS
 62
     1
 10
149.0
 20
131.0
 30
0.0
 40
0.5
 50
90.0
 51
180.0
  0
LINE
  8
0
  6
CONTINUOUS
 62
     1
 10
148.5
 20
131.0
 30
0.0
 11
148.5
 21
128.535898385
 31
0.0
  0
LINE
  8
0
  6
CONTINUOUS
 62
     1
 10
147.5
 20
135.464101615
 30
0.0
 11
147.5
 21
133.0
 31
0.0
  0
ARC
  8
0
  6
CONTINUOUS
 62
     1
 10
147.0
 20
133.0
 30
0.0
 40
0.5
 50
270.0
 51
0.0
  0
LINE
  8
0
  6
CONTINUOUS
 62
     1
 10
147.0
 20
132.5
 30
0.0
 11
145.95
 21
132.5
 31
0.0
  0
LINE
  8
0
  6
CONTINUOUS
 62
     1
 10
145.95
 20
132.5
 30
0.0
 11
145.95
 21
131.5
 31
0.0
  0
LINE
  8
0
  6
CONTINUOUS
 62
     1
 10
145.95
 20
131.5
 30
0.0
 11
147.0
 21
131.5
 31
0.0
  0
ARC
  8
0
  6
CONTINUOUS
 62
     1
 10
147.0
 20
131.0
 30
0.0
 40
0.5
 50
0.0
 51
90.0
  0
LINE
  8
0
  6
CONTINUOUS
 62
     1
 10
147.5
 20
131.0
 30
0.0
 11
147.5
 21
128.535898385
 31
0.0
  0
ARC
  8
0
  6
CONTINUOUS
 62
     1
 10
76.0
 20
118.0
 30
0.0
 40
6.0
 50
180.0
 51
270.0
  0
LINE
  8
0
  6
CONTINUOUS
 62
     1
 10
76.0
 20
112.0
 30
0.0
 11
154.0
 21
112.0
 31
0.0
  0
ARC
  8
0
  6
CONTINUOUS
 62
     1
 10
154.0
 20
118.0
 30
0.0
 40
6.0
 50
270.0
 51
0.0
  0
LINE
  8
0
  6
CONTINUOUS
 62
     1
 10
160.0
 20
118.0
 30
0.0
 11
160.0
 21
146.0
 31
0.0
  0
ARC
  8
0
  6
CONTINUOUS
 62
     1
 10
154.0
 20
146.0
 30
0.0
 40
6.0
 50
0.0
 51
90.0
  0
LINE
  8
0
  6
CONTINUOUS
 62
     1
 10
154.0
 20
152.0
 30
0.0
 11
76.0
 21
152.0
 31
0.0
  0
ARC
  8
0
  6
CONTINUOUS
 62
     1
 10
76.0
 20
146.0
 30
0.0
 40
6.0
 50
90.0
 51
180.0
  0
LINE
  8
0
  6
CONTINUOUS
 62
     1
 10
70.0
 20
146.0
 30
0.0
 11
70.0
 21
118.0
 31
0.0
  0
LINE
  8
0
  6
CONTINUOUS
 62
     1
 10
59.444460386
 20
135.904748241
 30
0.0
 11
71.444460386
 21
149.904748241
 31
0.0
  0
LINE
  8
0
  6
CONTINUOUS
 62
     1
 10
59.444460386
 20
128.095251759
 30
0.0
 11
71.444460386
 21
114.095251759
 31
0.0
  0
ARC
  8
0
  6
CONTINUOUS
 62
     1
 10
64.0
 20
132.0
 30
0.0
 40
6.0
 50
139.398705355
 51
220.601294645
  0
LINE
  8
0
  6
CONTINUOUS
 62
     1
 10
170.555539614
 20
135.904748241
 30
0.0
 11
158.555539614
 21
149.904748241
 31
0.0
  0
ARC
  8
0
  6
CONTINUOUS
 62
     1
 10
166.0
 20
132.0
 30
0.0
 40
6.0
 50
319.398705355
 51
40.601294645
  0
LINE
  8
0
  6
CONTINUOUS
 62
     1
 10
170.555539614
 20
128.095251759
 30
0.0
 11
158.555539614
 21
114.095251759
 31
0.0
  0
LINE
  8
0
  6
CONTINUOUS
 62
     1
 10
58.0
 20
32.0
 30
0.0
 11
58.0
 21
37.0
 31
0.0
  0
LINE
  8
0
  6
CONTINUOUS
 62
     1
 10
58.0
 20
37.0
 30
0.0
 11
70.0
 21
37.0
 31
0.0
  0
ARC
  8
0
  6
CONTINUOUS
 62
     1
 10
71.5
 20
77.5
 30
0.0
 40
1.5
 50
90.0
 51
180.0
  0
LINE
  8
0
  6
CONTINUOUS
 62
     1
 10
70.0
 20
37.0
 30
0.0
 11
70.0
 21
77.5
 31
0.0
  0
ARC
  8
0
  6
CONTINUOUS
 62
     1
 10
158.5
 20
77.5
 30
0.0
 40
1.5
 50
0.0
 51
90.0
  0
LINE
  8
0
  6
CONTINUOUS
 62
     1
 10
160.0
 20
77.5
 30
0.0
 11
160.0
 21
37.3
 31
0.0
  0
LINE
  8
0
  6
CONTINUOUS
 62
     1
 10
71.5
 20
79.0
 30
0.0
 11
158.5
 21
79.0
 31
0.0
  0
LINE
  8
0
  6
CONTINUOUS
 62
     1
 10
70.0
 20
76.5
 30
0.0
 11
160.0
 21
76.5
 31
0.0
  0
LINE
  8
0
  6
CONTINUOUS
 62
     1
 10
172.0
 20
32.0
 30
0.0
 11
172.0
 21
37.0
 31
0.0
  0
LINE
  8
0
  6
CONTINUOUS
 62
     1
 10
172.0
 20
37.0
 30
0.0
 11
160.0
 21
37.0
 31
0.0
  0
LINE
  8
0
  6
CONTINUOUS
 62
     1
 10
172.0
 20
32.0
 30
0.0
 11
58.0
 21
32.0
 31
0.0
  0
ARC
  8
0
  6
CONTINUOUS
 62
     1
 10
97.0
 20
45.0
 30
0.0
 40
1.0
 50
180.0
 51
270.0
  0
LINE
  8
0
  6
CONTINUOUS
 62
     1
 10
97.0
 20
44.0
 30
0.0
 11
133.0
 21
44.0
 31
0.0
  0
ARC
  8
0
  6
CONTINUOUS
 62
     1
 10
133.0
 20
45.0
 30
0.0
 40
1.0
 50
270.0
 51
0.0
  0
LINE
  8
0
  6
CONTINUOUS
 62
     1
 10
134.0
 20
45.0
 30
0.0
 11
134.0
 21
62.0
 31
0.0
  0
ARC
  8
0
  6
CONTINUOUS
 62
     1
 10
133.0
 20
62.0
 30
0.0
 40
1.0
 50
0.0
 51
90.0
  0
LINE
  8
0
  6
CONTINUOUS
 62
     1
 10
133.0
 20
63.0
 30
0.0
 11
97.0
 21
63.0
 31
0.0
  0
ARC
  8
0
  6
CONTINUOUS
 62
     1
 10
97.0
 20
62.0
 30
0.0
 40
1.0
 50
90.0
 51
180.0
  0
LINE
  8
0
  6
CONTINUOUS
 62
     1
 10
96.0
 20
62.0
 30
0.0
 11
96.0
 21
45.0
 31
0.0
  0
TEXT
  8
0
  6
CONTINUOUS
 62
     1
 10
109.3
 20
51.5
 30
0.4
 40
4.0
  1
銘　板
 50
0.0
 41
0.9
 51
0.0
  7
KANJI0
  0
LINE
  8
0
  6
CONTINUOUS
 62
     1
 10
82.0
 20
84.0
 30
0.0
 11
82.577350269
 21
85.0
 31
0.0
  0
LINE
  8
0
  6
CONTINUOUS
 62
     1
 10
82.0
 20
85.0
 30
0.0
 11
81.422649731
 21
84.0
 31
0.0
  0
ARC
  8
0
  6
CONTINUOUS
 62
     1
 10
79.8
 20
86.3
 30
0.0
 40
1.3
 50
90.0
 51
180.0
  0
LINE
  8
0
  6
CONTINUOUS
 62
     1
 10
79.8
 20
87.6
 30
0.0
 11
81.5
 21
87.6
 31
0.0
  0
LINE
  8
0
  6
CONTINUOUS
 62
     1
 10
81.5
 20
87.6
 30
0.0
 11
81.5
 21
86.2
 31
0.0
  0
LINE
  8
0
  6
CONTINUOUS
 62
     1
 10
81.5
 20
86.2
 30
0.0
 11
82.5
 21
86.2
 31
0.0
  0
LINE
  8
0
  6
CONTINUOUS
 62
     1
 10
82.5
 20
86.2
 30
0.0
 11
82.5
 21
87.6
 31
0.0
  0
LINE
  8
0
  6
CONTINUOUS
 62
     1
 10
82.5
 20
87.6
 30
0.0
 11
84.2
 21
87.6
 31
0.0
  0
ARC
  8
0
  6
CONTINUOUS
 62
     1
 10
84.2
 20
86.3
 30
0.0
 40
1.3
 50
0.0
 51
90.0
  0
LINE
  8
0
  6
CONTINUOUS
 62
     1
 10
78.5
 20
84.0
 30
0.0
 11
78.5
 21
86.3
 31
0.0
  0
LINE
  8
0
  6
CONTINUOUS
 62
     1
 10
85.5
 20
86.3
 30
0.0
 11
85.5
 21
84.0
 31
0.0
  0
LINE
  8
0
  6
CONTINUOUS
 62
     1
 10
78.5
 20
85.0
 30
0.0
 11
85.5
 21
85.0
 31
0.0
  0
LINE
  8
0
  6
CONTINUOUS
 62
     1
 10
78.5
 20
84.0
 30
0.0
 11
85.5
 21
84.0
 31
0.0
  0
LINE
  8
0
  6
CONTINUOUS
 62
     1
 10
148.0
 20
84.0
 30
0.0
 11
147.422649731
 21
85.0
 31
0.0
  0
LINE
  8
0
  6
CONTINUOUS
 62
     1
 10
148.0
 20
85.0
 30
0.0
 11
148.577350269
 21
84.0
 31
0.0
  0
ARC
  8
0
  6
CONTINUOUS
 62
     1
 10
150.2
 20
86.3
 30
0.0
 40
1.3
 50
0.0
 51
90.0
  0
LINE
  8
0
  6
CONTINUOUS
 62
     1
 10
150.2
 20
87.6
 30
0.0
 11
148.5
 21
87.6
 31
0.0
  0
LINE
  8
0
  6
CONTINUOUS
 62
     1
 10
148.5
 20
87.6
 30
0.0
 11
148.5
 21
86.2
 31
0.0
  0
LINE
  8
0
  6
CONTINUOUS
 62
     1
 10
148.5
 20
86.2
 30
0.0
 11
147.5
 21
86.2
 31
0.0
  0
LINE
  8
0
  6
CONTINUOUS
 62
     1
 10
147.5
 20
86.2
 30
0.0
 11
147.5
 21
87.6
 31
0.0
  0
LINE
  8
0
  6
CONTINUOUS
 62
     1
 10
147.5
 20
87.6
 30
0.0
 11
145.8
 21
87.6
 31
0.0
  0
ARC
  8
0
  6
CONTINUOUS
 62
     1
 10
145.8
 20
86.3
 30
0.0
 40
1.3
 50
90.0
 51
180.0
  0
LINE
  8
0
  6
CONTINUOUS
 62
     1
 10
151.5
 20
84.0
 30
0.0
 11
151.5
 21
86.3
 31
0.0
  0
LINE
  8
0
  6
CONTINUOUS
 62
     1
 10
144.5
 20
86.3
 30
0.0
 11
144.5
 21
84.0
 31
0.0
  0
LINE
  8
0
  6
CONTINUOUS
 62
     1
 10
151.5
 20
85.0
 30
0.0
 11
144.5
 21
85.0
 31
0.0
  0
LINE
  8
0
  6
CONTINUOUS
 62
     1
 10
151.5
 20
84.0
 30
0.0
 11
144.5
 21
84.0
 31
0.0
  0
LINE
  8
0
  6
CONTINUOUS
 62
     1
 10
151.0
 20
79.0
 30
0.0
 11
151.0
 21
84.0
 31
0.0
  0
LINE
  8
0
  6
CONTINUOUS
 62
     1
 10
145.0
 20
84.0
 30
0.0
 11
145.0
 21
79.0
 31
0.0
  0
LINE
  8
0
  6
CONTINUOUS
 62
     1
 10
79.0
 20
79.0
 30
0.0
 11
79.0
 21
84.0
 31
0.0
  0
LINE
  8
0
  6
CONTINUOUS
 62
     1
 10
85.0
 20
84.0
 30
0.0
 11
85.0
 21
79.0
 31
0.0
  0
TEXT
  8
0
  6
CONTINUOUS
 62
     2
 10
145.0
 20
24.0
 30
0.3
 40
3.0
  1
注）端子数　および　その配置は一例を示します。
 50
0.0
 41
0.9
 51
0.0
  7
KANJI1
  0
LINE
  8
0
  6
CONTINUOUS
 62
     2
 10
145.0
 20
23.0
 30
0.0
 11
210.0
 21
23.0
 31
0.0
  0
LINE
  8
0
  6
LTYPE1
 62
     2
 10
64.0
 20
135.0
 30
0.0
 11
64.0
 21
129.0
 31
0.0
  0
LINE
  8
0
  6
LTYPE1
 62
     2
 10
166.0
 20
135.0
 30
0.0
 11
166.0
 21
129.0
 31
0.0
  0
LINE
  8
0
  6
CONTINUOUS
 62
     2
 10
167.125
 20
130.051442841
 30
0.0
 11
167.772047613
 21
127.636628276
 31
0.0
  0
LINE
  8
0
  6
CONTINUOUS
 62
     2
 10
167.125
 20
130.051442841
 30
0.0
 11
168.892766953
 21
128.283675889
 31
0.0
  0
LINE
  8
0
  6
CONTINUOUS
 62
     2
 10
167.125
 20
130.051442841
 30
0.0
 11
174.660254038
 21
117.0
 31
0.0
  0
LINE
  8
0
  6
CONTINUOUS
 62
     2
 10
174.660254038
 20
117.0
 30
0.0
 11
194.010254038
 21
117.0
 31
0.0
  0
TEXT
  8
0
  6
CONTINUOUS
 62
     2
 10
174.660254038
 20
118.0
 30
0.3
 40
3.0
  1
２－φ４．５穴
 50
0.0
 41
0.9
 51
0.0
  7
KANJI1
  0
LINE
  8
0
  6
LTYPE1
 62
     2
 10
53.0
 20
132.0
 30
0.0
 11
177.0
 21
132.0
 31
0.0
  0
LINE
  8
0
  6
LTYPE1
 62
     2
 10
82.0
 20
137.0
 30
0.0
 11
82.0
 21
127.0
 31
0.0
  0
LINE
  8
0
  6
LTYPE1
 62
     2
 10
148.0
 20
137.0
 30
0.0
 11
148.0
 21
127.0
 31
0.0
  0
LINE
  8
0
  6
CONTINUOUS
 62
     2
 10
149.75
 20
128.968911087
 30
0.0
 11
150.397047613
 21
126.554096521
 31
0.0
  0
LINE
  8
0
  6
CONTINUOUS
 62
     2
 10
149.75
 20
128.968911087
 30
0.0
 11
151.517766953
 21
127.201144134
 31
0.0
  0
LINE
  8
0
  6
CONTINUOUS
 62
     2
 10
149.75
 20
128.968911087
 30
0.0
 11
159.547005384
 21
112.0
 31
0.0
  0
LINE
  8
0
  6
CONTINUOUS
 62
     2
 10
159.547005384
 20
112.0
 30
0.0
 11
177.247005384
 21
112.0
 31
0.0
  0
TEXT
  8
0
  6
CONTINUOUS
 62
     2
 10
159.547005384
 20
113.0
 30
0.3
 40
3.0
  1
２－Ｍ４ネジ
 50
0.0
 41
0.9
 51
0.0
  7
KANJI1
  0
LINE
  8
0
  6
CONTINUOUS
 62
     2
 10
70.0
 20
148.0
 30
0.0
 11
70.0
 21
159.0
 31
0.0
  0
LINE
  8
0
  6
CONTINUOUS
 62
     2
 10
70.0
 20
157.0
 30
0.0
 11
72.414814566
 21
156.352952387
 31
0.0
  0
LINE
  8
0
  6
CONTINUOUS
 62
     2
 10
70.0
 20
157.0
 30
0.0
 11
72.414814566
 21
157.647047613
 31
0.0
  0
LINE
  8
0
  6
CONTINUOUS
 62
     2
 10
70.0
 20
157.0
 30
0.0
 11
160.0
 21
157.0
 31
0.0
  0
LINE
  8
0
  6
CONTINUOUS
 62
     2
 10
160.0
 20
157.0
 30
0.0
 11
157.585185434
 21
157.647047613
 31
0.0
  0
LINE
  8
0
  6
CONTINUOUS
 62
     2
 10
160.0
 20
157.0
 30
0.0
 11
157.585185434
 21
156.352952387
 31
0.0
  0
LINE
  8
0
  6
CONTINUOUS
 62
     2
 10
160.0
 20
148.0
 30
0.0
 11
160.0
 21
159.0
 31
0.0
  0
TEXT
  8
0
  6
CONTINUOUS
 62
     2
 10
113.05
 20
158.0
 30
0.3
 40
3.0
  1
９０
 50
0.0
 41
0.6
 51
0.0
  7
KANJI2
  0
LINE
  8
0
  6
CONTINUOUS
 62
     2
 10
166.0
 20
135.0
 30
0.0
 11
166.0
 21
164.0
 31
0.0
  0
LINE
  8
0
  6
CONTINUOUS
 62
     2
 10
166.0
 20
162.0
 30
0.0
 11
163.585185434
 21
162.647047613
 31
0.0
  0
LINE
  8
0
  6
CONTINUOUS
 62
     2
 10
166.0
 20
162.0
 30
0.0
 11
163.585185434
 21
161.352952387
 31
0.0
  0
LINE
  8
0
  6
CONTINUOUS
 62
     2
 10
166.0
 20
162.0
 30
0.0
 11
64.0
 21
162.0
 31
0.0
  0
LINE
  8
0
  6
CONTINUOUS
 62
     2
 10
64.0
 20
162.0
 30
0.0
 11
66.414814566
 21
161.352952387
 31
0.0
  0
LINE
  8
0
  6
CONTINUOUS
 62
     2
 10
64.0
 20
162.0
 30
0.0
 11
66.414814566
 21
162.647047613
 31
0.0
  0
LINE
  8
0
  6
CONTINUOUS
 62
     2
 10
64.0
 20
135.0
 30
0.0
 11
64.0
 21
164.0
 31
0.0
  0
TEXT
  8
0
  6
CONTINUOUS
 62
     2
 10
109.57
 20
163.0
 30
0.3
 40
3.0
  1
１０２
 50
0.0
 41
0.6
 51
0.0
  7
KANJI2
  0
TEXT
  8
0
  6
CONTINUOUS
 62
     2
 10
115.57
 20
163.0
 30
0.18
 40
1.8
  1
±０．５
 50
0.0
 41
0.6
 51
0.0
  7
KANJI3
  0
LINE
  8
0
  6
CONTINUOUS
 62
     2
 10
58.0
 20
134.0
 30
0.0
 11
58.0
 21
169.0
 31
0.0
  0
LINE
  8
0
  6
CONTINUOUS
 62
     2
 10
58.0
 20
167.0
 30
0.0
 11
60.414814566
 21
166.352952387
 31
0.0
  0
LINE
  8
0
  6
CONTINUOUS
 62
     2
 10
58.0
 20
167.0
 30
0.0
 11
60.414814566
 21
167.647047613
 31
0.0
  0
LINE
  8
0
  6
CONTINUOUS
 62
     2
 10
58.0
 20
167.0
 30
0.0
 11
172.0
 21
167.0
 31
0.0
  0
LINE
  8
0
  6
CONTINUOUS
 62
     2
 10
172.0
 20
167.0
 30
0.0
 11
169.585185434
 21
167.647047613
 31
0.0
  0
LINE
  8
0
  6
CONTINUOUS
 62
     2
 10
172.0
 20
167.0
 30
0.0
 11
169.585185434
 21
166.352952387
 31
0.0
  0
LINE
  8
0
  6
CONTINUOUS
 62
     2
 10
172.0
 20
134.0
 30
0.0
 11
172.0
 21
169.0
 31
0.0
  0
TEXT
  8
0
  6
CONTINUOUS
 62
     2
 10
112.0
 20
168.0
 30
0.3
 40
3.0
  1
１１４
 50
0.0
 41
0.6
 51
0.0
  7
KANJI2
  0
LINE
  8
0
  6
CONTINUOUS
 62
     2
 10
74.0
 20
152.0
 30
0.0
 11
51.0
 21
152.0
 31
0.0
  0
LINE
  8
0
  6
CONTINUOUS
 62
     2
 10
53.0
 20
152.0
 30
0.0
 11
52.352952387
 21
149.585185434
 31
0.0
  0
LINE
  8
0
  6
CONTINUOUS
 62
     2
 10
53.0
 20
152.0
 30
0.0
 11
53.647047613
 21
149.585185434
 31
0.0
  0
LINE
  8
0
  6
CONTINUOUS
 62
     2
 10
53.0
 20
152.0
 30
0.0
 11
53.0
 21
112.0
 31
0.0
  0
LINE
  8
0
  6
CONTINUOUS
 62
     2
 10
53.0
 20
112.0
 30
0.0
 11
53.647047613
 21
114.414814566
 31
0.0
  0
LINE
  8
0
  6
CONTINUOUS
 62
     2
 10
53.0
 20
112.0
 30
0.0
 11
52.352952387
 21
114.414814566
 31
0.0
  0
LINE
  8
0
  6
CONTINUOUS
 62
     2
 10
74.0
 20
112.0
 30
0.0
 11
51.0
 21
112.0
 31
0.0
  0
TEXT
  8
0
  6
CONTINUOUS
 62
     2
 10
52.0
 20
130.05
 30
0.3
 40
3.0
  1
４０
 50
90.0
 41
0.6
 51
0.0
  7
KANJI2
  0
LINE
  8
0
  6
LTYPE1
 62
     2
 10
115.0
 20
157.0
 30
0.0
 11
115.0
 21
107.0
 31
0.0
  0
LINE
  8
0
  6
LTYPE2
 62
     2
 10
76.1
 20
108.3
 30
0.0
 11
87.9
 21
108.3
 31
0.0
  0
ARC
  8
0
  6
LTYPE2
 62
     2
 10
82.0
 20
132.4
 30
0.0
 40
5.9
 50
0.0
 51
180.0
  0
LINE
  8
0
  6
LTYPE2
 62
     2
 10
76.1
 20
132.400000052
 30
0.0
 11
76.1
 21
108.3
 31
0.0
  0
LINE
  8
0
  6
LTYPE2
 62
     2
 10
87.9
 20
108.3
 30
0.0
 11
87.9
 21
132.400000052
 31
0.0
  0
ARC
  8
0
  6
LTYPE2
 62
     2
 10
82.0
 20
130.4
 30
0.0
 40
5.9
 50
180.0
 51
0.0
  0
LINE
  8
0
  6
LTYPE2
 62
     2
 10
142.1
 20
108.3
 30
0.0
 11
153.9
 21
108.3
 31
0.0
  0
ARC
  8
0
  6
LTYPE2
 62
     2
 10
148.0
 20
132.4
 30
0.0
 40
5.9
 50
0.0
 51
180.0
  0
LINE
  8
0
  6
LTYPE2
 62
     2
 10
142.1
 20
132.400000052
 30
0.0
 11
142.1
 21
108.3
 31
0.0
  0
LINE
  8
0
  6
LTYPE2
 62
     2
 10
153.9
 20
108.3
 30
0.0
 11
153.9
 21
132.400000052
 31
0.0
  0
ARC
  8
0
  6
LTYPE2
 62
     2
 10
148.0
 20
130.4
 30
0.0
 40
5.9
 50
180.0
 51
0.0
  0
LINE
  8
0
  6
LTYPE1
 62
     2
 10
115.0
 20
88.3
 30
0.0
 11
115.0
 21
27.0
 31
0.0
  0
LINE
  8
0
  6
LTYPE1
 62
     2
 10
64.0
 20
29.0
 30
0.0
 11
64.0
 21
40.3
 31
0.0
  0
LINE
  8
0
  6
LTYPE2
 62
     2
 10
66.25
 20
32.0
 30
0.0
 11
66.25
 21
37.0
 31
0.0
  0
LINE
  8
0
  6
LTYPE2
 62
     2
 10
61.75
 20
32.0
 30
0.0
 11
61.75
 21
37.0
 31
0.0
  0
LINE
  8
0
  6
LTYPE1
 62
     2
 10
166.0
 20
29.0
 30
0.0
 11
166.0
 21
40.3
 31
0.0
  0
LINE
  8
0
  6
LTYPE2
 62
     2
 10
163.75
 20
32.0
 30
0.0
 11
163.75
 21
37.0
 31
0.0
  0
LINE
  8
0
  6
LTYPE2
 62
     2
 10
168.25
 20
32.0
 30
0.0
 11
168.25
 21
37.0
 31
0.0
  0
CIRCLE
  8
0
  6
CONTINUOUS
 62
     2
 10
80.0
 20
65.5
 30
0.0
 40
1.5
  0
CIRCLE
  8
0
  6
CONTINUOUS
 62
     2
 10
80.0
 20
57.5
 30
0.0
 40
1.5
  0
CIRCLE
  8
0
  6
CONTINUOUS
 62
     2
 10
80.0
 20
49.5
 30
0.0
 40
1.5
  0
CIRCLE
  8
0
  6
CONTINUOUS
 62
     2
 10
80.0
 20
41.5
 30
0.0
 40
1.5
  0
CIRCLE
  8
0
  6
CONTINUOUS
 62
     2
 10
87.0
 20
65.5
 30
0.0
 40
1.5
  0
CIRCLE
  8
0
  6
CONTINUOUS
 62
     2
 10
87.0
 20
57.5
 30
0.0
 40
1.5
  0
CIRCLE
  8
0
  6
CONTINUOUS
 62
     2
 10
87.0
 20
49.5
 30
0.0
 40
1.5
  0
CIRCLE
  8
0
  6
CONTINUOUS
 62
     2
 10
87.0
 20
41.5
 30
0.0
 40
1.5
  0
CIRCLE
  8
0
  6
CONTINUOUS
 62
     2
 10
94.0
 20
65.5
 30
0.0
 40
1.5
  0
CIRCLE
  8
0
  6
CONTINUOUS
 62
     2
 10
94.0
 20
57.5
 30
0.0
 40
1.5
  0
CIRCLE
  8
0
  6
CONTINUOUS
 62
     2
 10
94.0
 20
49.5
 30
0.0
 40
1.5
  0
CIRCLE
  8
0
  6
CONTINUOUS
 62
     2
 10
94.0
 20
41.5
 30
0.0
 40
1.5
  0
CIRCLE
  8
0
  6
CONTINUOUS
 62
     2
 10
101.0
 20
65.5
 30
0.0
 40
1.5
  0
CIRCLE
  8
0
  6
CONTINUOUS
 62
     2
 10
101.0
 20
41.5
 30
0.0
 40
1.5
  0
CIRCLE
  8
0
  6
CONTINUOUS
 62
     2
 10
108.0
 20
65.5
 30
0.0
 40
1.5
  0
CIRCLE
  8
0
  6
CONTINUOUS
 62
     2
 10
108.0
 20
41.5
 30
0.0
 40
1.5
  0
CIRCLE
  8
0
  6
CONTINUOUS
 62
     2
 10
115.0
 20
65.5
 30
0.0
 40
1.5
  0
CIRCLE
  8
0
  6
CONTINUOUS
 62
     2
 10
115.0
 20
41.5
 30
0.0
 40
1.5
  0
CIRCLE
  8
0
  6
CONTINUOUS
 62
     2
 10
122.0
 20
65.5
 30
0.0
 40
1.5
  0
CIRCLE
  8
0
  6
CONTINUOUS
 62
     2
 10
122.0
 20
41.5
 30
0.0
 40
1.5
  0
CIRCLE
  8
0
  6
CONTINUOUS
 62
     2
 10
129.0
 20
65.5
 30
0.0
 40
1.5
  0
CIRCLE
  8
0
  6
CONTINUOUS
 62
     2
 10
129.0
 20
41.5
 30
0.0
 40
1.5
  0
CIRCLE
  8
0
  6
CONTINUOUS
 62
     2
 10
136.0
 20
65.5
 30
0.0
 40
1.5
  0
CIRCLE
  8
0
  6
CONTINUOUS
 62
     2
 10
136.0
 20
57.5
 30
0.0
 40
1.5
  0
CIRCLE
  8
0
  6
CONTINUOUS
 62
     2
 10
136.0
 20
49.5
 30
0.0
 40
1.5
  0
CIRCLE
  8
0
  6
CONTINUOUS
 62
     2
 10
136.0
 20
41.5
 30
0.0
 40
1.5
  0
CIRCLE
  8
0
  6
CONTINUOUS
 62
     2
 10
143.0
 20
65.5
 30
0.0
 40
1.5
  0
CIRCLE
  8
0
  6
CONTINUOUS
 62
     2
 10
143.0
 20
57.5
 30
0.0
 40
1.5
  0
CIRCLE
  8
0
  6
CONTINUOUS
 62
     2
 10
143.0
 20
49.5
 30
0.0
 40
1.5
  0
CIRCLE
  8
0
  6
CONTINUOUS
 62
     2
 10
143.0
 20
41.5
 30
0.0
 40
1.5
  0
CIRCLE
  8
0
  6
CONTINUOUS
 62
     2
 10
150.0
 20
65.5
 30
0.0
 40
1.5
  0
CIRCLE
  8
0
  6
CONTINUOUS
 62
     2
 10
150.0
 20
57.5
 30
0.0
 40
1.5
  0
CIRCLE
  8
0
  6
CONTINUOUS
 62
     2
 10
150.0
 20
49.5
 30
0.0
 40
1.5
  0
CIRCLE
  8
0
  6
CONTINUOUS
 62
     2
 10
150.0
 20
41.5
 30
0.0
 40
1.5
  0
CIRCLE
  8
0
  6
CONTINUOUS
 62
     2
 10
82.0
 20
73.0
 30
0.0
 40
2.0
  0
LINE
  8
0
  6
CONTINUOUS
 62
     2
 10
83.0
 20
74.0
 30
0.0
 11
81.0
 21
72.0
 31
0.0
  0
LINE
  8
0
  6
CONTINUOUS
 62
     2
 10
81.0
 20
74.0
 30
0.0
 11
83.0
 21
72.0
 31
0.0
  0
CIRCLE
  8
0
  6
CONTINUOUS
 62
     2
 10
148.0
 20
73.0
 30
0.0
 40
2.0
  0
LINE
  8
0
  6
CONTINUOUS
 62
     2
 10
147.0
 20
74.0
 30
0.0
 11
149.0
 21
72.0
 31
0.0
  0
LINE
  8
0
  6
CONTINUOUS
 62
     2
 10
149.0
 20
74.0
 30
0.0
 11
147.0
 21
72.0
 31
0.0
  0
LINE
  8
0
  6
CONTINUOUS
 62
     2
 10
57.0
 20
32.0
 30
0.0
 11
51.0
 21
32.0
 31
0.0
  0
LINE
  8
0
  6
CONTINUOUS
 62
     2
 10
53.0
 20
32.0
 30
0.0
 11
52.352952387
 21
29.585185434
 31
0.0
  0
LINE
  8
0
  6
CONTINUOUS
 62
     2
 10
53.0
 20
32.0
 30
0.0
 11
53.647047613
 21
29.585185434
 31
0.0
  0
LINE
  8
0
  6
CONTINUOUS
 62
     2
 10
53.0
 20
27.0
 30
0.0
 11
53.0
 21
42.0
 31
0.0
  0
LINE
  8
0
  6
CONTINUOUS
 62
     2
 10
53.0
 20
37.0
 30
0.0
 11
53.647047613
 21
39.414814566
 31
0.0
  0
LINE
  8
0
  6
CONTINUOUS
 62
     2
 10
53.0
 20
37.0
 30
0.0
 11
52.352952387
 21
39.414814566
 31
0.0
  0
LINE
  8
0
  6
CONTINUOUS
 62
     2
 10
57.0
 20
37.0
 30
0.0
 11
51.0
 21
37.0
 31
0.0
  0
TEXT
  8
0
  6
CONTINUOUS
 62
     2
 10
52.0
 20
33.6
 30
0.3
 40
3.0
  1
５
 50
90.0
 41
0.6
 51
0.0
  7
KANJI2
  0
LINE
  8
0
  6
CONTINUOUS
 62
     2
 10
51.0
 20
32.0
 30
0.0
 11
46.0
 21
32.0
 31
0.0
  0
LINE
  8
0
  6
CONTINUOUS
 62
     2
 10
48.0
 20
32.0
 30
0.0
 11
48.647047613
 21
34.414814566
 31
0.0
  0
LINE
  8
0
  6
CONTINUOUS
 62
     2
 10
48.0
 20
32.0
 30
0.0
 11
47.352952387
 21
34.414814566
 31
0.0
  0
LINE
  8
0
  6
CONTINUOUS
 62
     2
 10
48.0
 20
32.0
 30
0.0
 11
48.0
 21
79.0
 31
0.0
  0
LINE
  8
0
  6
CONTINUOUS
 62
     2
 10
48.0
 20
79.0
 30
0.0
 11
47.352952387
 21
76.585185434
 31
0.0
  0
LINE
  8
0
  6
CONTINUOUS
 62
     2
 10
48.0
 20
79.0
 30
0.0
 11
48.647047613
 21
76.585185434
 31
0.0
  0
LINE
  8
0
  6
CONTINUOUS
 62
     2
 10
70.5
 20
79.0
 30
0.0
 11
46.0
 21
79.0
 31
0.0
  0
TEXT
  8
0
  6
CONTINUOUS
 62
     2
 10
47.0
 20
53.55
 30
0.3
 40
3.0
  1
４７
 50
90.0
 41
0.6
 51
0.0
  7
KANJI2
  0
LINE
  8
0
  6
CONTINUOUS
 62
     2
 10
48.0
 20
79.0
 30
0.0
 11
48.647047613
 21
81.414814566
 31
0.0
  0
LINE
  8
0
  6
CONTINUOUS
 62
     2
 10
48.0
 20
79.0
 30
0.0
 11
47.352952387
 21
81.414814566
 31
0.0
  0
LINE
  8
0
  6
CONTINUOUS
 62
     2
 10
48.0
 20
87.6
 30
0.0
 11
47.352952387
 21
85.185185434
 31
0.0
  0
LINE
  8
0
  6
CONTINUOUS
 62
     2
 10
48.0
 20
87.6
 30
0.0
 11
48.647047613
 21
85.185185434
 31
0.0
  0
LINE
  8
0
  6
CONTINUOUS
 62
     2
 10
78.8
 20
87.6
 30
0.0
 11
46.0
 21
87.6
 31
0.0
  0
TEXT
  8
0
  6
CONTINUOUS
 62
     2
 10
47.0
 20
82.4
 30
0.3
 40
3.0
  1
９
 50
90.0
 41
0.6
 51
0.0
  7
KANJI2
  0
LINE
  8
0
  6
CONTINUOUS
 62
     2
 10
48.0
 20
79.0
 30
0.0
 11
48.0
 21
87.6
 31
0.0
  0
LINE
  8
0
  6
LTYPE1
 62
     2
 10
82.0
 20
92.0
 30
0.0
 11
82.0
 21
84.0
 31
0.0
  0
LINE
  8
0
  6
LTYPE1
 62
     2
 10
148.0
 20
92.0
 30
0.0
 11
148.0
 21
84.0
 31
0.0
  0
LINE
  8
0
  6
LTYPE2
 62
     2
 10
142.1
 20
79.0
 30
0.0
 11
153.9
 21
79.0
 31
0.0
  0
ARC
  8
0
  6
LTYPE2
 62
     2
 10
146.6
 20
92.0
 30
0.0
 40
4.5
 50
90.0
 51
180.0
  0
LINE
  8
0
  6
LTYPE2
 62
     2
 10
142.1
 20
92.0
 30
0.0
 11
142.1
 21
79.0
 31
0.0
  0
ARC
  8
0
  6
LTYPE2
 62
     2
 10
149.4
 20
92.0
 30
0.0
 40
4.5
 50
0.0
 51
90.0
  0
LINE
  8
0
  6
LTYPE2
 62
     2
 10
153.9
 20
79.0
 30
0.0
 11
153.9
 21
92.0
 31
0.0
  0
LINE
  8
0
  6
LTYPE2
 62
     2
 10
149.4
 20
96.5
 30
0.0
 11
146.6
 21
96.5
 31
0.0
  0
ARC
  8
0
  6
LTYPE2
 62
     2
 10
146.6
 20
90.0
 30
0.0
 40
3.0
 50
90.0
 51
180.0
  0
LINE
  8
0
  6
LTYPE2
 62
     2
 10
143.6
 20
90.0
 30
0.0
 11
143.6
 21
79.0
 31
0.0
  0
ARC
  8
0
  6
LTYPE2
 62
     2
 10
149.4
 20
90.0
 30
0.0
 40
3.0
 50
0.0
 51
90.0
  0
LINE
  8
0
  6
LTYPE2
 62
     2
 10
152.4
 20
90.0
 30
0.0
 11
152.4
 21
79.0
 31
0.0
  0
LINE
  8
0
  6
LTYPE2
 62
     2
 10
146.6
 20
93.0
 30
0.0
 11
149.4
 21
93.0
 31
0.0
  0
LINE
  8
0
  6
LTYPE2
 62
     2
 10
144.4
 20
85.1
 30
0.0
 11
143.6
 21
85.9
 31
0.0
  0
LINE
  8
0
  6
LTYPE2
 62
     2
 10
144.4
 20
85.1
 30
0.0
 11
143.6
 21
84.3
 31
0.0
  0
LINE
  8
0
  6
LTYPE2
 62
     2
 10
143.6
 20
84.0
 30
0.0
 11
145.25
 21
83.047372056
 31
0.0
  0
LINE
  8
0
  6
LTYPE2
 62
     2
 10
143.6
 20
79.0
 30
0.0
 11
145.25
 21
79.952627944
 31
0.0
  0
LINE
  8
0
  6
LTYPE2
 62
     2
 10
145.25
 20
83.047372056
 30
0.0
 11
145.25
 21
79.952627944
 31
0.0
  0
LINE
  8
0
  6
LTYPE2
 62
     2
 10
151.6
 20
85.1
 30
0.0
 11
152.4
 21
85.9
 31
0.0
  0
LINE
  8
0
  6
LTYPE2
 62
     2
 10
151.6
 20
85.1
 30
0.0
 11
152.4
 21
84.3
 31
0.0
  0
LINE
  8
0
  6
LTYPE2
 62
     2
 10
152.4
 20
84.0
 30
0.0
 11
150.75
 21
83.047372056
 31
0.0
  0
LINE
  8
0
  6
LTYPE2
 62
     2
 10
152.4
 20
79.0
 30
0.0
 11
150.75
 21
79.952627944
 31
0.0
  0
LINE
  8
0
  6
LTYPE2
 62
     2
 10
150.75
 20
83.047372056
 30
0.0
 11
150.75
 21
79.952627944
 31
0.0
  0
LINE
  8
0
  6
LTYPE2
 62
     2
 10
76.1
 20
79.0
 30
0.0
 11
87.9
 21
79.0
 31
0.0
  0
ARC
  8
0
  6
LTYPE2
 62
     2
 10
80.6
 20
92.0
 30
0.0
 40
4.5
 50
90.0
 51
180.0
  0
LINE
  8
0
  6
LTYPE2
 62
     2
 10
76.1
 20
92.0
 30
0.0
 11
76.1
 21
79.0
 31
0.0
  0
ARC
  8
0
  6
LTYPE2
 62
     2
 10
83.4
 20
92.0
 30
0.0
 40
4.5
 50
0.0
 51
90.0
  0
LINE
  8
0
  6
LTYPE2
 62
     2
 10
87.9
 20
79.0
 30
0.0
 11
87.9
 21
92.0
 31
0.0
  0
LINE
  8
0
  6
LTYPE2
 62
     2
 10
83.4
 20
96.5
 30
0.0
 11
80.6
 21
96.5
 31
0.0
  0
ARC
  8
0
  6
LTYPE2
 62
     2
 10
80.6
 20
90.0
 30
0.0
 40
3.0
 50
90.0
 51
180.0
  0
LINE
  8
0
  6
LTYPE2
 62
     2
 10
77.6
 20
90.0
 30
0.0
 11
77.6
 21
79.0
 31
0.0
  0
ARC
  8
0
  6
LTYPE2
 62
     2
 10
83.4
 20
90.0
 30
0.0
 40
3.0
 50
0.0
 51
90.0
  0
LINE
  8
0
  6
LTYPE2
 62
     2
 10
86.4
 20
90.0
 30
0.0
 11
86.4
 21
79.0
 31
0.0
  0
LINE
  8
0
  6
LTYPE2
 62
     2
 10
80.6
 20
93.0
 30
0.0
 11
83.4
 21
93.0
 31
0.0
  0
LINE
  8
0
  6
LTYPE2
 62
     2
 10
78.4
 20
85.1
 30
0.0
 11
77.6
 21
85.9
 31
0.0
  0
LINE
  8
0
  6
LTYPE2
 62
     2
 10
78.4
 20
85.1
 30
0.0
 11
77.6
 21
84.3
 31
0.0
  0
LINE
  8
0
  6
LTYPE2
 62
     2
 10
77.6
 20
84.0
 30
0.0
 11
79.25
 21
83.047372056
 31
0.0
  0
LINE
  8
0
  6
LTYPE2
 62
     2
 10
77.6
 20
79.0
 30
0.0
 11
79.25
 21
79.952627944
 31
0.0
  0
LINE
  8
0
  6
LTYPE2
 62
     2
 10
79.25
 20
83.047372056
 30
0.0
 11
79.25
 21
79.952627944
 31
0.0
  0
LINE
  8
0
  6
LTYPE2
 62
     2
 10
85.6
 20
85.1
 30
0.0
 11
86.4
 21
85.9
 31
0.0
  0
LINE
  8
0
  6
LTYPE2
 62
     2
 10
85.6
 20
85.1
 30
0.0
 11
86.4
 21
84.3
 31
0.0
  0
LINE
  8
0
  6
LTYPE2
 62
     2
 10
86.4
 20
84.0
 30
0.0
 11
84.75
 21
83.047372056
 31
0.0
  0
LINE
  8
0
  6
LTYPE2
 62
     2
 10
86.4
 20
79.0
 30
0.0
 11
84.75
 21
79.952627944
 31
0.0
  0
LINE
  8
0
  6
LTYPE2
 62
     2
 10
84.75
 20
83.047372056
 30
0.0
 11
84.75
 21
79.952627944
 31
0.0
  0
LINE
  8
0
  6
CONTINUOUS
 62
     2
 10
79.0
 20
96.5
 30
0.0
 11
41.0
 21
96.5
 31
0.0
  0
LINE
  8
0
  6
CONTINUOUS
 62
     2
 10
43.0
 20
96.5
 30
0.0
 11
42.352952387
 21
94.085185434
 31
0.0
  0
LINE
  8
0
  6
CONTINUOUS
 62
     2
 10
43.0
 20
96.5
 30
0.0
 11
43.647047613
 21
94.085185434
 31
0.0
  0
LINE
  8
0
  6
CONTINUOUS
 62
     2
 10
43.0
 20
96.5
 30
0.0
 11
43.0
 21
32.0
 31
0.0
  0
LINE
  8
0
  6
CONTINUOUS
 62
     2
 10
43.0
 20
32.0
 30
0.0
 11
43.647047613
 21
34.414814566
 31
0.0
  0
LINE
  8
0
  6
CONTINUOUS
 62
     2
 10
43.0
 20
32.0
 30
0.0
 11
42.352952387
 21
34.414814566
 31
0.0
  0
LINE
  8
0
  6
CONTINUOUS
 62
     2
 10
46.0
 20
32.0
 30
0.0
 11
41.0
 21
32.0
 31
0.0
  0
TEXT
  8
0
  6
CONTINUOUS
 62
     2
 10
42.0
 20
60.2
 30
0.3
 40
3.0
  1
６４．５
 50
90.0
 41
0.6
 51
0.0
  7
KANJI2
  0
LINE
  8
0
  6
CONTINUOUS
 62
     2
 10
151.2
 20
108.3
 30
0.0
 11
151.847047613
 21
105.885185434
 31
0.0
  0
LINE
  8
0
  6
CONTINUOUS
 62
     2
 10
151.2
 20
108.3
 30
0.0
 11
152.967766953
 21
106.532233047
 31
0.0
  0
LINE
  8
0
  6
CONTINUOUS
 62
     2
 10
151.2
 20
108.3
 30
0.0
 11
157.932050808
 21
96.639745962
 31
0.0
  0
TEXT
  8
0
  6
CONTINUOUS
 62
     2
 10
158.932050808
 20
97.639745962
 30
0.3
 40
3.0
  1
端子キャップ
 50
0.0
 41
0.9
 51
0.0
  7
KANJI1
  0
LINE
  8
0
  6
CONTINUOUS
 62
     2
 10
157.932050808
 20
96.639745962
 30
0.0
 11
178.232050808
 21
96.639745962
 31
0.0
  0
TEXT
  8
0
  6
CONTINUOUS
 62
     3
 10
230.0
 20
9.0
 30
0.2
 40
5.8
  1
ＭＳ－１２００２
 50
0.0
 41
0.827586207
 51
0.0
  7
KANJI4
  0
TEXT
  8
0
  6
CONTINUOUS
 62
     2
 10
231.2
 20
32.5
 30
0.4
 40
4.0
  1
Ｍ－２Ｂ
 50
0.0
 41
0.9
 51
0.0
  7
KANJI0
  0
TEXT
  8
0
  6
CONTINUOUS
 62
     2
 10
230.2
 20
26.0
 30
0.3
 40
3.0
  1
端子キャップ付
 50
0.0
 41
0.9
 51
0.0
  7
KANJI1
  0
TEXT
  8
0
  6
CONTINUOUS
 62
     2
 10
230.2
 20
21.5
 30
0.4
 40
4.0
  1
直列抵抗器（付属箱）　外形図
 50
0.0
 41
0.9
 51
0.0
  7
KANJI0
  0
ENDSEC
  0
EOF
