  0
SECTION
  2
HEADER
  9
$ACADVER
  1
AC1009
  9
$DWGCODEPAGE
  3
dos932
  9
$EXTMIN
 10
0.0
 20
0.0
 30
0.0
  9
$EXTMAX
 10
297.0
 20
210.0
 30
0.0
  9
$LIMMIN
 10
0.0
 20
0.0
  9
$LIMMAX
 10
297.0
 20
210.0
  9
$LTSCALE
 40
1.0
  9
$PDMODE
 70
     0
  0
ENDSEC
  0
SECTION
  2
TABLES
  0
TABLE
  2
VPORT
 70
     1
  0
VPORT
  2
*ACTIVE
 70
     0
 10
0.0
 20
0.0
 11
1.0
 21
1.0
 12
148.5
 22
105.0
 13
0.0
 23
0.0
 14
10.0
 24
10.0
 15
10.0
 25
10.0
 16
0.0
 26
0.0
 36
1.0
 17
0.0
 27
0.0
 37
0.0
 40
297.0
 41
1.414285714
 42
50.0
 43
0.0
 44
0.0
 50
0.0
 51
0.0
 71
     0
 72
  1000
 73
     1
 74
     3
 75
     0
 76
     0
 77
     0
 78
     0
  0
ENDTAB
  0
TABLE
  2
LTYPE
 70
     2
  0
LTYPE
  2
CONTINUOUS
 70
    64
  3
Solid line
 72
    65
 73
     0
 40
0.0
  0
LTYPE
  2
LTYPE1
 70
    64
  3
CENTER
 72
    65
 73
     4
 40
3.0
 49
2.1
 49
-0.3
 49
0.3
 49
-0.3
  0
ENDTAB
  0
TABLE
  2
LAYER
 70
   128
  0
LAYER
  2
0
 70
     0
 62
     7
  6
CONTINUOUS
  0
LAYER
  2
2
 70
     0
 62
     7
  6
CONTINUOUS
  0
LAYER
  2
3
 70
     0
 62
     7
  6
CONTINUOUS
  0
LAYER
  2
4
 70
     0
 62
     7
  6
CONTINUOUS
  0
LAYER
  2
5
 70
     0
 62
     7
  6
CONTINUOUS
  0
LAYER
  2
6
 70
     0
 62
     7
  6
CONTINUOUS
  0
LAYER
  2
7
 70
     0
 62
     7
  6
CONTINUOUS
  0
LAYER
  2
8
 70
     0
 62
     7
  6
CONTINUOUS
  0
LAYER
  2
9
 70
     0
 62
     7
  6
CONTINUOUS
  0
LAYER
  2
10
 70
     0
 62
     7
  6
CONTINUOUS
  0
LAYER
  2
11
 70
     0
 62
     7
  6
CONTINUOUS
  0
LAYER
  2
12
 70
     0
 62
     7
  6
CONTINUOUS
  0
LAYER
  2
13
 70
     0
 62
     7
  6
CONTINUOUS
  0
LAYER
  2
14
 70
     0
 62
     7
  6
CONTINUOUS
  0
LAYER
  2
15
 70
     0
 62
     7
  6
CONTINUOUS
  0
LAYER
  2
16
 70
     0
 62
     7
  6
CONTINUOUS
  0
LAYER
  2
17
 70
     0
 62
     7
  6
CONTINUOUS
  0
LAYER
  2
18
 70
     0
 62
     7
  6
CONTINUOUS
  0
LAYER
  2
19
 70
     0
 62
     7
  6
CONTINUOUS
  0
LAYER
  2
20
 70
     0
 62
     7
  6
CONTINUOUS
  0
LAYER
  2
21
 70
     0
 62
     7
  6
CONTINUOUS
  0
LAYER
  2
22
 70
     0
 62
     7
  6
CONTINUOUS
  0
LAYER
  2
23
 70
     0
 62
     7
  6
CONTINUOUS
  0
LAYER
  2
24
 70
     0
 62
     7
  6
CONTINUOUS
  0
LAYER
  2
25
 70
     0
 62
     7
  6
CONTINUOUS
  0
LAYER
  2
26
 70
     0
 62
     7
  6
CONTINUOUS
  0
LAYER
  2
27
 70
     0
 62
     7
  6
CONTINUOUS
  0
LAYER
  2
28
 70
     0
 62
     7
  6
CONTINUOUS
  0
LAYER
  2
29
 70
     0
 62
     7
  6
CONTINUOUS
  0
LAYER
  2
30
 70
     0
 62
     7
  6
CONTINUOUS
  0
LAYER
  2
31
 70
     0
 62
     7
  6
CONTINUOUS
  0
LAYER
  2
32
 70
     0
 62
     7
  6
CONTINUOUS
  0
LAYER
  2
33
 70
     0
 62
     7
  6
CONTINUOUS
  0
LAYER
  2
34
 70
     0
 62
     7
  6
CONTINUOUS
  0
LAYER
  2
35
 70
     0
 62
     7
  6
CONTINUOUS
  0
LAYER
  2
36
 70
     0
 62
     7
  6
CONTINUOUS
  0
LAYER
  2
37
 70
     0
 62
     7
  6
CONTINUOUS
  0
LAYER
  2
38
 70
     0
 62
     7
  6
CONTINUOUS
  0
LAYER
  2
39
 70
     0
 62
     7
  6
CONTINUOUS
  0
LAYER
  2
40
 70
     0
 62
     7
  6
CONTINUOUS
  0
LAYER
  2
41
 70
     0
 62
     7
  6
CONTINUOUS
  0
LAYER
  2
42
 70
     0
 62
     7
  6
CONTINUOUS
  0
LAYER
  2
43
 70
     0
 62
     7
  6
CONTINUOUS
  0
LAYER
  2
44
 70
     0
 62
     7
  6
CONTINUOUS
  0
LAYER
  2
45
 70
     0
 62
     7
  6
CONTINUOUS
  0
LAYER
  2
46
 70
     0
 62
     7
  6
CONTINUOUS
  0
LAYER
  2
47
 70
     0
 62
     7
  6
CONTINUOUS
  0
LAYER
  2
48
 70
     0
 62
     7
  6
CONTINUOUS
  0
LAYER
  2
49
 70
     0
 62
     7
  6
CONTINUOUS
  0
LAYER
  2
50
 70
     0
 62
     7
  6
CONTINUOUS
  0
LAYER
  2
51
 70
     0
 62
     7
  6
CONTINUOUS
  0
LAYER
  2
52
 70
     0
 62
     7
  6
CONTINUOUS
  0
LAYER
  2
53
 70
     0
 62
     7
  6
CONTINUOUS
  0
LAYER
  2
54
 70
     0
 62
     7
  6
CONTINUOUS
  0
LAYER
  2
55
 70
     0
 62
     7
  6
CONTINUOUS
  0
LAYER
  2
56
 70
     0
 62
     7
  6
CONTINUOUS
  0
LAYER
  2
57
 70
     0
 62
     7
  6
CONTINUOUS
  0
LAYER
  2
58
 70
     0
 62
     7
  6
CONTINUOUS
  0
LAYER
  2
59
 70
     0
 62
     7
  6
CONTINUOUS
  0
LAYER
  2
60
 70
     0
 62
     7
  6
CONTINUOUS
  0
LAYER
  2
61
 70
     0
 62
     7
  6
CONTINUOUS
  0
LAYER
  2
62
 70
     0
 62
     7
  6
CONTINUOUS
  0
LAYER
  2
63
 70
     0
 62
     7
  6
CONTINUOUS
  0
LAYER
  2
64
 70
     0
 62
     7
  6
CONTINUOUS
  0
LAYER
  2
65
 70
     0
 62
     7
  6
CONTINUOUS
  0
LAYER
  2
66
 70
     0
 62
     7
  6
CONTINUOUS
  0
LAYER
  2
67
 70
     0
 62
     7
  6
CONTINUOUS
  0
LAYER
  2
68
 70
     0
 62
     7
  6
CONTINUOUS
  0
LAYER
  2
69
 70
     0
 62
     7
  6
CONTINUOUS
  0
LAYER
  2
70
 70
     0
 62
     7
  6
CONTINUOUS
  0
LAYER
  2
71
 70
     0
 62
     7
  6
CONTINUOUS
  0
LAYER
  2
72
 70
     0
 62
     7
  6
CONTINUOUS
  0
LAYER
  2
73
 70
     0
 62
     7
  6
CONTINUOUS
  0
LAYER
  2
74
 70
     0
 62
     7
  6
CONTINUOUS
  0
LAYER
  2
75
 70
     0
 62
     7
  6
CONTINUOUS
  0
LAYER
  2
76
 70
     0
 62
     7
  6
CONTINUOUS
  0
LAYER
  2
77
 70
     0
 62
     7
  6
CONTINUOUS
  0
LAYER
  2
78
 70
     0
 62
     7
  6
CONTINUOUS
  0
LAYER
  2
79
 70
     0
 62
     7
  6
CONTINUOUS
  0
LAYER
  2
80
 70
     0
 62
     7
  6
CONTINUOUS
  0
LAYER
  2
81
 70
     0
 62
     7
  6
CONTINUOUS
  0
LAYER
  2
82
 70
     0
 62
     7
  6
CONTINUOUS
  0
LAYER
  2
83
 70
     0
 62
     7
  6
CONTINUOUS
  0
LAYER
  2
84
 70
     0
 62
     7
  6
CONTINUOUS
  0
LAYER
  2
85
 70
     0
 62
     7
  6
CONTINUOUS
  0
LAYER
  2
86
 70
     0
 62
     7
  6
CONTINUOUS
  0
LAYER
  2
87
 70
     0
 62
     7
  6
CONTINUOUS
  0
LAYER
  2
88
 70
     0
 62
     7
  6
CONTINUOUS
  0
LAYER
  2
89
 70
     0
 62
     7
  6
CONTINUOUS
  0
LAYER
  2
90
 70
     0
 62
     7
  6
CONTINUOUS
  0
LAYER
  2
91
 70
     0
 62
     7
  6
CONTINUOUS
  0
LAYER
  2
92
 70
     0
 62
     7
  6
CONTINUOUS
  0
LAYER
  2
93
 70
     0
 62
     7
  6
CONTINUOUS
  0
LAYER
  2
94
 70
     0
 62
     7
  6
CONTINUOUS
  0
LAYER
  2
95
 70
     0
 62
     7
  6
CONTINUOUS
  0
LAYER
  2
96
 70
     0
 62
     7
  6
CONTINUOUS
  0
LAYER
  2
97
 70
     0
 62
     7
  6
CONTINUOUS
  0
LAYER
  2
98
 70
     0
 62
     7
  6
CONTINUOUS
  0
LAYER
  2
99
 70
     0
 62
     7
  6
CONTINUOUS
  0
LAYER
  2
100
 70
     0
 62
     7
  6
CONTINUOUS
  0
LAYER
  2
101
 70
     0
 62
     7
  6
CONTINUOUS
  0
LAYER
  2
102
 70
     0
 62
     7
  6
CONTINUOUS
  0
LAYER
  2
103
 70
     0
 62
     7
  6
CONTINUOUS
  0
LAYER
  2
104
 70
     0
 62
     7
  6
CONTINUOUS
  0
LAYER
  2
105
 70
     0
 62
     7
  6
CONTINUOUS
  0
LAYER
  2
106
 70
     0
 62
     7
  6
CONTINUOUS
  0
LAYER
  2
107
 70
     0
 62
     7
  6
CONTINUOUS
  0
LAYER
  2
108
 70
     0
 62
     7
  6
CONTINUOUS
  0
LAYER
  2
109
 70
     0
 62
     7
  6
CONTINUOUS
  0
LAYER
  2
110
 70
     0
 62
     7
  6
CONTINUOUS
  0
LAYER
  2
111
 70
     0
 62
     7
  6
CONTINUOUS
  0
LAYER
  2
112
 70
     0
 62
     7
  6
CONTINUOUS
  0
LAYER
  2
113
 70
     0
 62
     7
  6
CONTINUOUS
  0
LAYER
  2
114
 70
     0
 62
     7
  6
CONTINUOUS
  0
LAYER
  2
115
 70
     0
 62
     7
  6
CONTINUOUS
  0
LAYER
  2
116
 70
     0
 62
     7
  6
CONTINUOUS
  0
LAYER
  2
117
 70
     0
 62
     7
  6
CONTINUOUS
  0
LAYER
  2
118
 70
     0
 62
     7
  6
CONTINUOUS
  0
LAYER
  2
119
 70
     0
 62
     7
  6
CONTINUOUS
  0
LAYER
  2
120
 70
     0
 62
     7
  6
CONTINUOUS
  0
LAYER
  2
121
 70
     0
 62
     7
  6
CONTINUOUS
  0
LAYER
  2
122
 70
     0
 62
     7
  6
CONTINUOUS
  0
LAYER
  2
123
 70
     0
 62
     7
  6
CONTINUOUS
  0
LAYER
  2
124
 70
     0
 62
     7
  6
CONTINUOUS
  0
LAYER
  2
125
 70
     0
 62
     7
  6
CONTINUOUS
  0
LAYER
  2
126
 70
     0
 62
     7
  6
CONTINUOUS
  0
LAYER
  2
127
 70
     0
 62
     7
  6
CONTINUOUS
  0
LAYER
  2
128
 70
     0
 62
     7
  6
CONTINUOUS
  0
ENDTAB
  0
TABLE
  2
STYLE
 70
     9
  0
STYLE
  2
STANDARD
 70
     0
 40
0.0
 41
1.0
 50
0.0
 71
     0
 42
0.2
  3
txt.shx
  4
extfont.shx
  0
STYLE
  2
KANJI0
 70
     0
 40
3.0
 41
0.9
 50
0.0
 71
     0
 42
3.0
  3
txt.shx
  4
extfont.shx
  0
STYLE
  2
KANJI1
 70
     0
 40
3.0
 41
0.6
 50
0.0
 71
     0
 42
3.0
  3
txt.shx
  4
extfont.shx
  0
STYLE
  2
KANJI2
 70
     0
 40
1.8
 41
0.6
 50
0.0
 71
     0
 42
1.8
  3
txt.shx
  4
extfont.shx
  0
STYLE
  2
KANJI3
 70
     0
 40
3.0
 41
0.5
 50
0.0
 71
     0
 42
3.0
  3
txt.shx
  4
extfont.shx
  0
STYLE
  2
KANJI4
 70
     0
 40
4.0
 41
0.9
 50
0.0
 71
     0
 42
4.0
  3
txt.shx
  4
extfont.shx
  0
STYLE
  2
KANJI5
 70
     0
 40
6.0
 41
0.9
 50
0.0
 71
     0
 42
6.0
  3
txt.shx
  4
extfont.shx
  0
STYLE
  2
KANJI6
 70
     0
 40
5.0
 41
0.9
 50
0.0
 71
     0
 42
5.0
  3
txt.shx
  4
extfont.shx
  0
STYLE
  2
KANJI7
 70
     0
 40
5.0
 41
0.8
 50
0.0
 71
     0
 42
5.0
  3
txt.shx
  4
extfont.shx
  0
ENDTAB
  0
TABLE
  2
VIEW
 70
     0
  0
ENDTAB
  0
ENDSEC
  0
SECTION
  2
BLOCKS
  0
ENDSEC
  0
SECTION
  2
ENTITIES
  0
LINE
  8
0
  6
CONTINUOUS
 62
     2
 10
39.5
 20
98.5
 30
0.0
 11
41.914814566
 21
97.852952387
 31
0.0
  0
LINE
  8
0
  6
CONTINUOUS
 62
     2
 10
39.5
 20
98.5
 30
0.0
 11
41.914814566
 21
99.147047613
 31
0.0
  0
LINE
  8
0
  6
CONTINUOUS
 62
     2
 10
39.5
 20
98.5
 30
0.0
 11
94.4
 21
98.5
 31
0.0
  0
LINE
  8
0
  6
CONTINUOUS
 62
     2
 10
94.4
 20
98.5
 30
0.0
 11
91.985185434
 21
99.147047613
 31
0.0
  0
LINE
  8
0
  6
CONTINUOUS
 62
     2
 10
94.4
 20
98.5
 30
0.0
 11
91.985185434
 21
97.852952387
 31
0.0
  0
LINE
  8
0
  6
CONTINUOUS
 62
     2
 10
39.5
 20
120.9
 30
0.0
 11
39.5
 21
97.5
 31
0.0
  0
LINE
  8
0
  6
CONTINUOUS
 62
     2
 10
94.4
 20
121.0
 30
0.0
 11
94.4
 21
97.7
 31
0.0
  0
LINE
  8
0
  6
CONTINUOUS
 62
     2
 10
95.5
 20
162.0
 30
0.0
 11
105.5
 21
162.0
 31
0.0
  0
LINE
  8
0
  6
CONTINUOUS
 62
     2
 10
103.5
 20
162.0
 30
0.0
 11
102.852952387
 21
159.585185434
 31
0.0
  0
LINE
  8
0
  6
CONTINUOUS
 62
     2
 10
103.5
 20
162.0
 30
0.0
 11
104.147047613
 21
159.585185434
 31
0.0
  0
LINE
  8
0
  6
CONTINUOUS
 62
     2
 10
103.5
 20
122.0
 30
0.0
 11
104.147047613
 21
124.414814566
 31
0.0
  0
LINE
  8
0
  6
CONTINUOUS
 62
     2
 10
103.5
 20
122.0
 30
0.0
 11
102.852952387
 21
124.414814566
 31
0.0
  0
LINE
  8
0
  6
CONTINUOUS
 62
     2
 10
95.5
 20
122.0
 30
0.0
 11
105.5
 21
122.0
 31
0.0
  0
LINE
  8
0
  6
CONTINUOUS
 62
     2
 10
69.1
 20
172.0
 30
0.0
 11
69.1
 21
179.5
 31
0.0
  0
LINE
  8
0
  6
CONTINUOUS
 62
     2
 10
69.1
 20
177.5
 30
0.0
 11
71.514814566
 21
176.852952387
 31
0.0
  0
LINE
  8
0
  6
CONTINUOUS
 62
     2
 10
69.1
 20
177.5
 30
0.0
 11
71.514814566
 21
178.147047613
 31
0.0
  0
LINE
  8
0
  6
CONTINUOUS
 62
     2
 10
74.1
 20
177.5
 30
0.0
 11
59.9
 21
177.5
 31
0.0
  0
LINE
  8
0
  6
CONTINUOUS
 62
     2
 10
64.9
 20
177.5
 30
0.0
 11
62.485185434
 21
178.147047613
 31
0.0
  0
LINE
  8
0
  6
CONTINUOUS
 62
     2
 10
64.9
 20
177.5
 30
0.0
 11
62.485185434
 21
176.852952387
 31
0.0
  0
LINE
  8
0
  6
CONTINUOUS
 62
     2
 10
145.0
 20
50.5
 30
0.0
 11
145.0
 21
40.6
 31
0.0
  0
LINE
  8
0
  6
CONTINUOUS
 62
     2
 10
145.0
 20
42.6
 30
0.0
 11
147.414814566
 21
41.952952387
 31
0.0
  0
LINE
  8
0
  6
CONTINUOUS
 62
     2
 10
145.0
 20
42.6
 30
0.0
 11
147.414814566
 21
43.247047613
 31
0.0
  0
LINE
  8
0
  6
CONTINUOUS
 62
     2
 10
195.0
 20
42.6
 30
0.0
 11
192.585185434
 21
43.247047613
 31
0.0
  0
LINE
  8
0
  6
CONTINUOUS
 62
     2
 10
195.0
 20
42.6
 30
0.0
 11
192.585185434
 21
41.952952387
 31
0.0
  0
LINE
  8
0
  6
CONTINUOUS
 62
     2
 10
195.0
 20
50.0
 30
0.0
 11
195.0
 21
40.6
 31
0.0
  0
LINE
  8
0
  6
CONTINUOUS
 62
     2
 10
52.0
 20
111.5
 30
0.0
 11
52.0
 21
103.0
 31
0.0
  0
LINE
  8
0
  6
CONTINUOUS
 62
     2
 10
52.0
 20
105.0
 30
0.0
 11
54.414814566
 21
104.352952387
 31
0.0
  0
LINE
  8
0
  6
CONTINUOUS
 62
     2
 10
52.0
 20
105.0
 30
0.0
 11
54.414814566
 21
105.647047613
 31
0.0
  0
LINE
  8
0
  6
CONTINUOUS
 62
     2
 10
82.0
 20
105.0
 30
0.0
 11
79.585185434
 21
105.647047613
 31
0.0
  0
LINE
  8
0
  6
CONTINUOUS
 62
     2
 10
82.0
 20
105.0
 30
0.0
 11
79.585185434
 21
104.352952387
 31
0.0
  0
LINE
  8
0
  6
CONTINUOUS
 62
     2
 10
82.0
 20
111.5
 30
0.0
 11
82.0
 21
103.0
 31
0.0
  0
LINE
  8
0
  6
CONTINUOUS
 62
     2
 10
146.0
 20
88.5
 30
0.0
 11
146.0
 21
98.1
 31
0.0
  0
LINE
  8
0
  6
CONTINUOUS
 62
     2
 10
146.0
 20
96.1
 30
0.0
 11
148.414814566
 21
95.452952387
 31
0.0
  0
LINE
  8
0
  6
CONTINUOUS
 62
     2
 10
146.0
 20
96.1
 30
0.0
 11
148.414814566
 21
96.747047613
 31
0.0
  0
LINE
  8
0
  6
CONTINUOUS
 62
     2
 10
146.0
 20
96.1
 30
0.0
 11
194.0
 21
96.1
 31
0.0
  0
LINE
  8
0
  6
CONTINUOUS
 62
     2
 10
194.0
 20
96.1
 30
0.0
 11
191.585185434
 21
96.747047613
 31
0.0
  0
LINE
  8
0
  6
CONTINUOUS
 62
     2
 10
194.0
 20
96.1
 30
0.0
 11
191.585185434
 21
95.452952387
 31
0.0
  0
LINE
  8
0
  6
CONTINUOUS
 62
     2
 10
194.0
 20
88.5
 30
0.0
 11
194.0
 21
98.1
 31
0.0
  0
LINE
  8
0
  6
CONTINUOUS
 62
     2
 10
83.3
 20
84.5
 30
0.0
 11
85.067766953
 21
86.267766953
 31
0.0
  0
LINE
  8
0
  6
CONTINUOUS
 62
     2
 10
83.3
 20
84.5
 30
0.0
 11
83.947047613
 21
86.914814566
 31
0.0
  0
LINE
  8
0
  6
CONTINUOUS
 62
     2
 10
83.3
 20
84.5
 30
0.0
 11
88.3
 21
93.160254038
 31
0.0
  0
TEXT
  8
0
  6
CONTINUOUS
 62
     2
 10
88.6
 20
93.410254038
 30
0.3
 40
3.0
  1
Ｍ４ターミナルネジ
 50
0.0
 41
0.9
 51
0.0
  7
KANJI0
  0
LINE
  8
0
  6
CONTINUOUS
 62
     2
 10
115.55
 20
93.160254038
 30
0.0
 11
88.3
 21
93.160254038
 31
0.0
  0
LINE
  8
0
  6
CONTINUOUS
 62
     2
 10
82.0
 20
111.5
 30
0.0
 11
82.0
 21
103.0
 31
0.0
  0
TEXT
  8
0
  6
CONTINUOUS
 62
     2
 10
168.05
 20
97.1
 30
0.3
 40
3.0
  1
４８
 50
0.0
 41
0.6
 51
0.0
  7
KANJI1
  0
TEXT
  8
0
  6
CONTINUOUS
 62
     2
 10
165.62
 20
43.6
 30
0.3
 40
3.0
  1
５０
 50
0.0
 41
0.6
 51
0.0
  7
KANJI1
  0
TEXT
  8
0
  6
CONTINUOUS
 62
     2
 10
169.52
 20
43.6
 30
0.18
 40
1.8
  1
±０．５
 50
0.0
 41
0.6
 51
0.0
  7
KANJI2
  0
LINE
  8
0
  6
CONTINUOUS
 62
     2
 10
145.0
 20
42.6
 30
0.0
 11
195.0
 21
42.6
 31
0.0
  0
TEXT
  8
0
  6
CONTINUOUS
 62
     2
 10
65.0
 20
99.5
 30
0.3
 40
3.0
  1
５５
 50
0.0
 41
0.6
 51
0.0
  7
KANJI1
  0
TEXT
  8
0
  6
CONTINUOUS
 62
     2
 10
65.05
 20
106.0
 30
0.3
 40
3.0
  1
３０
 50
0.0
 41
0.6
 51
0.0
  7
KANJI1
  0
LINE
  8
0
  6
CONTINUOUS
 62
     2
 10
52.0
 20
105.0
 30
0.0
 11
82.0
 21
105.0
 31
0.0
  0
TEXT
  8
0
  6
CONTINUOUS
 62
     2
 10
64.8
 20
178.5
 30
0.0
 40
3.0
  1
４．２
 50
0.0
 41
0.5
 51
0.0
  7
KANJI3
  0
LINE
  8
0
  6
CONTINUOUS
 62
     2
 10
64.9
 20
172.0
 30
0.0
 11
64.9
 21
179.5
 31
0.0
  0
LINE
  8
0
  6
CONTINUOUS
 62
     2
 10
103.5
 20
162.0
 30
0.0
 11
103.5
 21
122.0
 31
0.0
  0
TEXT
  8
0
  6
CONTINUOUS
 62
     2
 10
102.5
 20
140.05
 30
0.3
 40
3.0
  1
４０
 50
90.0
 41
0.6
 51
0.0
  7
KANJI1
  0
ARC
  8
0
  6
CONTINUOUS
 62
     1
 10
41.0
 20
123.5
 30
0.0
 40
1.5
 50
180.0
 51
270.0
  0
LINE
  8
0
  6
CONTINUOUS
 62
     1
 10
41.0
 20
122.0
 30
0.0
 11
93.0
 21
122.0
 31
0.0
  0
ARC
  8
0
  6
CONTINUOUS
 62
     1
 10
93.0
 20
123.5
 30
0.0
 40
1.5
 50
270.0
 51
0.0
  0
LINE
  8
0
  6
CONTINUOUS
 62
     1
 10
94.5
 20
123.5
 30
0.0
 11
94.5
 21
160.5
 31
0.0
  0
ARC
  8
0
  6
CONTINUOUS
 62
     1
 10
93.0
 20
160.5
 30
0.0
 40
1.5
 50
0.0
 51
90.0
  0
LINE
  8
0
  6
CONTINUOUS
 62
     1
 10
93.0
 20
162.0
 30
0.0
 11
41.0
 21
162.0
 31
0.0
  0
ARC
  8
0
  6
CONTINUOUS
 62
     1
 10
41.0
 20
160.5
 30
0.0
 40
1.5
 50
90.0
 51
180.0
  0
LINE
  8
0
  6
CONTINUOUS
 62
     1
 10
39.5
 20
160.5
 30
0.0
 11
39.5
 21
123.5
 31
0.0
  0
ARC
  8
0
  6
CONTINUOUS
 62
     1
 10
43.0
 20
125.5
 30
0.0
 40
1.0
 50
180.0
 51
270.0
  0
LINE
  8
0
  6
CONTINUOUS
 62
     1
 10
43.0
 20
124.5
 30
0.0
 11
91.0
 21
124.5
 31
0.0
  0
ARC
  8
0
  6
CONTINUOUS
 62
     1
 10
91.0
 20
125.5
 30
0.0
 40
1.0
 50
270.0
 51
0.0
  0
LINE
  8
0
  6
CONTINUOUS
 62
     1
 10
92.0
 20
125.5
 30
0.0
 11
92.0
 21
158.5
 31
0.0
  0
ARC
  8
0
  6
CONTINUOUS
 62
     1
 10
91.0
 20
158.5
 30
0.0
 40
1.0
 50
0.0
 51
90.0
  0
LINE
  8
0
  6
CONTINUOUS
 62
     1
 10
91.0
 20
159.5
 30
0.0
 11
43.0
 21
159.5
 31
0.0
  0
ARC
  8
0
  6
CONTINUOUS
 62
     1
 10
43.0
 20
158.5
 30
0.0
 40
1.0
 50
90.0
 51
180.0
  0
LINE
  8
0
  6
CONTINUOUS
 62
     1
 10
42.0
 20
158.5
 30
0.0
 11
42.0
 21
125.5
 31
0.0
  0
LINE
  8
0
  6
LTYPE1
 62
     2
 10
32.0
 20
142.0
 30
0.0
 11
102.0
 21
142.0
 31
0.0
  0
LINE
  8
0
  6
CONTINUOUS
 62
     2
 10
42.292893219
 20
159.207106781
 30
0.0
 11
39.939339828
 21
161.560660172
 31
0.0
  0
LINE
  8
0
  6
CONTINUOUS
 62
     2
 10
91.707106781
 20
159.207106781
 30
0.0
 11
94.060660172
 21
161.560660172
 31
0.0
  0
LINE
  8
0
  6
CONTINUOUS
 62
     2
 10
91.707106781
 20
124.792893219
 30
0.0
 11
94.060660172
 21
122.439339828
 31
0.0
  0
LINE
  8
0
  6
CONTINUOUS
 62
     2
 10
42.292893219
 20
124.792893219
 30
0.0
 11
39.939339828
 21
122.439339828
 31
0.0
  0
ARC
  8
0
  6
CONTINUOUS
 62
     1
 10
75.255110569
 20
163.5
 30
0.0
 40
1.5
 50
270.0
 51
349.380344724
  0
ARC
  8
0
  6
CONTINUOUS
 62
     1
 10
88.744889431
 20
163.5
 30
0.0
 40
1.5
 50
190.619655276
 51
270.0
  0
LINE
  8
0
  6
CONTINUOUS
 62
     1
 10
88.744889431
 20
162.0
 30
0.0
 11
75.255110569
 21
162.0
 31
0.0
  0
ARC
  8
0
  6
CONTINUOUS
 62
     1
 10
58.744889431
 20
163.5
 30
0.0
 40
1.5
 50
190.619655276
 51
270.0
  0
ARC
  8
0
  6
CONTINUOUS
 62
     1
 10
45.255110569
 20
163.5
 30
0.0
 40
1.5
 50
270.0
 51
349.380344724
  0
LINE
  8
0
  6
CONTINUOUS
 62
     1
 10
45.255110569
 20
162.0
 30
0.0
 11
58.744889431
 21
162.0
 31
0.0
  0
ARC
  8
0
  6
CONTINUOUS
 62
     1
 10
67.0
 20
167.0
 30
0.0
 40
2.1
 50
180.0
 51
0.0
  0
LINE
  8
0
  6
CONTINUOUS
 62
     1
 10
64.9
 20
167.0
 30
0.0
 11
64.9
 21
170.5
 31
0.0
  0
ARC
  8
0
  6
CONTINUOUS
 62
     1
 10
64.4
 20
170.5
 30
0.0
 40
0.5
 50
0.0
 51
90.0
  0
LINE
  8
0
  6
CONTINUOUS
 62
     1
 10
69.1
 20
167.0
 30
0.0
 11
69.1
 21
170.5
 31
0.0
  0
ARC
  8
0
  6
CONTINUOUS
 62
     1
 10
69.6
 20
170.5
 30
0.0
 40
0.5
 50
90.0
 51
180.0
  0
LINE
  8
0
  6
CONTINUOUS
 62
     1
 10
75.255110569
 20
162.0
 30
0.0
 11
74.5
 21
162.0
 31
0.0
  0
LINE
  8
0
  6
CONTINUOUS
 62
     1
 10
74.5
 20
162.0
 30
0.0
 11
59.5
 21
162.0
 31
0.0
  0
LINE
  8
0
  6
CONTINUOUS
 62
     1
 10
57.27058115
 20
163.223567197
 30
0.0
 11
56.04588377
 21
169.755286561
 31
0.0
  0
LINE
  8
0
  6
CONTINUOUS
 62
     1
 10
47.95411623
 20
169.755286561
 30
0.0
 11
46.72941885
 21
163.223567197
 31
0.0
  0
ARC
  8
0
  6
CONTINUOUS
 62
     1
 10
62.0
 20
170.5
 30
0.0
 40
0.5
 50
90.0
 51
180.0
  0
LINE
  8
0
  6
CONTINUOUS
 62
     1
 10
61.5
 20
163.5
 30
0.0
 11
61.5
 21
170.5
 31
0.0
  0
ARC
  8
0
  6
CONTINUOUS
 62
     1
 10
60.0
 20
163.5
 30
0.0
 40
1.5
 50
270.0
 51
0.0
  0
ARC
  8
0
  6
CONTINUOUS
 62
     1
 10
72.0
 20
170.5
 30
0.0
 40
0.5
 50
0.0
 51
90.0
  0
LINE
  8
0
  6
CONTINUOUS
 62
     1
 10
72.5
 20
170.5
 30
0.0
 11
72.5
 21
163.5
 31
0.0
  0
ARC
  8
0
  6
CONTINUOUS
 62
     1
 10
74.0
 20
163.5
 30
0.0
 40
1.5
 50
180.0
 51
270.0
  0
LINE
  8
0
  6
CONTINUOUS
 62
     1
 10
69.6
 20
171.0
 30
0.0
 11
72.0
 21
171.0
 31
0.0
  0
LINE
  8
0
  6
CONTINUOUS
 62
     1
 10
62.0
 20
171.0
 30
0.0
 11
64.4
 21
171.0
 31
0.0
  0
ARC
  8
0
  6
CONTINUOUS
 62
     1
 10
75.255110569
 20
120.5
 30
0.0
 40
1.5
 50
10.619655276
 51
90.0
  0
ARC
  8
0
  6
CONTINUOUS
 62
     1
 10
88.744889431
 20
120.5
 30
0.0
 40
1.5
 50
90.0
 51
169.380344724
  0
LINE
  8
0
  6
CONTINUOUS
 62
     1
 10
88.744889431
 20
122.0
 30
0.0
 11
75.255110569
 21
122.0
 31
0.0
  0
ARC
  8
0
  6
CONTINUOUS
 62
     1
 10
58.744889431
 20
120.5
 30
0.0
 40
1.5
 50
90.0
 51
169.380344724
  0
ARC
  8
0
  6
CONTINUOUS
 62
     1
 10
45.255110569
 20
120.5
 30
0.0
 40
1.5
 50
10.619655276
 51
90.0
  0
LINE
  8
0
  6
CONTINUOUS
 62
     1
 10
45.255110569
 20
122.0
 30
0.0
 11
58.744889431
 21
122.0
 31
0.0
  0
ARC
  8
0
  6
CONTINUOUS
 62
     1
 10
67.0
 20
117.0
 30
0.0
 40
2.1
 50
0.0
 51
180.0
  0
LINE
  8
0
  6
CONTINUOUS
 62
     1
 10
64.9
 20
117.0
 30
0.0
 11
64.9
 21
113.5
 31
0.0
  0
ARC
  8
0
  6
CONTINUOUS
 62
     1
 10
64.4
 20
113.5
 30
0.0
 40
0.5
 50
270.0
 51
0.0
  0
LINE
  8
0
  6
CONTINUOUS
 62
     1
 10
69.1
 20
117.0
 30
0.0
 11
69.1
 21
113.5
 31
0.0
  0
ARC
  8
0
  6
CONTINUOUS
 62
     1
 10
69.6
 20
113.5
 30
0.0
 40
0.5
 50
180.0
 51
270.0
  0
LINE
  8
0
  6
CONTINUOUS
 62
     1
 10
75.255110569
 20
122.0
 30
0.0
 11
74.5
 21
122.0
 31
0.0
  0
LINE
  8
0
  6
CONTINUOUS
 62
     1
 10
74.5
 20
122.0
 30
0.0
 11
59.5
 21
122.0
 31
0.0
  0
LINE
  8
0
  6
CONTINUOUS
 62
     1
 10
86.04588377
 20
114.244713439
 30
0.0
 11
87.27058115
 21
120.776432803
 31
0.0
  0
LINE
  8
0
  6
CONTINUOUS
 62
     1
 10
76.72941885
 20
120.776432803
 30
0.0
 11
77.95411623
 21
114.244713439
 31
0.0
  0
LINE
  8
0
  6
CONTINUOUS
 62
     1
 10
57.27058115
 20
120.776432803
 30
0.0
 11
56.04588377
 21
114.244713439
 31
0.0
  0
LINE
  8
0
  6
CONTINUOUS
 62
     1
 10
47.95411623
 20
114.244713439
 30
0.0
 11
46.72941885
 21
120.776432803
 31
0.0
  0
ARC
  8
0
  6
CONTINUOUS
 62
     1
 10
62.0
 20
113.5
 30
0.0
 40
0.5
 50
180.0
 51
270.0
  0
LINE
  8
0
  6
CONTINUOUS
 62
     1
 10
61.5
 20
120.5
 30
0.0
 11
61.5
 21
113.5
 31
0.0
  0
ARC
  8
0
  6
CONTINUOUS
 62
     1
 10
60.0
 20
120.5
 30
0.0
 40
1.5
 50
0.0
 51
90.0
  0
ARC
  8
0
  6
CONTINUOUS
 62
     1
 10
72.0
 20
113.5
 30
0.0
 40
0.5
 50
270.0
 51
0.0
  0
LINE
  8
0
  6
CONTINUOUS
 62
     1
 10
72.5
 20
113.5
 30
0.0
 11
72.5
 21
120.5
 31
0.0
  0
ARC
  8
0
  6
CONTINUOUS
 62
     1
 10
74.0
 20
120.5
 30
0.0
 40
1.5
 50
90.0
 51
180.0
  0
LINE
  8
0
  6
CONTINUOUS
 62
     1
 10
69.6
 20
113.0
 30
0.0
 11
72.0
 21
113.0
 31
0.0
  0
LINE
  8
0
  6
CONTINUOUS
 62
     1
 10
62.0
 20
113.0
 30
0.0
 11
64.4
 21
113.0
 31
0.0
  0
LINE
  8
0
  6
LTYPE1
 62
     2
 10
64.0
 20
117.0
 30
0.0
 11
70.0
 21
117.0
 31
0.0
  0
CIRCLE
  8
0
  6
CONTINUOUS
 62
     2
 10
82.0
 20
118.0
 30
0.0
 40
3.5
  0
LINE
  8
0
  6
CONTINUOUS
 62
     2
 10
82.49
 20
119.925
 30
0.0
 11
81.51
 21
119.925
 31
0.0
  0
LINE
  8
0
  6
CONTINUOUS
 62
     2
 10
81.51
 20
116.075
 30
0.0
 11
82.49
 21
116.075
 31
0.0
  0
LINE
  8
0
  6
CONTINUOUS
 62
     2
 10
81.51
 20
119.925
 30
0.0
 11
81.51
 21
119.54
 31
0.0
  0
LINE
  8
0
  6
CONTINUOUS
 62
     2
 10
80.46
 20
118.49
 30
0.0
 11
78.534469738
 21
118.49
 31
0.0
  0
ARC
  8
0
  6
CONTINUOUS
 62
     2
 10
80.46
 20
119.54
 30
0.0
 40
1.05
 50
270.0
 51
0.0
  0
LINE
  8
0
  6
CONTINUOUS
 62
     2
 10
82.49
 20
119.54
 30
0.0
 11
82.49
 21
119.925
 31
0.0
  0
LINE
  8
0
  6
CONTINUOUS
 62
     2
 10
85.43
 20
118.49
 30
0.0
 11
83.54
 21
118.49
 31
0.0
  0
ARC
  8
0
  6
CONTINUOUS
 62
     2
 10
83.54
 20
119.54
 30
0.0
 40
1.05
 50
180.0
 51
270.0
  0
LINE
  8
0
  6
CONTINUOUS
 62
     2
 10
82.49
 20
116.075
 30
0.0
 11
82.49
 21
116.46
 31
0.0
  0
LINE
  8
0
  6
CONTINUOUS
 62
     2
 10
83.54
 20
117.51
 30
0.0
 11
85.465530262
 21
117.51
 31
0.0
  0
ARC
  8
0
  6
CONTINUOUS
 62
     2
 10
83.54
 20
116.46
 30
0.0
 40
1.05
 50
90.0
 51
180.0
  0
LINE
  8
0
  6
CONTINUOUS
 62
     2
 10
81.51
 20
116.46
 30
0.0
 11
81.51
 21
116.075
 31
0.0
  0
LINE
  8
0
  6
CONTINUOUS
 62
     2
 10
78.534469738
 20
117.51
 30
0.0
 11
80.46
 21
117.51
 31
0.0
  0
ARC
  8
0
  6
CONTINUOUS
 62
     2
 10
80.46
 20
116.46
 30
0.0
 40
1.05
 50
0.0
 51
90.0
  0
CIRCLE
  8
0
  6
CONTINUOUS
 62
     2
 10
52.0
 20
118.0
 30
0.0
 40
3.5
  0
LINE
  8
0
  6
CONTINUOUS
 62
     2
 10
51.51
 20
119.925
 30
0.0
 11
52.49
 21
119.925
 31
0.0
  0
LINE
  8
0
  6
CONTINUOUS
 62
     2
 10
52.49
 20
116.075
 30
0.0
 11
51.51
 21
116.075
 31
0.0
  0
LINE
  8
0
  6
CONTINUOUS
 62
     2
 10
52.49
 20
119.925
 30
0.0
 11
52.49
 21
119.54
 31
0.0
  0
LINE
  8
0
  6
CONTINUOUS
 62
     2
 10
53.54
 20
118.49
 30
0.0
 11
55.465530262
 21
118.49
 31
0.0
  0
ARC
  8
0
  6
CONTINUOUS
 62
     2
 10
53.54
 20
119.54
 30
0.0
 40
1.05
 50
180.0
 51
270.0
  0
LINE
  8
0
  6
CONTINUOUS
 62
     2
 10
51.51
 20
119.54
 30
0.0
 11
51.51
 21
119.925
 31
0.0
  0
LINE
  8
0
  6
CONTINUOUS
 62
     2
 10
48.57
 20
118.49
 30
0.0
 11
50.46
 21
118.49
 31
0.0
  0
ARC
  8
0
  6
CONTINUOUS
 62
     2
 10
50.46
 20
119.54
 30
0.0
 40
1.05
 50
270.0
 51
0.0
  0
LINE
  8
0
  6
CONTINUOUS
 62
     2
 10
51.51
 20
116.075
 30
0.0
 11
51.51
 21
116.46
 31
0.0
  0
LINE
  8
0
  6
CONTINUOUS
 62
     2
 10
50.46
 20
117.51
 30
0.0
 11
48.534469738
 21
117.51
 31
0.0
  0
ARC
  8
0
  6
CONTINUOUS
 62
     2
 10
50.46
 20
116.46
 30
0.0
 40
1.05
 50
360.0
 51
90.0
  0
LINE
  8
0
  6
CONTINUOUS
 62
     2
 10
52.49
 20
116.46
 30
0.0
 11
52.49
 21
116.075
 31
0.0
  0
LINE
  8
0
  6
CONTINUOUS
 62
     2
 10
55.465530262
 20
117.51
 30
0.0
 11
53.54
 21
117.51
 31
0.0
  0
ARC
  8
0
  6
CONTINUOUS
 62
     2
 10
53.54
 20
116.46
 30
0.0
 40
1.05
 50
90.0
 51
180.0
  0
CIRCLE
  8
0
  6
CONTINUOUS
 62
     2
 10
52.0
 20
166.0
 30
0.0
 40
3.5
  0
LINE
  8
0
  6
CONTINUOUS
 62
     2
 10
51.51
 20
164.075
 30
0.0
 11
52.49
 21
164.075
 31
0.0
  0
LINE
  8
0
  6
CONTINUOUS
 62
     2
 10
52.49
 20
167.925
 30
0.0
 11
51.51
 21
167.925
 31
0.0
  0
LINE
  8
0
  6
CONTINUOUS
 62
     2
 10
52.49
 20
164.075
 30
0.0
 11
52.49
 21
164.46
 31
0.0
  0
LINE
  8
0
  6
CONTINUOUS
 62
     2
 10
53.54
 20
165.51
 30
0.0
 11
55.465530262
 21
165.51
 31
0.0
  0
ARC
  8
0
  6
CONTINUOUS
 62
     2
 10
53.54
 20
164.46
 30
0.0
 40
1.05
 50
90.0
 51
180.0
  0
LINE
  8
0
  6
CONTINUOUS
 62
     2
 10
51.51
 20
164.46
 30
0.0
 11
51.51
 21
164.075
 31
0.0
  0
LINE
  8
0
  6
CONTINUOUS
 62
     2
 10
48.57
 20
165.51
 30
0.0
 11
50.46
 21
165.51
 31
0.0
  0
ARC
  8
0
  6
CONTINUOUS
 62
     2
 10
50.46
 20
164.46
 30
0.0
 40
1.05
 50
0.0
 51
90.0
  0
LINE
  8
0
  6
CONTINUOUS
 62
     2
 10
51.51
 20
167.925
 30
0.0
 11
51.51
 21
167.54
 31
0.0
  0
LINE
  8
0
  6
CONTINUOUS
 62
     2
 10
50.46
 20
166.49
 30
0.0
 11
48.534469738
 21
166.49
 31
0.0
  0
ARC
  8
0
  6
CONTINUOUS
 62
     2
 10
50.46
 20
167.54
 30
0.0
 40
1.05
 50
270.0
 51
0.0
  0
LINE
  8
0
  6
CONTINUOUS
 62
     2
 10
52.49
 20
167.54
 30
0.0
 11
52.49
 21
167.925
 31
0.0
  0
LINE
  8
0
  6
CONTINUOUS
 62
     2
 10
55.465530262
 20
166.49
 30
0.0
 11
53.54
 21
166.49
 31
0.0
  0
ARC
  8
0
  6
CONTINUOUS
 62
     2
 10
53.54
 20
167.54
 30
0.0
 40
1.05
 50
180.0
 51
270.0
  0
CIRCLE
  8
0
  6
CONTINUOUS
 62
     2
 10
82.0
 20
166.0
 30
0.0
 40
3.5
  0
LINE
  8
0
  6
CONTINUOUS
 62
     2
 10
82.49
 20
164.075
 30
0.0
 11
81.51
 21
164.075
 31
0.0
  0
LINE
  8
0
  6
CONTINUOUS
 62
     2
 10
81.51
 20
167.925
 30
0.0
 11
82.49
 21
167.925
 31
0.0
  0
LINE
  8
0
  6
CONTINUOUS
 62
     2
 10
81.51
 20
164.075
 30
0.0
 11
81.51
 21
164.46
 31
0.0
  0
LINE
  8
0
  6
CONTINUOUS
 62
     2
 10
80.46
 20
165.51
 30
0.0
 11
78.534469738
 21
165.51
 31
0.0
  0
ARC
  8
0
  6
CONTINUOUS
 62
     2
 10
80.46
 20
164.46
 30
0.0
 40
1.05
 50
0.0
 51
90.0
  0
LINE
  8
0
  6
CONTINUOUS
 62
     2
 10
82.49
 20
164.46
 30
0.0
 11
82.49
 21
164.075
 31
0.0
  0
LINE
  8
0
  6
CONTINUOUS
 62
     2
 10
85.43
 20
165.51
 30
0.0
 11
83.54
 21
165.51
 31
0.0
  0
ARC
  8
0
  6
CONTINUOUS
 62
     2
 10
83.54
 20
164.46
 30
0.0
 40
1.05
 50
90.0
 51
180.0
  0
LINE
  8
0
  6
CONTINUOUS
 62
     2
 10
82.49
 20
167.925
 30
0.0
 11
82.49
 21
167.54
 31
0.0
  0
LINE
  8
0
  6
CONTINUOUS
 62
     2
 10
83.54
 20
166.49
 30
0.0
 11
85.465530262
 21
166.49
 31
0.0
  0
ARC
  8
0
  6
CONTINUOUS
 62
     2
 10
83.54
 20
167.54
 30
0.0
 40
1.05
 50
180.0
 51
270.0
  0
LINE
  8
0
  6
CONTINUOUS
 62
     2
 10
81.51
 20
167.54
 30
0.0
 11
81.51
 21
167.925
 31
0.0
  0
LINE
  8
0
  6
CONTINUOUS
 62
     2
 10
78.534469738
 20
166.49
 30
0.0
 11
80.46
 21
166.49
 31
0.0
  0
ARC
  8
0
  6
CONTINUOUS
 62
     2
 10
80.46
 20
167.54
 30
0.0
 40
1.05
 50
270.0
 51
0.0
  0
TEXT
  8
0
  6
CONTINUOUS
 62
     1
 10
61.76
 20
140.0
 30
0.4
 40
4.0
  1
Ｎ．Ｐ．
 50
0.0
 41
0.9
 51
0.0
  7
KANJI4
  0
TEXT
  8
0
  6
CONTINUOUS
 62
     1
 10
59.8
 20
127.0
 30
0.3
 40
3.0
  1
ＭＥＴＥＲ
 50
0.0
 41
0.9
 51
0.0
  7
KANJI0
  0
TEXT
  8
0
  6
CONTINUOUS
 62
     1
 10
61.4
 20
154.0
 30
0.3
 40
3.0
  1
ＬＩＮＥ
 50
0.0
 41
0.9
 51
0.0
  7
KANJI0
  0
ARC
  8
0
  6
CONTINUOUS
 62
     1
 10
42.554247642
 20
85.5
 30
0.0
 40
1.0
 50
90.0
 51
147.994616792
  0
LINE
  8
0
  6
CONTINUOUS
 62
     1
 10
42.554247642
 20
86.5
 30
0.0
 11
91.445752358
 21
86.5
 31
0.0
  0
ARC
  8
0
  6
CONTINUOUS
 62
     1
 10
91.445752358
 20
85.5
 30
0.0
 40
1.0
 50
32.005383208
 51
90.0
  0
LINE
  8
0
  6
CONTINUOUS
 62
     1
 10
92.293750662
 20
86.02999894
 30
0.0
 11
94.423999152
 21
82.621601357
 31
0.0
  0
ARC
  8
0
  6
CONTINUOUS
 62
     1
 10
94.0
 20
82.356601887
 30
0.0
 40
0.5
 50
0.0
 51
32.005383208
  0
LINE
  8
0
  6
CONTINUOUS
 62
     1
 10
39.5
 20
82.356601887
 30
0.0
 11
39.5
 21
81.5
 31
0.0
  0
LINE
  8
0
  6
CONTINUOUS
 62
     1
 10
39.576000848
 20
82.621601357
 30
0.0
 11
41.706249338
 21
86.02999894
 31
0.0
  0
ARC
  8
0
  6
CONTINUOUS
 62
     1
 10
40.0
 20
82.356601887
 30
0.0
 40
0.5
 50
147.994616792
 51
180.0
  0
LINE
  8
0
  6
CONTINUOUS
 62
     1
 10
94.5
 20
82.356601887
 30
0.0
 11
94.5
 21
80.7
 31
0.0
  0
LINE
  8
0
  6
CONTINUOUS
 62
     1
 10
39.5
 20
81.5
 30
0.0
 11
39.5
 21
80.7
 31
0.0
  0
LINE
  8
0
  6
CONTINUOUS
 62
     1
 10
85.0
 20
54.7
 30
0.0
 11
85.0
 21
54.2
 31
0.0
  0
LINE
  8
0
  6
CONTINUOUS
 62
     1
 10
85.0
 20
54.2
 30
0.0
 11
49.0
 21
54.2
 31
0.0
  0
LINE
  8
0
  6
CONTINUOUS
 62
     1
 10
49.0
 20
54.2
 30
0.0
 11
49.0
 21
54.7
 31
0.0
  0
LINE
  8
0
  6
CONTINUOUS
 62
     1
 10
39.5
 20
54.7
 30
0.0
 11
49.0
 21
54.7
 31
0.0
  0
LINE
  8
0
  6
CONTINUOUS
 62
     1
 10
94.5
 20
54.7
 30
0.0
 11
94.5
 21
80.7
 31
0.0
  0
LINE
  8
0
  6
CONTINUOUS
 62
     1
 10
48.0
 20
80.7
 30
0.0
 11
39.5
 21
80.7
 31
0.0
  0
LINE
  8
0
  6
CONTINUOUS
 62
     1
 10
39.5
 20
80.7
 30
0.0
 11
39.5
 21
54.7
 31
0.0
  0
ARC
  8
0
  6
CONTINUOUS
 62
     1
 10
64.6
 20
59.9
 30
0.0
 40
0.3
 50
0.0
 51
90.0
  0
LINE
  8
0
  6
CONTINUOUS
 62
     1
 10
64.9
 20
54.2
 30
0.0
 11
64.9
 21
59.9
 31
0.0
  0
ARC
  8
0
  6
CONTINUOUS
 62
     1
 10
61.8
 20
59.9
 30
0.0
 40
0.3
 50
90.0
 51
180.0
  0
LINE
  8
0
  6
CONTINUOUS
 62
     1
 10
61.5
 20
59.9
 30
0.0
 11
61.5
 21
54.2
 31
0.0
  0
LINE
  8
0
  6
CONTINUOUS
 62
     1
 10
64.6
 20
60.2
 30
0.0
 11
61.8
 21
60.2
 31
0.0
  0
LINE
  8
0
  6
CONTINUOUS
 62
     1
 10
85.0
 20
54.7
 30
0.0
 11
94.5
 21
54.7
 31
0.0
  0
LINE
  8
0
  6
CONTINUOUS
 62
     1
 10
87.5
 20
73.7
 30
0.0
 11
87.5
 21
79.7
 31
0.0
  0
LINE
  8
0
  6
CONTINUOUS
 62
     1
 10
76.5
 20
79.7
 30
0.0
 11
76.5
 21
73.7
 31
0.0
  0
LINE
  8
0
  6
CONTINUOUS
 62
     1
 10
76.5
 20
73.7
 30
0.0
 11
75.0
 21
72.2
 31
0.0
  0
LINE
  8
0
  6
CONTINUOUS
 62
     1
 10
87.5
 20
73.7
 30
0.0
 11
89.0
 21
72.2
 31
0.0
  0
LINE
  8
0
  6
CONTINUOUS
 62
     1
 10
78.0
 20
79.7
 30
0.0
 11
75.255110569
 21
79.7
 31
0.0
  0
LINE
  8
0
  6
CONTINUOUS
 62
     1
 10
88.744889431
 20
79.7
 30
0.0
 11
86.0
 21
79.7
 31
0.0
  0
LINE
  8
0
  6
CONTINUOUS
 62
     1
 10
78.0
 20
80.7
 30
0.0
 11
56.0
 21
80.7
 31
0.0
  0
LINE
  8
0
  6
CONTINUOUS
 62
     1
 10
94.5
 20
80.7
 30
0.0
 11
86.0
 21
80.7
 31
0.0
  0
ARC
  8
0
  6
CONTINUOUS
 62
     1
 10
69.4
 20
59.9
 30
0.0
 40
0.3
 50
90.0
 51
180.0
  0
LINE
  8
0
  6
CONTINUOUS
 62
     1
 10
69.1
 20
54.2
 30
0.0
 11
69.1
 21
59.9
 31
0.0
  0
ARC
  8
0
  6
CONTINUOUS
 62
     1
 10
72.2
 20
59.9
 30
0.0
 40
0.3
 50
0.0
 51
90.0
  0
LINE
  8
0
  6
CONTINUOUS
 62
     1
 10
72.5
 20
59.9
 30
0.0
 11
72.5
 21
54.2
 31
0.0
  0
LINE
  8
0
  6
CONTINUOUS
 62
     1
 10
69.4
 20
60.2
 30
0.0
 11
72.2
 21
60.2
 31
0.0
  0
LINE
  8
0
  6
CONTINUOUS
 62
     1
 10
69.4
 20
60.2
 30
0.0
 11
64.6
 21
60.2
 31
0.0
  0
LINE
  8
0
  6
LTYPE1
 62
     2
 10
67.0
 20
91.5
 30
0.0
 11
67.0
 21
49.6
 31
0.0
  0
LINE
  8
0
  6
CONTINUOUS
 62
     1
 10
48.579572153
 20
82.5
 30
0.0
 11
39.5
 21
82.5
 31
0.0
  0
LINE
  8
0
  6
CONTINUOUS
 62
     1
 10
86.0
 20
73.7
 30
0.0
 11
87.5
 21
73.7
 31
0.0
  0
LINE
  8
0
  6
CONTINUOUS
 62
     1
 10
76.5
 20
73.7
 30
0.0
 11
78.0
 21
73.7
 31
0.0
  0
LINE
  8
0
  6
CONTINUOUS
 62
     1
 10
78.0
 20
72.5
 30
0.0
 11
86.0
 21
72.5
 31
0.0
  0
LINE
  8
0
  6
CONTINUOUS
 62
     1
 10
86.0
 20
72.5
 30
0.0
 11
86.0
 21
80.9
 31
0.0
  0
LINE
  8
0
  6
CONTINUOUS
 62
     1
 10
86.0
 20
80.9
 30
0.0
 11
78.0
 21
80.9
 31
0.0
  0
LINE
  8
0
  6
CONTINUOUS
 62
     1
 10
78.0
 20
80.9
 30
0.0
 11
78.0
 21
72.5
 31
0.0
  0
ARC
  8
0
  6
CONTINUOUS
 62
     1
 10
83.495228438
 20
82.678806246
 30
0.0
 40
1.93348505
 50
358.472474559
 51
90.0
  0
ARC
  8
0
  6
CONTINUOUS
 62
     1
 10
80.504771562
 20
82.678806246
 30
0.0
 40
1.93348505
 50
90.0
 51
180.0
  0
LINE
  8
0
  6
CONTINUOUS
 62
     1
 10
80.504771562
 20
84.612291295
 30
0.0
 11
83.495228438
 21
84.612291295
 31
0.0
  0
LINE
  8
0
  6
CONTINUOUS
 62
     1
 10
81.432844385
 20
84.43183269
 30
0.0
 11
82.412476811
 21
84.43183269
 31
0.0
  0
LINE
  8
0
  6
CONTINUOUS
 62
     1
 10
78.571286512
 20
81.905412226
 30
0.0
 11
78.571286512
 21
82.704586046
 31
0.0
  0
LINE
  8
0
  6
CONTINUOUS
 62
     1
 10
85.377153886
 20
82.704586046
 30
0.0
 11
85.428713488
 21
81.905412226
 31
0.0
  0
LINE
  8
0
  6
CONTINUOUS
 62
     1
 10
78.571286512
 20
81.905412226
 30
0.0
 11
85.428713488
 21
81.905412226
 31
0.0
  0
LINE
  8
0
  6
CONTINUOUS
 62
     1
 10
79.7
 20
72.5
 30
0.0
 11
80.0
 21
71.7
 31
0.0
  0
LINE
  8
0
  6
CONTINUOUS
 62
     1
 10
80.0
 20
71.7
 30
0.0
 11
84.0
 21
71.7
 31
0.0
  0
LINE
  8
0
  6
CONTINUOUS
 62
     1
 10
84.0
 20
71.7
 30
0.0
 11
84.3
 21
72.5
 31
0.0
  0
LINE
  8
0
  6
CONTINUOUS
 62
     1
 10
80.0
 20
71.7
 30
0.0
 11
80.0
 21
68.9
 31
0.0
  0
LINE
  8
0
  6
CONTINUOUS
 62
     1
 10
80.0
 20
68.9
 30
0.0
 11
80.4
 21
68.5
 31
0.0
  0
LINE
  8
0
  6
CONTINUOUS
 62
     1
 10
84.0
 20
68.9
 30
0.0
 11
84.0
 21
71.7
 31
0.0
  0
LINE
  8
0
  6
CONTINUOUS
 62
     1
 10
80.4
 20
68.5
 30
0.0
 11
83.6
 21
68.5
 31
0.0
  0
LINE
  8
0
  6
CONTINUOUS
 62
     1
 10
84.0
 20
68.9
 30
0.0
 11
83.6
 21
68.5
 31
0.0
  0
LINE
  8
0
  6
CONTINUOUS
 62
     2
 10
85.428713488
 20
80.9
 30
0.0
 11
85.428713488
 21
81.879632425
 31
0.0
  0
LINE
  8
0
  6
CONTINUOUS
 62
     2
 10
82.309357608
 20
80.9
 30
0.0
 11
81.510183787
 21
81.879632425
 31
0.0
  0
LINE
  8
0
  6
CONTINUOUS
 62
     2
 10
82.928072824
 20
80.9
 30
0.0
 11
82.180458605
 21
81.905412226
 31
0.0
  0
LINE
  8
0
  6
CONTINUOUS
 62
     2
 10
81.458624186
 20
84.612291295
 30
0.0
 11
81.458624186
 21
84.43183269
 31
0.0
  0
LINE
  8
0
  6
CONTINUOUS
 62
     2
 10
82.412476811
 20
84.43183269
 30
0.0
 11
82.412476811
 21
84.586511494
 31
0.0
  0
LINE
  8
0
  6
CONTINUOUS
 62
     2
 10
78.571286512
 20
80.905412226
 30
0.0
 11
78.571286512
 21
81.905412226
 31
0.0
  0
LINE
  8
0
  6
CONTINUOUS
 62
     2
 10
78.569726911
 20
80.9
 30
0.0
 11
85.428713488
 21
80.9
 31
0.0
  0
LINE
  8
0
  6
CONTINUOUS
 62
     2
 10
80.4
 20
71.7
 30
0.0
 11
80.4
 21
68.6
 31
0.0
  0
POINT
  8
0
  6
CONTINUOUS
 62
     2
 10
80.4
 20
68.6
 30
0.0
  0
LINE
  8
0
  6
CONTINUOUS
 62
     2
 10
80.4
 20
68.6
 30
0.0
 11
80.4
 21
68.5
 31
0.0
  0
LINE
  8
0
  6
CONTINUOUS
 62
     2
 10
80.0
 20
68.9
 30
0.0
 11
84.0
 21
68.9
 31
0.0
  0
LINE
  8
0
  6
CONTINUOUS
 62
     2
 10
83.6
 20
68.5
 30
0.0
 11
83.6
 21
71.7
 31
0.0
  0
LINE
  8
0
  6
CONTINUOUS
 62
     1
 10
78.579572153
 20
82.5
 30
0.0
 11
55.420427847
 21
82.5
 31
0.0
  0
LINE
  8
0
  6
CONTINUOUS
 62
     1
 10
94.423999152
 20
82.5
 30
0.0
 11
85.420427847
 21
82.5
 31
0.0
  0
LINE
  8
0
  6
CONTINUOUS
 62
     1
 10
46.5
 20
73.7
 30
0.0
 11
46.5
 21
79.7
 31
0.0
  0
LINE
  8
0
  6
CONTINUOUS
 62
     1
 10
57.5
 20
79.7
 30
0.0
 11
57.5
 21
73.7
 31
0.0
  0
LINE
  8
0
  6
CONTINUOUS
 62
     1
 10
57.5
 20
73.7
 30
0.0
 11
59.0
 21
72.2
 31
0.0
  0
LINE
  8
0
  6
CONTINUOUS
 62
     1
 10
46.5
 20
73.7
 30
0.0
 11
45.0
 21
72.2
 31
0.0
  0
LINE
  8
0
  6
CONTINUOUS
 62
     1
 10
56.0
 20
79.7
 30
0.0
 11
58.744889431
 21
79.7
 31
0.0
  0
LINE
  8
0
  6
CONTINUOUS
 62
     1
 10
45.255110569
 20
79.7
 30
0.0
 11
48.0
 21
79.7
 31
0.0
  0
LINE
  8
0
  6
CONTINUOUS
 62
     1
 10
48.0
 20
73.7
 30
0.0
 11
46.5
 21
73.7
 31
0.0
  0
LINE
  8
0
  6
CONTINUOUS
 62
     1
 10
57.5
 20
73.7
 30
0.0
 11
56.0
 21
73.7
 31
0.0
  0
LINE
  8
0
  6
CONTINUOUS
 62
     1
 10
56.0
 20
72.5
 30
0.0
 11
48.0
 21
72.5
 31
0.0
  0
LINE
  8
0
  6
CONTINUOUS
 62
     1
 10
48.0
 20
72.5
 30
0.0
 11
48.0
 21
80.9
 31
0.0
  0
LINE
  8
0
  6
CONTINUOUS
 62
     1
 10
48.0
 20
80.9
 30
0.0
 11
56.0
 21
80.9
 31
0.0
  0
LINE
  8
0
  6
CONTINUOUS
 62
     1
 10
56.0
 20
80.9
 30
0.0
 11
56.0
 21
72.5
 31
0.0
  0
ARC
  8
0
  6
CONTINUOUS
 62
     1
 10
50.504771562
 20
82.678806246
 30
0.0
 40
1.93348505
 50
90.0
 51
181.527525441
  0
ARC
  8
0
  6
CONTINUOUS
 62
     1
 10
53.495228438
 20
82.678806246
 30
0.0
 40
1.93348505
 50
0.0
 51
90.0
  0
LINE
  8
0
  6
CONTINUOUS
 62
     1
 10
53.495228438
 20
84.612291295
 30
0.0
 11
50.504771562
 21
84.612291295
 31
0.0
  0
LINE
  8
0
  6
CONTINUOUS
 62
     1
 10
52.567155615
 20
84.43183269
 30
0.0
 11
51.587523189
 21
84.43183269
 31
0.0
  0
LINE
  8
0
  6
CONTINUOUS
 62
     1
 10
55.428713488
 20
81.905412226
 30
0.0
 11
55.428713488
 21
82.704586046
 31
0.0
  0
LINE
  8
0
  6
CONTINUOUS
 62
     1
 10
48.622846114
 20
82.704586046
 30
0.0
 11
48.571286512
 21
81.905412226
 31
0.0
  0
LINE
  8
0
  6
CONTINUOUS
 62
     1
 10
55.428713488
 20
81.905412226
 30
0.0
 11
48.571286512
 21
81.905412226
 31
0.0
  0
LINE
  8
0
  6
CONTINUOUS
 62
     1
 10
54.3
 20
72.5
 30
0.0
 11
54.0
 21
71.7
 31
0.0
  0
LINE
  8
0
  6
CONTINUOUS
 62
     1
 10
54.0
 20
71.7
 30
0.0
 11
50.0
 21
71.7
 31
0.0
  0
LINE
  8
0
  6
CONTINUOUS
 62
     1
 10
50.0
 20
71.7
 30
0.0
 11
49.7
 21
72.5
 31
0.0
  0
LINE
  8
0
  6
CONTINUOUS
 62
     1
 10
54.0
 20
71.7
 30
0.0
 11
54.0
 21
68.9
 31
0.0
  0
LINE
  8
0
  6
CONTINUOUS
 62
     1
 10
54.0
 20
68.9
 30
0.0
 11
53.6
 21
68.5
 31
0.0
  0
LINE
  8
0
  6
CONTINUOUS
 62
     1
 10
50.0
 20
68.9
 30
0.0
 11
50.0
 21
71.7
 31
0.0
  0
LINE
  8
0
  6
CONTINUOUS
 62
     1
 10
53.6
 20
68.5
 30
0.0
 11
50.4
 21
68.5
 31
0.0
  0
LINE
  8
0
  6
CONTINUOUS
 62
     1
 10
50.0
 20
68.9
 30
0.0
 11
50.4
 21
68.5
 31
0.0
  0
LINE
  8
0
  6
CONTINUOUS
 62
     2
 10
48.571286512
 20
80.9
 30
0.0
 11
48.571286512
 21
81.879632425
 31
0.0
  0
LINE
  8
0
  6
CONTINUOUS
 62
     2
 10
51.690642392
 20
80.9
 30
0.0
 11
52.489816213
 21
81.879632425
 31
0.0
  0
LINE
  8
0
  6
CONTINUOUS
 62
     2
 10
51.071927176
 20
80.9
 30
0.0
 11
51.819541395
 21
81.905412226
 31
0.0
  0
LINE
  8
0
  6
CONTINUOUS
 62
     2
 10
52.541375814
 20
84.612291295
 30
0.0
 11
52.541375814
 21
84.43183269
 31
0.0
  0
LINE
  8
0
  6
CONTINUOUS
 62
     2
 10
51.587523189
 20
84.43183269
 30
0.0
 11
51.587523189
 21
84.586511494
 31
0.0
  0
LINE
  8
0
  6
CONTINUOUS
 62
     2
 10
55.428713488
 20
80.905412226
 30
0.0
 11
55.428713488
 21
81.905412226
 31
0.0
  0
LINE
  8
0
  6
CONTINUOUS
 62
     2
 10
55.430273089
 20
80.9
 30
0.0
 11
48.571286512
 21
80.9
 31
0.0
  0
LINE
  8
0
  6
CONTINUOUS
 62
     2
 10
53.6
 20
71.7
 30
0.0
 11
53.6
 21
68.6
 31
0.0
  0
POINT
  8
0
  6
CONTINUOUS
 62
     2
 10
53.6
 20
68.6
 30
0.0
  0
LINE
  8
0
  6
CONTINUOUS
 62
     2
 10
53.6
 20
68.6
 30
0.0
 11
53.6
 21
68.5
 31
0.0
  0
LINE
  8
0
  6
CONTINUOUS
 62
     2
 10
54.0
 20
68.9
 30
0.0
 11
50.0
 21
68.9
 31
0.0
  0
LINE
  8
0
  6
CONTINUOUS
 62
     2
 10
50.4
 20
68.5
 30
0.0
 11
50.4
 21
71.7
 31
0.0
  0
LINE
  8
0
  6
CONTINUOUS
 62
     1
 10
141.0
 20
54.2
 30
0.0
 11
158.0
 21
54.2
 31
0.0
  0
LINE
  8
0
  6
CONTINUOUS
 62
     1
 10
158.0
 20
54.2
 30
0.0
 11
158.0
 21
54.7
 31
0.0
  0
LINE
  8
0
  6
CONTINUOUS
 62
     1
 10
199.0
 20
54.2
 30
0.0
 11
182.0
 21
54.2
 31
0.0
  0
LINE
  8
0
  6
CONTINUOUS
 62
     1
 10
182.0
 20
54.2
 30
0.0
 11
182.0
 21
54.7
 31
0.0
  0
LINE
  8
0
  6
CONTINUOUS
 62
     1
 10
150.0
 20
79.7
 30
0.0
 11
142.0
 21
79.7
 31
0.0
  0
LINE
  8
0
  6
CONTINUOUS
 62
     1
 10
142.0
 20
79.7
 30
0.0
 11
142.0
 21
73.7
 31
0.0
  0
LINE
  8
0
  6
CONTINUOUS
 62
     1
 10
142.0
 20
73.7
 30
0.0
 11
148.5
 21
73.7
 31
0.0
  0
LINE
  8
0
  6
CONTINUOUS
 62
     1
 10
150.0
 20
72.2
 30
0.0
 11
150.0
 21
54.7
 31
0.0
  0
ARC
  8
0
  6
CONTINUOUS
 62
     1
 10
148.5
 20
72.2
 30
0.0
 40
1.5
 50
0.0
 51
90.0
  0
LINE
  8
0
  6
CONTINUOUS
 62
     1
 10
180.0
 20
78.7
 30
0.0
 11
185.5
 21
78.7
 31
0.0
  0
LINE
  8
0
  6
CONTINUOUS
 62
     1
 10
185.5
 20
78.7
 30
0.0
 11
185.5
 21
80.2
 31
0.0
  0
LINE
  8
0
  6
CONTINUOUS
 62
     1
 10
185.5
 20
80.2
 30
0.0
 11
180.0
 21
80.2
 31
0.0
  0
LINE
  8
0
  6
CONTINUOUS
 62
     1
 10
180.0
 20
80.2
 30
0.0
 11
180.0
 21
78.7
 31
0.0
  0
LINE
  8
0
  6
CONTINUOUS
 62
     1
 10
150.0
 20
80.7
 30
0.0
 11
150.0
 21
72.2
 31
0.0
  0
LINE
  8
0
  6
CONTINUOUS
 62
     1
 10
160.0
 20
78.7
 30
0.0
 11
154.5
 21
78.7
 31
0.0
  0
LINE
  8
0
  6
CONTINUOUS
 62
     1
 10
154.5
 20
78.7
 30
0.0
 11
154.5
 21
80.2
 31
0.0
  0
LINE
  8
0
  6
CONTINUOUS
 62
     1
 10
154.5
 20
80.2
 30
0.0
 11
160.0
 21
80.2
 31
0.0
  0
LINE
  8
0
  6
CONTINUOUS
 62
     1
 10
160.0
 20
80.2
 30
0.0
 11
160.0
 21
78.7
 31
0.0
  0
LINE
  8
0
  6
CONTINUOUS
 62
     1
 10
191.0
 20
60.2
 30
0.0
 11
199.0
 21
60.2
 31
0.0
  0
ARC
  8
0
  6
CONTINUOUS
 62
     1
 10
191.0
 20
61.2
 30
0.0
 40
1.0
 50
180.0
 51
270.0
  0
LINE
  8
0
  6
CONTINUOUS
 62
     1
 10
199.0
 20
60.2
 30
0.0
 11
199.0
 21
54.2
 31
0.0
  0
LINE
  8
0
  6
CONTINUOUS
 62
     1
 10
149.0
 20
60.2
 30
0.0
 11
141.0
 21
60.2
 31
0.0
  0
ARC
  8
0
  6
CONTINUOUS
 62
     1
 10
149.0
 20
61.2
 30
0.0
 40
1.0
 50
270.0
 51
0.0
  0
LINE
  8
0
  6
CONTINUOUS
 62
     1
 10
141.0
 20
60.2
 30
0.0
 11
141.0
 21
54.2
 31
0.0
  0
LINE
  8
0
  6
LTYPE1
 62
     2
 10
145.0
 20
51.2
 30
0.0
 11
145.0
 21
63.7
 31
0.0
  0
LINE
  8
0
  6
LTYPE1
 62
     2
 10
195.0
 20
51.2
 30
0.0
 11
195.0
 21
63.7
 31
0.0
  0
LINE
  8
0
  6
LTYPE1
 62
     2
 10
170.0
 20
86.7
 30
0.0
 11
170.0
 21
49.7
 31
0.0
  0
LINE
  8
0
  6
CONTINUOUS
 62
     1
 10
190.0
 20
54.7
 30
0.0
 11
190.0
 21
80.7
 31
0.0
  0
LINE
  8
0
  6
CONTINUOUS
 62
     1
 10
150.0
 20
54.7
 30
0.0
 11
190.0
 21
54.7
 31
0.0
  0
LINE
  8
0
  6
CONTINUOUS
 62
     1
 10
162.0
 20
78.7
 30
0.0
 11
178.0
 21
78.7
 31
0.0
  0
LINE
  8
0
  6
CONTINUOUS
 62
     1
 10
190.0
 20
80.7
 30
0.0
 11
178.0
 21
80.7
 31
0.0
  0
LINE
  8
0
  6
CONTINUOUS
 62
     1
 10
178.0
 20
80.7
 30
0.0
 11
178.0
 21
78.7
 31
0.0
  0
LINE
  8
0
  6
CONTINUOUS
 62
     1
 10
150.0
 20
80.7
 30
0.0
 11
162.0
 21
80.7
 31
0.0
  0
LINE
  8
0
  6
CONTINUOUS
 62
     1
 10
162.0
 20
80.7
 30
0.0
 11
162.0
 21
78.7
 31
0.0
  0
ARC
  8
0
  6
CONTINUOUS
 62
     1
 10
153.054247642
 20
85.5
 30
0.0
 40
1.0
 50
90.0
 51
147.994616792
  0
LINE
  8
0
  6
CONTINUOUS
 62
     1
 10
153.054247642
 20
86.5
 30
0.0
 11
186.945752358
 21
86.5
 31
0.0
  0
ARC
  8
0
  6
CONTINUOUS
 62
     1
 10
186.945752358
 20
85.5
 30
0.0
 40
1.0
 50
32.005383208
 51
90.0
  0
LINE
  8
0
  6
CONTINUOUS
 62
     1
 10
187.793750662
 20
86.02999894
 30
0.0
 11
189.923999152
 21
82.621601357
 31
0.0
  0
ARC
  8
0
  6
CONTINUOUS
 62
     1
 10
189.5
 20
82.356601887
 30
0.0
 40
0.5
 50
0.0
 51
32.005383208
  0
LINE
  8
0
  6
CONTINUOUS
 62
     1
 10
150.076000848
 20
82.621601357
 30
0.0
 11
152.206249338
 21
86.02999894
 31
0.0
  0
ARC
  8
0
  6
CONTINUOUS
 62
     1
 10
150.5
 20
82.356601887
 30
0.0
 40
0.5
 50
147.994616792
 51
180.0
  0
LINE
  8
0
  6
CONTINUOUS
 62
     1
 10
150.0
 20
82.356601887
 30
0.0
 11
150.0
 21
80.7
 31
0.0
  0
LINE
  8
0
  6
CONTINUOUS
 62
     1
 10
190.0
 20
82.356601887
 30
0.0
 11
190.0
 21
80.7
 31
0.0
  0
LINE
  8
0
  6
CONTINUOUS
 62
     1
 10
189.923999152
 20
82.5
 30
0.0
 11
150.0
 21
82.5
 31
0.0
  0
LINE
  8
0
  6
CONTINUOUS
 62
     1
 10
150.0
 20
80.7
 30
0.0
 11
190.0
 21
80.7
 31
0.0
  0
LINE
  8
0
  6
CONTINUOUS
 62
     1
 10
142.0
 20
79.7
 30
0.0
 11
142.0
 21
73.7
 31
0.0
  0
ARC
  8
0
  6
CONTINUOUS
 62
     1
 10
147.495228438
 20
82.678806246
 30
0.0
 40
1.93348505
 50
358.472474559
 51
90.0
  0
ARC
  8
0
  6
CONTINUOUS
 62
     1
 10
144.504771562
 20
82.678806246
 30
0.0
 40
1.93348505
 50
90.0
 51
180.0
  0
LINE
  8
0
  6
CONTINUOUS
 62
     1
 10
144.504771562
 20
84.612291295
 30
0.0
 11
147.495228438
 21
84.612291295
 31
0.0
  0
LINE
  8
0
  6
CONTINUOUS
 62
     1
 10
145.432844385
 20
84.43183269
 30
0.0
 11
146.412476811
 21
84.43183269
 31
0.0
  0
LINE
  8
0
  6
CONTINUOUS
 62
     1
 10
142.571286512
 20
81.905412226
 30
0.0
 11
142.571286512
 21
82.704586046
 31
0.0
  0
LINE
  8
0
  6
CONTINUOUS
 62
     1
 10
149.377153886
 20
82.704586046
 30
0.0
 11
149.428713488
 21
81.905412226
 31
0.0
  0
LINE
  8
0
  6
CONTINUOUS
 62
     1
 10
142.571286512
 20
81.905412226
 30
0.0
 11
149.428713488
 21
81.905412226
 31
0.0
  0
LINE
  8
0
  6
CONTINUOUS
 62
     1
 10
149.428713488
 20
80.9
 30
0.0
 11
149.428713488
 21
79.7
 31
0.0
  0
LINE
  8
0
  6
CONTINUOUS
 62
     1
 10
143.7
 20
72.5
 30
0.0
 11
144.0
 21
71.7
 31
0.0
  0
LINE
  8
0
  6
CONTINUOUS
 62
     1
 10
144.0
 20
71.7
 30
0.0
 11
148.0
 21
71.7
 31
0.0
  0
LINE
  8
0
  6
CONTINUOUS
 62
     1
 10
148.0
 20
71.7
 30
0.0
 11
148.3
 21
72.5
 31
0.0
  0
LINE
  8
0
  6
CONTINUOUS
 62
     1
 10
144.0
 20
71.7
 30
0.0
 11
144.0
 21
68.9
 31
0.0
  0
LINE
  8
0
  6
CONTINUOUS
 62
     1
 10
144.0
 20
68.9
 30
0.0
 11
144.4
 21
68.5
 31
0.0
  0
LINE
  8
0
  6
CONTINUOUS
 62
     1
 10
148.0
 20
68.9
 30
0.0
 11
148.0
 21
71.7
 31
0.0
  0
LINE
  8
0
  6
CONTINUOUS
 62
     1
 10
144.4
 20
68.5
 30
0.0
 11
147.6
 21
68.5
 31
0.0
  0
LINE
  8
0
  6
CONTINUOUS
 62
     1
 10
148.0
 20
68.9
 30
0.0
 11
147.6
 21
68.5
 31
0.0
  0
LINE
  8
0
  6
CONTINUOUS
 62
     1
 10
149.428713488
 20
80.9
 30
0.0
 11
141.8
 21
80.9
 31
0.0
  0
ARC
  8
0
  6
CONTINUOUS
 62
     1
 10
141.8
 20
79.9
 30
0.0
 40
1.0
 50
90.0
 51
180.0
  0
LINE
  8
0
  6
CONTINUOUS
 62
     1
 10
140.8
 20
79.9
 30
0.0
 11
140.8
 21
73.5
 31
0.0
  0
ARC
  8
0
  6
CONTINUOUS
 62
     1
 10
141.8
 20
73.5
 30
0.0
 40
1.0
 50
180.0
 51
270.0
  0
LINE
  8
0
  6
CONTINUOUS
 62
     2
 10
146.412476811
 20
84.43183269
 30
0.0
 11
146.412476811
 21
84.586511494
 31
0.0
  0
LINE
  8
0
  6
CONTINUOUS
 62
     2
 10
149.428713488
 20
80.9
 30
0.0
 11
149.428713488
 21
81.879632425
 31
0.0
  0
LINE
  8
0
  6
CONTINUOUS
 62
     2
 10
146.309357608
 20
80.9
 30
0.0
 11
145.510183787
 21
81.879632425
 31
0.0
  0
LINE
  8
0
  6
CONTINUOUS
 62
     2
 10
146.928072824
 20
80.9
 30
0.0
 11
146.180458605
 21
81.905412226
 31
0.0
  0
LINE
  8
0
  6
CONTINUOUS
 62
     2
 10
145.458624186
 20
84.612291295
 30
0.0
 11
145.458624186
 21
84.43183269
 31
0.0
  0
LINE
  8
0
  6
CONTINUOUS
 62
     2
 10
146.412476811
 20
84.43183269
 30
0.0
 11
146.412476811
 21
84.586511494
 31
0.0
  0
LINE
  8
0
  6
CONTINUOUS
 62
     2
 10
142.571286512
 20
80.905412226
 30
0.0
 11
142.571286512
 21
81.905412226
 31
0.0
  0
LINE
  8
0
  6
CONTINUOUS
 62
     2
 10
142.569726911
 20
80.9
 30
0.0
 11
149.428713488
 21
80.9
 31
0.0
  0
LINE
  8
0
  6
CONTINUOUS
 62
     2
 10
144.4
 20
71.7
 30
0.0
 11
144.4
 21
68.6
 31
0.0
  0
POINT
  8
0
  6
CONTINUOUS
 62
     2
 10
144.4
 20
68.6
 30
0.0
  0
LINE
  8
0
  6
CONTINUOUS
 62
     2
 10
144.4
 20
68.6
 30
0.0
 11
144.4
 21
68.5
 31
0.0
  0
LINE
  8
0
  6
CONTINUOUS
 62
     2
 10
144.0
 20
68.9
 30
0.0
 11
148.0
 21
68.9
 31
0.0
  0
LINE
  8
0
  6
CONTINUOUS
 62
     2
 10
147.6
 20
68.5
 30
0.0
 11
147.6
 21
71.7
 31
0.0
  0
LINE
  8
0
  6
CONTINUOUS
 62
     1
 10
141.8
 20
72.5
 30
0.0
 11
149.969693846
 21
72.5
 31
0.0
  0
LINE
  8
0
  6
CONTINUOUS
 62
     1
 10
190.0
 20
79.7
 30
0.0
 11
198.0
 21
79.7
 31
0.0
  0
LINE
  8
0
  6
CONTINUOUS
 62
     1
 10
198.0
 20
79.7
 30
0.0
 11
198.0
 21
73.7
 31
0.0
  0
LINE
  8
0
  6
CONTINUOUS
 62
     1
 10
198.0
 20
73.7
 30
0.0
 11
191.5
 21
73.7
 31
0.0
  0
ARC
  8
0
  6
CONTINUOUS
 62
     1
 10
191.5
 20
72.2
 30
0.0
 40
1.5
 50
90.0
 51
180.0
  0
LINE
  8
0
  6
CONTINUOUS
 62
     1
 10
190.0
 20
80.7
 30
0.0
 11
190.0
 21
72.2
 31
0.0
  0
ARC
  8
0
  6
CONTINUOUS
 62
     1
 10
189.5
 20
82.356601887
 30
0.0
 40
0.5
 50
0.0
 51
32.005383208
  0
LINE
  8
0
  6
CONTINUOUS
 62
     1
 10
190.0
 20
82.356601887
 30
0.0
 11
190.0
 21
80.7
 31
0.0
  0
LINE
  8
0
  6
CONTINUOUS
 62
     1
 10
198.0
 20
79.7
 30
0.0
 11
198.0
 21
73.7
 31
0.0
  0
ARC
  8
0
  6
CONTINUOUS
 62
     1
 10
192.504771562
 20
82.678806246
 30
0.0
 40
1.93348505
 50
90.0
 51
181.527525441
  0
ARC
  8
0
  6
CONTINUOUS
 62
     1
 10
195.495228438
 20
82.678806246
 30
0.0
 40
1.93348505
 50
0.0
 51
90.0
  0
LINE
  8
0
  6
CONTINUOUS
 62
     1
 10
195.495228438
 20
84.612291295
 30
0.0
 11
192.504771562
 21
84.612291295
 31
0.0
  0
LINE
  8
0
  6
CONTINUOUS
 62
     1
 10
194.567155615
 20
84.43183269
 30
0.0
 11
193.587523189
 21
84.43183269
 31
0.0
  0
LINE
  8
0
  6
CONTINUOUS
 62
     1
 10
197.428713488
 20
81.905412226
 30
0.0
 11
197.428713488
 21
82.704586046
 31
0.0
  0
LINE
  8
0
  6
CONTINUOUS
 62
     1
 10
190.622846114
 20
82.704586046
 30
0.0
 11
190.571286512
 21
81.905412226
 31
0.0
  0
LINE
  8
0
  6
CONTINUOUS
 62
     1
 10
197.428713488
 20
81.905412226
 30
0.0
 11
190.571286512
 21
81.905412226
 31
0.0
  0
LINE
  8
0
  6
CONTINUOUS
 62
     1
 10
190.571286512
 20
80.9
 30
0.0
 11
190.571286512
 21
79.7
 31
0.0
  0
LINE
  8
0
  6
CONTINUOUS
 62
     1
 10
196.3
 20
72.5
 30
0.0
 11
196.0
 21
71.7
 31
0.0
  0
LINE
  8
0
  6
CONTINUOUS
 62
     1
 10
196.0
 20
71.7
 30
0.0
 11
192.0
 21
71.7
 31
0.0
  0
LINE
  8
0
  6
CONTINUOUS
 62
     1
 10
192.0
 20
71.7
 30
0.0
 11
191.7
 21
72.5
 31
0.0
  0
LINE
  8
0
  6
CONTINUOUS
 62
     1
 10
196.0
 20
71.7
 30
0.0
 11
196.0
 21
68.9
 31
0.0
  0
LINE
  8
0
  6
CONTINUOUS
 62
     1
 10
196.0
 20
68.9
 30
0.0
 11
195.6
 21
68.5
 31
0.0
  0
LINE
  8
0
  6
CONTINUOUS
 62
     1
 10
192.0
 20
68.9
 30
0.0
 11
192.0
 21
71.7
 31
0.0
  0
LINE
  8
0
  6
CONTINUOUS
 62
     1
 10
195.6
 20
68.5
 30
0.0
 11
192.4
 21
68.5
 31
0.0
  0
LINE
  8
0
  6
CONTINUOUS
 62
     1
 10
192.0
 20
68.9
 30
0.0
 11
192.4
 21
68.5
 31
0.0
  0
LINE
  8
0
  6
CONTINUOUS
 62
     1
 10
190.571286512
 20
80.9
 30
0.0
 11
198.2
 21
80.9
 31
0.0
  0
ARC
  8
0
  6
CONTINUOUS
 62
     1
 10
198.2
 20
79.9
 30
0.0
 40
1.0
 50
0.0
 51
90.0
  0
LINE
  8
0
  6
CONTINUOUS
 62
     1
 10
199.2
 20
79.9
 30
0.0
 11
199.2
 21
73.5
 31
0.0
  0
ARC
  8
0
  6
CONTINUOUS
 62
     1
 10
198.2
 20
73.5
 30
0.0
 40
1.0
 50
270.0
 51
360.0
  0
LINE
  8
0
  6
CONTINUOUS
 62
     2
 10
193.587523189
 20
84.43183269
 30
0.0
 11
193.587523189
 21
84.586511494
 31
0.0
  0
LINE
  8
0
  6
CONTINUOUS
 62
     2
 10
190.571286512
 20
80.9
 30
0.0
 11
190.571286512
 21
81.879632425
 31
0.0
  0
LINE
  8
0
  6
CONTINUOUS
 62
     2
 10
193.690642392
 20
80.9
 30
0.0
 11
194.489816213
 21
81.879632425
 31
0.0
  0
LINE
  8
0
  6
CONTINUOUS
 62
     2
 10
193.071927176
 20
80.9
 30
0.0
 11
193.819541395
 21
81.905412226
 31
0.0
  0
LINE
  8
0
  6
CONTINUOUS
 62
     2
 10
194.541375814
 20
84.612291295
 30
0.0
 11
194.541375814
 21
84.43183269
 31
0.0
  0
LINE
  8
0
  6
CONTINUOUS
 62
     2
 10
193.587523189
 20
84.43183269
 30
0.0
 11
193.587523189
 21
84.586511494
 31
0.0
  0
LINE
  8
0
  6
CONTINUOUS
 62
     2
 10
197.428713488
 20
80.905412226
 30
0.0
 11
197.428713488
 21
81.905412226
 31
0.0
  0
LINE
  8
0
  6
CONTINUOUS
 62
     2
 10
197.430273089
 20
80.9
 30
0.0
 11
190.571286512
 21
80.9
 31
0.0
  0
LINE
  8
0
  6
CONTINUOUS
 62
     2
 10
195.6
 20
71.7
 30
0.0
 11
195.6
 21
68.6
 31
0.0
  0
POINT
  8
0
  6
CONTINUOUS
 62
     2
 10
195.6
 20
68.6
 30
0.0
  0
LINE
  8
0
  6
CONTINUOUS
 62
     2
 10
195.6
 20
68.6
 30
0.0
 11
195.6
 21
68.5
 31
0.0
  0
LINE
  8
0
  6
CONTINUOUS
 62
     2
 10
196.0
 20
68.9
 30
0.0
 11
192.0
 21
68.9
 31
0.0
  0
LINE
  8
0
  6
CONTINUOUS
 62
     2
 10
192.4
 20
68.5
 30
0.0
 11
192.4
 21
71.7
 31
0.0
  0
LINE
  8
0
  6
CONTINUOUS
 62
     1
 10
198.2
 20
72.5
 30
0.0
 11
190.030306154
 21
72.5
 31
0.0
  0
LINE
  8
0
  6
CONTINUOUS
 62
     2
 10
154.6
 20
79.8
 30
0.0
 11
159.9
 21
79.8
 31
0.0
  0
LINE
  8
0
  6
CONTINUOUS
 62
     2
 10
154.6
 20
80.0
 30
0.0
 11
159.9
 21
80.0
 31
0.0
  0
LINE
  8
0
  6
CONTINUOUS
 62
     2
 10
154.6
 20
78.8
 30
0.0
 11
154.6
 21
80.2
 31
0.0
  0
ARC
  8
0
  6
CONTINUOUS
 62
     2
 10
154.9
 20
78.8
 30
0.0
 40
0.3
 50
180.0
 51
199.471220635
  0
LINE
  8
0
  6
CONTINUOUS
 62
     2
 10
154.689826733
 20
78.7
 30
0.0
 11
155.4
 21
79.8
 31
0.0
  0
LINE
  8
0
  6
CONTINUOUS
 62
     2
 10
159.810173267
 20
78.7
 30
0.0
 11
159.1
 21
79.8
 31
0.0
  0
ARC
  8
0
  6
CONTINUOUS
 62
     2
 10
159.6
 20
78.8
 30
0.0
 40
0.3
 50
341.565051177
 51
0.0
  0
LINE
  8
0
  6
CONTINUOUS
 62
     2
 10
159.9
 20
80.2
 30
0.0
 11
159.9
 21
78.8
 31
0.0
  0
LINE
  8
0
  6
CONTINUOUS
 62
     2
 10
185.4
 20
79.8
 30
0.0
 11
180.1
 21
79.8
 31
0.0
  0
LINE
  8
0
  6
CONTINUOUS
 62
     2
 10
185.4
 20
80.0
 30
0.0
 11
180.1
 21
80.0
 31
0.0
  0
LINE
  8
0
  6
CONTINUOUS
 62
     2
 10
185.4
 20
78.8
 30
0.0
 11
185.4
 21
80.2
 31
0.0
  0
ARC
  8
0
  6
CONTINUOUS
 62
     2
 10
185.1
 20
78.8
 30
0.0
 40
0.3
 50
340.528779365
 51
360.0
  0
LINE
  8
0
  6
CONTINUOUS
 62
     2
 10
185.310173267
 20
78.7
 30
0.0
 11
184.6
 21
79.8
 31
0.0
  0
LINE
  8
0
  6
CONTINUOUS
 62
     2
 10
180.189826733
 20
78.7
 30
0.0
 11
180.9
 21
79.8
 31
0.0
  0
ARC
  8
0
  6
CONTINUOUS
 62
     2
 10
180.4
 20
78.8
 30
0.0
 40
0.3
 50
180.0
 51
198.434948823
  0
LINE
  8
0
  6
CONTINUOUS
 62
     2
 10
180.1
 20
80.2
 30
0.0
 11
180.1
 21
78.8
 31
0.0
  0
ARC
  8
0
  6
CONTINUOUS
 62
     1
 10
48.248977886
 20
114.3
 30
0.0
 40
0.3
 50
190.619655276
 51
213.908833333
  0
ARC
  8
0
  6
CONTINUOUS
 62
     1
 10
55.751022114
 20
114.3
 30
0.0
 40
0.3
 50
326.091166667
 51
349.380344724
  0
ARC
  8
0
  6
CONTINUOUS
 62
     1
 10
78.248977886
 20
114.3
 30
0.0
 40
0.3
 50
190.619655276
 51
213.908833333
  0
ARC
  8
0
  6
CONTINUOUS
 62
     1
 10
85.751022114
 20
114.3
 30
0.0
 40
0.3
 50
326.091166667
 51
349.380344724
  0
ARC
  8
0
  6
CONTINUOUS
 62
     1
 10
48.248977886
 20
169.7
 30
0.0
 40
0.3
 50
146.091166665
 51
169.380344724
  0
ARC
  8
0
  6
CONTINUOUS
 62
     1
 10
55.751022114
 20
169.7
 30
0.0
 40
0.3
 50
10.619655276
 51
33.908833335
  0
LINE
  8
0
  6
CONTINUOUS
 62
     1
 10
76.72941885
 20
163.223567197
 30
0.0
 11
77.95411623
 21
169.755286561
 31
0.0
  0
LINE
  8
0
  6
CONTINUOUS
 62
     1
 10
86.04588377
 20
169.755286561
 30
0.0
 11
87.27058115
 21
163.223567197
 31
0.0
  0
ARC
  8
0
  6
CONTINUOUS
 62
     1
 10
85.751022114
 20
169.7
 30
0.0
 40
0.3
 50
10.619655276
 51
33.908833335
  0
ARC
  8
0
  6
CONTINUOUS
 62
     1
 10
78.248977886
 20
169.7
 30
0.0
 40
0.3
 50
146.091166665
 51
169.380344724
  0
LINE
  8
0
  6
CONTINUOUS
 62
     2
 10
61.5
 20
171.5
 30
0.0
 11
61.5
 21
183.8
 31
0.0
  0
LINE
  8
0
  6
CONTINUOUS
 62
     2
 10
61.5
 20
181.8
 30
0.0
 11
63.914814566
 21
181.152952387
 31
0.0
  0
LINE
  8
0
  6
CONTINUOUS
 62
     2
 10
61.5
 20
181.8
 30
0.0
 11
63.914814566
 21
182.447047613
 31
0.0
  0
LINE
  8
0
  6
CONTINUOUS
 62
     2
 10
61.5
 20
181.8
 30
0.0
 11
72.5
 21
181.8
 31
0.0
  0
LINE
  8
0
  6
CONTINUOUS
 62
     2
 10
72.5
 20
181.8
 30
0.0
 11
70.085185434
 21
182.447047613
 31
0.0
  0
LINE
  8
0
  6
CONTINUOUS
 62
     2
 10
72.5
 20
181.8
 30
0.0
 11
70.085185434
 21
181.152952387
 31
0.0
  0
LINE
  8
0
  6
CONTINUOUS
 62
     2
 10
72.5
 20
171.5
 30
0.0
 11
72.5
 21
183.8
 31
0.0
  0
TEXT
  8
0
  6
CONTINUOUS
 62
     2
 10
65.05
 20
182.8
 30
0.3
 40
3.0
  1
１１
 50
0.0
 41
0.6
 51
0.0
  7
KANJI1
  0
LINE
  8
0
  6
LTYPE1
 62
     2
 10
52.0
 20
172.1
 30
0.0
 11
52.0
 21
161.7
 31
0.0
  0
LINE
  8
0
  6
LTYPE1
 62
     2
 10
57.1
 20
166.0
 30
0.0
 11
46.0
 21
166.0
 31
0.0
  0
LINE
  8
0
  6
LTYPE1
 62
     2
 10
82.0
 20
172.3
 30
0.0
 11
82.0
 21
161.6
 31
0.0
  0
LINE
  8
0
  6
LTYPE1
 62
     2
 10
76.2
 20
166.0
 30
0.0
 11
87.9
 21
166.0
 31
0.0
  0
LINE
  8
0
  6
LTYPE1
 62
     2
 10
64.0
 20
167.0
 30
0.0
 11
70.3
 21
167.0
 31
0.0
  0
LINE
  8
0
  6
LTYPE1
 62
     2
 10
57.9
 20
118.0
 30
0.0
 11
46.6
 21
118.0
 31
0.0
  0
LINE
  8
0
  6
LTYPE1
 62
     2
 10
77.2
 20
118.0
 30
0.0
 11
87.4
 21
118.0
 31
0.0
  0
LINE
  8
0
  6
LTYPE1
 62
     2
 10
52.0
 20
111.5
 30
0.0
 11
52.0
 21
123.0
 31
0.0
  0
LINE
  8
0
  6
LTYPE1
 62
     2
 10
82.0
 20
111.5
 30
0.0
 11
82.0
 21
123.0
 31
0.0
  0
LINE
  8
0
  6
CONTINUOUS
 62
     2
 10
140.0
 20
60.2
 30
0.0
 11
129.0
 21
60.2
 31
0.0
  0
LINE
  8
0
  6
CONTINUOUS
 62
     2
 10
131.0
 20
60.2
 30
0.0
 11
131.647047613
 21
62.614814566
 31
0.0
  0
LINE
  8
0
  6
CONTINUOUS
 62
     2
 10
131.0
 20
60.2
 30
0.0
 11
130.352952387
 21
62.614814566
 31
0.0
  0
LINE
  8
0
  6
CONTINUOUS
 62
     2
 10
131.0
 20
63.95
 30
0.0
 11
131.0
 21
60.2
 31
0.0
  0
LINE
  8
0
  6
CONTINUOUS
 62
     2
 10
131.0
 20
60.2
 30
0.0
 11
131.0
 21
54.2
 31
0.0
  0
LINE
  8
0
  6
CONTINUOUS
 62
     2
 10
131.0
 20
54.2
 30
0.0
 11
131.0
 21
50.45
 31
0.0
  0
LINE
  8
0
  6
CONTINUOUS
 62
     2
 10
131.0
 20
54.2
 30
0.0
 11
130.352952387
 21
51.785185434
 31
0.0
  0
LINE
  8
0
  6
CONTINUOUS
 62
     2
 10
131.0
 20
54.2
 30
0.0
 11
131.647047613
 21
51.785185434
 31
0.0
  0
LINE
  8
0
  6
CONTINUOUS
 62
     2
 10
140.0
 20
54.2
 30
0.0
 11
129.0
 21
54.2
 31
0.0
  0
TEXT
  8
0
  6
CONTINUOUS
 62
     2
 10
130.0
 20
56.3
 30
0.3
 40
3.0
  1
６
 50
90.0
 41
0.6
 51
0.0
  7
KANJI1
  0
LINE
  8
0
  6
CONTINUOUS
 62
     2
 10
152.054247642
 20
86.5
 30
0.0
 11
123.1
 21
86.5
 31
0.0
  0
LINE
  8
0
  6
CONTINUOUS
 62
     2
 10
125.1
 20
86.5
 30
0.0
 11
124.452952387
 21
84.085185434
 31
0.0
  0
LINE
  8
0
  6
CONTINUOUS
 62
     2
 10
125.1
 20
86.5
 30
0.0
 11
125.747047613
 21
84.085185434
 31
0.0
  0
LINE
  8
0
  6
CONTINUOUS
 62
     2
 10
125.1
 20
86.5
 30
0.0
 11
125.1
 21
54.2
 31
0.0
  0
LINE
  8
0
  6
CONTINUOUS
 62
     2
 10
125.1
 20
54.2
 30
0.0
 11
125.747047613
 21
56.614814566
 31
0.0
  0
LINE
  8
0
  6
CONTINUOUS
 62
     2
 10
125.1
 20
54.2
 30
0.0
 11
124.452952387
 21
56.614814566
 31
0.0
  0
LINE
  8
0
  6
CONTINUOUS
 62
     2
 10
130.0
 20
54.2
 30
0.0
 11
123.1
 21
54.2
 31
0.0
  0
TEXT
  8
0
  6
CONTINUOUS
 62
     2
 10
124.1
 20
66.3
 30
0.3
 40
3.0
  1
３２．３
 50
90.0
 41
0.6
 51
0.0
  7
KANJI1
  0
LINE
  8
0
  6
LTYPE1
 62
     2
 10
146.0
 20
87.8
 30
0.0
 11
146.0
 21
66.2
 31
0.0
  0
LINE
  8
0
  6
LTYPE1
 62
     2
 10
194.0
 20
86.9
 30
0.0
 11
194.0
 21
66.5
 31
0.0
  0
TEXT
  8
0
  6
CONTINUOUS
 62
     3
 10
235.0
 20
17.0
 30
0.6
 40
6.0
  1
ＭＳ－９１８３Ｃ
 50
0.0
 41
0.9
 51
0.0
  7
KANJI5
  0
ARC
  8
0
  6
CONTINUOUS
 62
     1
 10
49.0
 20
150.5
 30
0.0
 40
1.5
 50
90.0
 51
180.0
  0
LINE
  8
0
  6
CONTINUOUS
 62
     1
 10
86.5
 20
133.5
 30
0.0
 11
86.5
 21
150.5
 31
0.0
  0
ARC
  8
0
  6
CONTINUOUS
 62
     1
 10
85.0
 20
150.5
 30
0.0
 40
1.5
 50
0.0
 51
90.0
  0
LINE
  8
0
  6
CONTINUOUS
 62
     1
 10
85.0
 20
152.0
 30
0.0
 11
49.0
 21
152.0
 31
0.0
  0
LINE
  8
0
  6
CONTINUOUS
 62
     1
 10
49.0
 20
132.0
 30
0.0
 11
85.0
 21
132.0
 31
0.0
  0
ARC
  8
0
  6
CONTINUOUS
 62
     1
 10
85.0
 20
133.5
 30
0.0
 40
1.5
 50
270.0
 51
0.0
  0
ARC
  8
0
  6
CONTINUOUS
 62
     1
 10
49.0
 20
133.5
 30
0.0
 40
1.5
 50
180.0
 51
270.0
  0
LINE
  8
0
  6
CONTINUOUS
 62
     1
 10
47.5
 20
150.5
 30
0.0
 11
47.5
 21
133.5
 31
0.0
  0
LINE
  8
0
  6
LTYPE1
 62
     2
 10
52.0
 20
87.8
 30
0.0
 11
52.0
 21
66.5
 31
0.0
  0
LINE
  8
0
  6
LTYPE1
 62
     2
 10
82.0
 20
88.2
 30
0.0
 11
82.0
 21
67.0
 31
0.0
  0
TEXT
  8
0
  6
CONTINUOUS
 62
     2
 10
88.6
 20
89.410254038
 30
0.3
 40
3.0
  1
（Ｍ４×１４）
 50
0.0
 41
0.9
 51
0.0
  7
KANJI0
  0
TEXT
  8
0
  6
CONTINUOUS
 62
     2
 10
136.0
 20
119.0
 30
0.4
 40
4.0
  1
過電流耐量　　２０倍１ｓｅｃ
 50
0.0
 41
0.9
 51
0.0
  7
KANJI4
  0
TEXT
  8
0
  6
CONTINUOUS
 62
     2
 10
136.0
 20
126.0
 30
0.4
 40
4.0
  1
絶縁耐力　　　ＡＣ２０００Ｖ
 50
0.0
 41
0.9
 51
0.0
  7
KANJI4
  0
TEXT
  8
0
  6
CONTINUOUS
 62
     2
 10
136.0
 20
133.0
 30
0.4
 40
4.0
  1
回路電圧　　　４６０Ｖ
 50
0.0
 41
0.9
 51
0.0
  7
KANJI4
  0
TEXT
  8
0
  6
CONTINUOUS
 62
     2
 10
136.0
 20
140.0
 30
0.4
 40
4.0
  1
二次電流　　　１０ｍＡ
 50
0.0
 41
0.9
 51
0.0
  7
KANJI4
  0
TEXT
  8
0
  6
CONTINUOUS
 62
     2
 10
136.0
 20
147.0
 30
0.4
 40
4.0
  1
一次電流　　　１５Ａ未満各種
 50
0.0
 41
0.9
 51
0.0
  7
KANJI4
  0
TEXT
  8
0
  6
CONTINUOUS
 62
     2
 10
136.0
 20
154.0
 30
0.4
 40
4.0
  1
定格負担　　　０．１ＶＡ
 50
0.0
 41
0.9
 51
0.0
  7
KANJI4
  0
LINE
  8
0
  6
CONTINUOUS
 62
     2
 10
135.0
 20
146.0
 30
0.0
 11
192.17
 21
146.0
 31
0.0
  0
LINE
  8
0
  6
CONTINUOUS
 62
     2
 10
135.0
 20
153.0
 30
0.0
 11
184.37
 21
153.0
 31
0.0
  0
LINE
  8
0
  6
CONTINUOUS
 62
     2
 10
135.0
 20
139.0
 30
0.0
 11
180.27
 21
139.0
 31
0.0
  0
LINE
  8
0
  6
CONTINUOUS
 62
     2
 10
135.0
 20
132.0
 30
0.0
 11
180.27
 21
132.0
 31
0.0
  0
LINE
  8
0
  6
CONTINUOUS
 62
     2
 10
135.0
 20
125.0
 30
0.0
 11
191.87
 21
125.0
 31
0.0
  0
LINE
  8
0
  6
CONTINUOUS
 62
     2
 10
135.0
 20
118.0
 30
0.0
 11
191.87
 21
118.0
 31
0.0
  0
TEXT
  8
0
  6
CONTINUOUS
 62
     2
 10
136.0
 20
112.0
 30
0.4
 40
4.0
  1
ケースの材質　難燃性ＰＢＴ樹脂（ガラス入り）
 50
0.0
 41
0.9
 51
0.0
  7
KANJI4
  0
LINE
  8
0
  6
CONTINUOUS
 62
     2
 10
135.0
 20
111.0
 30
0.0
 11
220.47
 21
111.0
 31
0.0
  0
LINE
  8
0
  6
CONTINUOUS
 62
     1
 10
86.0
 20
113.0
 30
0.0
 11
86.0
 21
122.0
 31
0.0
  0
LINE
  8
0
  6
CONTINUOUS
 62
     1
 10
78.0
 20
113.0
 30
0.0
 11
78.0
 21
122.0
 31
0.0
  0
LINE
  8
0
  6
CONTINUOUS
 62
     1
 10
78.0
 20
113.0
 30
0.0
 11
86.0
 21
113.0
 31
0.0
  0
LINE
  8
0
  6
CONTINUOUS
 62
     1
 10
56.0
 20
113.0
 30
0.0
 11
48.0
 21
113.0
 31
0.0
  0
LINE
  8
0
  6
CONTINUOUS
 62
     1
 10
48.0
 20
113.0
 30
0.0
 11
48.0
 21
122.0
 31
0.0
  0
LINE
  8
0
  6
CONTINUOUS
 62
     1
 10
56.0
 20
113.0
 30
0.0
 11
56.0
 21
122.0
 31
0.0
  0
LINE
  8
0
  6
CONTINUOUS
 62
     1
 10
78.0
 20
171.0
 30
0.0
 11
86.0
 21
171.0
 31
0.0
  0
LINE
  8
0
  6
CONTINUOUS
 62
     1
 10
56.0
 20
171.0
 30
0.0
 11
48.0
 21
171.0
 31
0.0
  0
LINE
  8
0
  6
CONTINUOUS
 62
     1
 10
78.0
 20
171.0
 30
0.0
 11
78.0
 21
162.0
 31
0.0
  0
LINE
  8
0
  6
CONTINUOUS
 62
     1
 10
86.0
 20
171.0
 30
0.0
 11
86.0
 21
162.0
 31
0.0
  0
LINE
  8
0
  6
CONTINUOUS
 62
     1
 10
56.0
 20
171.0
 30
0.0
 11
56.0
 21
162.0
 31
0.0
  0
LINE
  8
0
  6
CONTINUOUS
 62
     1
 10
48.0
 20
171.0
 30
0.0
 11
48.0
 21
162.0
 31
0.0
  0
LINE
  8
0
  6
CONTINUOUS
 62
     2
 10
110.5
 20
171.0
 30
0.0
 11
109.852952387
 21
168.585185434
 31
0.0
  0
LINE
  8
0
  6
CONTINUOUS
 62
     2
 10
110.5
 20
171.0
 30
0.0
 11
111.147047613
 21
168.585185434
 31
0.0
  0
LINE
  8
0
  6
CONTINUOUS
 62
     2
 10
110.5
 20
171.0
 30
0.0
 11
110.5
 21
113.0
 31
0.0
  0
LINE
  8
0
  6
CONTINUOUS
 62
     2
 10
110.5
 20
113.0
 30
0.0
 11
111.147047613
 21
115.414814566
 31
0.0
  0
LINE
  8
0
  6
CONTINUOUS
 62
     2
 10
110.5
 20
113.0
 30
0.0
 11
109.852952387
 21
115.414814566
 31
0.0
  0
TEXT
  8
0
  6
CONTINUOUS
 62
     2
 10
109.5
 20
140.05
 30
0.3
 40
3.0
  1
５８
 50
90.0
 41
0.6
 51
0.0
  7
KANJI1
  0
LINE
  8
0
  6
CONTINUOUS
 62
     2
 10
72.95
 20
113.0
 30
0.0
 11
112.5
 21
113.0
 31
0.0
  0
LINE
  8
0
  6
CONTINUOUS
 62
     2
 10
73.0
 20
171.0
 30
0.0
 11
112.5
 21
171.0
 31
0.0
  0
LINE
  8
0
  6
LTYPE1
 62
     2
 10
67.0
 20
126.5
 30
0.0
 11
67.0
 21
110.4
 31
0.0
  0
LINE
  8
0
  6
LTYPE1
 62
     2
 10
67.0
 20
173.0
 30
0.0
 11
67.0
 21
130.5
 31
0.0
  0
TEXT
  8
0
  6
CONTINUOUS
 62
     2
 10
233.6
 20
40.0
 30
0.5
 40
5.0
  1
Ｃ－３（１５Ａ未満）
 50
0.0
 41
0.9
 51
0.0
  7
KANJI6
  0
TEXT
  8
0
  6
CONTINUOUS
 62
     2
 10
234.3
 20
29.9
 30
0.2
 40
5.0
  1
電流変換器　外形図
 50
0.0
 41
0.8
 51
0.0
  7
KANJI7
  0
ENDSEC
  0
EOF
