  0
SECTION
  2
HEADER
  9
$ACADVER
  1
AC1009
  9
$DWGCODEPAGE
  3
dos932
  9
$EXTMIN
 10
0.0
 20
0.0
 30
0.0
  9
$EXTMAX
 10
297.0
 20
210.0
 30
0.0
  9
$LIMMIN
 10
0.0
 20
0.0
  9
$LIMMAX
 10
297.0
 20
210.0
  9
$LTSCALE
 40
1.0
  9
$PDMODE
 70
     0
  0
ENDSEC
  0
SECTION
  2
TABLES
  0
TABLE
  2
VPORT
 70
     1
  0
VPORT
  2
*ACTIVE
 70
     0
 10
0.0
 20
0.0
 11
1.0
 21
1.0
 12
148.5
 22
105.0
 13
0.0
 23
0.0
 14
10.0
 24
10.0
 15
10.0
 25
10.0
 16
0.0
 26
0.0
 36
1.0
 17
0.0
 27
0.0
 37
0.0
 40
297.0
 41
1.414285714
 42
50.0
 43
0.0
 44
0.0
 50
0.0
 51
0.0
 71
     0
 72
  1000
 73
     1
 74
     3
 75
     0
 76
     0
 77
     0
 78
     0
  0
ENDTAB
  0
TABLE
  2
LTYPE
 70
     3
  0
LTYPE
  2
CONTINUOUS
 70
    64
  3
Solid line
 72
    65
 73
     0
 40
0.0
  0
LTYPE
  2
LTYPE1
 70
    64
  3
CENTER
 72
    65
 73
     4
 40
3.0
 49
2.1
 49
-0.3
 49
0.3
 49
-0.3
  0
LTYPE
  2
LTYPE2
 70
    64
  3
CENTER
 72
    65
 73
     4
 40
15.0
 49
10.5
 49
-1.5
 49
1.5
 49
-1.5
  0
ENDTAB
  0
TABLE
  2
LAYER
 70
   128
  0
LAYER
  2
0
 70
     0
 62
     7
  6
CONTINUOUS
  0
LAYER
  2
2
 70
     0
 62
     7
  6
CONTINUOUS
  0
LAYER
  2
3
 70
     0
 62
     7
  6
CONTINUOUS
  0
LAYER
  2
4
 70
     0
 62
     7
  6
CONTINUOUS
  0
LAYER
  2
5
 70
     0
 62
     7
  6
CONTINUOUS
  0
LAYER
  2
6
 70
     0
 62
     7
  6
CONTINUOUS
  0
LAYER
  2
7
 70
     0
 62
     7
  6
CONTINUOUS
  0
LAYER
  2
8
 70
     0
 62
     7
  6
CONTINUOUS
  0
LAYER
  2
9
 70
     0
 62
     7
  6
CONTINUOUS
  0
LAYER
  2
10
 70
     0
 62
     7
  6
CONTINUOUS
  0
LAYER
  2
11
 70
     0
 62
     7
  6
CONTINUOUS
  0
LAYER
  2
12
 70
     0
 62
     7
  6
CONTINUOUS
  0
LAYER
  2
13
 70
     0
 62
     7
  6
CONTINUOUS
  0
LAYER
  2
14
 70
     0
 62
     7
  6
CONTINUOUS
  0
LAYER
  2
15
 70
     0
 62
     7
  6
CONTINUOUS
  0
LAYER
  2
16
 70
     0
 62
     7
  6
CONTINUOUS
  0
LAYER
  2
17
 70
     0
 62
     7
  6
CONTINUOUS
  0
LAYER
  2
18
 70
     0
 62
     7
  6
CONTINUOUS
  0
LAYER
  2
19
 70
     0
 62
     7
  6
CONTINUOUS
  0
LAYER
  2
20
 70
     0
 62
     7
  6
CONTINUOUS
  0
LAYER
  2
21
 70
     0
 62
     7
  6
CONTINUOUS
  0
LAYER
  2
22
 70
     0
 62
     7
  6
CONTINUOUS
  0
LAYER
  2
23
 70
     0
 62
     7
  6
CONTINUOUS
  0
LAYER
  2
24
 70
     0
 62
     7
  6
CONTINUOUS
  0
LAYER
  2
25
 70
     0
 62
     7
  6
CONTINUOUS
  0
LAYER
  2
26
 70
     0
 62
     7
  6
CONTINUOUS
  0
LAYER
  2
27
 70
     0
 62
     7
  6
CONTINUOUS
  0
LAYER
  2
28
 70
     0
 62
     7
  6
CONTINUOUS
  0
LAYER
  2
29
 70
     0
 62
     7
  6
CONTINUOUS
  0
LAYER
  2
30
 70
     0
 62
     7
  6
CONTINUOUS
  0
LAYER
  2
31
 70
     0
 62
     7
  6
CONTINUOUS
  0
LAYER
  2
32
 70
     0
 62
     7
  6
CONTINUOUS
  0
LAYER
  2
33
 70
     0
 62
     7
  6
CONTINUOUS
  0
LAYER
  2
34
 70
     0
 62
     7
  6
CONTINUOUS
  0
LAYER
  2
35
 70
     0
 62
     7
  6
CONTINUOUS
  0
LAYER
  2
36
 70
     0
 62
     7
  6
CONTINUOUS
  0
LAYER
  2
37
 70
     0
 62
     7
  6
CONTINUOUS
  0
LAYER
  2
38
 70
     0
 62
     7
  6
CONTINUOUS
  0
LAYER
  2
39
 70
     0
 62
     7
  6
CONTINUOUS
  0
LAYER
  2
40
 70
     0
 62
     7
  6
CONTINUOUS
  0
LAYER
  2
41
 70
     0
 62
     7
  6
CONTINUOUS
  0
LAYER
  2
42
 70
     0
 62
     7
  6
CONTINUOUS
  0
LAYER
  2
43
 70
     0
 62
     7
  6
CONTINUOUS
  0
LAYER
  2
44
 70
     0
 62
     7
  6
CONTINUOUS
  0
LAYER
  2
45
 70
     0
 62
     7
  6
CONTINUOUS
  0
LAYER
  2
46
 70
     0
 62
     7
  6
CONTINUOUS
  0
LAYER
  2
47
 70
     0
 62
     7
  6
CONTINUOUS
  0
LAYER
  2
48
 70
     0
 62
     7
  6
CONTINUOUS
  0
LAYER
  2
49
 70
     0
 62
     7
  6
CONTINUOUS
  0
LAYER
  2
50
 70
     0
 62
     7
  6
CONTINUOUS
  0
LAYER
  2
51
 70
     0
 62
     7
  6
CONTINUOUS
  0
LAYER
  2
52
 70
     0
 62
     7
  6
CONTINUOUS
  0
LAYER
  2
53
 70
     0
 62
     7
  6
CONTINUOUS
  0
LAYER
  2
54
 70
     0
 62
     7
  6
CONTINUOUS
  0
LAYER
  2
55
 70
     0
 62
     7
  6
CONTINUOUS
  0
LAYER
  2
56
 70
     0
 62
     7
  6
CONTINUOUS
  0
LAYER
  2
57
 70
     0
 62
     7
  6
CONTINUOUS
  0
LAYER
  2
58
 70
     0
 62
     7
  6
CONTINUOUS
  0
LAYER
  2
59
 70
     0
 62
     7
  6
CONTINUOUS
  0
LAYER
  2
60
 70
     0
 62
     7
  6
CONTINUOUS
  0
LAYER
  2
61
 70
     0
 62
     7
  6
CONTINUOUS
  0
LAYER
  2
62
 70
     0
 62
     7
  6
CONTINUOUS
  0
LAYER
  2
63
 70
     0
 62
     7
  6
CONTINUOUS
  0
LAYER
  2
64
 70
     0
 62
     7
  6
CONTINUOUS
  0
LAYER
  2
65
 70
     0
 62
     7
  6
CONTINUOUS
  0
LAYER
  2
66
 70
     0
 62
     7
  6
CONTINUOUS
  0
LAYER
  2
67
 70
     0
 62
     7
  6
CONTINUOUS
  0
LAYER
  2
68
 70
     0
 62
     7
  6
CONTINUOUS
  0
LAYER
  2
69
 70
     0
 62
     7
  6
CONTINUOUS
  0
LAYER
  2
70
 70
     0
 62
     7
  6
CONTINUOUS
  0
LAYER
  2
71
 70
     0
 62
     7
  6
CONTINUOUS
  0
LAYER
  2
72
 70
     0
 62
     7
  6
CONTINUOUS
  0
LAYER
  2
73
 70
     0
 62
     7
  6
CONTINUOUS
  0
LAYER
  2
74
 70
     0
 62
     7
  6
CONTINUOUS
  0
LAYER
  2
75
 70
     0
 62
     7
  6
CONTINUOUS
  0
LAYER
  2
76
 70
     0
 62
     7
  6
CONTINUOUS
  0
LAYER
  2
77
 70
     0
 62
     7
  6
CONTINUOUS
  0
LAYER
  2
78
 70
     0
 62
     7
  6
CONTINUOUS
  0
LAYER
  2
79
 70
     0
 62
     7
  6
CONTINUOUS
  0
LAYER
  2
80
 70
     0
 62
     7
  6
CONTINUOUS
  0
LAYER
  2
81
 70
     0
 62
     7
  6
CONTINUOUS
  0
LAYER
  2
82
 70
     0
 62
     7
  6
CONTINUOUS
  0
LAYER
  2
83
 70
     0
 62
     7
  6
CONTINUOUS
  0
LAYER
  2
84
 70
     0
 62
     7
  6
CONTINUOUS
  0
LAYER
  2
85
 70
     0
 62
     7
  6
CONTINUOUS
  0
LAYER
  2
86
 70
     0
 62
     7
  6
CONTINUOUS
  0
LAYER
  2
87
 70
     0
 62
     7
  6
CONTINUOUS
  0
LAYER
  2
88
 70
     0
 62
     7
  6
CONTINUOUS
  0
LAYER
  2
89
 70
     0
 62
     7
  6
CONTINUOUS
  0
LAYER
  2
90
 70
     0
 62
     7
  6
CONTINUOUS
  0
LAYER
  2
91
 70
     0
 62
     7
  6
CONTINUOUS
  0
LAYER
  2
92
 70
     0
 62
     7
  6
CONTINUOUS
  0
LAYER
  2
93
 70
     0
 62
     7
  6
CONTINUOUS
  0
LAYER
  2
94
 70
     0
 62
     7
  6
CONTINUOUS
  0
LAYER
  2
95
 70
     0
 62
     7
  6
CONTINUOUS
  0
LAYER
  2
96
 70
     0
 62
     7
  6
CONTINUOUS
  0
LAYER
  2
97
 70
     0
 62
     7
  6
CONTINUOUS
  0
LAYER
  2
98
 70
     0
 62
     7
  6
CONTINUOUS
  0
LAYER
  2
99
 70
     0
 62
     7
  6
CONTINUOUS
  0
LAYER
  2
100
 70
     0
 62
     7
  6
CONTINUOUS
  0
LAYER
  2
101
 70
     0
 62
     7
  6
CONTINUOUS
  0
LAYER
  2
102
 70
     0
 62
     7
  6
CONTINUOUS
  0
LAYER
  2
103
 70
     0
 62
     7
  6
CONTINUOUS
  0
LAYER
  2
104
 70
     0
 62
     7
  6
CONTINUOUS
  0
LAYER
  2
105
 70
     0
 62
     7
  6
CONTINUOUS
  0
LAYER
  2
106
 70
     0
 62
     7
  6
CONTINUOUS
  0
LAYER
  2
107
 70
     0
 62
     7
  6
CONTINUOUS
  0
LAYER
  2
108
 70
     0
 62
     7
  6
CONTINUOUS
  0
LAYER
  2
109
 70
     0
 62
     7
  6
CONTINUOUS
  0
LAYER
  2
110
 70
     0
 62
     7
  6
CONTINUOUS
  0
LAYER
  2
111
 70
     0
 62
     7
  6
CONTINUOUS
  0
LAYER
  2
112
 70
     0
 62
     7
  6
CONTINUOUS
  0
LAYER
  2
113
 70
     0
 62
     7
  6
CONTINUOUS
  0
LAYER
  2
114
 70
     0
 62
     7
  6
CONTINUOUS
  0
LAYER
  2
115
 70
     0
 62
     7
  6
CONTINUOUS
  0
LAYER
  2
116
 70
     0
 62
     7
  6
CONTINUOUS
  0
LAYER
  2
117
 70
     0
 62
     7
  6
CONTINUOUS
  0
LAYER
  2
118
 70
     0
 62
     7
  6
CONTINUOUS
  0
LAYER
  2
119
 70
     0
 62
     7
  6
CONTINUOUS
  0
LAYER
  2
120
 70
     0
 62
     7
  6
CONTINUOUS
  0
LAYER
  2
121
 70
     0
 62
     7
  6
CONTINUOUS
  0
LAYER
  2
122
 70
     0
 62
     7
  6
CONTINUOUS
  0
LAYER
  2
123
 70
     0
 62
     7
  6
CONTINUOUS
  0
LAYER
  2
124
 70
     0
 62
     7
  6
CONTINUOUS
  0
LAYER
  2
125
 70
     0
 62
     7
  6
CONTINUOUS
  0
LAYER
  2
126
 70
     0
 62
     7
  6
CONTINUOUS
  0
LAYER
  2
127
 70
     0
 62
     7
  6
CONTINUOUS
  0
LAYER
  2
128
 70
     0
 62
     7
  6
CONTINUOUS
  0
ENDTAB
  0
TABLE
  2
STYLE
 70
     8
  0
STYLE
  2
STANDARD
 70
     0
 40
0.0
 41
1.0
 50
0.0
 71
     0
 42
0.2
  3
txt.shx
  4
extfont.shx
  0
STYLE
  2
KANJI0
 70
     0
 40
3.0
 41
0.6
 50
0.0
 71
     0
 42
3.0
  3
txt.shx
  4
extfont.shx
  0
STYLE
  2
KANJI1
 70
     0
 40
1.8
 41
0.6
 50
0.0
 71
     0
 42
1.8
  3
txt.shx
  4
extfont.shx
  0
STYLE
  2
KANJI2
 70
     0
 40
3.0
 41
0.5
 50
0.0
 71
     0
 42
3.0
  3
txt.shx
  4
extfont.shx
  0
STYLE
  2
KANJI3
 70
     0
 40
4.0
 41
0.9
 50
0.0
 71
     0
 42
4.0
  3
txt.shx
  4
extfont.shx
  0
STYLE
  2
KANJI4
 70
     0
 40
3.0
 41
0.9
 50
0.0
 71
     0
 42
3.0
  3
txt.shx
  4
extfont.shx
  0
STYLE
  2
KANJI5
 70
     0
 40
6.0
 41
0.9
 50
0.0
 71
     0
 42
6.0
  3
txt.shx
  4
extfont.shx
  0
STYLE
  2
KANJI6
 70
     0
 40
3.2
 41
0.9
 50
0.0
 71
     0
 42
3.2
  3
txt.shx
  4
extfont.shx
  0
ENDTAB
  0
TABLE
  2
VIEW
 70
     0
  0
ENDTAB
  0
ENDSEC
  0
SECTION
  2
BLOCKS
  0
ENDSEC
  0
SECTION
  2
ENTITIES
  0
LINE
  8
0
  6
CONTINUOUS
 62
     2
 10
47.5
 20
80.5
 30
0.0
 11
49.914814566
 21
79.852952387
 31
0.0
  0
LINE
  8
0
  6
CONTINUOUS
 62
     2
 10
47.5
 20
80.5
 30
0.0
 11
49.914814566
 21
81.147047613
 31
0.0
  0
LINE
  8
0
  6
CONTINUOUS
 62
     2
 10
47.5
 20
80.5
 30
0.0
 11
102.4
 21
80.5
 31
0.0
  0
LINE
  8
0
  6
CONTINUOUS
 62
     2
 10
102.4
 20
80.5
 30
0.0
 11
99.985185434
 21
81.147047613
 31
0.0
  0
LINE
  8
0
  6
CONTINUOUS
 62
     2
 10
102.4
 20
80.5
 30
0.0
 11
99.985185434
 21
79.852952387
 31
0.0
  0
LINE
  8
0
  6
CONTINUOUS
 62
     2
 10
47.5
 20
102.9
 30
0.0
 11
47.5
 21
79.5
 31
0.0
  0
LINE
  8
0
  6
CONTINUOUS
 62
     2
 10
102.4
 20
103.0
 30
0.0
 11
102.4
 21
79.7
 31
0.0
  0
LINE
  8
0
  6
CONTINUOUS
 62
     2
 10
77.1
 20
154.0
 30
0.0
 11
77.1
 21
161.5
 31
0.0
  0
LINE
  8
0
  6
CONTINUOUS
 62
     2
 10
77.1
 20
159.5
 30
0.0
 11
79.514814566
 21
158.852952387
 31
0.0
  0
LINE
  8
0
  6
CONTINUOUS
 62
     2
 10
77.1
 20
159.5
 30
0.0
 11
79.514814566
 21
160.147047613
 31
0.0
  0
LINE
  8
0
  6
CONTINUOUS
 62
     2
 10
82.1
 20
159.5
 30
0.0
 11
67.9
 21
159.5
 31
0.0
  0
LINE
  8
0
  6
CONTINUOUS
 62
     2
 10
72.9
 20
159.5
 30
0.0
 11
70.485185434
 21
160.147047613
 31
0.0
  0
LINE
  8
0
  6
CONTINUOUS
 62
     2
 10
72.9
 20
159.5
 30
0.0
 11
70.485185434
 21
158.852952387
 31
0.0
  0
LINE
  8
0
  6
CONTINUOUS
 62
     2
 10
153.0
 20
32.5
 30
0.0
 11
153.0
 21
22.6
 31
0.0
  0
LINE
  8
0
  6
CONTINUOUS
 62
     2
 10
153.0
 20
24.6
 30
0.0
 11
155.414814566
 21
23.952952387
 31
0.0
  0
LINE
  8
0
  6
CONTINUOUS
 62
     2
 10
153.0
 20
24.6
 30
0.0
 11
155.414814566
 21
25.247047613
 31
0.0
  0
LINE
  8
0
  6
CONTINUOUS
 62
     2
 10
203.0
 20
24.6
 30
0.0
 11
200.585185434
 21
25.247047613
 31
0.0
  0
LINE
  8
0
  6
CONTINUOUS
 62
     2
 10
203.0
 20
24.6
 30
0.0
 11
200.585185434
 21
23.952952387
 31
0.0
  0
LINE
  8
0
  6
CONTINUOUS
 62
     2
 10
203.0
 20
32.0
 30
0.0
 11
203.0
 21
22.6
 31
0.0
  0
LINE
  8
0
  6
CONTINUOUS
 62
     2
 10
60.0
 20
93.5
 30
0.0
 11
60.0
 21
85.0
 31
0.0
  0
LINE
  8
0
  6
CONTINUOUS
 62
     2
 10
60.0
 20
87.0
 30
0.0
 11
62.414814566
 21
86.352952387
 31
0.0
  0
LINE
  8
0
  6
CONTINUOUS
 62
     2
 10
60.0
 20
87.0
 30
0.0
 11
62.414814566
 21
87.647047613
 31
0.0
  0
LINE
  8
0
  6
CONTINUOUS
 62
     2
 10
90.0
 20
87.0
 30
0.0
 11
87.585185434
 21
87.647047613
 31
0.0
  0
LINE
  8
0
  6
CONTINUOUS
 62
     2
 10
90.0
 20
87.0
 30
0.0
 11
87.585185434
 21
86.352952387
 31
0.0
  0
LINE
  8
0
  6
CONTINUOUS
 62
     2
 10
90.0
 20
93.5
 30
0.0
 11
90.0
 21
85.0
 31
0.0
  0
LINE
  8
0
  6
CONTINUOUS
 62
     2
 10
90.0
 20
93.5
 30
0.0
 11
90.0
 21
85.0
 31
0.0
  0
TEXT
  8
0
  6
CONTINUOUS
 62
     2
 10
173.62
 20
25.6
 30
0.3
 40
3.0
  1
５０
 50
0.0
 41
0.6
 51
0.0
  7
KANJI0
  0
TEXT
  8
0
  6
CONTINUOUS
 62
     2
 10
177.52
 20
25.6
 30
0.18
 40
1.8
  1
±０．５
 50
0.0
 41
0.6
 51
0.0
  7
KANJI1
  0
LINE
  8
0
  6
CONTINUOUS
 62
     2
 10
153.0
 20
24.6
 30
0.0
 11
203.0
 21
24.6
 31
0.0
  0
TEXT
  8
0
  6
CONTINUOUS
 62
     2
 10
73.0
 20
81.5
 30
0.3
 40
3.0
  1
５５
 50
0.0
 41
0.6
 51
0.0
  7
KANJI0
  0
TEXT
  8
0
  6
CONTINUOUS
 62
     2
 10
73.05
 20
88.0
 30
0.3
 40
3.0
  1
３０
 50
0.0
 41
0.6
 51
0.0
  7
KANJI0
  0
LINE
  8
0
  6
CONTINUOUS
 62
     2
 10
60.0
 20
87.0
 30
0.0
 11
90.0
 21
87.0
 31
0.0
  0
TEXT
  8
0
  6
CONTINUOUS
 62
     2
 10
72.8
 20
160.5
 30
0.0
 40
3.0
  1
４．２
 50
0.0
 41
0.5
 51
0.0
  7
KANJI2
  0
LINE
  8
0
  6
CONTINUOUS
 62
     2
 10
72.9
 20
154.0
 30
0.0
 11
72.9
 21
161.5
 31
0.0
  0
ARC
  8
0
  6
CONTINUOUS
 62
     1
 10
49.0
 20
105.5
 30
0.0
 40
1.5
 50
180.0
 51
270.0
  0
LINE
  8
0
  6
CONTINUOUS
 62
     1
 10
49.0
 20
104.0
 30
0.0
 11
101.0
 21
104.0
 31
0.0
  0
ARC
  8
0
  6
CONTINUOUS
 62
     1
 10
101.0
 20
105.5
 30
0.0
 40
1.5
 50
270.0
 51
0.0
  0
LINE
  8
0
  6
CONTINUOUS
 62
     1
 10
102.5
 20
105.5
 30
0.0
 11
102.5
 21
142.5
 31
0.0
  0
ARC
  8
0
  6
CONTINUOUS
 62
     1
 10
101.0
 20
142.5
 30
0.0
 40
1.5
 50
0.0
 51
90.0
  0
LINE
  8
0
  6
CONTINUOUS
 62
     1
 10
101.0
 20
144.0
 30
0.0
 11
49.0
 21
144.0
 31
0.0
  0
ARC
  8
0
  6
CONTINUOUS
 62
     1
 10
49.0
 20
142.5
 30
0.0
 40
1.5
 50
90.0
 51
180.0
  0
LINE
  8
0
  6
CONTINUOUS
 62
     1
 10
47.5
 20
142.5
 30
0.0
 11
47.5
 21
105.5
 31
0.0
  0
ARC
  8
0
  6
CONTINUOUS
 62
     1
 10
51.0
 20
107.5
 30
0.0
 40
1.0
 50
180.0
 51
270.0
  0
LINE
  8
0
  6
CONTINUOUS
 62
     1
 10
51.0
 20
106.5
 30
0.0
 11
99.0
 21
106.5
 31
0.0
  0
ARC
  8
0
  6
CONTINUOUS
 62
     1
 10
99.0
 20
107.5
 30
0.0
 40
1.0
 50
270.0
 51
0.0
  0
LINE
  8
0
  6
CONTINUOUS
 62
     1
 10
100.0
 20
107.5
 30
0.0
 11
100.0
 21
140.5
 31
0.0
  0
ARC
  8
0
  6
CONTINUOUS
 62
     1
 10
99.0
 20
140.5
 30
0.0
 40
1.0
 50
0.0
 51
90.0
  0
LINE
  8
0
  6
CONTINUOUS
 62
     1
 10
99.0
 20
141.5
 30
0.0
 11
51.0
 21
141.5
 31
0.0
  0
ARC
  8
0
  6
CONTINUOUS
 62
     1
 10
51.0
 20
140.5
 30
0.0
 40
1.0
 50
90.0
 51
180.0
  0
LINE
  8
0
  6
CONTINUOUS
 62
     1
 10
50.0
 20
140.5
 30
0.0
 11
50.0
 21
107.5
 31
0.0
  0
LINE
  8
0
  6
CONTINUOUS
 62
     2
 10
50.292893219
 20
141.207106781
 30
0.0
 11
47.939339828
 21
143.560660172
 31
0.0
  0
LINE
  8
0
  6
CONTINUOUS
 62
     2
 10
99.707106781
 20
141.207106781
 30
0.0
 11
102.060660172
 21
143.560660172
 31
0.0
  0
LINE
  8
0
  6
CONTINUOUS
 62
     2
 10
99.707106781
 20
106.792893219
 30
0.0
 11
102.060660172
 21
104.439339828
 31
0.0
  0
LINE
  8
0
  6
CONTINUOUS
 62
     2
 10
50.292893219
 20
106.792893219
 30
0.0
 11
47.939339828
 21
104.439339828
 31
0.0
  0
ARC
  8
0
  6
CONTINUOUS
 62
     1
 10
83.255110569
 20
145.5
 30
0.0
 40
1.5
 50
270.0
 51
349.380344724
  0
ARC
  8
0
  6
CONTINUOUS
 62
     1
 10
96.744889431
 20
145.5
 30
0.0
 40
1.5
 50
190.619655276
 51
270.0
  0
LINE
  8
0
  6
CONTINUOUS
 62
     1
 10
96.744889431
 20
144.0
 30
0.0
 11
83.255110569
 21
144.0
 31
0.0
  0
ARC
  8
0
  6
CONTINUOUS
 62
     1
 10
66.744889431
 20
145.5
 30
0.0
 40
1.5
 50
190.619655276
 51
270.0
  0
ARC
  8
0
  6
CONTINUOUS
 62
     1
 10
53.255110569
 20
145.5
 30
0.0
 40
1.5
 50
270.0
 51
349.380344724
  0
LINE
  8
0
  6
CONTINUOUS
 62
     1
 10
53.255110569
 20
144.0
 30
0.0
 11
66.744889431
 21
144.0
 31
0.0
  0
ARC
  8
0
  6
CONTINUOUS
 62
     1
 10
75.0
 20
149.0
 30
0.0
 40
2.1
 50
180.0
 51
0.0
  0
LINE
  8
0
  6
CONTINUOUS
 62
     1
 10
72.9
 20
149.0
 30
0.0
 11
72.9
 21
152.5
 31
0.0
  0
ARC
  8
0
  6
CONTINUOUS
 62
     1
 10
72.4
 20
152.5
 30
0.0
 40
0.5
 50
0.0
 51
90.0
  0
LINE
  8
0
  6
CONTINUOUS
 62
     1
 10
77.1
 20
149.0
 30
0.0
 11
77.1
 21
152.5
 31
0.0
  0
ARC
  8
0
  6
CONTINUOUS
 62
     1
 10
77.6
 20
152.5
 30
0.0
 40
0.5
 50
90.0
 51
180.0
  0
LINE
  8
0
  6
CONTINUOUS
 62
     1
 10
83.255110569
 20
144.0
 30
0.0
 11
82.5
 21
144.0
 31
0.0
  0
LINE
  8
0
  6
CONTINUOUS
 62
     1
 10
82.5
 20
144.0
 30
0.0
 11
67.5
 21
144.0
 31
0.0
  0
LINE
  8
0
  6
CONTINUOUS
 62
     1
 10
65.27058115
 20
145.223567197
 30
0.0
 11
64.04588377
 21
151.755286561
 31
0.0
  0
LINE
  8
0
  6
CONTINUOUS
 62
     1
 10
55.95411623
 20
151.755286561
 30
0.0
 11
54.72941885
 21
145.223567197
 31
0.0
  0
ARC
  8
0
  6
CONTINUOUS
 62
     1
 10
70.0
 20
152.5
 30
0.0
 40
0.5
 50
90.0
 51
180.0
  0
LINE
  8
0
  6
CONTINUOUS
 62
     1
 10
69.5
 20
145.5
 30
0.0
 11
69.5
 21
152.5
 31
0.0
  0
ARC
  8
0
  6
CONTINUOUS
 62
     1
 10
68.0
 20
145.5
 30
0.0
 40
1.5
 50
270.0
 51
0.0
  0
ARC
  8
0
  6
CONTINUOUS
 62
     1
 10
80.0
 20
152.5
 30
0.0
 40
0.5
 50
0.0
 51
90.0
  0
LINE
  8
0
  6
CONTINUOUS
 62
     1
 10
80.5
 20
152.5
 30
0.0
 11
80.5
 21
145.5
 31
0.0
  0
ARC
  8
0
  6
CONTINUOUS
 62
     1
 10
82.0
 20
145.5
 30
0.0
 40
1.5
 50
180.0
 51
270.0
  0
LINE
  8
0
  6
CONTINUOUS
 62
     1
 10
77.6
 20
153.0
 30
0.0
 11
80.0
 21
153.0
 31
0.0
  0
LINE
  8
0
  6
CONTINUOUS
 62
     1
 10
70.0
 20
153.0
 30
0.0
 11
72.4
 21
153.0
 31
0.0
  0
ARC
  8
0
  6
CONTINUOUS
 62
     1
 10
83.255110569
 20
102.5
 30
0.0
 40
1.5
 50
10.619655276
 51
90.0
  0
ARC
  8
0
  6
CONTINUOUS
 62
     1
 10
96.744889431
 20
102.5
 30
0.0
 40
1.5
 50
90.0
 51
169.380344724
  0
LINE
  8
0
  6
CONTINUOUS
 62
     1
 10
96.744889431
 20
104.0
 30
0.0
 11
83.255110569
 21
104.0
 31
0.0
  0
ARC
  8
0
  6
CONTINUOUS
 62
     1
 10
66.744889431
 20
102.5
 30
0.0
 40
1.5
 50
90.0
 51
169.380344724
  0
ARC
  8
0
  6
CONTINUOUS
 62
     1
 10
53.255110569
 20
102.5
 30
0.0
 40
1.5
 50
10.619655276
 51
90.0
  0
LINE
  8
0
  6
CONTINUOUS
 62
     1
 10
53.255110569
 20
104.0
 30
0.0
 11
66.744889431
 21
104.0
 31
0.0
  0
ARC
  8
0
  6
CONTINUOUS
 62
     1
 10
75.0
 20
99.0
 30
0.0
 40
2.1
 50
0.0
 51
180.0
  0
LINE
  8
0
  6
CONTINUOUS
 62
     1
 10
72.9
 20
99.0
 30
0.0
 11
72.9
 21
95.5
 31
0.0
  0
ARC
  8
0
  6
CONTINUOUS
 62
     1
 10
72.4
 20
95.5
 30
0.0
 40
0.5
 50
270.0
 51
0.0
  0
LINE
  8
0
  6
CONTINUOUS
 62
     1
 10
77.1
 20
99.0
 30
0.0
 11
77.1
 21
95.5
 31
0.0
  0
ARC
  8
0
  6
CONTINUOUS
 62
     1
 10
77.6
 20
95.5
 30
0.0
 40
0.5
 50
180.0
 51
270.0
  0
LINE
  8
0
  6
CONTINUOUS
 62
     1
 10
83.255110569
 20
104.0
 30
0.0
 11
82.5
 21
104.0
 31
0.0
  0
LINE
  8
0
  6
CONTINUOUS
 62
     1
 10
82.5
 20
104.0
 30
0.0
 11
67.5
 21
104.0
 31
0.0
  0
LINE
  8
0
  6
CONTINUOUS
 62
     1
 10
94.04588377
 20
96.244713439
 30
0.0
 11
95.27058115
 21
102.776432803
 31
0.0
  0
LINE
  8
0
  6
CONTINUOUS
 62
     1
 10
84.72941885
 20
102.776432803
 30
0.0
 11
85.95411623
 21
96.244713439
 31
0.0
  0
LINE
  8
0
  6
CONTINUOUS
 62
     1
 10
65.27058115
 20
102.776432803
 30
0.0
 11
64.04588377
 21
96.244713439
 31
0.0
  0
LINE
  8
0
  6
CONTINUOUS
 62
     1
 10
55.95411623
 20
96.244713439
 30
0.0
 11
54.72941885
 21
102.776432803
 31
0.0
  0
ARC
  8
0
  6
CONTINUOUS
 62
     1
 10
70.0
 20
95.5
 30
0.0
 40
0.5
 50
180.0
 51
270.0
  0
LINE
  8
0
  6
CONTINUOUS
 62
     1
 10
69.5
 20
102.5
 30
0.0
 11
69.5
 21
95.5
 31
0.0
  0
ARC
  8
0
  6
CONTINUOUS
 62
     1
 10
68.0
 20
102.5
 30
0.0
 40
1.5
 50
0.0
 51
90.0
  0
ARC
  8
0
  6
CONTINUOUS
 62
     1
 10
80.0
 20
95.5
 30
0.0
 40
0.5
 50
270.0
 51
0.0
  0
LINE
  8
0
  6
CONTINUOUS
 62
     1
 10
80.5
 20
95.5
 30
0.0
 11
80.5
 21
102.5
 31
0.0
  0
ARC
  8
0
  6
CONTINUOUS
 62
     1
 10
82.0
 20
102.5
 30
0.0
 40
1.5
 50
90.0
 51
180.0
  0
LINE
  8
0
  6
CONTINUOUS
 62
     1
 10
77.6
 20
95.0
 30
0.0
 11
80.0
 21
95.0
 31
0.0
  0
LINE
  8
0
  6
CONTINUOUS
 62
     1
 10
70.0
 20
95.0
 30
0.0
 11
72.4
 21
95.0
 31
0.0
  0
LINE
  8
0
  6
LTYPE1
 62
     2
 10
72.0
 20
99.0
 30
0.0
 11
78.0
 21
99.0
 31
0.0
  0
CIRCLE
  8
0
  6
CONTINUOUS
 62
     2
 10
90.0
 20
100.0
 30
0.0
 40
3.5
  0
LINE
  8
0
  6
CONTINUOUS
 62
     2
 10
90.49
 20
101.925
 30
0.0
 11
89.51
 21
101.925
 31
0.0
  0
LINE
  8
0
  6
CONTINUOUS
 62
     2
 10
89.51
 20
98.075
 30
0.0
 11
90.49
 21
98.075
 31
0.0
  0
LINE
  8
0
  6
CONTINUOUS
 62
     2
 10
89.51
 20
101.925
 30
0.0
 11
89.51
 21
101.54
 31
0.0
  0
LINE
  8
0
  6
CONTINUOUS
 62
     2
 10
88.46
 20
100.49
 30
0.0
 11
86.534469738
 21
100.49
 31
0.0
  0
ARC
  8
0
  6
CONTINUOUS
 62
     2
 10
88.46
 20
101.54
 30
0.0
 40
1.05
 50
270.0
 51
0.0
  0
LINE
  8
0
  6
CONTINUOUS
 62
     2
 10
90.49
 20
101.54
 30
0.0
 11
90.49
 21
101.925
 31
0.0
  0
LINE
  8
0
  6
CONTINUOUS
 62
     2
 10
93.43
 20
100.49
 30
0.0
 11
91.54
 21
100.49
 31
0.0
  0
ARC
  8
0
  6
CONTINUOUS
 62
     2
 10
91.54
 20
101.54
 30
0.0
 40
1.05
 50
180.0
 51
270.0
  0
LINE
  8
0
  6
CONTINUOUS
 62
     2
 10
90.49
 20
98.075
 30
0.0
 11
90.49
 21
98.46
 31
0.0
  0
LINE
  8
0
  6
CONTINUOUS
 62
     2
 10
91.54
 20
99.51
 30
0.0
 11
93.465530262
 21
99.51
 31
0.0
  0
ARC
  8
0
  6
CONTINUOUS
 62
     2
 10
91.54
 20
98.46
 30
0.0
 40
1.05
 50
90.0
 51
180.0
  0
LINE
  8
0
  6
CONTINUOUS
 62
     2
 10
89.51
 20
98.46
 30
0.0
 11
89.51
 21
98.075
 31
0.0
  0
LINE
  8
0
  6
CONTINUOUS
 62
     2
 10
86.534469738
 20
99.51
 30
0.0
 11
88.46
 21
99.51
 31
0.0
  0
ARC
  8
0
  6
CONTINUOUS
 62
     2
 10
88.46
 20
98.46
 30
0.0
 40
1.05
 50
0.0
 51
90.0
  0
CIRCLE
  8
0
  6
CONTINUOUS
 62
     2
 10
60.0
 20
100.0
 30
0.0
 40
3.5
  0
LINE
  8
0
  6
CONTINUOUS
 62
     2
 10
59.51
 20
101.925
 30
0.0
 11
60.49
 21
101.925
 31
0.0
  0
LINE
  8
0
  6
CONTINUOUS
 62
     2
 10
60.49
 20
98.075
 30
0.0
 11
59.51
 21
98.075
 31
0.0
  0
LINE
  8
0
  6
CONTINUOUS
 62
     2
 10
60.49
 20
101.925
 30
0.0
 11
60.49
 21
101.54
 31
0.0
  0
LINE
  8
0
  6
CONTINUOUS
 62
     2
 10
61.54
 20
100.49
 30
0.0
 11
63.465530262
 21
100.49
 31
0.0
  0
ARC
  8
0
  6
CONTINUOUS
 62
     2
 10
61.54
 20
101.54
 30
0.0
 40
1.05
 50
180.0
 51
270.0
  0
LINE
  8
0
  6
CONTINUOUS
 62
     2
 10
59.51
 20
101.54
 30
0.0
 11
59.51
 21
101.925
 31
0.0
  0
LINE
  8
0
  6
CONTINUOUS
 62
     2
 10
56.57
 20
100.49
 30
0.0
 11
58.46
 21
100.49
 31
0.0
  0
ARC
  8
0
  6
CONTINUOUS
 62
     2
 10
58.46
 20
101.54
 30
0.0
 40
1.05
 50
270.0
 51
0.0
  0
LINE
  8
0
  6
CONTINUOUS
 62
     2
 10
59.51
 20
98.075
 30
0.0
 11
59.51
 21
98.46
 31
0.0
  0
LINE
  8
0
  6
CONTINUOUS
 62
     2
 10
58.46
 20
99.51
 30
0.0
 11
56.534469738
 21
99.51
 31
0.0
  0
ARC
  8
0
  6
CONTINUOUS
 62
     2
 10
58.46
 20
98.46
 30
0.0
 40
1.05
 50
360.0
 51
90.0
  0
LINE
  8
0
  6
CONTINUOUS
 62
     2
 10
60.49
 20
98.46
 30
0.0
 11
60.49
 21
98.075
 31
0.0
  0
LINE
  8
0
  6
CONTINUOUS
 62
     2
 10
63.465530262
 20
99.51
 30
0.0
 11
61.54
 21
99.51
 31
0.0
  0
ARC
  8
0
  6
CONTINUOUS
 62
     2
 10
61.54
 20
98.46
 30
0.0
 40
1.05
 50
90.0
 51
180.0
  0
TEXT
  8
0
  6
CONTINUOUS
 62
     1
 10
69.76
 20
122.0
 30
0.4
 40
4.0
  1
Ｎ．Ｐ．
 50
0.0
 41
0.9
 51
0.0
  7
KANJI3
  0
TEXT
  8
0
  6
CONTINUOUS
 62
     1
 10
67.8
 20
109.0
 30
0.3
 40
3.0
  1
ＭＥＴＥＲ
 50
0.0
 41
0.9
 51
0.0
  7
KANJI4
  0
TEXT
  8
0
  6
CONTINUOUS
 62
     1
 10
69.4
 20
136.0
 30
0.3
 40
3.0
  1
ＬＩＮＥ
 50
0.0
 41
0.9
 51
0.0
  7
KANJI4
  0
ARC
  8
0
  6
CONTINUOUS
 62
     1
 10
50.554247642
 20
67.5
 30
0.0
 40
1.0
 50
90.0
 51
147.994616792
  0
LINE
  8
0
  6
CONTINUOUS
 62
     1
 10
50.554247642
 20
68.5
 30
0.0
 11
99.445752358
 21
68.5
 31
0.0
  0
ARC
  8
0
  6
CONTINUOUS
 62
     1
 10
99.445752358
 20
67.5
 30
0.0
 40
1.0
 50
32.005383208
 51
90.0
  0
LINE
  8
0
  6
CONTINUOUS
 62
     1
 10
100.293750662
 20
68.02999894
 30
0.0
 11
102.423999152
 21
64.621601357
 31
0.0
  0
ARC
  8
0
  6
CONTINUOUS
 62
     1
 10
102.0
 20
64.356601887
 30
0.0
 40
0.5
 50
0.0
 51
32.005383208
  0
LINE
  8
0
  6
CONTINUOUS
 62
     1
 10
47.5
 20
64.356601887
 30
0.0
 11
47.5
 21
63.5
 31
0.0
  0
LINE
  8
0
  6
CONTINUOUS
 62
     1
 10
47.576000848
 20
64.621601357
 30
0.0
 11
49.706249338
 21
68.02999894
 31
0.0
  0
ARC
  8
0
  6
CONTINUOUS
 62
     1
 10
48.0
 20
64.356601887
 30
0.0
 40
0.5
 50
147.994616792
 51
180.0
  0
LINE
  8
0
  6
CONTINUOUS
 62
     1
 10
102.5
 20
64.356601887
 30
0.0
 11
102.5
 21
62.7
 31
0.0
  0
LINE
  8
0
  6
CONTINUOUS
 62
     1
 10
47.5
 20
63.5
 30
0.0
 11
47.5
 21
62.7
 31
0.0
  0
LINE
  8
0
  6
CONTINUOUS
 62
     1
 10
93.0
 20
36.7
 30
0.0
 11
93.0
 21
36.2
 31
0.0
  0
LINE
  8
0
  6
CONTINUOUS
 62
     1
 10
93.0
 20
36.2
 30
0.0
 11
57.0
 21
36.2
 31
0.0
  0
LINE
  8
0
  6
CONTINUOUS
 62
     1
 10
57.0
 20
36.2
 30
0.0
 11
57.0
 21
36.7
 31
0.0
  0
LINE
  8
0
  6
CONTINUOUS
 62
     1
 10
47.5
 20
36.7
 30
0.0
 11
57.0
 21
36.7
 31
0.0
  0
LINE
  8
0
  6
CONTINUOUS
 62
     1
 10
102.5
 20
36.7
 30
0.0
 11
102.5
 21
62.7
 31
0.0
  0
LINE
  8
0
  6
CONTINUOUS
 62
     1
 10
56.0
 20
62.7
 30
0.0
 11
47.5
 21
62.7
 31
0.0
  0
LINE
  8
0
  6
CONTINUOUS
 62
     1
 10
47.5
 20
62.7
 30
0.0
 11
47.5
 21
36.7
 31
0.0
  0
ARC
  8
0
  6
CONTINUOUS
 62
     1
 10
72.6
 20
41.9
 30
0.0
 40
0.3
 50
0.0
 51
90.0
  0
LINE
  8
0
  6
CONTINUOUS
 62
     1
 10
72.9
 20
36.2
 30
0.0
 11
72.9
 21
41.9
 31
0.0
  0
ARC
  8
0
  6
CONTINUOUS
 62
     1
 10
69.8
 20
41.9
 30
0.0
 40
0.3
 50
90.0
 51
180.0
  0
LINE
  8
0
  6
CONTINUOUS
 62
     1
 10
69.5
 20
41.9
 30
0.0
 11
69.5
 21
36.2
 31
0.0
  0
LINE
  8
0
  6
CONTINUOUS
 62
     1
 10
72.6
 20
42.2
 30
0.0
 11
69.8
 21
42.2
 31
0.0
  0
LINE
  8
0
  6
CONTINUOUS
 62
     1
 10
93.0
 20
36.7
 30
0.0
 11
102.5
 21
36.7
 31
0.0
  0
LINE
  8
0
  6
CONTINUOUS
 62
     1
 10
95.5
 20
55.7
 30
0.0
 11
95.5
 21
61.7
 31
0.0
  0
LINE
  8
0
  6
CONTINUOUS
 62
     1
 10
84.5
 20
61.7
 30
0.0
 11
84.5
 21
55.7
 31
0.0
  0
LINE
  8
0
  6
CONTINUOUS
 62
     1
 10
84.5
 20
55.7
 30
0.0
 11
83.0
 21
54.2
 31
0.0
  0
LINE
  8
0
  6
CONTINUOUS
 62
     1
 10
95.5
 20
55.7
 30
0.0
 11
97.0
 21
54.2
 31
0.0
  0
LINE
  8
0
  6
CONTINUOUS
 62
     1
 10
86.0
 20
61.7
 30
0.0
 11
83.255110569
 21
61.7
 31
0.0
  0
LINE
  8
0
  6
CONTINUOUS
 62
     1
 10
96.744889431
 20
61.7
 30
0.0
 11
94.0
 21
61.7
 31
0.0
  0
LINE
  8
0
  6
LTYPE1
 62
     2
 10
90.0
 20
63.7
 30
0.0
 11
90.0
 21
53.7
 31
0.0
  0
LINE
  8
0
  6
CONTINUOUS
 62
     1
 10
86.0
 20
62.7
 30
0.0
 11
64.0
 21
62.7
 31
0.0
  0
LINE
  8
0
  6
CONTINUOUS
 62
     1
 10
102.5
 20
62.7
 30
0.0
 11
94.0
 21
62.7
 31
0.0
  0
ARC
  8
0
  6
CONTINUOUS
 62
     1
 10
77.4
 20
41.9
 30
0.0
 40
0.3
 50
90.0
 51
180.0
  0
LINE
  8
0
  6
CONTINUOUS
 62
     1
 10
77.1
 20
36.2
 30
0.0
 11
77.1
 21
41.9
 31
0.0
  0
ARC
  8
0
  6
CONTINUOUS
 62
     1
 10
80.2
 20
41.9
 30
0.0
 40
0.3
 50
0.0
 51
90.0
  0
LINE
  8
0
  6
CONTINUOUS
 62
     1
 10
80.5
 20
41.9
 30
0.0
 11
80.5
 21
36.2
 31
0.0
  0
LINE
  8
0
  6
CONTINUOUS
 62
     1
 10
77.4
 20
42.2
 30
0.0
 11
80.2
 21
42.2
 31
0.0
  0
LINE
  8
0
  6
CONTINUOUS
 62
     1
 10
77.4
 20
42.2
 30
0.0
 11
72.6
 21
42.2
 31
0.0
  0
LINE
  8
0
  6
CONTINUOUS
 62
     1
 10
56.579572153
 20
64.5
 30
0.0
 11
47.5
 21
64.5
 31
0.0
  0
LINE
  8
0
  6
CONTINUOUS
 62
     1
 10
94.0
 20
55.7
 30
0.0
 11
95.5
 21
55.7
 31
0.0
  0
LINE
  8
0
  6
CONTINUOUS
 62
     1
 10
84.5
 20
55.7
 30
0.0
 11
86.0
 21
55.7
 31
0.0
  0
LINE
  8
0
  6
CONTINUOUS
 62
     1
 10
86.0
 20
54.5
 30
0.0
 11
94.0
 21
54.5
 31
0.0
  0
LINE
  8
0
  6
CONTINUOUS
 62
     1
 10
94.0
 20
54.5
 30
0.0
 11
94.0
 21
62.9
 31
0.0
  0
LINE
  8
0
  6
CONTINUOUS
 62
     1
 10
94.0
 20
62.9
 30
0.0
 11
86.0
 21
62.9
 31
0.0
  0
LINE
  8
0
  6
CONTINUOUS
 62
     1
 10
86.0
 20
62.9
 30
0.0
 11
86.0
 21
54.5
 31
0.0
  0
ARC
  8
0
  6
CONTINUOUS
 62
     1
 10
91.495228438
 20
64.678806246
 30
0.0
 40
1.93348505
 50
358.472474559
 51
90.0
  0
ARC
  8
0
  6
CONTINUOUS
 62
     1
 10
88.504771562
 20
64.678806246
 30
0.0
 40
1.93348505
 50
90.0
 51
180.0
  0
LINE
  8
0
  6
CONTINUOUS
 62
     1
 10
88.504771562
 20
66.612291295
 30
0.0
 11
91.495228438
 21
66.612291295
 31
0.0
  0
LINE
  8
0
  6
CONTINUOUS
 62
     1
 10
89.432844385
 20
66.43183269
 30
0.0
 11
90.412476811
 21
66.43183269
 31
0.0
  0
LINE
  8
0
  6
CONTINUOUS
 62
     1
 10
86.571286512
 20
63.905412226
 30
0.0
 11
86.571286512
 21
64.704586046
 31
0.0
  0
LINE
  8
0
  6
CONTINUOUS
 62
     1
 10
93.377153886
 20
64.704586046
 30
0.0
 11
93.428713488
 21
63.905412226
 31
0.0
  0
LINE
  8
0
  6
CONTINUOUS
 62
     1
 10
86.571286512
 20
63.905412226
 30
0.0
 11
93.428713488
 21
63.905412226
 31
0.0
  0
LINE
  8
0
  6
CONTINUOUS
 62
     1
 10
87.7
 20
54.5
 30
0.0
 11
88.0
 21
53.7
 31
0.0
  0
LINE
  8
0
  6
CONTINUOUS
 62
     1
 10
88.0
 20
53.7
 30
0.0
 11
92.0
 21
53.7
 31
0.0
  0
LINE
  8
0
  6
CONTINUOUS
 62
     1
 10
92.0
 20
53.7
 30
0.0
 11
92.3
 21
54.5
 31
0.0
  0
LINE
  8
0
  6
CONTINUOUS
 62
     1
 10
88.0
 20
53.7
 30
0.0
 11
88.0
 21
50.9
 31
0.0
  0
LINE
  8
0
  6
CONTINUOUS
 62
     1
 10
88.0
 20
50.9
 30
0.0
 11
88.4
 21
50.5
 31
0.0
  0
LINE
  8
0
  6
CONTINUOUS
 62
     1
 10
92.0
 20
50.9
 30
0.0
 11
92.0
 21
53.7
 31
0.0
  0
LINE
  8
0
  6
CONTINUOUS
 62
     1
 10
88.4
 20
50.5
 30
0.0
 11
91.6
 21
50.5
 31
0.0
  0
LINE
  8
0
  6
CONTINUOUS
 62
     1
 10
92.0
 20
50.9
 30
0.0
 11
91.6
 21
50.5
 31
0.0
  0
LINE
  8
0
  6
CONTINUOUS
 62
     2
 10
93.428713488
 20
62.9
 30
0.0
 11
93.428713488
 21
63.879632425
 31
0.0
  0
LINE
  8
0
  6
CONTINUOUS
 62
     2
 10
90.309357608
 20
62.9
 30
0.0
 11
89.510183787
 21
63.879632425
 31
0.0
  0
LINE
  8
0
  6
CONTINUOUS
 62
     2
 10
90.928072824
 20
62.9
 30
0.0
 11
90.180458605
 21
63.905412226
 31
0.0
  0
LINE
  8
0
  6
CONTINUOUS
 62
     2
 10
89.458624186
 20
66.612291295
 30
0.0
 11
89.458624186
 21
66.43183269
 31
0.0
  0
LINE
  8
0
  6
CONTINUOUS
 62
     2
 10
90.412476811
 20
66.43183269
 30
0.0
 11
90.412476811
 21
66.586511494
 31
0.0
  0
LINE
  8
0
  6
CONTINUOUS
 62
     2
 10
86.571286512
 20
62.905412226
 30
0.0
 11
86.571286512
 21
63.905412226
 31
0.0
  0
LINE
  8
0
  6
CONTINUOUS
 62
     2
 10
86.569726911
 20
62.9
 30
0.0
 11
93.428713488
 21
62.9
 31
0.0
  0
LINE
  8
0
  6
CONTINUOUS
 62
     2
 10
88.4
 20
53.7
 30
0.0
 11
88.4
 21
50.6
 31
0.0
  0
POINT
  8
0
  6
CONTINUOUS
 62
     2
 10
88.4
 20
50.6
 30
0.0
  0
LINE
  8
0
  6
CONTINUOUS
 62
     2
 10
88.4
 20
50.6
 30
0.0
 11
88.4
 21
50.5
 31
0.0
  0
LINE
  8
0
  6
CONTINUOUS
 62
     2
 10
88.0
 20
50.9
 30
0.0
 11
92.0
 21
50.9
 31
0.0
  0
LINE
  8
0
  6
CONTINUOUS
 62
     2
 10
91.6
 20
50.5
 30
0.0
 11
91.6
 21
53.7
 31
0.0
  0
LINE
  8
0
  6
CONTINUOUS
 62
     1
 10
86.579572153
 20
64.5
 30
0.0
 11
63.420427847
 21
64.5
 31
0.0
  0
LINE
  8
0
  6
CONTINUOUS
 62
     1
 10
102.423999152
 20
64.5
 30
0.0
 11
93.420427847
 21
64.5
 31
0.0
  0
LINE
  8
0
  6
CONTINUOUS
 62
     1
 10
54.5
 20
55.7
 30
0.0
 11
54.5
 21
61.7
 31
0.0
  0
LINE
  8
0
  6
CONTINUOUS
 62
     1
 10
65.5
 20
61.7
 30
0.0
 11
65.5
 21
55.7
 31
0.0
  0
LINE
  8
0
  6
CONTINUOUS
 62
     1
 10
65.5
 20
55.7
 30
0.0
 11
67.0
 21
54.2
 31
0.0
  0
LINE
  8
0
  6
CONTINUOUS
 62
     1
 10
54.5
 20
55.7
 30
0.0
 11
53.0
 21
54.2
 31
0.0
  0
LINE
  8
0
  6
CONTINUOUS
 62
     1
 10
64.0
 20
61.7
 30
0.0
 11
66.744889431
 21
61.7
 31
0.0
  0
LINE
  8
0
  6
CONTINUOUS
 62
     1
 10
53.255110569
 20
61.7
 30
0.0
 11
56.0
 21
61.7
 31
0.0
  0
LINE
  8
0
  6
LTYPE1
 62
     2
 10
60.0
 20
63.7
 30
0.0
 11
60.0
 21
53.7
 31
0.0
  0
LINE
  8
0
  6
CONTINUOUS
 62
     1
 10
56.0
 20
55.7
 30
0.0
 11
54.5
 21
55.7
 31
0.0
  0
LINE
  8
0
  6
CONTINUOUS
 62
     1
 10
65.5
 20
55.7
 30
0.0
 11
64.0
 21
55.7
 31
0.0
  0
LINE
  8
0
  6
CONTINUOUS
 62
     1
 10
64.0
 20
54.5
 30
0.0
 11
56.0
 21
54.5
 31
0.0
  0
LINE
  8
0
  6
CONTINUOUS
 62
     1
 10
56.0
 20
54.5
 30
0.0
 11
56.0
 21
62.9
 31
0.0
  0
LINE
  8
0
  6
CONTINUOUS
 62
     1
 10
56.0
 20
62.9
 30
0.0
 11
64.0
 21
62.9
 31
0.0
  0
LINE
  8
0
  6
CONTINUOUS
 62
     1
 10
64.0
 20
62.9
 30
0.0
 11
64.0
 21
54.5
 31
0.0
  0
ARC
  8
0
  6
CONTINUOUS
 62
     1
 10
58.504771562
 20
64.678806246
 30
0.0
 40
1.93348505
 50
90.0
 51
181.527525441
  0
ARC
  8
0
  6
CONTINUOUS
 62
     1
 10
61.495228438
 20
64.678806246
 30
0.0
 40
1.93348505
 50
0.0
 51
90.0
  0
LINE
  8
0
  6
CONTINUOUS
 62
     1
 10
61.495228438
 20
66.612291295
 30
0.0
 11
58.504771562
 21
66.612291295
 31
0.0
  0
LINE
  8
0
  6
CONTINUOUS
 62
     1
 10
60.567155615
 20
66.43183269
 30
0.0
 11
59.587523189
 21
66.43183269
 31
0.0
  0
LINE
  8
0
  6
CONTINUOUS
 62
     1
 10
63.428713488
 20
63.905412226
 30
0.0
 11
63.428713488
 21
64.704586046
 31
0.0
  0
LINE
  8
0
  6
CONTINUOUS
 62
     1
 10
56.622846114
 20
64.704586046
 30
0.0
 11
56.571286512
 21
63.905412226
 31
0.0
  0
LINE
  8
0
  6
CONTINUOUS
 62
     1
 10
63.428713488
 20
63.905412226
 30
0.0
 11
56.571286512
 21
63.905412226
 31
0.0
  0
LINE
  8
0
  6
CONTINUOUS
 62
     1
 10
62.3
 20
54.5
 30
0.0
 11
62.0
 21
53.7
 31
0.0
  0
LINE
  8
0
  6
CONTINUOUS
 62
     1
 10
62.0
 20
53.7
 30
0.0
 11
58.0
 21
53.7
 31
0.0
  0
LINE
  8
0
  6
CONTINUOUS
 62
     1
 10
58.0
 20
53.7
 30
0.0
 11
57.7
 21
54.5
 31
0.0
  0
LINE
  8
0
  6
CONTINUOUS
 62
     1
 10
62.0
 20
53.7
 30
0.0
 11
62.0
 21
50.9
 31
0.0
  0
LINE
  8
0
  6
CONTINUOUS
 62
     1
 10
62.0
 20
50.9
 30
0.0
 11
61.6
 21
50.5
 31
0.0
  0
LINE
  8
0
  6
CONTINUOUS
 62
     1
 10
58.0
 20
50.9
 30
0.0
 11
58.0
 21
53.7
 31
0.0
  0
LINE
  8
0
  6
CONTINUOUS
 62
     1
 10
61.6
 20
50.5
 30
0.0
 11
58.4
 21
50.5
 31
0.0
  0
LINE
  8
0
  6
CONTINUOUS
 62
     1
 10
58.0
 20
50.9
 30
0.0
 11
58.4
 21
50.5
 31
0.0
  0
LINE
  8
0
  6
CONTINUOUS
 62
     2
 10
56.571286512
 20
62.9
 30
0.0
 11
56.571286512
 21
63.879632425
 31
0.0
  0
LINE
  8
0
  6
CONTINUOUS
 62
     2
 10
59.690642392
 20
62.9
 30
0.0
 11
60.489816213
 21
63.879632425
 31
0.0
  0
LINE
  8
0
  6
CONTINUOUS
 62
     2
 10
59.071927176
 20
62.9
 30
0.0
 11
59.819541395
 21
63.905412226
 31
0.0
  0
LINE
  8
0
  6
CONTINUOUS
 62
     2
 10
60.541375814
 20
66.612291295
 30
0.0
 11
60.541375814
 21
66.43183269
 31
0.0
  0
LINE
  8
0
  6
CONTINUOUS
 62
     2
 10
59.587523189
 20
66.43183269
 30
0.0
 11
59.587523189
 21
66.586511494
 31
0.0
  0
LINE
  8
0
  6
CONTINUOUS
 62
     2
 10
63.428713488
 20
62.905412226
 30
0.0
 11
63.428713488
 21
63.905412226
 31
0.0
  0
LINE
  8
0
  6
CONTINUOUS
 62
     2
 10
63.430273089
 20
62.9
 30
0.0
 11
56.571286512
 21
62.9
 31
0.0
  0
LINE
  8
0
  6
CONTINUOUS
 62
     2
 10
61.6
 20
53.7
 30
0.0
 11
61.6
 21
50.6
 31
0.0
  0
POINT
  8
0
  6
CONTINUOUS
 62
     2
 10
61.6
 20
50.6
 30
0.0
  0
LINE
  8
0
  6
CONTINUOUS
 62
     2
 10
61.6
 20
50.6
 30
0.0
 11
61.6
 21
50.5
 31
0.0
  0
LINE
  8
0
  6
CONTINUOUS
 62
     2
 10
62.0
 20
50.9
 30
0.0
 11
58.0
 21
50.9
 31
0.0
  0
LINE
  8
0
  6
CONTINUOUS
 62
     2
 10
58.4
 20
50.5
 30
0.0
 11
58.4
 21
53.7
 31
0.0
  0
LINE
  8
0
  6
CONTINUOUS
 62
     1
 10
149.0
 20
36.2
 30
0.0
 11
166.0
 21
36.2
 31
0.0
  0
LINE
  8
0
  6
CONTINUOUS
 62
     1
 10
166.0
 20
36.2
 30
0.0
 11
166.0
 21
36.7
 31
0.0
  0
LINE
  8
0
  6
CONTINUOUS
 62
     1
 10
207.0
 20
36.2
 30
0.0
 11
190.0
 21
36.2
 31
0.0
  0
LINE
  8
0
  6
CONTINUOUS
 62
     1
 10
190.0
 20
36.2
 30
0.0
 11
190.0
 21
36.7
 31
0.0
  0
LINE
  8
0
  6
CONTINUOUS
 62
     1
 10
158.0
 20
61.7
 30
0.0
 11
150.0
 21
61.7
 31
0.0
  0
LINE
  8
0
  6
CONTINUOUS
 62
     1
 10
150.0
 20
61.7
 30
0.0
 11
150.0
 21
55.7
 31
0.0
  0
LINE
  8
0
  6
CONTINUOUS
 62
     1
 10
150.0
 20
55.7
 30
0.0
 11
156.5
 21
55.7
 31
0.0
  0
LINE
  8
0
  6
CONTINUOUS
 62
     1
 10
158.0
 20
54.2
 30
0.0
 11
158.0
 21
36.7
 31
0.0
  0
ARC
  8
0
  6
CONTINUOUS
 62
     1
 10
156.5
 20
54.2
 30
0.0
 40
1.5
 50
0.0
 51
90.0
  0
LINE
  8
0
  6
CONTINUOUS
 62
     1
 10
188.0
 20
60.7
 30
0.0
 11
193.5
 21
60.7
 31
0.0
  0
LINE
  8
0
  6
CONTINUOUS
 62
     1
 10
193.5
 20
60.7
 30
0.0
 11
193.5
 21
62.2
 31
0.0
  0
LINE
  8
0
  6
CONTINUOUS
 62
     1
 10
193.5
 20
62.2
 30
0.0
 11
188.0
 21
62.2
 31
0.0
  0
LINE
  8
0
  6
CONTINUOUS
 62
     1
 10
188.0
 20
62.2
 30
0.0
 11
188.0
 21
60.7
 31
0.0
  0
LINE
  8
0
  6
CONTINUOUS
 62
     1
 10
158.0
 20
62.7
 30
0.0
 11
158.0
 21
54.2
 31
0.0
  0
LINE
  8
0
  6
CONTINUOUS
 62
     1
 10
168.0
 20
60.7
 30
0.0
 11
162.5
 21
60.7
 31
0.0
  0
LINE
  8
0
  6
CONTINUOUS
 62
     1
 10
162.5
 20
60.7
 30
0.0
 11
162.5
 21
62.2
 31
0.0
  0
LINE
  8
0
  6
CONTINUOUS
 62
     1
 10
162.5
 20
62.2
 30
0.0
 11
168.0
 21
62.2
 31
0.0
  0
LINE
  8
0
  6
CONTINUOUS
 62
     1
 10
168.0
 20
62.2
 30
0.0
 11
168.0
 21
60.7
 31
0.0
  0
LINE
  8
0
  6
CONTINUOUS
 62
     1
 10
199.0
 20
42.2
 30
0.0
 11
207.0
 21
42.2
 31
0.0
  0
ARC
  8
0
  6
CONTINUOUS
 62
     1
 10
199.0
 20
43.2
 30
0.0
 40
1.0
 50
180.0
 51
270.0
  0
LINE
  8
0
  6
CONTINUOUS
 62
     1
 10
207.0
 20
42.2
 30
0.0
 11
207.0
 21
36.2
 31
0.0
  0
LINE
  8
0
  6
CONTINUOUS
 62
     1
 10
157.0
 20
42.2
 30
0.0
 11
149.0
 21
42.2
 31
0.0
  0
ARC
  8
0
  6
CONTINUOUS
 62
     1
 10
157.0
 20
43.2
 30
0.0
 40
1.0
 50
270.0
 51
0.0
  0
LINE
  8
0
  6
CONTINUOUS
 62
     1
 10
149.0
 20
42.2
 30
0.0
 11
149.0
 21
36.2
 31
0.0
  0
LINE
  8
0
  6
LTYPE1
 62
     2
 10
153.0
 20
33.2
 30
0.0
 11
153.0
 21
45.7
 31
0.0
  0
LINE
  8
0
  6
LTYPE1
 62
     2
 10
203.0
 20
33.2
 30
0.0
 11
203.0
 21
45.7
 31
0.0
  0
LINE
  8
0
  6
LTYPE1
 62
     2
 10
178.0
 20
68.7
 30
0.0
 11
178.0
 21
31.7
 31
0.0
  0
LINE
  8
0
  6
CONTINUOUS
 62
     1
 10
198.0
 20
36.7
 30
0.0
 11
198.0
 21
62.7
 31
0.0
  0
LINE
  8
0
  6
CONTINUOUS
 62
     1
 10
158.0
 20
36.7
 30
0.0
 11
198.0
 21
36.7
 31
0.0
  0
LINE
  8
0
  6
CONTINUOUS
 62
     1
 10
170.0
 20
60.7
 30
0.0
 11
186.0
 21
60.7
 31
0.0
  0
LINE
  8
0
  6
CONTINUOUS
 62
     1
 10
198.0
 20
62.7
 30
0.0
 11
186.0
 21
62.7
 31
0.0
  0
LINE
  8
0
  6
CONTINUOUS
 62
     1
 10
186.0
 20
62.7
 30
0.0
 11
186.0
 21
60.7
 31
0.0
  0
LINE
  8
0
  6
CONTINUOUS
 62
     1
 10
158.0
 20
62.7
 30
0.0
 11
170.0
 21
62.7
 31
0.0
  0
LINE
  8
0
  6
CONTINUOUS
 62
     1
 10
170.0
 20
62.7
 30
0.0
 11
170.0
 21
60.7
 31
0.0
  0
ARC
  8
0
  6
CONTINUOUS
 62
     1
 10
161.054247642
 20
67.5
 30
0.0
 40
1.0
 50
90.0
 51
147.994616792
  0
LINE
  8
0
  6
CONTINUOUS
 62
     1
 10
161.054247642
 20
68.5
 30
0.0
 11
194.945752358
 21
68.5
 31
0.0
  0
ARC
  8
0
  6
CONTINUOUS
 62
     1
 10
194.945752358
 20
67.5
 30
0.0
 40
1.0
 50
32.005383208
 51
90.0
  0
LINE
  8
0
  6
CONTINUOUS
 62
     1
 10
195.793750662
 20
68.02999894
 30
0.0
 11
197.923999152
 21
64.621601357
 31
0.0
  0
ARC
  8
0
  6
CONTINUOUS
 62
     1
 10
197.5
 20
64.356601887
 30
0.0
 40
0.5
 50
0.0
 51
32.005383208
  0
LINE
  8
0
  6
CONTINUOUS
 62
     1
 10
158.076000848
 20
64.621601357
 30
0.0
 11
160.206249338
 21
68.02999894
 31
0.0
  0
ARC
  8
0
  6
CONTINUOUS
 62
     1
 10
158.5
 20
64.356601887
 30
0.0
 40
0.5
 50
147.994616792
 51
180.0
  0
LINE
  8
0
  6
CONTINUOUS
 62
     1
 10
158.0
 20
64.356601887
 30
0.0
 11
158.0
 21
62.7
 31
0.0
  0
LINE
  8
0
  6
CONTINUOUS
 62
     1
 10
198.0
 20
64.356601887
 30
0.0
 11
198.0
 21
62.7
 31
0.0
  0
LINE
  8
0
  6
CONTINUOUS
 62
     1
 10
197.923999152
 20
64.5
 30
0.0
 11
158.0
 21
64.5
 31
0.0
  0
LINE
  8
0
  6
CONTINUOUS
 62
     1
 10
158.0
 20
62.7
 30
0.0
 11
198.0
 21
62.7
 31
0.0
  0
LINE
  8
0
  6
CONTINUOUS
 62
     1
 10
150.0
 20
61.7
 30
0.0
 11
150.0
 21
55.7
 31
0.0
  0
ARC
  8
0
  6
CONTINUOUS
 62
     1
 10
155.495228438
 20
64.678806246
 30
0.0
 40
1.93348505
 50
358.472474559
 51
90.0
  0
ARC
  8
0
  6
CONTINUOUS
 62
     1
 10
152.504771562
 20
64.678806246
 30
0.0
 40
1.93348505
 50
90.0
 51
180.0
  0
LINE
  8
0
  6
CONTINUOUS
 62
     1
 10
152.504771562
 20
66.612291295
 30
0.0
 11
155.495228438
 21
66.612291295
 31
0.0
  0
LINE
  8
0
  6
CONTINUOUS
 62
     1
 10
153.432844385
 20
66.43183269
 30
0.0
 11
154.412476811
 21
66.43183269
 31
0.0
  0
LINE
  8
0
  6
CONTINUOUS
 62
     1
 10
150.571286512
 20
63.905412226
 30
0.0
 11
150.571286512
 21
64.704586046
 31
0.0
  0
LINE
  8
0
  6
CONTINUOUS
 62
     1
 10
157.377153886
 20
64.704586046
 30
0.0
 11
157.428713488
 21
63.905412226
 31
0.0
  0
LINE
  8
0
  6
CONTINUOUS
 62
     1
 10
150.571286512
 20
63.905412226
 30
0.0
 11
157.428713488
 21
63.905412226
 31
0.0
  0
LINE
  8
0
  6
CONTINUOUS
 62
     1
 10
157.428713488
 20
62.9
 30
0.0
 11
157.428713488
 21
61.7
 31
0.0
  0
LINE
  8
0
  6
CONTINUOUS
 62
     1
 10
151.7
 20
54.5
 30
0.0
 11
152.0
 21
53.7
 31
0.0
  0
LINE
  8
0
  6
CONTINUOUS
 62
     1
 10
152.0
 20
53.7
 30
0.0
 11
156.0
 21
53.7
 31
0.0
  0
LINE
  8
0
  6
CONTINUOUS
 62
     1
 10
156.0
 20
53.7
 30
0.0
 11
156.3
 21
54.5
 31
0.0
  0
LINE
  8
0
  6
CONTINUOUS
 62
     1
 10
152.0
 20
53.7
 30
0.0
 11
152.0
 21
50.9
 31
0.0
  0
LINE
  8
0
  6
CONTINUOUS
 62
     1
 10
152.0
 20
50.9
 30
0.0
 11
152.4
 21
50.5
 31
0.0
  0
LINE
  8
0
  6
CONTINUOUS
 62
     1
 10
156.0
 20
50.9
 30
0.0
 11
156.0
 21
53.7
 31
0.0
  0
LINE
  8
0
  6
CONTINUOUS
 62
     1
 10
152.4
 20
50.5
 30
0.0
 11
155.6
 21
50.5
 31
0.0
  0
LINE
  8
0
  6
CONTINUOUS
 62
     1
 10
156.0
 20
50.9
 30
0.0
 11
155.6
 21
50.5
 31
0.0
  0
LINE
  8
0
  6
CONTINUOUS
 62
     1
 10
157.428713488
 20
62.9
 30
0.0
 11
149.8
 21
62.9
 31
0.0
  0
ARC
  8
0
  6
CONTINUOUS
 62
     1
 10
149.8
 20
61.9
 30
0.0
 40
1.0
 50
90.0
 51
180.0
  0
LINE
  8
0
  6
CONTINUOUS
 62
     1
 10
148.8
 20
61.9
 30
0.0
 11
148.8
 21
55.5
 31
0.0
  0
ARC
  8
0
  6
CONTINUOUS
 62
     1
 10
149.8
 20
55.5
 30
0.0
 40
1.0
 50
180.0
 51
270.0
  0
LINE
  8
0
  6
CONTINUOUS
 62
     2
 10
154.412476811
 20
66.43183269
 30
0.0
 11
154.412476811
 21
66.586511494
 31
0.0
  0
LINE
  8
0
  6
CONTINUOUS
 62
     2
 10
157.428713488
 20
62.9
 30
0.0
 11
157.428713488
 21
63.879632425
 31
0.0
  0
LINE
  8
0
  6
CONTINUOUS
 62
     2
 10
154.309357608
 20
62.9
 30
0.0
 11
153.510183787
 21
63.879632425
 31
0.0
  0
LINE
  8
0
  6
CONTINUOUS
 62
     2
 10
154.928072824
 20
62.9
 30
0.0
 11
154.180458605
 21
63.905412226
 31
0.0
  0
LINE
  8
0
  6
CONTINUOUS
 62
     2
 10
153.458624186
 20
66.612291295
 30
0.0
 11
153.458624186
 21
66.43183269
 31
0.0
  0
LINE
  8
0
  6
CONTINUOUS
 62
     2
 10
154.412476811
 20
66.43183269
 30
0.0
 11
154.412476811
 21
66.586511494
 31
0.0
  0
LINE
  8
0
  6
CONTINUOUS
 62
     2
 10
150.571286512
 20
62.905412226
 30
0.0
 11
150.571286512
 21
63.905412226
 31
0.0
  0
LINE
  8
0
  6
CONTINUOUS
 62
     2
 10
150.569726911
 20
62.9
 30
0.0
 11
157.428713488
 21
62.9
 31
0.0
  0
LINE
  8
0
  6
CONTINUOUS
 62
     2
 10
152.4
 20
53.7
 30
0.0
 11
152.4
 21
50.6
 31
0.0
  0
POINT
  8
0
  6
CONTINUOUS
 62
     2
 10
152.4
 20
50.6
 30
0.0
  0
LINE
  8
0
  6
CONTINUOUS
 62
     2
 10
152.4
 20
50.6
 30
0.0
 11
152.4
 21
50.5
 31
0.0
  0
LINE
  8
0
  6
CONTINUOUS
 62
     2
 10
152.0
 20
50.9
 30
0.0
 11
156.0
 21
50.9
 31
0.0
  0
LINE
  8
0
  6
CONTINUOUS
 62
     2
 10
155.6
 20
50.5
 30
0.0
 11
155.6
 21
53.7
 31
0.0
  0
LINE
  8
0
  6
CONTINUOUS
 62
     1
 10
149.8
 20
54.5
 30
0.0
 11
157.969693846
 21
54.5
 31
0.0
  0
LINE
  8
0
  6
CONTINUOUS
 62
     1
 10
198.0
 20
61.7
 30
0.0
 11
206.0
 21
61.7
 31
0.0
  0
LINE
  8
0
  6
CONTINUOUS
 62
     1
 10
206.0
 20
61.7
 30
0.0
 11
206.0
 21
55.7
 31
0.0
  0
LINE
  8
0
  6
CONTINUOUS
 62
     1
 10
206.0
 20
55.7
 30
0.0
 11
199.5
 21
55.7
 31
0.0
  0
ARC
  8
0
  6
CONTINUOUS
 62
     1
 10
199.5
 20
54.2
 30
0.0
 40
1.5
 50
90.0
 51
180.0
  0
LINE
  8
0
  6
CONTINUOUS
 62
     1
 10
198.0
 20
62.7
 30
0.0
 11
198.0
 21
54.2
 31
0.0
  0
ARC
  8
0
  6
CONTINUOUS
 62
     1
 10
197.5
 20
64.356601887
 30
0.0
 40
0.5
 50
0.0
 51
32.005383208
  0
LINE
  8
0
  6
CONTINUOUS
 62
     1
 10
198.0
 20
64.356601887
 30
0.0
 11
198.0
 21
62.7
 31
0.0
  0
LINE
  8
0
  6
CONTINUOUS
 62
     1
 10
206.0
 20
61.7
 30
0.0
 11
206.0
 21
55.7
 31
0.0
  0
LINE
  8
0
  6
CONTINUOUS
 62
     2
 10
162.6
 20
61.8
 30
0.0
 11
167.9
 21
61.8
 31
0.0
  0
LINE
  8
0
  6
CONTINUOUS
 62
     2
 10
162.6
 20
62.0
 30
0.0
 11
167.9
 21
62.0
 31
0.0
  0
LINE
  8
0
  6
CONTINUOUS
 62
     2
 10
162.6
 20
60.8
 30
0.0
 11
162.6
 21
62.2
 31
0.0
  0
ARC
  8
0
  6
CONTINUOUS
 62
     2
 10
162.9
 20
60.8
 30
0.0
 40
0.3
 50
180.0
 51
199.471220635
  0
LINE
  8
0
  6
CONTINUOUS
 62
     2
 10
162.689826733
 20
60.7
 30
0.0
 11
163.4
 21
61.8
 31
0.0
  0
LINE
  8
0
  6
CONTINUOUS
 62
     2
 10
167.810173267
 20
60.7
 30
0.0
 11
167.1
 21
61.8
 31
0.0
  0
ARC
  8
0
  6
CONTINUOUS
 62
     2
 10
167.6
 20
60.8
 30
0.0
 40
0.3
 50
341.565051177
 51
0.0
  0
LINE
  8
0
  6
CONTINUOUS
 62
     2
 10
167.9
 20
62.2
 30
0.0
 11
167.9
 21
60.8
 31
0.0
  0
LINE
  8
0
  6
CONTINUOUS
 62
     2
 10
193.4
 20
61.8
 30
0.0
 11
188.1
 21
61.8
 31
0.0
  0
LINE
  8
0
  6
CONTINUOUS
 62
     2
 10
193.4
 20
62.0
 30
0.0
 11
188.1
 21
62.0
 31
0.0
  0
LINE
  8
0
  6
CONTINUOUS
 62
     2
 10
193.4
 20
60.8
 30
0.0
 11
193.4
 21
62.2
 31
0.0
  0
ARC
  8
0
  6
CONTINUOUS
 62
     2
 10
193.1
 20
60.8
 30
0.0
 40
0.3
 50
340.528779365
 51
360.0
  0
LINE
  8
0
  6
CONTINUOUS
 62
     2
 10
193.310173267
 20
60.7
 30
0.0
 11
192.6
 21
61.8
 31
0.0
  0
LINE
  8
0
  6
CONTINUOUS
 62
     2
 10
188.189826733
 20
60.7
 30
0.0
 11
188.9
 21
61.8
 31
0.0
  0
ARC
  8
0
  6
CONTINUOUS
 62
     2
 10
188.4
 20
60.8
 30
0.0
 40
0.3
 50
180.0
 51
198.434948823
  0
LINE
  8
0
  6
CONTINUOUS
 62
     2
 10
188.1
 20
62.2
 30
0.0
 11
188.1
 21
60.8
 31
0.0
  0
ARC
  8
0
  6
CONTINUOUS
 62
     1
 10
56.248977886
 20
96.3
 30
0.0
 40
0.3
 50
190.619655276
 51
213.908833333
  0
ARC
  8
0
  6
CONTINUOUS
 62
     1
 10
63.751022114
 20
96.3
 30
0.0
 40
0.3
 50
326.091166667
 51
349.380344724
  0
ARC
  8
0
  6
CONTINUOUS
 62
     1
 10
86.248977886
 20
96.3
 30
0.0
 40
0.3
 50
190.619655276
 51
213.908833333
  0
ARC
  8
0
  6
CONTINUOUS
 62
     1
 10
93.751022114
 20
96.3
 30
0.0
 40
0.3
 50
326.091166667
 51
349.380344724
  0
LINE
  8
0
  6
CONTINUOUS
 62
     1
 10
84.72941885
 20
145.223567197
 30
0.0
 11
85.95411623
 21
151.755286561
 31
0.0
  0
LINE
  8
0
  6
CONTINUOUS
 62
     1
 10
94.04588377
 20
151.755286561
 30
0.0
 11
95.27058115
 21
145.223567197
 31
0.0
  0
LINE
  8
0
  6
CONTINUOUS
 62
     2
 10
69.5
 20
153.5
 30
0.0
 11
69.5
 21
165.8
 31
0.0
  0
LINE
  8
0
  6
CONTINUOUS
 62
     2
 10
69.5
 20
163.8
 30
0.0
 11
71.914814566
 21
163.152952387
 31
0.0
  0
LINE
  8
0
  6
CONTINUOUS
 62
     2
 10
69.5
 20
163.8
 30
0.0
 11
71.914814566
 21
164.447047613
 31
0.0
  0
LINE
  8
0
  6
CONTINUOUS
 62
     2
 10
69.5
 20
163.8
 30
0.0
 11
80.5
 21
163.8
 31
0.0
  0
LINE
  8
0
  6
CONTINUOUS
 62
     2
 10
80.5
 20
163.8
 30
0.0
 11
78.085185434
 21
164.447047613
 31
0.0
  0
LINE
  8
0
  6
CONTINUOUS
 62
     2
 10
80.5
 20
163.8
 30
0.0
 11
78.085185434
 21
163.152952387
 31
0.0
  0
LINE
  8
0
  6
CONTINUOUS
 62
     2
 10
80.5
 20
153.5
 30
0.0
 11
80.5
 21
165.8
 31
0.0
  0
TEXT
  8
0
  6
CONTINUOUS
 62
     2
 10
73.05
 20
164.8
 30
0.3
 40
3.0
  1
１１
 50
0.0
 41
0.6
 51
0.0
  7
KANJI0
  0
LINE
  8
0
  6
LTYPE1
 62
     2
 10
60.0
 20
154.1
 30
0.0
 11
60.0
 21
143.7
 31
0.0
  0
LINE
  8
0
  6
LTYPE1
 62
     2
 10
65.1
 20
148.0
 30
0.0
 11
54.0
 21
148.0
 31
0.0
  0
LINE
  8
0
  6
LTYPE1
 62
     2
 10
90.0
 20
154.3
 30
0.0
 11
90.0
 21
143.6
 31
0.0
  0
LINE
  8
0
  6
LTYPE1
 62
     2
 10
84.2
 20
148.0
 30
0.0
 11
95.9
 21
148.0
 31
0.0
  0
LINE
  8
0
  6
LTYPE1
 62
     2
 10
72.0
 20
149.0
 30
0.0
 11
78.3
 21
149.0
 31
0.0
  0
LINE
  8
0
  6
LTYPE1
 62
     2
 10
65.9
 20
100.0
 30
0.0
 11
54.6
 21
100.0
 31
0.0
  0
LINE
  8
0
  6
LTYPE1
 62
     2
 10
85.2
 20
100.0
 30
0.0
 11
95.4
 21
100.0
 31
0.0
  0
LINE
  8
0
  6
LTYPE1
 62
     2
 10
60.0
 20
93.5
 30
0.0
 11
60.0
 21
105.0
 31
0.0
  0
LINE
  8
0
  6
LTYPE1
 62
     2
 10
90.0
 20
93.5
 30
0.0
 11
90.0
 21
105.0
 31
0.0
  0
LINE
  8
0
  6
CONTINUOUS
 62
     2
 10
148.0
 20
42.2
 30
0.0
 11
137.0
 21
42.2
 31
0.0
  0
LINE
  8
0
  6
CONTINUOUS
 62
     2
 10
139.0
 20
42.2
 30
0.0
 11
139.647047613
 21
44.614814566
 31
0.0
  0
LINE
  8
0
  6
CONTINUOUS
 62
     2
 10
139.0
 20
42.2
 30
0.0
 11
138.352952387
 21
44.614814566
 31
0.0
  0
LINE
  8
0
  6
CONTINUOUS
 62
     2
 10
139.0
 20
45.95
 30
0.0
 11
139.0
 21
42.2
 31
0.0
  0
LINE
  8
0
  6
CONTINUOUS
 62
     2
 10
139.0
 20
42.2
 30
0.0
 11
139.0
 21
36.2
 31
0.0
  0
LINE
  8
0
  6
CONTINUOUS
 62
     2
 10
139.0
 20
36.2
 30
0.0
 11
139.0
 21
32.45
 31
0.0
  0
LINE
  8
0
  6
CONTINUOUS
 62
     2
 10
139.0
 20
36.2
 30
0.0
 11
138.352952387
 21
33.785185434
 31
0.0
  0
LINE
  8
0
  6
CONTINUOUS
 62
     2
 10
139.0
 20
36.2
 30
0.0
 11
139.647047613
 21
33.785185434
 31
0.0
  0
LINE
  8
0
  6
CONTINUOUS
 62
     2
 10
148.0
 20
36.2
 30
0.0
 11
137.0
 21
36.2
 31
0.0
  0
TEXT
  8
0
  6
CONTINUOUS
 62
     2
 10
138.0
 20
38.3
 30
0.3
 40
3.0
  1
６
 50
90.0
 41
0.6
 51
0.0
  7
KANJI0
  0
LINE
  8
0
  6
CONTINUOUS
 62
     2
 10
160.054247642
 20
68.5
 30
0.0
 11
131.1
 21
68.5
 31
0.0
  0
LINE
  8
0
  6
CONTINUOUS
 62
     2
 10
133.1
 20
68.5
 30
0.0
 11
132.452952387
 21
66.085185434
 31
0.0
  0
LINE
  8
0
  6
CONTINUOUS
 62
     2
 10
133.1
 20
68.5
 30
0.0
 11
133.747047613
 21
66.085185434
 31
0.0
  0
LINE
  8
0
  6
CONTINUOUS
 62
     2
 10
133.1
 20
68.5
 30
0.0
 11
133.1
 21
36.2
 31
0.0
  0
LINE
  8
0
  6
CONTINUOUS
 62
     2
 10
133.1
 20
36.2
 30
0.0
 11
133.747047613
 21
38.614814566
 31
0.0
  0
LINE
  8
0
  6
CONTINUOUS
 62
     2
 10
133.1
 20
36.2
 30
0.0
 11
132.452952387
 21
38.614814566
 31
0.0
  0
LINE
  8
0
  6
CONTINUOUS
 62
     2
 10
138.0
 20
36.2
 30
0.0
 11
131.1
 21
36.2
 31
0.0
  0
TEXT
  8
0
  6
CONTINUOUS
 62
     2
 10
132.1
 20
48.3
 30
0.3
 40
3.0
  1
３２．３
 50
90.0
 41
0.6
 51
0.0
  7
KANJI0
  0
LINE
  8
0
  6
LTYPE1
 62
     2
 10
154.0
 20
69.8
 30
0.0
 11
154.0
 21
48.2
 31
0.0
  0
LINE
  8
0
  6
LTYPE1
 62
     2
 10
202.0
 20
68.9
 30
0.0
 11
202.0
 21
48.5
 31
0.0
  0
LINE
  8
0
  6
CONTINUOUS
 62
     1
 10
47.5
 20
116.0
 30
0.0
 11
47.5
 21
132.0
 31
0.0
  0
LINE
  8
0
  6
CONTINUOUS
 62
     1
 10
47.5
 20
132.0
 30
0.0
 11
37.211334439
 21
132.0
 31
0.0
  0
LINE
  8
0
  6
CONTINUOUS
 62
     1
 10
37.211334439
 20
116.0
 30
0.0
 11
47.5
 21
116.0
 31
0.0
  0
LINE
  8
0
  6
CONTINUOUS
 62
     1
 10
32.788665561
 20
132.0
 30
0.0
 11
27.0
 21
132.0
 31
0.0
  0
ARC
  8
0
  6
CONTINUOUS
 62
     1
 10
27.0
 20
131.0
 30
0.0
 40
1.0
 50
90.0
 51
180.0
  0
LINE
  8
0
  6
CONTINUOUS
 62
     1
 10
27.0
 20
116.0
 30
0.0
 11
32.788665561
 21
116.0
 31
0.0
  0
LINE
  8
0
  6
CONTINUOUS
 62
     1
 10
26.0
 20
131.0
 30
0.0
 11
26.0
 21
117.0
 31
0.0
  0
ARC
  8
0
  6
CONTINUOUS
 62
     1
 10
27.0
 20
117.0
 30
0.0
 40
1.0
 50
180.0
 51
270.0
  0
LINE
  8
0
  6
LTYPE2
 62
     2
 10
35.0
 20
135.0
 30
0.0
 11
35.0
 21
113.0
 31
0.0
  0
CIRCLE
  8
0
  6
CONTINUOUS
 62
     2
 10
35.0
 20
124.0
 30
0.0
 40
6.8
  0
LINE
  8
0
  6
CONTINUOUS
 62
     2
 10
34.048
 20
120.26
 30
0.0
 11
35.952
 21
120.26
 31
0.0
  0
LINE
  8
0
  6
CONTINUOUS
 62
     2
 10
35.952
 20
127.74
 30
0.0
 11
34.048
 21
127.74
 31
0.0
  0
LINE
  8
0
  6
CONTINUOUS
 62
     2
 10
35.952
 20
120.26
 30
0.0
 11
35.952
 21
121.008
 31
0.0
  0
ARC
  8
0
  6
CONTINUOUS
 62
     2
 10
37.992
 20
121.008
 30
0.0
 40
2.04
 50
90.0
 51
180.0
  0
LINE
  8
0
  6
CONTINUOUS
 62
     2
 10
34.048
 20
121.008
 30
0.0
 11
34.048
 21
120.26
 31
0.0
  0
ARC
  8
0
  6
CONTINUOUS
 62
     2
 10
32.008
 20
121.008
 30
0.0
 40
2.04
 50
0.0
 51
90.0
  0
LINE
  8
0
  6
CONTINUOUS
 62
     2
 10
34.048
 20
127.74
 30
0.0
 11
34.048
 21
126.992
 31
0.0
  0
ARC
  8
0
  6
CONTINUOUS
 62
     2
 10
32.008
 20
126.992
 30
0.0
 40
2.04
 50
270.0
 51
0.0
  0
LINE
  8
0
  6
CONTINUOUS
 62
     2
 10
35.952
 20
126.992
 30
0.0
 11
35.952
 21
127.74
 31
0.0
  0
ARC
  8
0
  6
CONTINUOUS
 62
     2
 10
37.992
 20
126.992
 30
0.0
 40
2.04
 50
180.0
 51
270.0
  0
CIRCLE
  8
0
  6
CONTINUOUS
 62
     2
 10
35.0
 20
124.0
 30
0.0
 40
8.3
  0
LINE
  8
0
  6
CONTINUOUS
 62
     2
 10
25.0
 20
132.0
 30
0.0
 11
19.0
 21
132.0
 31
0.0
  0
LINE
  8
0
  6
CONTINUOUS
 62
     2
 10
21.0
 20
132.0
 30
0.0
 11
20.352952387
 21
129.585185434
 31
0.0
  0
LINE
  8
0
  6
CONTINUOUS
 62
     2
 10
21.0
 20
132.0
 30
0.0
 11
21.647047613
 21
129.585185434
 31
0.0
  0
LINE
  8
0
  6
CONTINUOUS
 62
     2
 10
21.0
 20
132.0
 30
0.0
 11
21.0
 21
116.0
 31
0.0
  0
LINE
  8
0
  6
CONTINUOUS
 62
     2
 10
21.0
 20
116.0
 30
0.0
 11
21.647047613
 21
118.414814566
 31
0.0
  0
LINE
  8
0
  6
CONTINUOUS
 62
     2
 10
21.0
 20
116.0
 30
0.0
 11
20.352952387
 21
118.414814566
 31
0.0
  0
LINE
  8
0
  6
CONTINUOUS
 62
     2
 10
25.0
 20
116.0
 30
0.0
 11
19.0
 21
116.0
 31
0.0
  0
LINE
  8
0
  6
CONTINUOUS
 62
     2
 10
26.0
 20
115.0
 30
0.0
 11
26.0
 21
109.0
 31
0.0
  0
LINE
  8
0
  6
CONTINUOUS
 62
     2
 10
26.0
 20
111.0
 30
0.0
 11
28.414814566
 21
110.352952387
 31
0.0
  0
LINE
  8
0
  6
CONTINUOUS
 62
     2
 10
26.0
 20
111.0
 30
0.0
 11
28.414814566
 21
111.647047613
 31
0.0
  0
LINE
  8
0
  6
CONTINUOUS
 62
     2
 10
26.0
 20
111.0
 30
0.0
 11
35.0
 21
111.0
 31
0.0
  0
LINE
  8
0
  6
CONTINUOUS
 62
     2
 10
35.0
 20
111.0
 30
0.0
 11
32.585185434
 21
111.647047613
 31
0.0
  0
LINE
  8
0
  6
CONTINUOUS
 62
     2
 10
35.0
 20
111.0
 30
0.0
 11
32.585185434
 21
110.352952387
 31
0.0
  0
LINE
  8
0
  6
CONTINUOUS
 62
     2
 10
35.0
 20
113.0
 30
0.0
 11
35.0
 21
109.0
 31
0.0
  0
LINE
  8
0
  6
CONTINUOUS
 62
     2
 10
35.0
 20
109.0
 30
0.0
 11
35.0
 21
113.0
 31
0.0
  0
LINE
  8
0
  6
CONTINUOUS
 62
     2
 10
35.0
 20
111.0
 30
0.0
 11
37.414814566
 21
110.352952387
 31
0.0
  0
LINE
  8
0
  6
CONTINUOUS
 62
     2
 10
35.0
 20
111.0
 30
0.0
 11
37.414814566
 21
111.647047613
 31
0.0
  0
LINE
  8
0
  6
CONTINUOUS
 62
     2
 10
35.0
 20
111.0
 30
0.0
 11
47.5
 21
111.0
 31
0.0
  0
LINE
  8
0
  6
CONTINUOUS
 62
     2
 10
47.5
 20
111.0
 30
0.0
 11
45.085185434
 21
111.647047613
 31
0.0
  0
LINE
  8
0
  6
CONTINUOUS
 62
     2
 10
47.5
 20
111.0
 30
0.0
 11
45.085185434
 21
110.352952387
 31
0.0
  0
LINE
  8
0
  6
CONTINUOUS
 62
     2
 10
47.5
 20
116.0
 30
0.0
 11
47.5
 21
109.0
 31
0.0
  0
TEXT
  8
0
  6
CONTINUOUS
 62
     2
 10
20.0
 20
122.05
 30
0.3
 40
3.0
  1
１６
 50
90.0
 41
0.6
 51
0.0
  7
KANJI0
  0
TEXT
  8
0
  6
CONTINUOUS
 62
     2
 10
37.2
 20
112.0
 30
0.3
 40
3.0
  1
１２．５
 50
0.0
 41
0.6
 51
0.0
  7
KANJI0
  0
TEXT
  8
0
  6
CONTINUOUS
 62
     2
 10
29.6
 20
112.0
 30
0.3
 40
3.0
  1
９
 50
0.0
 41
0.6
 51
0.0
  7
KANJI0
  0
LINE
  8
0
  6
CONTINUOUS
 62
     2
 10
31.26
 20
124.952
 30
0.0
 11
31.26
 21
123.048
 31
0.0
  0
LINE
  8
0
  6
CONTINUOUS
 62
     2
 10
38.74
 20
124.952
 30
0.0
 11
38.74
 21
123.048
 31
0.0
  0
LINE
  8
0
  6
CONTINUOUS
 62
     2
 10
32.008
 20
124.952
 30
0.0
 11
31.26
 21
124.952
 31
0.0
  0
LINE
  8
0
  6
CONTINUOUS
 62
     2
 10
31.26
 20
123.048
 30
0.0
 11
32.008
 21
123.048
 31
0.0
  0
LINE
  8
0
  6
CONTINUOUS
 62
     2
 10
38.74
 20
124.952
 30
0.0
 11
37.992
 21
124.952
 31
0.0
  0
LINE
  8
0
  6
CONTINUOUS
 62
     2
 10
37.992
 20
123.048
 30
0.0
 11
38.74
 21
123.048
 31
0.0
  0
LINE
  8
0
  6
CONTINUOUS
 62
     2
 10
131.5
 20
144.0
 30
0.0
 11
130.852952387
 21
141.585185434
 31
0.0
  0
LINE
  8
0
  6
CONTINUOUS
 62
     2
 10
131.5
 20
144.0
 30
0.0
 11
132.147047613
 21
141.585185434
 31
0.0
  0
LINE
  8
0
  6
CONTINUOUS
 62
     2
 10
131.5
 20
104.0
 30
0.0
 11
132.147047613
 21
106.414814566
 31
0.0
  0
LINE
  8
0
  6
CONTINUOUS
 62
     2
 10
131.5
 20
104.0
 30
0.0
 11
130.852952387
 21
106.414814566
 31
0.0
  0
LINE
  8
0
  6
CONTINUOUS
 62
     2
 10
131.5
 20
144.0
 30
0.0
 11
131.5
 21
104.0
 31
0.0
  0
TEXT
  8
0
  6
CONTINUOUS
 62
     2
 10
130.5
 20
122.05
 30
0.3
 40
3.0
  1
４０
 50
90.0
 41
0.6
 51
0.0
  7
KANJI0
  0
LINE
  8
0
  6
CONTINUOUS
 62
     1
 10
102.5
 20
132.0
 30
0.0
 11
102.5
 21
116.0
 31
0.0
  0
LINE
  8
0
  6
CONTINUOUS
 62
     1
 10
112.788665561
 20
132.0
 30
0.0
 11
102.5
 21
132.0
 31
0.0
  0
LINE
  8
0
  6
CONTINUOUS
 62
     1
 10
102.5
 20
116.0
 30
0.0
 11
112.788665561
 21
116.0
 31
0.0
  0
LINE
  8
0
  6
CONTINUOUS
 62
     1
 10
123.0
 20
132.0
 30
0.0
 11
117.211334439
 21
132.0
 31
0.0
  0
ARC
  8
0
  6
CONTINUOUS
 62
     1
 10
123.0
 20
131.0
 30
0.0
 40
1.0
 50
0.0
 51
90.0
  0
LINE
  8
0
  6
CONTINUOUS
 62
     1
 10
117.211334439
 20
116.0
 30
0.0
 11
123.0
 21
116.0
 31
0.0
  0
LINE
  8
0
  6
CONTINUOUS
 62
     1
 10
124.0
 20
117.0
 30
0.0
 11
124.0
 21
131.0
 31
0.0
  0
ARC
  8
0
  6
CONTINUOUS
 62
     1
 10
123.0
 20
117.0
 30
0.0
 40
1.0
 50
270.0
 51
0.0
  0
CIRCLE
  8
0
  6
CONTINUOUS
 62
     2
 10
115.0
 20
124.0
 30
0.0
 40
6.8
  0
LINE
  8
0
  6
CONTINUOUS
 62
     2
 10
114.048
 20
120.26
 30
0.0
 11
115.952
 21
120.26
 31
0.0
  0
LINE
  8
0
  6
CONTINUOUS
 62
     2
 10
115.952
 20
127.74
 30
0.0
 11
114.048
 21
127.74
 31
0.0
  0
LINE
  8
0
  6
CONTINUOUS
 62
     2
 10
115.952
 20
120.26
 30
0.0
 11
115.952
 21
121.008
 31
0.0
  0
ARC
  8
0
  6
CONTINUOUS
 62
     2
 10
117.992
 20
121.008
 30
0.0
 40
2.04
 50
90.0
 51
180.0
  0
LINE
  8
0
  6
CONTINUOUS
 62
     2
 10
114.048
 20
121.008
 30
0.0
 11
114.048
 21
120.26
 31
0.0
  0
ARC
  8
0
  6
CONTINUOUS
 62
     2
 10
112.008
 20
121.008
 30
0.0
 40
2.04
 50
0.0
 51
90.0
  0
LINE
  8
0
  6
CONTINUOUS
 62
     2
 10
114.048
 20
127.74
 30
0.0
 11
114.048
 21
126.992
 31
0.0
  0
ARC
  8
0
  6
CONTINUOUS
 62
     2
 10
112.008
 20
126.992
 30
0.0
 40
2.04
 50
270.0
 51
0.0
  0
LINE
  8
0
  6
CONTINUOUS
 62
     2
 10
115.952
 20
126.992
 30
0.0
 11
115.952
 21
127.74
 31
0.0
  0
ARC
  8
0
  6
CONTINUOUS
 62
     2
 10
117.992
 20
126.992
 30
0.0
 40
2.04
 50
180.0
 51
270.0
  0
CIRCLE
  8
0
  6
CONTINUOUS
 62
     2
 10
115.0
 20
124.0
 30
0.0
 40
8.3
  0
LINE
  8
0
  6
CONTINUOUS
 62
     2
 10
111.26
 20
124.952
 30
0.0
 11
111.26
 21
123.048
 31
0.0
  0
LINE
  8
0
  6
CONTINUOUS
 62
     2
 10
118.74
 20
124.952
 30
0.0
 11
118.74
 21
123.048
 31
0.0
  0
LINE
  8
0
  6
CONTINUOUS
 62
     2
 10
112.008
 20
124.952
 30
0.0
 11
111.26
 21
124.952
 31
0.0
  0
LINE
  8
0
  6
CONTINUOUS
 62
     2
 10
111.26
 20
123.048
 30
0.0
 11
112.008
 21
123.048
 31
0.0
  0
LINE
  8
0
  6
CONTINUOUS
 62
     2
 10
118.74
 20
124.952
 30
0.0
 11
117.992
 21
124.952
 31
0.0
  0
LINE
  8
0
  6
CONTINUOUS
 62
     2
 10
117.992
 20
123.048
 30
0.0
 11
118.74
 21
123.048
 31
0.0
  0
LINE
  8
0
  6
LTYPE2
 62
     2
 10
115.0
 20
135.0
 30
0.0
 11
115.0
 21
113.0
 31
0.0
  0
LINE
  8
0
  6
CONTINUOUS
 62
     2
 10
103.5
 20
104.0
 30
0.0
 11
133.5
 21
104.0
 31
0.0
  0
LINE
  8
0
  6
CONTINUOUS
 62
     2
 10
103.5
 20
144.0
 30
0.0
 11
133.5
 21
144.0
 31
0.0
  0
LINE
  8
0
  6
LTYPE1
 62
     2
 10
23.7
 20
124.0
 30
0.0
 11
125.8
 21
124.0
 31
0.0
  0
CIRCLE
  8
0
  6
CONTINUOUS
 62
     1
 10
60.0
 20
148.0
 30
0.0
 40
2.1
  0
CIRCLE
  8
0
  6
CONTINUOUS
 62
     1
 10
90.0
 20
148.0
 30
0.0
 40
2.1
  0
LINE
  8
0
  6
CONTINUOUS
 62
     2
 10
35.0
 20
135.0
 30
0.0
 11
35.0
 21
170.8
 31
0.0
  0
LINE
  8
0
  6
CONTINUOUS
 62
     2
 10
35.0
 20
168.8
 30
0.0
 11
37.414814566
 21
168.152952387
 31
0.0
  0
LINE
  8
0
  6
CONTINUOUS
 62
     2
 10
35.0
 20
168.8
 30
0.0
 11
37.414814566
 21
169.447047613
 31
0.0
  0
LINE
  8
0
  6
CONTINUOUS
 62
     2
 10
35.0
 20
168.8
 30
0.0
 11
115.0
 21
168.8
 31
0.0
  0
LINE
  8
0
  6
CONTINUOUS
 62
     2
 10
115.0
 20
168.8
 30
0.0
 11
112.585185434
 21
169.447047613
 31
0.0
  0
LINE
  8
0
  6
CONTINUOUS
 62
     2
 10
115.0
 20
168.8
 30
0.0
 11
112.585185434
 21
168.152952387
 31
0.0
  0
LINE
  8
0
  6
CONTINUOUS
 62
     2
 10
115.0
 20
135.0
 30
0.0
 11
115.0
 21
170.8
 31
0.0
  0
LINE
  8
0
  6
CONTINUOUS
 62
     2
 10
26.0
 20
132.0
 30
0.0
 11
26.0
 21
175.8
 31
0.0
  0
LINE
  8
0
  6
CONTINUOUS
 62
     2
 10
26.0
 20
173.8
 30
0.0
 11
28.414814566
 21
173.152952387
 31
0.0
  0
LINE
  8
0
  6
CONTINUOUS
 62
     2
 10
26.0
 20
173.8
 30
0.0
 11
28.414814566
 21
174.447047613
 31
0.0
  0
LINE
  8
0
  6
CONTINUOUS
 62
     2
 10
26.0
 20
173.8
 30
0.0
 11
124.0
 21
173.8
 31
0.0
  0
LINE
  8
0
  6
CONTINUOUS
 62
     2
 10
124.0
 20
173.8
 30
0.0
 11
121.585185434
 21
174.447047613
 31
0.0
  0
LINE
  8
0
  6
CONTINUOUS
 62
     2
 10
124.0
 20
173.8
 30
0.0
 11
121.585185434
 21
173.152952387
 31
0.0
  0
LINE
  8
0
  6
CONTINUOUS
 62
     2
 10
124.0
 20
132.0
 30
0.0
 11
124.0
 21
175.8
 31
0.0
  0
TEXT
  8
0
  6
CONTINUOUS
 62
     2
 10
73.05
 20
174.8
 30
0.3
 40
3.0
  1
９８
 50
0.0
 41
0.6
 51
0.0
  7
KANJI0
  0
TEXT
  8
0
  6
CONTINUOUS
 62
     2
 10
73.05
 20
169.8
 30
0.3
 40
3.0
  1
８０
 50
0.0
 41
0.6
 51
0.0
  7
KANJI0
  0
ARC
  8
0
  6
CONTINUOUS
 62
     1
 10
56.248977886
 20
151.7
 30
0.0
 40
0.3
 50
90.0
 51
169.380344724
  0
LINE
  8
0
  6
CONTINUOUS
 62
     1
 10
63.751023075
 20
152.0
 30
0.0
 11
56.248978702
 21
152.0
 31
0.0
  0
ARC
  8
0
  6
CONTINUOUS
 62
     1
 10
63.751022114
 20
151.7
 30
0.0
 40
0.3
 50
10.619655276
 51
89.999781719
  0
ARC
  8
0
  6
CONTINUOUS
 62
     1
 10
86.248977886
 20
151.7
 30
0.0
 40
0.3
 50
90.0
 51
169.380344724
  0
ARC
  8
0
  6
CONTINUOUS
 62
     1
 10
93.751022114
 20
151.7
 30
0.0
 40
0.3
 50
10.619655276
 51
89.999700093
  0
LINE
  8
0
  6
CONTINUOUS
 62
     1
 10
86.248978855
 20
152.0
 30
0.0
 11
93.751023814
 21
152.0
 31
0.0
  0
LINE
  8
0
  6
CONTINUOUS
 62
     1
 10
26.0
 20
60.7
 30
0.0
 11
47.5
 21
60.7
 31
0.0
  0
LINE
  8
0
  6
CONTINUOUS
 62
     1
 10
47.5
 20
62.7
 30
0.0
 11
26.0
 21
62.7
 31
0.0
  0
LINE
  8
0
  6
CONTINUOUS
 62
     1
 10
26.0
 20
62.7
 30
0.0
 11
26.0
 21
60.7
 31
0.0
  0
LINE
  8
0
  6
CONTINUOUS
 62
     1
 10
26.7
 20
62.7
 30
0.0
 11
43.3
 21
62.7
 31
0.0
  0
LINE
  8
0
  6
CONTINUOUS
 62
     1
 10
43.3
 20
62.7
 30
0.0
 11
43.3
 21
64.2
 31
0.0
  0
LINE
  8
0
  6
CONTINUOUS
 62
     1
 10
43.3
 20
64.2
 30
0.0
 11
26.7
 21
64.2
 31
0.0
  0
LINE
  8
0
  6
CONTINUOUS
 62
     1
 10
26.7
 20
64.2
 30
0.0
 11
26.7
 21
62.7
 31
0.0
  0
ARC
  8
0
  6
CONTINUOUS
 62
     1
 10
37.960552308
 20
67.722036366
 30
0.0
 40
3.828300398
 50
358.472474559
 51
90.0
  0
ARC
  8
0
  6
CONTINUOUS
 62
     1
 10
32.039447692
 20
67.722036366
 30
0.0
 40
3.828300398
 50
90.0
 51
180.0
  0
LINE
  8
0
  6
CONTINUOUS
 62
     1
 10
32.039447692
 20
71.550336764
 30
0.0
 11
37.960552308
 21
71.550336764
 31
0.0
  0
LINE
  8
0
  6
CONTINUOUS
 62
     1
 10
33.877031883
 20
71.193028727
 30
0.0
 11
35.816704085
 21
71.193028727
 31
0.0
  0
LINE
  8
0
  6
CONTINUOUS
 62
     1
 10
28.211147294
 20
66.190716207
 30
0.0
 11
28.211147294
 21
67.773080371
 31
0.0
  0
LINE
  8
0
  6
CONTINUOUS
 62
     1
 10
41.686764695
 20
67.773080371
 30
0.0
 11
41.788852706
 21
66.190716207
 31
0.0
  0
LINE
  8
0
  6
CONTINUOUS
 62
     1
 10
28.211147294
 20
66.190716207
 30
0.0
 11
41.788852706
 21
66.190716207
 31
0.0
  0
LINE
  8
0
  6
CONTINUOUS
 62
     1
 10
27.529
 20
60.7
 30
0.0
 11
27.529
 21
55.45
 31
0.0
  0
LINE
  8
0
  6
CONTINUOUS
 62
     1
 10
28.6
 20
54.4
 30
0.0
 11
41.379
 21
54.4
 31
0.0
  0
LINE
  8
0
  6
CONTINUOUS
 62
     1
 10
42.429
 20
55.45
 30
0.0
 11
42.429
 21
60.7
 31
0.0
  0
LINE
  8
0
  6
CONTINUOUS
 62
     1
 10
42.429
 20
55.45
 30
0.0
 11
41.379
 21
54.4
 31
0.0
  0
LINE
  8
0
  6
CONTINUOUS
 62
     1
 10
37.956
 20
55.492
 30
0.0
 11
39.216
 21
54.4
 31
0.0
  0
LINE
  8
0
  6
CONTINUOUS
 62
     1
 10
30.469
 20
54.4
 30
0.0
 11
31.603
 21
55.66
 31
0.0
  0
LINE
  8
0
  6
CONTINUOUS
 62
     1
 10
32.884
 20
54.4
 30
0.0
 11
31.75
 21
55.66
 31
0.0
  0
LINE
  8
0
  6
CONTINUOUS
 62
     1
 10
27.424
 20
55.66
 30
0.0
 11
28.684
 21
54.4
 31
0.0
  0
LINE
  8
0
  6
CONTINUOUS
 62
     1
 10
38.019
 20
55.4374
 30
0.0
 11
37.179
 21
54.3874
 31
0.0
  0
LINE
  8
0
  6
CONTINUOUS
 62
     1
 10
38.019
 20
55.4374
 30
0.0
 11
38.019
 21
60.7
 31
0.0
  0
LINE
  8
0
  6
CONTINUOUS
 62
     1
 10
31.729
 20
60.7
 30
0.0
 11
31.729
 21
55.59
 31
0.0
  0
LINE
  8
0
  6
CONTINUOUS
 62
     1
 10
38.7
 20
54.4
 30
0.0
 11
31.3
 21
54.4
 31
0.0
  0
LINE
  8
0
  6
CONTINUOUS
 62
     1
 10
31.3
 20
54.4
 30
0.0
 11
31.3
 21
50.4
 31
0.0
  0
LINE
  8
0
  6
CONTINUOUS
 62
     1
 10
32.3
 20
49.4
 30
0.0
 11
31.3
 21
50.4
 31
0.0
  0
LINE
  8
0
  6
CONTINUOUS
 62
     1
 10
38.7
 20
50.4
 30
0.0
 11
38.7
 21
54.4
 31
0.0
  0
LINE
  8
0
  6
CONTINUOUS
 62
     1
 10
32.3
 20
49.4
 30
0.0
 11
37.7
 21
49.4
 31
0.0
  0
LINE
  8
0
  6
CONTINUOUS
 62
     1
 10
38.7
 20
50.4
 30
0.0
 11
37.7
 21
49.4
 31
0.0
  0
LINE
  8
0
  6
LTYPE2
 62
     2
 10
35.0
 20
72.7
 30
0.0
 11
35.0
 21
47.7
 31
0.0
  0
LINE
  8
0
  6
CONTINUOUS
 62
     2
 10
41.788852706
 20
64.2
 30
0.0
 11
41.788852706
 21
66.139672202
 31
0.0
  0
LINE
  8
0
  6
CONTINUOUS
 62
     2
 10
35.612528064
 20
64.2
 30
0.0
 11
34.030163899
 21
66.139672202
 31
0.0
  0
LINE
  8
0
  6
CONTINUOUS
 62
     2
 10
36.837584191
 20
64.2
 30
0.0
 11
35.357308037
 21
66.190716207
 31
0.0
  0
LINE
  8
0
  6
CONTINUOUS
 62
     2
 10
33.928075889
 20
71.550336764
 30
0.0
 11
33.928075889
 21
71.193028727
 31
0.0
  0
LINE
  8
0
  6
CONTINUOUS
 62
     2
 10
35.816704085
 20
71.193028727
 30
0.0
 11
35.816704085
 21
71.499292759
 31
0.0
  0
LINE
  8
0
  6
CONTINUOUS
 62
     2
 10
28.211147294
 20
64.210716207
 30
0.0
 11
28.211147294
 21
66.190716207
 31
0.0
  0
LINE
  8
0
  6
CONTINUOUS
 62
     2
 10
28.208059284
 20
64.2
 30
0.0
 11
41.788852706
 21
64.2
 31
0.0
  0
LINE
  8
0
  6
CONTINUOUS
 62
     2
 10
42.429
 20
60.7
 30
0.0
 11
27.529
 21
60.7
 31
0.0
  0
LINE
  8
0
  6
CONTINUOUS
 62
     2
 10
32.3
 20
54.4
 30
0.0
 11
32.3
 21
49.4
 31
0.0
  0
LINE
  8
0
  6
CONTINUOUS
 62
     2
 10
31.3
 20
50.4
 30
0.0
 11
38.7
 21
50.4
 31
0.0
  0
LINE
  8
0
  6
CONTINUOUS
 62
     2
 10
37.7
 20
49.4
 30
0.0
 11
37.7
 21
54.4
 31
0.0
  0
LINE
  8
0
  6
CONTINUOUS
 62
     2
 10
25.0
 20
60.7
 30
0.0
 11
19.0
 21
60.7
 31
0.0
  0
LINE
  8
0
  6
CONTINUOUS
 62
     2
 10
21.0
 20
60.7
 30
0.0
 11
20.352952387
 21
58.285185434
 31
0.0
  0
LINE
  8
0
  6
CONTINUOUS
 62
     2
 10
21.0
 20
60.7
 30
0.0
 11
21.647047613
 21
58.285185434
 31
0.0
  0
LINE
  8
0
  6
CONTINUOUS
 62
     2
 10
21.0
 20
60.7
 30
0.0
 11
21.0
 21
36.2
 31
0.0
  0
LINE
  8
0
  6
CONTINUOUS
 62
     2
 10
21.0
 20
36.2
 30
0.0
 11
21.647047613
 21
38.614814566
 31
0.0
  0
LINE
  8
0
  6
CONTINUOUS
 62
     2
 10
21.0
 20
36.2
 30
0.0
 11
20.352952387
 21
38.614814566
 31
0.0
  0
LINE
  8
0
  6
CONTINUOUS
 62
     2
 10
68.0
 20
36.2
 30
0.0
 11
19.0
 21
36.2
 31
0.0
  0
LINE
  8
0
  6
CONTINUOUS
 62
     2
 10
19.0
 20
36.2
 30
0.0
 11
14.0
 21
36.2
 31
0.0
  0
LINE
  8
0
  6
CONTINUOUS
 62
     2
 10
16.0
 20
36.2
 30
0.0
 11
16.647047613
 21
38.614814566
 31
0.0
  0
LINE
  8
0
  6
CONTINUOUS
 62
     2
 10
16.0
 20
36.2
 30
0.0
 11
15.352952387
 21
38.614814566
 31
0.0
  0
LINE
  8
0
  6
CONTINUOUS
 62
     2
 10
16.0
 20
36.2
 30
0.0
 11
16.0
 21
71.550336764
 31
0.0
  0
LINE
  8
0
  6
CONTINUOUS
 62
     2
 10
16.0
 20
71.550336764
 30
0.0
 11
15.352952387
 21
69.135522198
 31
0.0
  0
LINE
  8
0
  6
CONTINUOUS
 62
     2
 10
16.0
 20
71.550336764
 30
0.0
 11
16.647047613
 21
69.135522198
 31
0.0
  0
LINE
  8
0
  6
CONTINUOUS
 62
     2
 10
31.039447692
 20
71.550336764
 30
0.0
 11
14.0
 21
71.550336764
 31
0.0
  0
TEXT
  8
0
  6
CONTINUOUS
 62
     2
 10
20.0
 20
44.4
 30
0.3
 40
3.0
  1
２４．５
 50
90.0
 41
0.6
 51
0.0
  7
KANJI0
  0
TEXT
  8
0
  6
CONTINUOUS
 62
     2
 10
15.0
 20
49.925168382
 30
0.3
 40
3.0
  1
３４以下
 50
90.0
 41
0.6
 51
0.0
  7
KANJI0
  0
LINE
  8
0
  6
CONTINUOUS
 62
     1
 10
124.0
 20
62.7
 30
0.0
 11
124.0
 21
60.7
 31
0.0
  0
LINE
  8
0
  6
CONTINUOUS
 62
     1
 10
123.3
 20
62.7
 30
0.0
 11
106.7
 21
62.7
 31
0.0
  0
LINE
  8
0
  6
CONTINUOUS
 62
     1
 10
106.7
 20
62.7
 30
0.0
 11
106.7
 21
64.2
 31
0.0
  0
LINE
  8
0
  6
CONTINUOUS
 62
     1
 10
106.7
 20
64.2
 30
0.0
 11
123.3
 21
64.2
 31
0.0
  0
LINE
  8
0
  6
CONTINUOUS
 62
     1
 10
123.3
 20
64.2
 30
0.0
 11
123.3
 21
62.7
 31
0.0
  0
ARC
  8
0
  6
CONTINUOUS
 62
     1
 10
112.039447692
 20
67.722036366
 30
0.0
 40
3.828300398
 50
90.0
 51
181.527525441
  0
ARC
  8
0
  6
CONTINUOUS
 62
     1
 10
117.960552308
 20
67.722036366
 30
0.0
 40
3.828300398
 50
0.0
 51
90.0
  0
LINE
  8
0
  6
CONTINUOUS
 62
     1
 10
117.960552308
 20
71.550336764
 30
0.0
 11
112.039447692
 21
71.550336764
 31
0.0
  0
LINE
  8
0
  6
CONTINUOUS
 62
     1
 10
116.122968117
 20
71.193028727
 30
0.0
 11
114.183295915
 21
71.193028727
 31
0.0
  0
LINE
  8
0
  6
CONTINUOUS
 62
     1
 10
121.788852706
 20
66.190716207
 30
0.0
 11
121.788852706
 21
67.773080371
 31
0.0
  0
LINE
  8
0
  6
CONTINUOUS
 62
     1
 10
108.313235305
 20
67.773080371
 30
0.0
 11
108.211147294
 21
66.190716207
 31
0.0
  0
LINE
  8
0
  6
CONTINUOUS
 62
     1
 10
121.788852706
 20
66.190716207
 30
0.0
 11
108.211147294
 21
66.190716207
 31
0.0
  0
LINE
  8
0
  6
CONTINUOUS
 62
     1
 10
122.471
 20
60.7
 30
0.0
 11
122.471
 21
55.45
 31
0.0
  0
LINE
  8
0
  6
CONTINUOUS
 62
     1
 10
121.4
 20
54.4
 30
0.0
 11
108.621
 21
54.4
 31
0.0
  0
LINE
  8
0
  6
CONTINUOUS
 62
     1
 10
107.571
 20
55.45
 30
0.0
 11
107.571
 21
60.7
 31
0.0
  0
LINE
  8
0
  6
CONTINUOUS
 62
     1
 10
107.571
 20
55.45
 30
0.0
 11
108.621
 21
54.4
 31
0.0
  0
LINE
  8
0
  6
CONTINUOUS
 62
     1
 10
112.044
 20
55.492
 30
0.0
 11
110.784
 21
54.4
 31
0.0
  0
LINE
  8
0
  6
CONTINUOUS
 62
     1
 10
119.531
 20
54.4
 30
0.0
 11
118.397
 21
55.66
 31
0.0
  0
LINE
  8
0
  6
CONTINUOUS
 62
     1
 10
117.116
 20
54.4
 30
0.0
 11
118.25
 21
55.66
 31
0.0
  0
LINE
  8
0
  6
CONTINUOUS
 62
     1
 10
122.576
 20
55.66
 30
0.0
 11
121.316
 21
54.4
 31
0.0
  0
LINE
  8
0
  6
CONTINUOUS
 62
     1
 10
111.981
 20
55.4374
 30
0.0
 11
112.821
 21
54.3874
 31
0.0
  0
LINE
  8
0
  6
CONTINUOUS
 62
     1
 10
111.981
 20
55.4374
 30
0.0
 11
111.981
 21
60.7
 31
0.0
  0
LINE
  8
0
  6
CONTINUOUS
 62
     1
 10
118.271
 20
60.7
 30
0.0
 11
118.271
 21
55.59
 31
0.0
  0
LINE
  8
0
  6
CONTINUOUS
 62
     1
 10
111.3
 20
54.4
 30
0.0
 11
118.7
 21
54.4
 31
0.0
  0
LINE
  8
0
  6
CONTINUOUS
 62
     1
 10
118.7
 20
54.4
 30
0.0
 11
118.7
 21
50.4
 31
0.0
  0
LINE
  8
0
  6
CONTINUOUS
 62
     1
 10
117.7
 20
49.4
 30
0.0
 11
118.7
 21
50.4
 31
0.0
  0
LINE
  8
0
  6
CONTINUOUS
 62
     1
 10
111.3
 20
50.4
 30
0.0
 11
111.3
 21
54.4
 31
0.0
  0
LINE
  8
0
  6
CONTINUOUS
 62
     1
 10
117.7
 20
49.4
 30
0.0
 11
112.3
 21
49.4
 31
0.0
  0
LINE
  8
0
  6
CONTINUOUS
 62
     1
 10
111.3
 20
50.4
 30
0.0
 11
112.3
 21
49.4
 31
0.0
  0
LINE
  8
0
  6
LTYPE2
 62
     2
 10
115.0
 20
72.7
 30
0.0
 11
115.0
 21
47.7
 31
0.0
  0
LINE
  8
0
  6
CONTINUOUS
 62
     2
 10
108.211147294
 20
64.2
 30
0.0
 11
108.211147294
 21
66.139672202
 31
0.0
  0
LINE
  8
0
  6
CONTINUOUS
 62
     2
 10
114.387471936
 20
64.2
 30
0.0
 11
115.969836101
 21
66.139672202
 31
0.0
  0
LINE
  8
0
  6
CONTINUOUS
 62
     2
 10
113.162415809
 20
64.2
 30
0.0
 11
114.642691963
 21
66.190716207
 31
0.0
  0
LINE
  8
0
  6
CONTINUOUS
 62
     2
 10
116.071924111
 20
71.550336764
 30
0.0
 11
116.071924111
 21
71.193028727
 31
0.0
  0
LINE
  8
0
  6
CONTINUOUS
 62
     2
 10
114.183295915
 20
71.193028727
 30
0.0
 11
114.183295915
 21
71.499292759
 31
0.0
  0
LINE
  8
0
  6
CONTINUOUS
 62
     2
 10
121.788852706
 20
64.210716207
 30
0.0
 11
121.788852706
 21
66.190716207
 31
0.0
  0
LINE
  8
0
  6
CONTINUOUS
 62
     2
 10
121.791940716
 20
64.2
 30
0.0
 11
108.211147294
 21
64.2
 31
0.0
  0
LINE
  8
0
  6
CONTINUOUS
 62
     2
 10
107.571
 20
60.7
 30
0.0
 11
122.471
 21
60.7
 31
0.0
  0
LINE
  8
0
  6
CONTINUOUS
 62
     2
 10
117.7
 20
54.4
 30
0.0
 11
117.7
 21
49.4
 31
0.0
  0
LINE
  8
0
  6
CONTINUOUS
 62
     2
 10
118.7
 20
50.4
 30
0.0
 11
111.3
 21
50.4
 31
0.0
  0
LINE
  8
0
  6
CONTINUOUS
 62
     2
 10
112.3
 20
49.4
 30
0.0
 11
112.3
 21
54.4
 31
0.0
  0
LINE
  8
0
  6
CONTINUOUS
 62
     1
 10
124.0
 20
60.7
 30
0.0
 11
102.5
 21
60.7
 31
0.0
  0
LINE
  8
0
  6
CONTINUOUS
 62
     1
 10
102.5
 20
62.7
 30
0.0
 11
124.0
 21
62.7
 31
0.0
  0
LINE
  8
0
  6
CONTINUOUS
 62
     2
 10
61.3
 20
66.5
 30
0.0
 11
63.067766953
 21
68.267766953
 31
0.0
  0
LINE
  8
0
  6
CONTINUOUS
 62
     2
 10
61.3
 20
66.5
 30
0.0
 11
61.947047613
 21
68.914814566
 31
0.0
  0
LINE
  8
0
  6
CONTINUOUS
 62
     2
 10
61.3
 20
66.5
 30
0.0
 11
66.3
 21
75.160254038
 31
0.0
  0
TEXT
  8
0
  6
CONTINUOUS
 62
     2
 10
66.6
 20
75.410254038
 30
0.3
 40
3.0
  1
Ｍ４ターミナルネジ
 50
0.0
 41
0.9
 51
0.0
  7
KANJI4
  0
LINE
  8
0
  6
CONTINUOUS
 62
     2
 10
93.55
 20
75.160254038
 30
0.0
 11
66.3
 21
75.160254038
 31
0.0
  0
LINE
  8
0
  6
CONTINUOUS
 62
     1
 10
170.0
 20
60.7
 30
0.0
 11
186.0
 21
60.7
 31
0.0
  0
LINE
  8
0
  6
CONTINUOUS
 62
     1
 10
186.0
 20
60.7
 30
0.0
 11
186.0
 21
62.7
 31
0.0
  0
LINE
  8
0
  6
CONTINUOUS
 62
     1
 10
186.0
 20
62.7
 30
0.0
 11
170.0
 21
62.7
 31
0.0
  0
LINE
  8
0
  6
CONTINUOUS
 62
     1
 10
170.0
 20
62.7
 30
0.0
 11
170.0
 21
60.7
 31
0.0
  0
LINE
  8
0
  6
CONTINUOUS
 62
     1
 10
169.7
 20
62.7
 30
0.0
 11
186.3
 21
62.7
 31
0.0
  0
LINE
  8
0
  6
CONTINUOUS
 62
     1
 10
186.3
 20
62.7
 30
0.0
 11
186.3
 21
64.2
 31
0.0
  0
LINE
  8
0
  6
CONTINUOUS
 62
     1
 10
186.3
 20
64.2
 30
0.0
 11
169.7
 21
64.2
 31
0.0
  0
LINE
  8
0
  6
CONTINUOUS
 62
     1
 10
169.7
 20
64.2
 30
0.0
 11
169.7
 21
62.7
 31
0.0
  0
ARC
  8
0
  6
CONTINUOUS
 62
     1
 10
180.960552308
 20
67.722036366
 30
0.0
 40
3.828300398
 50
358.472474559
 51
90.0
  0
ARC
  8
0
  6
CONTINUOUS
 62
     1
 10
175.039447692
 20
67.722036366
 30
0.0
 40
3.828300398
 50
90.0
 51
180.0
  0
LINE
  8
0
  6
CONTINUOUS
 62
     1
 10
175.039447692
 20
71.550336764
 30
0.0
 11
180.960552308
 21
71.550336764
 31
0.0
  0
LINE
  8
0
  6
CONTINUOUS
 62
     1
 10
176.877031883
 20
71.193028727
 30
0.0
 11
178.816704085
 21
71.193028727
 31
0.0
  0
LINE
  8
0
  6
CONTINUOUS
 62
     1
 10
171.211147294
 20
66.190716207
 30
0.0
 11
171.211147294
 21
67.773080371
 31
0.0
  0
LINE
  8
0
  6
CONTINUOUS
 62
     1
 10
184.686764695
 20
67.773080371
 30
0.0
 11
184.788852706
 21
66.190716207
 31
0.0
  0
LINE
  8
0
  6
CONTINUOUS
 62
     1
 10
171.211147294
 20
66.190716207
 30
0.0
 11
184.788852706
 21
66.190716207
 31
0.0
  0
LINE
  8
0
  6
CONTINUOUS
 62
     1
 10
170.529
 20
60.7
 30
0.0
 11
170.529
 21
55.45
 31
0.0
  0
LINE
  8
0
  6
CONTINUOUS
 62
     1
 10
171.6
 20
54.4
 30
0.0
 11
184.379
 21
54.4
 31
0.0
  0
LINE
  8
0
  6
CONTINUOUS
 62
     1
 10
185.429
 20
55.45
 30
0.0
 11
185.429
 21
60.7
 31
0.0
  0
LINE
  8
0
  6
CONTINUOUS
 62
     1
 10
185.429
 20
55.45
 30
0.0
 11
184.379
 21
54.4
 31
0.0
  0
LINE
  8
0
  6
CONTINUOUS
 62
     1
 10
180.956
 20
55.492
 30
0.0
 11
182.216
 21
54.4
 31
0.0
  0
LINE
  8
0
  6
CONTINUOUS
 62
     1
 10
173.469
 20
54.4
 30
0.0
 11
174.603
 21
55.66
 31
0.0
  0
LINE
  8
0
  6
CONTINUOUS
 62
     1
 10
175.884
 20
54.4
 30
0.0
 11
174.75
 21
55.66
 31
0.0
  0
LINE
  8
0
  6
CONTINUOUS
 62
     1
 10
170.424
 20
55.66
 30
0.0
 11
171.684
 21
54.4
 31
0.0
  0
LINE
  8
0
  6
CONTINUOUS
 62
     1
 10
181.019
 20
55.4374
 30
0.0
 11
180.179
 21
54.3874
 31
0.0
  0
LINE
  8
0
  6
CONTINUOUS
 62
     1
 10
181.019
 20
55.4374
 30
0.0
 11
181.019
 21
60.7
 31
0.0
  0
LINE
  8
0
  6
CONTINUOUS
 62
     1
 10
174.729
 20
60.7
 30
0.0
 11
174.729
 21
55.59
 31
0.0
  0
LINE
  8
0
  6
CONTINUOUS
 62
     1
 10
181.7
 20
54.4
 30
0.0
 11
174.3
 21
54.4
 31
0.0
  0
LINE
  8
0
  6
CONTINUOUS
 62
     1
 10
174.3
 20
54.4
 30
0.0
 11
174.3
 21
50.4
 31
0.0
  0
LINE
  8
0
  6
CONTINUOUS
 62
     1
 10
175.3
 20
49.4
 30
0.0
 11
174.3
 21
50.4
 31
0.0
  0
LINE
  8
0
  6
CONTINUOUS
 62
     1
 10
181.7
 20
50.4
 30
0.0
 11
181.7
 21
54.4
 31
0.0
  0
LINE
  8
0
  6
CONTINUOUS
 62
     1
 10
175.3
 20
49.4
 30
0.0
 11
180.7
 21
49.4
 31
0.0
  0
LINE
  8
0
  6
CONTINUOUS
 62
     1
 10
181.7
 20
50.4
 30
0.0
 11
180.7
 21
49.4
 31
0.0
  0
LINE
  8
0
  6
CONTINUOUS
 62
     2
 10
184.788852706
 20
64.2
 30
0.0
 11
184.788852706
 21
66.139672202
 31
0.0
  0
LINE
  8
0
  6
CONTINUOUS
 62
     2
 10
178.612528064
 20
64.2
 30
0.0
 11
177.030163899
 21
66.139672202
 31
0.0
  0
LINE
  8
0
  6
CONTINUOUS
 62
     2
 10
179.837584191
 20
64.2
 30
0.0
 11
178.357308037
 21
66.190716207
 31
0.0
  0
LINE
  8
0
  6
CONTINUOUS
 62
     2
 10
176.928075889
 20
71.550336764
 30
0.0
 11
176.928075889
 21
71.193028727
 31
0.0
  0
LINE
  8
0
  6
CONTINUOUS
 62
     2
 10
178.816704085
 20
71.193028727
 30
0.0
 11
178.816704085
 21
71.499292759
 31
0.0
  0
LINE
  8
0
  6
CONTINUOUS
 62
     2
 10
171.211147294
 20
64.210716207
 30
0.0
 11
171.211147294
 21
66.190716207
 31
0.0
  0
LINE
  8
0
  6
CONTINUOUS
 62
     2
 10
171.208059284
 20
64.2
 30
0.0
 11
184.788852706
 21
64.2
 31
0.0
  0
LINE
  8
0
  6
CONTINUOUS
 62
     2
 10
185.429
 20
60.7
 30
0.0
 11
170.529
 21
60.7
 31
0.0
  0
LINE
  8
0
  6
CONTINUOUS
 62
     2
 10
175.3
 20
54.4
 30
0.0
 11
175.3
 21
49.4
 31
0.0
  0
LINE
  8
0
  6
CONTINUOUS
 62
     2
 10
174.3
 20
50.4
 30
0.0
 11
181.7
 21
50.4
 31
0.0
  0
LINE
  8
0
  6
CONTINUOUS
 62
     2
 10
180.7
 20
49.4
 30
0.0
 11
180.7
 21
54.4
 31
0.0
  0
LINE
  8
0
  6
CONTINUOUS
 62
     2
 10
154.0
 20
70.7
 30
0.0
 11
154.0
 21
75.7
 31
0.0
  0
LINE
  8
0
  6
CONTINUOUS
 62
     2
 10
154.0
 20
73.7
 30
0.0
 11
156.414814566
 21
73.052952387
 31
0.0
  0
LINE
  8
0
  6
CONTINUOUS
 62
     2
 10
154.0
 20
73.7
 30
0.0
 11
156.414814566
 21
74.347047613
 31
0.0
  0
LINE
  8
0
  6
CONTINUOUS
 62
     2
 10
154.0
 20
73.7
 30
0.0
 11
178.0
 21
73.7
 31
0.0
  0
LINE
  8
0
  6
CONTINUOUS
 62
     2
 10
178.0
 20
73.7
 30
0.0
 11
175.585185434
 21
74.347047613
 31
0.0
  0
LINE
  8
0
  6
CONTINUOUS
 62
     2
 10
178.0
 20
73.7
 30
0.0
 11
175.585185434
 21
73.052952387
 31
0.0
  0
LINE
  8
0
  6
CONTINUOUS
 62
     2
 10
178.0
 20
71.7
 30
0.0
 11
178.0
 21
75.7
 31
0.0
  0
TEXT
  8
0
  6
CONTINUOUS
 62
     2
 10
164.05
 20
74.7
 30
0.3
 40
3.0
  1
２４
 50
0.0
 41
0.6
 51
0.0
  7
KANJI0
  0
LINE
  8
0
  6
CONTINUOUS
 62
     2
 10
111.960552308
 20
71.550336764
 30
0.0
 11
113.728319261
 21
73.318103717
 31
0.0
  0
LINE
  8
0
  6
CONTINUOUS
 62
     2
 10
111.960552308
 20
71.550336764
 30
0.0
 11
112.607599921
 21
73.96515133
 31
0.0
  0
LINE
  8
0
  6
CONTINUOUS
 62
     2
 10
111.960552308
 20
71.550336764
 30
0.0
 11
116.868029596
 21
80.050336764
 31
0.0
  0
TEXT
  8
0
  6
CONTINUOUS
 62
     2
 10
117.868029596
 20
81.050336764
 30
0.3
 40
3.0
  1
ライン側ターミナルネシ゛
 50
0.0
 41
0.9
 51
0.0
  7
KANJI4
  0
LINE
  8
0
  6
CONTINUOUS
 62
     2
 10
124.1
 20
62.0
 30
0.0
 11
125.867766953
 21
63.767766953
 31
0.0
  0
LINE
  8
0
  6
CONTINUOUS
 62
     2
 10
124.1
 20
62.0
 30
0.0
 11
124.747047613
 21
64.414814566
 31
0.0
  0
LINE
  8
0
  6
CONTINUOUS
 62
     2
 10
124.1
 20
62.0
 30
0.0
 11
131.634615444
 21
75.050336764
 31
0.0
  0
TEXT
  8
0
  6
CONTINUOUS
 62
     2
 10
132.634615444
 20
76.050336764
 30
0.3
 40
3.0
  1
厚さｔ
 50
0.0
 41
0.9
 51
0.0
  7
KANJI4
  0
LINE
  8
0
  6
CONTINUOUS
 62
     2
 10
131.634615444
 20
75.050336764
 30
0.0
 11
141.534615444
 21
75.050336764
 31
0.0
  0
TEXT
  8
0
  6
CONTINUOUS
 62
     2
 10
117.868029596
 20
76.550336764
 30
0.3
 40
3.0
  1
（注）
 50
0.0
 41
0.9
 51
0.0
  7
KANJI4
  0
TEXT
  8
0
  6
CONTINUOUS
 62
     2
 10
132.634615444
 20
71.550336764
 30
0.3
 40
3.0
  1
（注）
 50
0.0
 41
0.9
 51
0.0
  7
KANJI4
  0
LINE
  8
0
  6
CONTINUOUS
 62
     2
 10
116.868029596
 20
80.050336764
 30
0.0
 11
138.9
 21
80.050336764
 31
0.0
  0
ARC
  8
0
  6
CONTINUOUS
 62
     1
 10
57.0
 20
132.5
 30
0.0
 40
1.5
 50
90.0
 51
180.0
  0
ARC
  8
0
  6
CONTINUOUS
 62
     1
 10
93.0
 20
132.5
 30
0.0
 40
1.5
 50
0.0
 51
90.0
  0
LINE
  8
0
  6
CONTINUOUS
 62
     1
 10
93.0
 20
134.0
 30
0.0
 11
57.0
 21
134.0
 31
0.0
  0
ARC
  8
0
  6
CONTINUOUS
 62
     1
 10
93.0
 20
115.5
 30
0.0
 40
1.5
 50
270.0
 51
0.0
  0
LINE
  8
0
  6
CONTINUOUS
 62
     1
 10
94.5
 20
115.5
 30
0.0
 11
94.5
 21
132.5
 31
0.0
  0
ARC
  8
0
  6
CONTINUOUS
 62
     1
 10
57.0
 20
115.5
 30
0.0
 40
1.5
 50
180.0
 51
270.0
  0
LINE
  8
0
  6
CONTINUOUS
 62
     1
 10
55.5
 20
132.5
 30
0.0
 11
55.5
 21
115.5
 31
0.0
  0
LINE
  8
0
  6
CONTINUOUS
 62
     1
 10
57.0
 20
114.0
 30
0.0
 11
93.0
 21
114.0
 31
0.0
  0
TEXT
  8
0
  6
CONTINUOUS
 62
     3
 10
235.0
 20
12.0
 30
0.6
 40
6.0
  1
ＭＳ－９２９５Ｃ
 50
0.0
 41
0.9
 51
0.0
  7
KANJI5
  0
TEXT
  8
0
  6
CONTINUOUS
 62
     2
 10
66.6
 20
71.410254038
 30
0.3
 40
3.0
  1
（Ｍ４×１４）
 50
0.0
 41
0.9
 51
0.0
  7
KANJI4
  0
LINE
  8
0
  6
CONTINUOUS
 62
     2
 10
153.0
 20
136.0
 30
0.0
 11
223.0
 21
136.0
 31
0.0
  0
LINE
  8
0
  6
CONTINUOUS
 62
     2
 10
223.0
 20
130.0
 30
0.0
 11
153.0
 21
130.0
 31
0.0
  0
LINE
  8
0
  6
CONTINUOUS
 62
     2
 10
153.0
 20
118.0
 30
0.0
 11
223.0
 21
118.0
 31
0.0
  0
LINE
  8
0
  6
CONTINUOUS
 62
     2
 10
223.0
 20
106.0
 30
0.0
 11
153.0
 21
106.0
 31
0.0
  0
TEXT
  8
0
  6
CONTINUOUS
 62
     2
 10
153.0
 20
131.5
 30
0.3
 40
3.0
  1
一次電流の種類
 50
0.0
 41
0.9
 51
0.0
  7
KANJI4
  0
TEXT
  8
0
  6
CONTINUOUS
 62
     2
 10
153.0
 20
125.0
 30
0.3
 40
3.0
  1
１５Ａ以上
 50
0.0
 41
0.9
 51
0.0
  7
KANJI4
  0
TEXT
  8
0
  6
CONTINUOUS
 62
     2
 10
153.0
 20
120.0
 30
0.3
 40
3.0
  1
　７５Ａまで
 50
0.0
 41
0.9
 51
0.0
  7
KANJI4
  0
TEXT
  8
0
  6
CONTINUOUS
 62
     2
 10
153.0
 20
112.0
 30
0.3
 40
3.0
  1
７５Ａを超え
 50
0.0
 41
0.9
 51
0.0
  7
KANJI4
  0
TEXT
  8
0
  6
CONTINUOUS
 62
     2
 10
153.0
 20
108.0
 30
0.3
 40
3.0
  1
　１００Ａまで
 50
0.0
 41
0.9
 51
0.0
  7
KANJI4
  0
LINE
  8
0
  6
CONTINUOUS
 62
     2
 10
175.0
 20
136.0
 30
0.0
 11
175.0
 21
106.0
 31
0.0
  0
TEXT
  8
0
  6
CONTINUOUS
 62
     2
 10
175.5
 20
131.5
 30
0.3
 40
3.0
  1
導体の厚さｔ［ｍｍ］
 50
0.0
 41
0.9
 51
0.0
  7
KANJI4
  0
LINE
  8
0
  6
CONTINUOUS
 62
     2
 10
201.0
 20
136.0
 30
0.0
 11
201.0
 21
106.0
 31
0.0
  0
TEXT
  8
0
  6
CONTINUOUS
 62
     2
 10
201.5
 20
131.5
 30
0.3
 40
3.0
  1
ライン側ターミナルネシ゛
 50
0.0
 41
0.9
 51
0.0
  7
KANJI4
  0
TEXT
  8
0
  6
CONTINUOUS
 62
     2
 10
183.0
 20
122.5
 30
0.3
 40
3.0
  1
１．５
 50
0.0
 41
0.9
 51
0.0
  7
KANJI4
  0
TEXT
  8
0
  6
CONTINUOUS
 62
     2
 10
183.0
 20
110.5
 30
0.3
 40
3.0
  1
　２　
 50
0.0
 41
0.9
 51
0.0
  7
KANJI4
  0
TEXT
  8
0
  6
CONTINUOUS
 62
     2
 10
204.0
 20
122.5
 30
0.3
 40
3.0
  1
Ｍ６×１４
 50
0.0
 41
0.9
 51
0.0
  7
KANJI4
  0
TEXT
  8
0
  6
CONTINUOUS
 62
     2
 10
204.0
 20
110.5
 30
0.3
 40
3.0
  1
Ｍ８×１６
 50
0.0
 41
0.9
 51
0.0
  7
KANJI4
  0
LINE
  8
0
  6
CONTINUOUS
 62
     2
 10
150.0
 20
136.0
 30
0.0
 11
144.0
 21
136.0
 31
0.0
  0
TEXT
  8
0
  6
CONTINUOUS
 62
     2
 10
142.805714286
 20
177.04
 30
0.32
 40
3.2
  1
仕様
 50
0.0
 41
0.9
 51
0.0
  7
KANJI6
  0
LINE
  8
0
  6
CONTINUOUS
 62
     2
 10
150.005714286
 20
176.24
 30
0.0
 11
142.305714286
 21
176.24
 31
0.0
  0
TEXT
  8
0
  6
CONTINUOUS
 62
     2
 10
144.5
 20
136.5
 30
0.3
 40
3.0
  1
注
 50
0.0
 41
0.9
 51
0.0
  7
KANJI4
  0
LINE
  8
0
  6
CONTINUOUS
 62
     2
 10
153.005714286
 20
142.64
 30
0.0
 11
221.0
 21
142.64
 31
0.0
  0
TEXT
  8
0
  6
CONTINUOUS
 62
     2
 10
153.805714286
 20
143.44
 30
0.32
 40
3.2
  1
ケースの材質　難燃性ＰＢＴ樹脂（ガラス入り）
 50
0.0
 41
0.9
 51
0.0
  7
KANJI6
  0
TEXT
  8
0
  6
CONTINUOUS
 62
     2
 10
153.805714286
 20
149.04
 30
0.32
 40
3.2
  1
過電流耐量　　１０倍１ｓｅｃ
 50
0.0
 41
0.9
 51
0.0
  7
KANJI6
  0
TEXT
  8
0
  6
CONTINUOUS
 62
     2
 10
153.805714286
 20
154.64
 30
0.32
 40
3.2
  1
絶縁耐力　　　ＡＣ２０００Ｖ
 50
0.0
 41
0.9
 51
0.0
  7
KANJI6
  0
TEXT
  8
0
  6
CONTINUOUS
 62
     2
 10
153.805714286
 20
160.24
 30
0.32
 40
3.2
  1
回路電圧　　　４６０Ｖ
 50
0.0
 41
0.9
 51
0.0
  7
KANJI6
  0
TEXT
  8
0
  6
CONTINUOUS
 62
     2
 10
153.805714286
 20
165.84
 30
0.32
 40
3.2
  1
二次電流　　　１０ｍＡ
 50
0.0
 41
0.9
 51
0.0
  7
KANJI6
  0
TEXT
  8
0
  6
CONTINUOUS
 62
     2
 10
153.805714286
 20
171.44
 30
0.32
 40
3.2
  1
一次電流　　　１５Ａ以上１００Ａまで
 50
0.0
 41
0.9
 51
0.0
  7
KANJI6
  0
TEXT
  8
0
  6
CONTINUOUS
 62
     2
 10
153.805714286
 20
177.04
 30
0.32
 40
3.2
  1
定格負担　　　０．１ＶＡ
 50
0.0
 41
0.9
 51
0.0
  7
KANJI6
  0
LINE
  8
0
  6
CONTINUOUS
 62
     2
 10
153.005714286
 20
176.24
 30
0.0
 11
192.5
 21
176.24
 31
0.0
  0
LINE
  8
0
  6
CONTINUOUS
 62
     2
 10
153.005714286
 20
170.64
 30
0.0
 11
211.7
 21
170.64
 31
0.0
  0
LINE
  8
0
  6
CONTINUOUS
 62
     2
 10
153.005714286
 20
165.04
 30
0.0
 11
189.6
 21
165.04
 31
0.0
  0
LINE
  8
0
  6
CONTINUOUS
 62
     2
 10
153.005714286
 20
159.44
 30
0.0
 11
189.6
 21
159.44
 31
0.0
  0
LINE
  8
0
  6
CONTINUOUS
 62
     2
 10
153.005714286
 20
153.84
 30
0.0
 11
199.1
 21
153.84
 31
0.0
  0
LINE
  8
0
  6
CONTINUOUS
 62
     2
 10
153.005714286
 20
148.24
 30
0.0
 11
199.1
 21
148.24
 31
0.0
  0
LINE
  8
0
  6
CONTINUOUS
 62
     1
 10
86.0
 20
95.0
 30
0.0
 11
94.0
 21
95.0
 31
0.0
  0
LINE
  8
0
  6
CONTINUOUS
 62
     1
 10
64.0
 20
95.0
 30
0.0
 11
56.0
 21
95.0
 31
0.0
  0
LINE
  8
0
  6
CONTINUOUS
 62
     1
 10
56.0
 20
95.0
 30
0.0
 11
56.0
 21
104.0
 31
0.0
  0
LINE
  8
0
  6
CONTINUOUS
 62
     1
 10
64.0
 20
95.0
 30
0.0
 11
64.0
 21
104.0
 31
0.0
  0
LINE
  8
0
  6
CONTINUOUS
 62
     1
 10
86.0
 20
95.0
 30
0.0
 11
86.0
 21
104.0
 31
0.0
  0
LINE
  8
0
  6
CONTINUOUS
 62
     1
 10
94.0
 20
95.0
 30
0.0
 11
94.0
 21
104.0
 31
0.0
  0
LINE
  8
0
  6
CONTINUOUS
 62
     2
 10
138.5
 20
153.0
 30
0.0
 11
137.852952387
 21
150.585185434
 31
0.0
  0
LINE
  8
0
  6
CONTINUOUS
 62
     2
 10
138.5
 20
153.0
 30
0.0
 11
139.147047613
 21
150.585185434
 31
0.0
  0
LINE
  8
0
  6
CONTINUOUS
 62
     2
 10
138.5
 20
153.0
 30
0.0
 11
138.5
 21
95.0
 31
0.0
  0
LINE
  8
0
  6
CONTINUOUS
 62
     2
 10
138.5
 20
95.0
 30
0.0
 11
139.147047613
 21
97.414814566
 31
0.0
  0
LINE
  8
0
  6
CONTINUOUS
 62
     2
 10
138.5
 20
95.0
 30
0.0
 11
137.852952387
 21
97.414814566
 31
0.0
  0
TEXT
  8
0
  6
CONTINUOUS
 62
     2
 10
137.5
 20
122.05
 30
0.3
 40
3.0
  1
５８
 50
90.0
 41
0.6
 51
0.0
  7
KANJI0
  0
LINE
  8
0
  6
CONTINUOUS
 62
     2
 10
81.0
 20
153.0
 30
0.0
 11
140.5
 21
153.0
 31
0.0
  0
LINE
  8
0
  6
CONTINUOUS
 62
     2
 10
81.0
 20
95.0
 30
0.0
 11
140.5
 21
95.0
 31
0.0
  0
LINE
  8
0
  6
LTYPE1
 62
     2
 10
75.0
 20
108.5
 30
0.0
 11
75.0
 21
92.4
 31
0.0
  0
LINE
  8
0
  6
LTYPE1
 62
     2
 10
75.0
 20
155.0
 30
0.0
 11
75.0
 21
112.5
 31
0.0
  0
TEXT
  8
0
  6
CONTINUOUS
 62
     2
 10
234.1
 20
37.2
 30
0.4
 40
4.0
  1
Ｃ－３
 50
0.0
 41
0.9
 51
0.0
  7
KANJI3
  0
TEXT
  8
0
  6
CONTINUOUS
 62
     2
 10
234.1
 20
27.2
 30
0.4
 40
4.0
  1
電流変換器　外形図
 50
0.0
 41
0.9
 51
0.0
  7
KANJI3
  0
TEXT
  8
0
  6
CONTINUOUS
 62
     2
 10
246.6
 20
37.5
 30
0.3
 40
3.0
  1
（１５Ａ以上１００Ａまで）
 50
0.0
 41
0.9
 51
0.0
  7
KANJI4
  0
LINE
  8
0
  6
LTYPE1
 62
     2
 10
75.0
 20
70.8
 30
0.0
 11
75.0
 21
31.6
 31
0.0
  0
ENDSEC
  0
EOF
