  0
SECTION
  2
HEADER
  9
$ACADVER
  1
AC1009
  9
$DWGCODEPAGE
  3
dos932
  9
$EXTMIN
 10
0.0
 20
0.0
 30
0.0
  9
$EXTMAX
 10
297.0
 20
210.0
 30
0.0
  9
$LIMMIN
 10
0.0
 20
0.0
  9
$LIMMAX
 10
297.0
 20
210.0
  9
$LTSCALE
 40
1.0
  9
$PDMODE
 70
     0
  0
ENDSEC
  0
SECTION
  2
TABLES
  0
TABLE
  2
VPORT
 70
     1
  0
VPORT
  2
*ACTIVE
 70
     0
 10
0.0
 20
0.0
 11
1.0
 21
1.0
 12
148.5
 22
105.0
 13
0.0
 23
0.0
 14
10.0
 24
10.0
 15
10.0
 25
10.0
 16
0.0
 26
0.0
 36
1.0
 17
0.0
 27
0.0
 37
0.0
 40
297.0
 41
1.414285714
 42
50.0
 43
0.0
 44
0.0
 50
0.0
 51
0.0
 71
     0
 72
  1000
 73
     1
 74
     3
 75
     0
 76
     0
 77
     0
 78
     0
  0
ENDTAB
  0
TABLE
  2
LTYPE
 70
     3
  0
LTYPE
  2
CONTINUOUS
 70
    64
  3
Solid line
 72
    65
 73
     0
 40
0.0
  0
LTYPE
  2
LTYPE1
 70
    64
  3
CENTER
 72
    65
 73
     4
 40
5.0
 49
3.5
 49
-0.5
 49
0.5
 49
-0.5
  0
LTYPE
  2
LTYPE2
 70
    64
  3
CENTER
 72
    65
 73
     4
 40
15.0
 49
10.5
 49
-1.5
 49
1.5
 49
-1.5
  0
ENDTAB
  0
TABLE
  2
LAYER
 70
   128
  0
LAYER
  2
0
 70
     0
 62
     7
  6
CONTINUOUS
  0
LAYER
  2
2
 70
     0
 62
     7
  6
CONTINUOUS
  0
LAYER
  2
3
 70
     0
 62
     7
  6
CONTINUOUS
  0
LAYER
  2
4
 70
     0
 62
     7
  6
CONTINUOUS
  0
LAYER
  2
5
 70
     0
 62
     7
  6
CONTINUOUS
  0
LAYER
  2
6
 70
     0
 62
     7
  6
CONTINUOUS
  0
LAYER
  2
7
 70
     0
 62
     7
  6
CONTINUOUS
  0
LAYER
  2
8
 70
     0
 62
     7
  6
CONTINUOUS
  0
LAYER
  2
9
 70
     0
 62
     7
  6
CONTINUOUS
  0
LAYER
  2
10
 70
     0
 62
     7
  6
CONTINUOUS
  0
LAYER
  2
11
 70
     0
 62
     7
  6
CONTINUOUS
  0
LAYER
  2
12
 70
     0
 62
     7
  6
CONTINUOUS
  0
LAYER
  2
13
 70
     0
 62
     7
  6
CONTINUOUS
  0
LAYER
  2
14
 70
     0
 62
     7
  6
CONTINUOUS
  0
LAYER
  2
15
 70
     0
 62
     7
  6
CONTINUOUS
  0
LAYER
  2
16
 70
     0
 62
     7
  6
CONTINUOUS
  0
LAYER
  2
17
 70
     0
 62
     7
  6
CONTINUOUS
  0
LAYER
  2
18
 70
     0
 62
     7
  6
CONTINUOUS
  0
LAYER
  2
19
 70
     0
 62
     7
  6
CONTINUOUS
  0
LAYER
  2
20
 70
     0
 62
     7
  6
CONTINUOUS
  0
LAYER
  2
21
 70
     0
 62
     7
  6
CONTINUOUS
  0
LAYER
  2
22
 70
     0
 62
     7
  6
CONTINUOUS
  0
LAYER
  2
23
 70
     0
 62
     7
  6
CONTINUOUS
  0
LAYER
  2
24
 70
     0
 62
     7
  6
CONTINUOUS
  0
LAYER
  2
25
 70
     0
 62
     7
  6
CONTINUOUS
  0
LAYER
  2
26
 70
     0
 62
     7
  6
CONTINUOUS
  0
LAYER
  2
27
 70
     0
 62
     7
  6
CONTINUOUS
  0
LAYER
  2
28
 70
     0
 62
     7
  6
CONTINUOUS
  0
LAYER
  2
29
 70
     0
 62
     7
  6
CONTINUOUS
  0
LAYER
  2
30
 70
     0
 62
     7
  6
CONTINUOUS
  0
LAYER
  2
31
 70
     0
 62
     7
  6
CONTINUOUS
  0
LAYER
  2
32
 70
     0
 62
     7
  6
CONTINUOUS
  0
LAYER
  2
33
 70
     0
 62
     7
  6
CONTINUOUS
  0
LAYER
  2
34
 70
     0
 62
     7
  6
CONTINUOUS
  0
LAYER
  2
35
 70
     0
 62
     7
  6
CONTINUOUS
  0
LAYER
  2
36
 70
     0
 62
     7
  6
CONTINUOUS
  0
LAYER
  2
37
 70
     0
 62
     7
  6
CONTINUOUS
  0
LAYER
  2
38
 70
     0
 62
     7
  6
CONTINUOUS
  0
LAYER
  2
39
 70
     0
 62
     7
  6
CONTINUOUS
  0
LAYER
  2
40
 70
     0
 62
     7
  6
CONTINUOUS
  0
LAYER
  2
41
 70
     0
 62
     7
  6
CONTINUOUS
  0
LAYER
  2
42
 70
     0
 62
     7
  6
CONTINUOUS
  0
LAYER
  2
43
 70
     0
 62
     7
  6
CONTINUOUS
  0
LAYER
  2
44
 70
     0
 62
     7
  6
CONTINUOUS
  0
LAYER
  2
45
 70
     0
 62
     7
  6
CONTINUOUS
  0
LAYER
  2
46
 70
     0
 62
     7
  6
CONTINUOUS
  0
LAYER
  2
47
 70
     0
 62
     7
  6
CONTINUOUS
  0
LAYER
  2
48
 70
     0
 62
     7
  6
CONTINUOUS
  0
LAYER
  2
49
 70
     0
 62
     7
  6
CONTINUOUS
  0
LAYER
  2
50
 70
     0
 62
     7
  6
CONTINUOUS
  0
LAYER
  2
51
 70
     0
 62
     7
  6
CONTINUOUS
  0
LAYER
  2
52
 70
     0
 62
     7
  6
CONTINUOUS
  0
LAYER
  2
53
 70
     0
 62
     7
  6
CONTINUOUS
  0
LAYER
  2
54
 70
     0
 62
     7
  6
CONTINUOUS
  0
LAYER
  2
55
 70
     0
 62
     7
  6
CONTINUOUS
  0
LAYER
  2
56
 70
     0
 62
     7
  6
CONTINUOUS
  0
LAYER
  2
57
 70
     0
 62
     7
  6
CONTINUOUS
  0
LAYER
  2
58
 70
     0
 62
     7
  6
CONTINUOUS
  0
LAYER
  2
59
 70
     0
 62
     7
  6
CONTINUOUS
  0
LAYER
  2
60
 70
     0
 62
     7
  6
CONTINUOUS
  0
LAYER
  2
61
 70
     0
 62
     7
  6
CONTINUOUS
  0
LAYER
  2
62
 70
     0
 62
     7
  6
CONTINUOUS
  0
LAYER
  2
63
 70
     0
 62
     7
  6
CONTINUOUS
  0
LAYER
  2
64
 70
     0
 62
     7
  6
CONTINUOUS
  0
LAYER
  2
65
 70
     0
 62
     7
  6
CONTINUOUS
  0
LAYER
  2
66
 70
     0
 62
     7
  6
CONTINUOUS
  0
LAYER
  2
67
 70
     0
 62
     7
  6
CONTINUOUS
  0
LAYER
  2
68
 70
     0
 62
     7
  6
CONTINUOUS
  0
LAYER
  2
69
 70
     0
 62
     7
  6
CONTINUOUS
  0
LAYER
  2
70
 70
     0
 62
     7
  6
CONTINUOUS
  0
LAYER
  2
71
 70
     0
 62
     7
  6
CONTINUOUS
  0
LAYER
  2
72
 70
     0
 62
     7
  6
CONTINUOUS
  0
LAYER
  2
73
 70
     0
 62
     7
  6
CONTINUOUS
  0
LAYER
  2
74
 70
     0
 62
     7
  6
CONTINUOUS
  0
LAYER
  2
75
 70
     0
 62
     7
  6
CONTINUOUS
  0
LAYER
  2
76
 70
     0
 62
     7
  6
CONTINUOUS
  0
LAYER
  2
77
 70
     0
 62
     7
  6
CONTINUOUS
  0
LAYER
  2
78
 70
     0
 62
     7
  6
CONTINUOUS
  0
LAYER
  2
79
 70
     0
 62
     7
  6
CONTINUOUS
  0
LAYER
  2
80
 70
     0
 62
     7
  6
CONTINUOUS
  0
LAYER
  2
81
 70
     0
 62
     7
  6
CONTINUOUS
  0
LAYER
  2
82
 70
     0
 62
     7
  6
CONTINUOUS
  0
LAYER
  2
83
 70
     0
 62
     7
  6
CONTINUOUS
  0
LAYER
  2
84
 70
     0
 62
     7
  6
CONTINUOUS
  0
LAYER
  2
85
 70
     0
 62
     7
  6
CONTINUOUS
  0
LAYER
  2
86
 70
     0
 62
     7
  6
CONTINUOUS
  0
LAYER
  2
87
 70
     0
 62
     7
  6
CONTINUOUS
  0
LAYER
  2
88
 70
     0
 62
     7
  6
CONTINUOUS
  0
LAYER
  2
89
 70
     0
 62
     7
  6
CONTINUOUS
  0
LAYER
  2
90
 70
     0
 62
     7
  6
CONTINUOUS
  0
LAYER
  2
91
 70
     0
 62
     7
  6
CONTINUOUS
  0
LAYER
  2
92
 70
     0
 62
     7
  6
CONTINUOUS
  0
LAYER
  2
93
 70
     0
 62
     7
  6
CONTINUOUS
  0
LAYER
  2
94
 70
     0
 62
     7
  6
CONTINUOUS
  0
LAYER
  2
95
 70
     0
 62
     7
  6
CONTINUOUS
  0
LAYER
  2
96
 70
     0
 62
     7
  6
CONTINUOUS
  0
LAYER
  2
97
 70
     0
 62
     7
  6
CONTINUOUS
  0
LAYER
  2
98
 70
     0
 62
     7
  6
CONTINUOUS
  0
LAYER
  2
99
 70
     0
 62
     7
  6
CONTINUOUS
  0
LAYER
  2
100
 70
     0
 62
     7
  6
CONTINUOUS
  0
LAYER
  2
101
 70
     0
 62
     7
  6
CONTINUOUS
  0
LAYER
  2
102
 70
     0
 62
     7
  6
CONTINUOUS
  0
LAYER
  2
103
 70
     0
 62
     7
  6
CONTINUOUS
  0
LAYER
  2
104
 70
     0
 62
     7
  6
CONTINUOUS
  0
LAYER
  2
105
 70
     0
 62
     7
  6
CONTINUOUS
  0
LAYER
  2
106
 70
     0
 62
     7
  6
CONTINUOUS
  0
LAYER
  2
107
 70
     0
 62
     7
  6
CONTINUOUS
  0
LAYER
  2
108
 70
     0
 62
     7
  6
CONTINUOUS
  0
LAYER
  2
109
 70
     0
 62
     7
  6
CONTINUOUS
  0
LAYER
  2
110
 70
     0
 62
     7
  6
CONTINUOUS
  0
LAYER
  2
111
 70
     0
 62
     7
  6
CONTINUOUS
  0
LAYER
  2
112
 70
     0
 62
     7
  6
CONTINUOUS
  0
LAYER
  2
113
 70
     0
 62
     7
  6
CONTINUOUS
  0
LAYER
  2
114
 70
     0
 62
     7
  6
CONTINUOUS
  0
LAYER
  2
115
 70
     0
 62
     7
  6
CONTINUOUS
  0
LAYER
  2
116
 70
     0
 62
     7
  6
CONTINUOUS
  0
LAYER
  2
117
 70
     0
 62
     7
  6
CONTINUOUS
  0
LAYER
  2
118
 70
     0
 62
     7
  6
CONTINUOUS
  0
LAYER
  2
119
 70
     0
 62
     7
  6
CONTINUOUS
  0
LAYER
  2
120
 70
     0
 62
     7
  6
CONTINUOUS
  0
LAYER
  2
121
 70
     0
 62
     7
  6
CONTINUOUS
  0
LAYER
  2
122
 70
     0
 62
     7
  6
CONTINUOUS
  0
LAYER
  2
123
 70
     0
 62
     7
  6
CONTINUOUS
  0
LAYER
  2
124
 70
     0
 62
     7
  6
CONTINUOUS
  0
LAYER
  2
125
 70
     0
 62
     7
  6
CONTINUOUS
  0
LAYER
  2
126
 70
     0
 62
     7
  6
CONTINUOUS
  0
LAYER
  2
127
 70
     0
 62
     7
  6
CONTINUOUS
  0
LAYER
  2
128
 70
     0
 62
     7
  6
CONTINUOUS
  0
ENDTAB
  0
TABLE
  2
STYLE
 70
     8
  0
STYLE
  2
STANDARD
 70
     0
 40
0.0
 41
1.0
 50
0.0
 71
     0
 42
0.2
  3
txt.shx
  4
extfont.shx
  0
STYLE
  2
KANJI0
 70
     0
 40
3.0
 41
0.9
 50
0.0
 71
     0
 42
3.0
  3
txt.shx
  4
extfont.shx
  0
STYLE
  2
KANJI1
 70
     0
 40
3.0
 41
0.9
 50
0.0
 71
     0
 42
3.0
  3
txt.shx
  4
extfont.shx
  0
STYLE
  2
KANJI2
 70
     0
 40
3.0
 41
0.733333333
 50
0.0
 71
     0
 42
3.0
  3
txt.shx
  4
extfont.shx
  0
STYLE
  2
KANJI3
 70
     0
 40
4.0
 41
0.9
 50
0.0
 71
     0
 42
4.0
  3
txt.shx
  4
extfont.shx
  0
STYLE
  2
KANJI4
 70
     0
 40
1.8
 41
0.666666667
 50
0.0
 71
     0
 42
1.8
  3
txt.shx
  4
extfont.shx
  0
STYLE
  2
KANJI5
 70
     0
 40
5.8
 41
0.827586207
 50
0.0
 71
     0
 42
5.8
  3
txt.shx
  4
extfont.shx
  0
STYLE
  2
KANJI6
 70
     0
 40
4.0
 41
0.9
 50
0.0
 71
     0
 42
4.0
  3
txt.shx
  4
extfont.shx
  0
ENDTAB
  0
TABLE
  2
VIEW
 70
     0
  0
ENDTAB
  0
ENDSEC
  0
SECTION
  2
BLOCKS
  0
ENDSEC
  0
SECTION
  2
ENTITIES
  0
CIRCLE
  8
0
  6
CONTINUOUS
 62
     1
 10
30.0
 20
80.0
 30
0.0
 40
1.5
  0
LINE
  8
0
  6
LTYPE1
 62
     2
 10
30.0
 20
21.0
 30
0.0
 11
30.0
 21
84.0
 31
0.0
  0
LINE
  8
0
  6
LTYPE1
 62
     2
 10
90.0
 20
80.0
 30
0.0
 11
26.0
 21
80.0
 31
0.0
  0
CIRCLE
  8
0
  6
CONTINUOUS
 62
     1
 10
30.0
 20
25.0
 30
0.0
 40
1.5
  0
LINE
  8
0
  6
LTYPE1
 62
     2
 10
90.0
 20
25.0
 30
0.0
 11
26.0
 21
25.0
 31
0.0
  0
CIRCLE
  8
0
  6
CONTINUOUS
 62
     1
 10
86.0
 20
25.0
 30
0.0
 40
1.5
  0
CIRCLE
  8
0
  6
CONTINUOUS
 62
     1
 10
86.0
 20
80.0
 30
0.0
 40
1.5
  0
LINE
  8
0
  6
LTYPE1
 62
     2
 10
86.0
 20
21.0
 30
0.0
 11
86.0
 21
84.0
 31
0.0
  0
LINE
  8
0
  6
CONTINUOUS
 62
     2
 10
95.0
 20
25.0
 30
0.0
 11
95.647047613
 21
27.414814566
 31
0.0
  0
LINE
  8
0
  6
CONTINUOUS
 62
     2
 10
95.0
 20
25.0
 30
0.0
 11
94.352952387
 21
27.414814566
 31
0.0
  0
LINE
  8
0
  6
CONTINUOUS
 62
     2
 10
95.0
 20
25.0
 30
0.0
 11
95.0
 21
80.0
 31
0.0
  0
LINE
  8
0
  6
CONTINUOUS
 62
     2
 10
95.0
 20
80.0
 30
0.0
 11
94.352952387
 21
77.585185434
 31
0.0
  0
LINE
  8
0
  6
CONTINUOUS
 62
     2
 10
95.0
 20
80.0
 30
0.0
 11
95.647047613
 21
77.585185434
 31
0.0
  0
TEXT
  8
0
  6
CONTINUOUS
 62
     2
 10
94.0
 20
48.15
 30
0.3
 40
3.0
  1
１１０
 50
90.0
 41
0.9
 51
0.0
  7
KANJI0
  0
LINE
  8
0
  6
CONTINUOUS
 62
     2
 10
91.0
 20
25.0
 30
0.0
 11
96.0
 21
25.0
 31
0.0
  0
LINE
  8
0
  6
CONTINUOUS
 62
     2
 10
91.0
 20
80.0
 30
0.0
 11
96.0
 21
80.0
 31
0.0
  0
LINE
  8
0
  6
CONTINUOUS
 62
     2
 10
86.0
 20
19.0
 30
0.0
 11
83.585185434
 21
19.647047613
 31
0.0
  0
LINE
  8
0
  6
CONTINUOUS
 62
     2
 10
86.0
 20
19.0
 30
0.0
 11
83.585185434
 21
18.352952387
 31
0.0
  0
LINE
  8
0
  6
CONTINUOUS
 62
     2
 10
30.0
 20
19.0
 30
0.0
 11
32.414814566
 21
18.352952387
 31
0.0
  0
LINE
  8
0
  6
CONTINUOUS
 62
     2
 10
30.0
 20
19.0
 30
0.0
 11
32.414814566
 21
19.647047613
 31
0.0
  0
LINE
  8
0
  6
CONTINUOUS
 62
     2
 10
86.0
 20
19.0
 30
0.0
 11
30.0
 21
19.0
 31
0.0
  0
TEXT
  8
0
  6
CONTINUOUS
 62
     2
 10
53.605079393
 20
20.0
 30
0.3
 40
3.0
  1
１１２
 50
0.0
 41
0.9
 51
0.0
  7
KANJI0
  0
LINE
  8
0
  6
CONTINUOUS
 62
     2
 10
30.0
 20
20.0
 30
0.0
 11
30.0
 21
18.0
 31
0.0
  0
LINE
  8
0
  6
CONTINUOUS
 62
     2
 10
86.0
 20
20.0
 30
0.0
 11
86.0
 21
18.0
 31
0.0
  0
TEXT
  8
0
  6
CONTINUOUS
 62
     2
 10
120.98253255
 20
31.0
 30
0.5
 40
3.0
  1
端子台
 50
0.0
 41
0.9
 51
0.0
  7
KANJI1
  0
LINE
  8
0
  6
CONTINUOUS
 62
     2
 10
131.0
 20
45.0
 30
0.0
 11
131.0
 21
30.0
 31
0.0
  0
TEXT
  8
0
  6
CONTINUOUS
 62
     2
 10
131.98253255
 20
41.0
 30
0.5
 40
3.0
  1
鋼板　燐酸塩被膜処理
 50
0.0
 41
0.9
 51
0.0
  7
KANJI1
  0
TEXT
  8
0
  6
CONTINUOUS
 62
     2
 10
131.98253255
 20
36.0
 30
0.5
 40
3.0
  1
塗装色　マンセル記号Ｎ１．５（黒色）
 50
0.0
 41
0.9
 51
0.0
  7
KANJI1
  0
TEXT
  8
0
  6
CONTINUOUS
 62
     2
 10
131.98253255
 20
31.0
 30
0.5
 40
3.0
  1
フェノール樹脂
 50
0.0
 41
0.9
 51
0.0
  7
KANJI1
  0
LINE
  8
0
  6
CONTINUOUS
 62
     2
 10
120.0
 20
30.0
 30
0.0
 11
185.0
 21
30.0
 31
0.0
  0
LINE
  8
0
  6
CONTINUOUS
 62
     2
 10
120.0
 20
35.0
 30
0.0
 11
185.0
 21
35.0
 31
0.0
  0
LINE
  8
0
  6
CONTINUOUS
 62
     2
 10
120.0
 20
45.0
 30
0.0
 11
185.0
 21
45.0
 31
0.0
  0
LINE
  8
0
  6
CONTINUOUS
 62
     2
 10
131.0
 20
40.0
 30
0.0
 11
185.0
 21
40.0
 31
0.0
  0
TEXT
  8
0
  6
CONTINUOUS
 62
     2
 10
120.98253255
 20
38.413
 30
0.5
 40
3.0
  1
ケース
 50
0.0
 41
0.9
 51
0.0
  7
KANJI1
  0
LINE
  8
0
  6
CONTINUOUS
 62
     2
 10
87.344228568
 20
23.083111261
 30
0.0
 11
88.594228568
 21
20.918047751
 31
0.0
  0
LINE
  8
0
  6
CONTINUOUS
 62
     2
 10
87.344228568
 20
23.083111261
 30
0.0
 11
87.344228568
 21
20.583111261
 31
0.0
  0
TEXT
  8
0
  6
CONTINUOUS
 62
     2
 10
89.396551918
 20
16.913047751
 30
0.3
 40
3.0
  1
取付穴φ６（４ヶ所）
 50
0.0
 41
0.733333333
 51
0.0
  7
KANJI2
  0
LINE
  8
0
  6
CONTINUOUS
 62
     2
 10
87.344228568
 20
23.083111261
 30
0.0
 11
89.125303867
 21
16.436047751
 31
0.0
  0
LINE
  8
0
  6
CONTINUOUS
 62
     2
 10
111.929551918
 20
16.436047751
 30
0.0
 11
89.125303867
 21
16.436047751
 31
0.0
  0
LINE
  8
0
  6
CONTINUOUS
 62
     1
 10
205.0
 20
104.0
 30
0.0
 11
205.0
 21
166.0
 31
0.0
  0
LINE
  8
0
  6
CONTINUOUS
 62
     1
 10
150.0
 20
158.5
 30
0.0
 11
150.0
 21
111.5
 31
0.0
  0
LINE
  8
0
  6
CONTINUOUS
 62
     1
 10
146.0
 20
147.25
 30
0.0
 11
146.0
 21
151.75
 31
0.0
  0
LINE
  8
0
  6
CONTINUOUS
 62
     1
 10
146.0
 20
151.75
 30
0.0
 11
149.5
 21
154.0
 31
0.0
  0
LINE
  8
0
  6
CONTINUOUS
 62
     1
 10
146.0
 20
147.25
 30
0.0
 11
149.5
 21
145.0
 31
0.0
  0
ARC
  8
0
  6
CONTINUOUS
 62
     1
 10
143.5
 20
145.5
 30
0.0
 40
0.5
 50
180.0
 51
270.0
  0
ARC
  8
0
  6
CONTINUOUS
 62
     1
 10
143.5
 20
153.5
 30
0.0
 40
0.5
 50
90.0
 51
180.0
  0
LINE
  8
0
  6
CONTINUOUS
 62
     1
 10
150.0
 20
154.0
 30
0.0
 11
143.5
 21
154.0
 31
0.0
  0
LINE
  8
0
  6
CONTINUOUS
 62
     1
 10
143.0
 20
153.5
 30
0.0
 11
143.0
 21
145.5
 31
0.0
  0
LINE
  8
0
  6
CONTINUOUS
 62
     1
 10
143.5
 20
145.0
 30
0.0
 11
150.0
 21
145.0
 31
0.0
  0
LINE
  8
0
  6
CONTINUOUS
 62
     2
 10
150.0
 20
112.0
 30
0.0
 11
149.5
 21
112.0
 31
0.0
  0
LINE
  8
0
  6
CONTINUOUS
 62
     2
 10
149.5
 20
112.0
 30
0.0
 11
149.5
 21
116.0
 31
0.0
  0
ARC
  8
0
  6
CONTINUOUS
 62
     2
 10
151.0
 20
114.0
 30
0.0
 40
2.5
 50
143.130102354
 51
216.869897646
  0
LINE
  8
0
  6
CONTINUOUS
 62
     2
 10
149.0
 20
112.5
 30
0.0
 11
149.5
 21
112.5
 31
0.0
  0
LINE
  8
0
  6
CONTINUOUS
 62
     2
 10
149.5
 20
115.5
 30
0.0
 11
149.0
 21
115.5
 31
0.0
  0
LINE
  8
0
  6
CONTINUOUS
 62
     2
 10
146.0
 20
151.5
 30
0.0
 11
145.5
 21
151.5
 31
0.0
  0
LINE
  8
0
  6
CONTINUOUS
 62
     2
 10
145.5
 20
151.5
 30
0.0
 11
145.5
 21
147.5
 31
0.0
  0
LINE
  8
0
  6
CONTINUOUS
 62
     2
 10
145.5
 20
147.5
 30
0.0
 11
146.0
 21
147.5
 31
0.0
  0
ARC
  8
0
  6
CONTINUOUS
 62
     2
 10
147.0
 20
149.5
 30
0.0
 40
2.5
 50
143.130102354
 51
216.869897646
  0
LINE
  8
0
  6
CONTINUOUS
 62
     2
 10
145.0
 20
151.0
 30
0.0
 11
145.5
 21
151.0
 31
0.0
  0
LINE
  8
0
  6
CONTINUOUS
 62
     2
 10
145.5
 20
148.0
 30
0.0
 11
145.0
 21
148.0
 31
0.0
  0
LINE
  8
0
  6
CONTINUOUS
 62
     2
 10
150.0
 20
158.0
 30
0.0
 11
149.5
 21
158.0
 31
0.0
  0
LINE
  8
0
  6
CONTINUOUS
 62
     2
 10
149.5
 20
158.0
 30
0.0
 11
149.5
 21
154.0
 31
0.0
  0
ARC
  8
0
  6
CONTINUOUS
 62
     2
 10
151.0
 20
156.0
 30
0.0
 40
2.5
 50
143.130102354
 51
216.869897646
  0
LINE
  8
0
  6
CONTINUOUS
 62
     2
 10
149.0
 20
157.5
 30
0.0
 11
149.5
 21
157.5
 31
0.0
  0
LINE
  8
0
  6
CONTINUOUS
 62
     2
 10
149.5
 20
154.5
 30
0.0
 11
149.0
 21
154.5
 31
0.0
  0
LINE
  8
0
  6
CONTINUOUS
 62
     2
 10
205.0
 20
167.0
 30
0.0
 11
205.0
 21
176.0
 31
0.0
  0
LINE
  8
0
  6
CONTINUOUS
 62
     2
 10
143.0
 20
176.0
 30
0.0
 11
143.0
 21
155.0
 31
0.0
  0
LINE
  8
0
  6
CONTINUOUS
 62
     2
 10
150.0
 20
160.0
 30
0.0
 11
150.0
 21
171.0
 31
0.0
  0
LINE
  8
0
  6
CONTINUOUS
 62
     2
 10
205.0
 20
175.0
 30
0.0
 11
202.585185434
 21
175.647047613
 31
0.0
  0
LINE
  8
0
  6
CONTINUOUS
 62
     2
 10
205.0
 20
175.0
 30
0.0
 11
202.585185434
 21
174.352952387
 31
0.0
  0
LINE
  8
0
  6
CONTINUOUS
 62
     2
 10
205.0
 20
175.0
 30
0.0
 11
143.0
 21
175.0
 31
0.0
  0
LINE
  8
0
  6
CONTINUOUS
 62
     2
 10
143.0
 20
175.0
 30
0.0
 11
145.414814566
 21
174.352952387
 31
0.0
  0
LINE
  8
0
  6
CONTINUOUS
 62
     2
 10
143.0
 20
175.0
 30
0.0
 11
145.414814566
 21
175.647047613
 31
0.0
  0
TEXT
  8
0
  6
CONTINUOUS
 62
     2
 10
169.65
 20
176.0
 30
0.3
 40
3.0
  1
１２４
 50
0.0
 41
0.9
 51
0.0
  7
KANJI0
  0
LINE
  8
0
  6
CONTINUOUS
 62
     2
 10
205.0
 20
170.0
 30
0.0
 11
202.585185434
 21
170.647047613
 31
0.0
  0
LINE
  8
0
  6
CONTINUOUS
 62
     2
 10
205.0
 20
170.0
 30
0.0
 11
202.585185434
 21
169.352952387
 31
0.0
  0
LINE
  8
0
  6
CONTINUOUS
 62
     2
 10
205.0
 20
170.0
 30
0.0
 11
150.0
 21
170.0
 31
0.0
  0
LINE
  8
0
  6
CONTINUOUS
 62
     2
 10
150.0
 20
170.0
 30
0.0
 11
152.414814566
 21
169.352952387
 31
0.0
  0
LINE
  8
0
  6
CONTINUOUS
 62
     2
 10
150.0
 20
170.0
 30
0.0
 11
152.414814566
 21
170.647047613
 31
0.0
  0
TEXT
  8
0
  6
CONTINUOUS
 62
     2
 10
173.15
 20
171.0
 30
0.3
 40
3.0
  1
１１０
 50
0.0
 41
0.9
 51
0.0
  7
KANJI0
  0
LINE
  8
0
  6
CONTINUOUS
 62
     2
 10
150.0
 20
170.0
 30
0.0
 11
147.585185434
 21
170.647047613
 31
0.0
  0
LINE
  8
0
  6
CONTINUOUS
 62
     2
 10
150.0
 20
170.0
 30
0.0
 11
147.585185434
 21
169.352952387
 31
0.0
  0
LINE
  8
0
  6
CONTINUOUS
 62
     2
 10
150.0
 20
170.0
 30
0.0
 11
143.0
 21
170.0
 31
0.0
  0
LINE
  8
0
  6
CONTINUOUS
 62
     2
 10
143.0
 20
170.0
 30
0.0
 11
145.414814566
 21
169.352952387
 31
0.0
  0
LINE
  8
0
  6
CONTINUOUS
 62
     2
 10
143.0
 20
170.0
 30
0.0
 11
145.414814566
 21
170.647047613
 31
0.0
  0
TEXT
  8
0
  6
CONTINUOUS
 62
     2
 10
143.65
 20
171.0
 30
0.3
 40
3.0
  1
１４
 50
0.0
 41
0.9
 51
0.0
  7
KANJI0
  0
LINE
  8
0
  6
CONTINUOUS
 62
     2
 10
205.0
 20
103.5
 30
0.0
 11
205.0
 21
98.5
 31
0.0
  0
LINE
  8
0
  6
CONTINUOUS
 62
     2
 10
205.0
 20
99.5
 30
0.0
 11
207.414814566
 21
98.852952387
 31
0.0
  0
LINE
  8
0
  6
CONTINUOUS
 62
     2
 10
205.0
 20
99.5
 30
0.0
 11
207.414814566
 21
100.147047613
 31
0.0
  0
LINE
  8
0
  6
CONTINUOUS
 62
     2
 10
150.0
 20
116.0
 30
0.0
 11
149.5
 21
116.0
 31
0.0
  0
LINE
  8
0
  6
LTYPE2
 62
     2
 10
70.0
 20
169.0
 30
0.0
 11
70.0
 21
95.5
 31
0.0
  0
ARC
  8
0
  6
CONTINUOUS
 62
     1
 10
29.0
 20
105.0
 30
0.0
 40
1.0
 50
180.0
 51
270.0
  0
ARC
  8
0
  6
CONTINUOUS
 62
     1
 10
29.0
 20
165.0
 30
0.0
 40
1.0
 50
90.0
 51
180.0
  0
LINE
  8
0
  6
CONTINUOUS
 62
     1
 10
28.0
 20
165.0
 30
0.0
 11
28.0
 21
105.0
 31
0.0
  0
LINE
  8
0
  6
CONTINUOUS
 62
     2
 10
28.0
 20
167.0
 30
0.0
 11
28.0
 21
176.0
 31
0.0
  0
LINE
  8
0
  6
CONTINUOUS
 62
     2
 10
28.0
 20
175.0
 30
0.0
 11
30.414814566
 21
174.352952387
 31
0.0
  0
LINE
  8
0
  6
CONTINUOUS
 62
     2
 10
28.0
 20
175.0
 30
0.0
 11
30.414814566
 21
175.647047613
 31
0.0
  0
ARC
  8
0
  6
CONTINUOUS
 62
     1
 10
111.0
 20
105.0
 30
0.0
 40
1.0
 50
270.0
 51
0.0
  0
LINE
  8
0
  6
CONTINUOUS
 62
     1
 10
112.0
 20
105.0
 30
0.0
 11
112.0
 21
165.0
 31
0.0
  0
ARC
  8
0
  6
CONTINUOUS
 62
     1
 10
111.0
 20
165.0
 30
0.0
 40
1.0
 50
0.0
 51
90.0
  0
LINE
  8
0
  6
CONTINUOUS
 62
     2
 10
112.0
 20
167.0
 30
0.0
 11
112.0
 21
176.0
 31
0.0
  0
LINE
  8
0
  6
CONTINUOUS
 62
     2
 10
112.0
 20
175.0
 30
0.0
 11
109.585185434
 21
175.647047613
 31
0.0
  0
LINE
  8
0
  6
CONTINUOUS
 62
     2
 10
112.0
 20
175.0
 30
0.0
 11
109.585185434
 21
174.352952387
 31
0.0
  0
LINE
  8
0
  6
CONTINUOUS
 62
     2
 10
113.0
 20
158.5
 30
0.0
 11
123.0
 21
158.5
 31
0.0
  0
LINE
  8
0
  6
CONTINUOUS
 62
     2
 10
113.0
 20
166.0
 30
0.0
 11
133.0
 21
166.0
 31
0.0
  0
LINE
  8
0
  6
CONTINUOUS
 62
     2
 10
113.0
 20
111.5
 30
0.0
 11
123.0
 21
111.5
 31
0.0
  0
LINE
  8
0
  6
CONTINUOUS
 62
     2
 10
113.0
 20
104.0
 30
0.0
 11
133.0
 21
104.0
 31
0.0
  0
LINE
  8
0
  6
CONTINUOUS
 62
     2
 10
132.0
 20
166.0
 30
0.0
 11
131.352952387
 21
163.585185434
 31
0.0
  0
LINE
  8
0
  6
CONTINUOUS
 62
     2
 10
132.0
 20
166.0
 30
0.0
 11
132.647047613
 21
163.585185434
 31
0.0
  0
LINE
  8
0
  6
CONTINUOUS
 62
     2
 10
132.0
 20
166.0
 30
0.0
 11
132.0
 21
104.0
 31
0.0
  0
LINE
  8
0
  6
CONTINUOUS
 62
     2
 10
132.0
 20
104.0
 30
0.0
 11
132.647047613
 21
106.414814566
 31
0.0
  0
LINE
  8
0
  6
CONTINUOUS
 62
     2
 10
132.0
 20
104.0
 30
0.0
 11
131.352952387
 21
106.414814566
 31
0.0
  0
TEXT
  8
0
  6
CONTINUOUS
 62
     2
 10
131.0
 20
130.65
 30
0.3
 40
3.0
  1
１２４
 50
90.0
 41
0.9
 51
0.0
  7
KANJI0
  0
LINE
  8
0
  6
CONTINUOUS
 62
     2
 10
127.0
 20
107.5
 30
0.0
 11
127.647047613
 21
109.914814566
 31
0.0
  0
LINE
  8
0
  6
CONTINUOUS
 62
     2
 10
127.0
 20
107.5
 30
0.0
 11
126.352952387
 21
109.914814566
 31
0.0
  0
LINE
  8
0
  6
CONTINUOUS
 62
     2
 10
127.0
 20
107.5
 30
0.0
 11
127.0
 21
162.5
 31
0.0
  0
LINE
  8
0
  6
CONTINUOUS
 62
     2
 10
127.0
 20
162.5
 30
0.0
 11
126.352952387
 21
160.085185434
 31
0.0
  0
LINE
  8
0
  6
CONTINUOUS
 62
     2
 10
127.0
 20
162.5
 30
0.0
 11
127.647047613
 21
160.085185434
 31
0.0
  0
TEXT
  8
0
  6
CONTINUOUS
 62
     2
 10
126.0
 20
130.65
 30
0.3
 40
3.0
  1
１１０
 50
90.0
 41
0.9
 51
0.0
  7
KANJI0
  0
LINE
  8
0
  6
CONTINUOUS
 62
     2
 10
122.0
 20
158.5
 30
0.0
 11
121.352952387
 21
156.085185434
 31
0.0
  0
LINE
  8
0
  6
CONTINUOUS
 62
     2
 10
122.0
 20
158.5
 30
0.0
 11
122.647047613
 21
156.085185434
 31
0.0
  0
LINE
  8
0
  6
CONTINUOUS
 62
     2
 10
122.0
 20
158.5
 30
0.0
 11
122.0
 21
111.5
 31
0.0
  0
LINE
  8
0
  6
CONTINUOUS
 62
     2
 10
122.0
 20
111.5
 30
0.0
 11
122.647047613
 21
113.914814566
 31
0.0
  0
LINE
  8
0
  6
CONTINUOUS
 62
     2
 10
122.0
 20
111.5
 30
0.0
 11
121.352952387
 21
113.914814566
 31
0.0
  0
TEXT
  8
0
  6
CONTINUOUS
 62
     2
 10
121.0
 20
132.15
 30
0.3
 40
3.0
  1
９４
 50
90.0
 41
0.9
 51
0.0
  7
KANJI0
  0
ARC
  8
0
  6
CONTINUOUS
 62
     1
 10
98.0
 20
162.5
 30
0.0
 40
1.5
 50
180.0
 51
0.0
  0
ARC
  8
0
  6
CONTINUOUS
 62
     1
 10
100.0
 20
165.5
 30
0.0
 40
0.5
 50
90.0
 51
180.0
  0
ARC
  8
0
  6
CONTINUOUS
 62
     1
 10
96.0
 20
165.5
 30
0.0
 40
0.5
 50
0.0
 51
90.0
  0
LINE
  8
0
  6
CONTINUOUS
 62
     1
 10
96.5
 20
165.5
 30
0.0
 11
96.5
 21
162.5
 31
0.0
  0
LINE
  8
0
  6
CONTINUOUS
 62
     1
 10
99.5
 20
162.5
 30
0.0
 11
99.5
 21
165.5
 31
0.0
  0
LINE
  8
0
  6
CONTINUOUS
 62
     1
 10
111.0
 20
166.0
 30
0.0
 11
100.0
 21
166.0
 31
0.0
  0
LINE
  8
0
  6
CONTINUOUS
 62
     1
 10
107.5
 20
156.0
 30
0.0
 11
109.5
 21
156.0
 31
0.0
  0
LINE
  8
0
  6
CONTINUOUS
 62
     1
 10
108.5
 20
155.0
 30
0.0
 11
108.5
 21
157.0
 31
0.0
  0
CIRCLE
  8
0
  6
CONTINUOUS
 62
     2
 10
108.5
 20
156.0
 30
0.0
 40
1.5
  0
CIRCLE
  8
0
  6
CONTINUOUS
 62
     2
 10
108.5
 20
156.0
 30
0.0
 40
2.0
  0
LINE
  8
0
  6
CONTINUOUS
 62
     2
 10
98.0
 20
171.0
 30
0.0
 11
98.0
 21
160.5
 31
0.0
  0
LINE
  8
0
  6
CONTINUOUS
 62
     2
 10
98.0
 20
170.0
 30
0.0
 11
95.585185434
 21
170.647047613
 31
0.0
  0
LINE
  8
0
  6
CONTINUOUS
 62
     2
 10
98.0
 20
170.0
 30
0.0
 11
95.585185434
 21
169.352952387
 31
0.0
  0
ARC
  8
0
  6
CONTINUOUS
 62
     1
 10
98.0
 20
107.5
 30
0.0
 40
1.5
 50
0.0
 51
180.0
  0
ARC
  8
0
  6
CONTINUOUS
 62
     1
 10
100.0
 20
104.5
 30
0.0
 40
0.5
 50
180.0
 51
270.0
  0
ARC
  8
0
  6
CONTINUOUS
 62
     1
 10
96.0
 20
104.5
 30
0.0
 40
0.5
 50
270.0
 51
0.0
  0
LINE
  8
0
  6
CONTINUOUS
 62
     1
 10
96.5
 20
104.5
 30
0.0
 11
96.5
 21
107.5
 31
0.0
  0
LINE
  8
0
  6
CONTINUOUS
 62
     1
 10
99.5
 20
107.5
 30
0.0
 11
99.5
 21
104.5
 31
0.0
  0
LINE
  8
0
  6
CONTINUOUS
 62
     1
 10
111.0
 20
104.0
 30
0.0
 11
100.0
 21
104.0
 31
0.0
  0
LINE
  8
0
  6
CONTINUOUS
 62
     1
 10
107.5
 20
114.0
 30
0.0
 11
109.5
 21
114.0
 31
0.0
  0
LINE
  8
0
  6
CONTINUOUS
 62
     1
 10
108.5
 20
115.0
 30
0.0
 11
108.5
 21
113.0
 31
0.0
  0
CIRCLE
  8
0
  6
CONTINUOUS
 62
     2
 10
108.5
 20
114.0
 30
0.0
 40
1.5
  0
CIRCLE
  8
0
  6
CONTINUOUS
 62
     2
 10
108.5
 20
114.0
 30
0.0
 40
2.0
  0
LINE
  8
0
  6
CONTINUOUS
 62
     2
 10
99.5
 20
103.0
 30
0.0
 11
99.5
 21
98.0
 31
0.0
  0
LINE
  8
0
  6
CONTINUOUS
 62
     2
 10
96.5
 20
98.0
 30
0.0
 11
96.5
 21
103.0
 31
0.0
  0
LINE
  8
0
  6
CONTINUOUS
 62
     2
 10
96.5
 20
99.0
 30
0.0
 11
94.085185434
 21
99.647047613
 31
0.0
  0
LINE
  8
0
  6
CONTINUOUS
 62
     2
 10
96.5
 20
99.0
 30
0.0
 11
94.085185434
 21
98.352952387
 31
0.0
  0
LINE
  8
0
  6
CONTINUOUS
 62
     2
 10
99.5
 20
99.0
 30
0.0
 11
101.914814566
 21
98.352952387
 31
0.0
  0
LINE
  8
0
  6
CONTINUOUS
 62
     2
 10
99.5
 20
99.0
 30
0.0
 11
101.914814566
 21
99.647047613
 31
0.0
  0
LINE
  8
0
  6
CONTINUOUS
 62
     2
 10
103.5
 20
99.0
 30
0.0
 11
92.5
 21
99.0
 31
0.0
  0
TEXT
  8
0
  6
CONTINUOUS
 62
     2
 10
96.65
 20
94.5
 30
0.3
 40
3.0
  1
６
 50
0.0
 41
0.9
 51
0.0
  7
KANJI0
  0
ARC
  8
0
  6
CONTINUOUS
 62
     1
 10
42.0
 20
107.5
 30
0.0
 40
1.5
 50
0.0
 51
180.0
  0
ARC
  8
0
  6
CONTINUOUS
 62
     1
 10
40.0
 20
104.5
 30
0.0
 40
0.5
 50
270.0
 51
0.0
  0
ARC
  8
0
  6
CONTINUOUS
 62
     1
 10
44.0
 20
104.5
 30
0.0
 40
0.5
 50
180.0
 51
270.0
  0
LINE
  8
0
  6
CONTINUOUS
 62
     1
 10
43.5
 20
104.5
 30
0.0
 11
43.5
 21
107.5
 31
0.0
  0
LINE
  8
0
  6
CONTINUOUS
 62
     1
 10
40.5
 20
107.5
 30
0.0
 11
40.5
 21
104.5
 31
0.0
  0
LINE
  8
0
  6
CONTINUOUS
 62
     1
 10
40.0
 20
104.0
 30
0.0
 11
29.0
 21
104.0
 31
0.0
  0
LINE
  8
0
  6
CONTINUOUS
 62
     1
 10
32.5
 20
114.0
 30
0.0
 11
30.5
 21
114.0
 31
0.0
  0
LINE
  8
0
  6
CONTINUOUS
 62
     1
 10
31.5
 20
115.0
 30
0.0
 11
31.5
 21
113.0
 31
0.0
  0
CIRCLE
  8
0
  6
CONTINUOUS
 62
     2
 10
31.5
 20
114.0
 30
0.0
 40
1.5
  0
CIRCLE
  8
0
  6
CONTINUOUS
 62
     2
 10
31.5
 20
114.0
 30
0.0
 40
2.0
  0
LINE
  8
0
  6
CONTINUOUS
 62
     1
 10
28.0
 20
111.5
 30
0.0
 11
112.0
 21
111.5
 31
0.0
  0
LINE
  8
0
  6
CONTINUOUS
 62
     1
 10
96.0
 20
104.0
 30
0.0
 11
44.0
 21
104.0
 31
0.0
  0
ARC
  8
0
  6
CONTINUOUS
 62
     1
 10
42.0
 20
162.5
 30
0.0
 40
1.5
 50
180.0
 51
0.0
  0
ARC
  8
0
  6
CONTINUOUS
 62
     1
 10
40.0
 20
165.5
 30
0.0
 40
0.5
 50
0.0
 51
90.0
  0
ARC
  8
0
  6
CONTINUOUS
 62
     1
 10
44.0
 20
165.5
 30
0.0
 40
0.5
 50
90.0
 51
180.0
  0
LINE
  8
0
  6
CONTINUOUS
 62
     1
 10
43.5
 20
165.5
 30
0.0
 11
43.5
 21
162.5
 31
0.0
  0
LINE
  8
0
  6
CONTINUOUS
 62
     1
 10
40.5
 20
162.5
 30
0.0
 11
40.5
 21
165.5
 31
0.0
  0
LINE
  8
0
  6
CONTINUOUS
 62
     1
 10
40.0
 20
166.0
 30
0.0
 11
29.0
 21
166.0
 31
0.0
  0
LINE
  8
0
  6
CONTINUOUS
 62
     1
 10
32.5
 20
156.0
 30
0.0
 11
30.5
 21
156.0
 31
0.0
  0
LINE
  8
0
  6
CONTINUOUS
 62
     1
 10
31.5
 20
155.0
 30
0.0
 11
31.5
 21
157.0
 31
0.0
  0
CIRCLE
  8
0
  6
CONTINUOUS
 62
     2
 10
31.5
 20
156.0
 30
0.0
 40
1.5
  0
CIRCLE
  8
0
  6
CONTINUOUS
 62
     2
 10
31.5
 20
156.0
 30
0.0
 40
2.0
  0
LINE
  8
0
  6
CONTINUOUS
 62
     2
 10
42.0
 20
171.0
 30
0.0
 11
42.0
 21
160.5
 31
0.0
  0
LINE
  8
0
  6
CONTINUOUS
 62
     2
 10
42.0
 20
170.0
 30
0.0
 11
44.414814566
 21
169.352952387
 31
0.0
  0
LINE
  8
0
  6
CONTINUOUS
 62
     2
 10
42.0
 20
170.0
 30
0.0
 11
44.414814566
 21
170.647047613
 31
0.0
  0
LINE
  8
0
  6
CONTINUOUS
 62
     1
 10
28.0
 20
158.5
 30
0.0
 11
112.0
 21
158.5
 31
0.0
  0
LINE
  8
0
  6
CONTINUOUS
 62
     1
 10
96.0
 20
166.0
 30
0.0
 11
44.0
 21
166.0
 31
0.0
  0
LINE
  8
0
  6
CONTINUOUS
 62
     2
 10
98.0
 20
170.0
 30
0.0
 11
42.0
 21
170.0
 31
0.0
  0
LINE
  8
0
  6
CONTINUOUS
 62
     2
 10
28.0
 20
175.0
 30
0.0
 11
112.0
 21
175.0
 31
0.0
  0
TEXT
  8
0
  6
CONTINUOUS
 62
     2
 10
65.65
 20
176.0
 30
0.3
 40
3.0
  1
１６８
 50
0.0
 41
0.9
 51
0.0
  7
KANJI0
  0
TEXT
  8
0
  6
CONTINUOUS
 62
     2
 10
65.605079393
 20
171.0
 30
0.3
 40
3.0
  1
１１２
 50
0.0
 41
0.9
 51
0.0
  7
KANJI0
  0
LINE
  8
0
  6
CONTINUOUS
 62
     1
 10
37.25
 20
154.0
 30
0.0
 11
37.25
 21
145.0
 31
0.0
  0
LINE
  8
0
  6
CONTINUOUS
 62
     1
 10
78.25
 20
148.25
 30
0.0
 11
78.25
 21
150.75
 31
0.0
  0
LINE
  8
0
  6
CONTINUOUS
 62
     1
 10
77.0
 20
149.5
 30
0.0
 11
79.5
 21
149.5
 31
0.0
  0
LINE
  8
0
  6
CONTINUOUS
 62
     1
 10
72.75
 20
148.25
 30
0.0
 11
72.75
 21
150.75
 31
0.0
  0
LINE
  8
0
  6
CONTINUOUS
 62
     1
 10
71.5
 20
149.5
 30
0.0
 11
74.0
 21
149.5
 31
0.0
  0
LINE
  8
0
  6
CONTINUOUS
 62
     1
 10
67.25
 20
148.25
 30
0.0
 11
67.25
 21
150.75
 31
0.0
  0
LINE
  8
0
  6
CONTINUOUS
 62
     1
 10
66.0
 20
149.5
 30
0.0
 11
68.5
 21
149.5
 31
0.0
  0
LINE
  8
0
  6
CONTINUOUS
 62
     1
 10
61.75
 20
148.25
 30
0.0
 11
61.75
 21
150.75
 31
0.0
  0
LINE
  8
0
  6
CONTINUOUS
 62
     1
 10
60.5
 20
149.5
 30
0.0
 11
63.0
 21
149.5
 31
0.0
  0
LINE
  8
0
  6
CONTINUOUS
 62
     1
 10
56.25
 20
148.25
 30
0.0
 11
56.25
 21
150.75
 31
0.0
  0
LINE
  8
0
  6
CONTINUOUS
 62
     1
 10
55.0
 20
149.5
 30
0.0
 11
57.5
 21
149.5
 31
0.0
  0
LINE
  8
0
  6
CONTINUOUS
 62
     1
 10
50.75
 20
148.25
 30
0.0
 11
50.75
 21
150.75
 31
0.0
  0
LINE
  8
0
  6
CONTINUOUS
 62
     1
 10
49.5
 20
149.5
 30
0.0
 11
52.0
 21
149.5
 31
0.0
  0
LINE
  8
0
  6
CONTINUOUS
 62
     1
 10
45.25
 20
148.25
 30
0.0
 11
45.25
 21
150.75
 31
0.0
  0
LINE
  8
0
  6
CONTINUOUS
 62
     1
 10
44.0
 20
149.5
 30
0.0
 11
46.5
 21
149.5
 31
0.0
  0
LINE
  8
0
  6
CONTINUOUS
 62
     1
 10
39.0
 20
149.5
 30
0.0
 11
40.5
 21
149.5
 31
0.0
  0
LINE
  8
0
  6
CONTINUOUS
 62
     1
 10
39.75
 20
150.25
 30
0.0
 11
39.75
 21
148.75
 31
0.0
  0
LINE
  8
0
  6
CONTINUOUS
 62
     2
 10
59.5
 20
154.0
 30
0.0
 11
59.5
 21
145.0
 31
0.0
  0
LINE
  8
0
  6
CONTINUOUS
 62
     2
 10
58.5
 20
154.0
 30
0.0
 11
58.5
 21
145.0
 31
0.0
  0
LINE
  8
0
  6
CONTINUOUS
 62
     2
 10
54.0
 20
154.0
 30
0.0
 11
54.0
 21
145.0
 31
0.0
  0
LINE
  8
0
  6
CONTINUOUS
 62
     2
 10
53.0
 20
154.0
 30
0.0
 11
53.0
 21
145.0
 31
0.0
  0
LINE
  8
0
  6
CONTINUOUS
 62
     2
 10
48.5
 20
154.0
 30
0.0
 11
48.5
 21
145.0
 31
0.0
  0
LINE
  8
0
  6
CONTINUOUS
 62
     2
 10
47.5
 20
154.0
 30
0.0
 11
47.5
 21
145.0
 31
0.0
  0
LINE
  8
0
  6
CONTINUOUS
 62
     2
 10
43.0
 20
154.0
 30
0.0
 11
43.0
 21
145.0
 31
0.0
  0
LINE
  8
0
  6
CONTINUOUS
 62
     2
 10
42.0
 20
154.0
 30
0.0
 11
42.0
 21
145.0
 31
0.0
  0
LINE
  8
0
  6
CONTINUOUS
 62
     2
 10
65.0
 20
154.0
 30
0.0
 11
65.0
 21
145.0
 31
0.0
  0
LINE
  8
0
  6
CONTINUOUS
 62
     2
 10
64.0
 20
154.0
 30
0.0
 11
64.0
 21
145.0
 31
0.0
  0
LINE
  8
0
  6
CONTINUOUS
 62
     2
 10
70.5
 20
154.0
 30
0.0
 11
70.5
 21
145.0
 31
0.0
  0
LINE
  8
0
  6
CONTINUOUS
 62
     2
 10
69.5
 20
154.0
 30
0.0
 11
69.5
 21
145.0
 31
0.0
  0
LINE
  8
0
  6
CONTINUOUS
 62
     2
 10
76.0
 20
154.0
 30
0.0
 11
76.0
 21
145.0
 31
0.0
  0
LINE
  8
0
  6
CONTINUOUS
 62
     2
 10
75.0
 20
154.0
 30
0.0
 11
75.0
 21
145.0
 31
0.0
  0
LINE
  8
0
  6
CONTINUOUS
 62
     2
 10
80.5
 20
154.0
 30
0.0
 11
80.5
 21
145.0
 31
0.0
  0
LINE
  8
0
  6
CONTINUOUS
 62
     2
 10
80.5
 20
151.75
 30
0.0
 11
76.0
 21
151.75
 31
0.0
  0
LINE
  8
0
  6
CONTINUOUS
 62
     2
 10
75.0
 20
151.75
 30
0.0
 11
70.5
 21
151.75
 31
0.0
  0
LINE
  8
0
  6
CONTINUOUS
 62
     2
 10
69.5
 20
151.75
 30
0.0
 11
65.0
 21
151.75
 31
0.0
  0
LINE
  8
0
  6
CONTINUOUS
 62
     2
 10
64.0
 20
151.75
 30
0.0
 11
59.5
 21
151.75
 31
0.0
  0
LINE
  8
0
  6
CONTINUOUS
 62
     2
 10
58.5
 20
151.75
 30
0.0
 11
54.0
 21
151.75
 31
0.0
  0
LINE
  8
0
  6
CONTINUOUS
 62
     2
 10
53.0
 20
151.75
 30
0.0
 11
48.5
 21
151.75
 31
0.0
  0
LINE
  8
0
  6
CONTINUOUS
 62
     2
 10
47.5
 20
151.75
 30
0.0
 11
43.0
 21
151.75
 31
0.0
  0
LINE
  8
0
  6
CONTINUOUS
 62
     2
 10
42.0
 20
151.75
 30
0.0
 11
37.25
 21
151.75
 31
0.0
  0
LINE
  8
0
  6
CONTINUOUS
 62
     2
 10
37.25
 20
147.25
 30
0.0
 11
42.0
 21
147.25
 31
0.0
  0
LINE
  8
0
  6
CONTINUOUS
 62
     2
 10
43.0
 20
147.25
 30
0.0
 11
47.5
 21
147.25
 31
0.0
  0
LINE
  8
0
  6
CONTINUOUS
 62
     2
 10
48.5
 20
147.25
 30
0.0
 11
53.0
 21
147.25
 31
0.0
  0
LINE
  8
0
  6
CONTINUOUS
 62
     2
 10
54.0
 20
147.25
 30
0.0
 11
58.5
 21
147.25
 31
0.0
  0
LINE
  8
0
  6
CONTINUOUS
 62
     2
 10
59.5
 20
147.25
 30
0.0
 11
64.0
 21
147.25
 31
0.0
  0
LINE
  8
0
  6
CONTINUOUS
 62
     2
 10
65.0
 20
147.25
 30
0.0
 11
69.5
 21
147.25
 31
0.0
  0
LINE
  8
0
  6
CONTINUOUS
 62
     2
 10
70.5
 20
147.25
 30
0.0
 11
75.0
 21
147.25
 31
0.0
  0
LINE
  8
0
  6
CONTINUOUS
 62
     2
 10
76.0
 20
147.25
 30
0.0
 11
80.5
 21
147.25
 31
0.0
  0
CIRCLE
  8
0
  6
CONTINUOUS
 62
     2
 10
61.75
 20
149.5
 30
0.0
 40
2.0
  0
CIRCLE
  8
0
  6
CONTINUOUS
 62
     2
 10
56.25
 20
149.5
 30
0.0
 40
2.0
  0
CIRCLE
  8
0
  6
CONTINUOUS
 62
     2
 10
50.75
 20
149.5
 30
0.0
 40
2.0
  0
CIRCLE
  8
0
  6
CONTINUOUS
 62
     2
 10
45.25
 20
149.5
 30
0.0
 40
2.0
  0
CIRCLE
  8
0
  6
CONTINUOUS
 62
     2
 10
67.25
 20
149.5
 30
0.0
 40
2.0
  0
CIRCLE
  8
0
  6
CONTINUOUS
 62
     2
 10
72.75
 20
149.5
 30
0.0
 40
2.0
  0
CIRCLE
  8
0
  6
CONTINUOUS
 62
     2
 10
78.25
 20
149.5
 30
0.0
 40
2.0
  0
CIRCLE
  8
0
  6
CONTINUOUS
 62
     2
 10
39.75
 20
149.5
 30
0.0
 40
1.5
  0
CIRCLE
  8
0
  6
CONTINUOUS
 62
     2
 10
39.75
 20
149.5
 30
0.0
 40
1.75
  0
LINE
  8
0
  6
CONTINUOUS
 62
     2
 10
54.0
 20
155.0
 30
0.0
 11
54.0
 21
162.0
 31
0.0
  0
LINE
  8
0
  6
CONTINUOUS
 62
     2
 10
58.5
 20
155.0
 30
0.0
 11
58.5
 21
162.0
 31
0.0
  0
LINE
  8
0
  6
CONTINUOUS
 62
     2
 10
54.0
 20
161.0
 30
0.0
 11
58.5
 21
161.0
 31
0.0
  0
TEXT
  8
0
  6
CONTINUOUS
 62
     2
 10
54.9
 20
162.0
 30
0.3
 40
3.0
  1
８
 50
0.0
 41
0.9
 51
0.0
  7
KANJI0
  0
LINE
  8
0
  6
CONTINUOUS
 62
     2
 10
54.0
 20
161.0
 30
0.0
 11
55.5
 21
160.598076211
 31
0.0
  0
LINE
  8
0
  6
CONTINUOUS
 62
     2
 10
58.5
 20
161.0
 30
0.0
 11
57.0
 21
160.598076211
 31
0.0
  0
LINE
  8
0
  6
CONTINUOUS
 62
     2
 10
54.0
 20
161.0
 30
0.0
 11
55.5
 21
161.401923789
 31
0.0
  0
LINE
  8
0
  6
CONTINUOUS
 62
     2
 10
58.5
 20
161.0
 30
0.0
 11
57.0
 21
161.401923789
 31
0.0
  0
LINE
  8
0
  6
CONTINUOUS
 62
     1
 10
37.25
 20
145.0
 30
0.0
 11
102.75
 21
145.0
 31
0.0
  0
LINE
  8
0
  6
CONTINUOUS
 62
     1
 10
102.75
 20
154.0
 30
0.0
 11
37.25
 21
154.0
 31
0.0
  0
LINE
  8
0
  6
CONTINUOUS
 62
     1
 10
102.75
 20
145.0
 30
0.0
 11
102.75
 21
154.0
 31
0.0
  0
LINE
  8
0
  6
CONTINUOUS
 62
     1
 10
99.5
 20
149.5
 30
0.0
 11
101.0
 21
149.5
 31
0.0
  0
LINE
  8
0
  6
CONTINUOUS
 62
     1
 10
100.25
 20
150.25
 30
0.0
 11
100.25
 21
148.75
 31
0.0
  0
LINE
  8
0
  6
CONTINUOUS
 62
     2
 10
98.0
 20
154.0
 30
0.0
 11
98.0
 21
145.0
 31
0.0
  0
LINE
  8
0
  6
CONTINUOUS
 62
     2
 10
102.75
 20
151.75
 30
0.0
 11
98.0
 21
151.75
 31
0.0
  0
LINE
  8
0
  6
CONTINUOUS
 62
     2
 10
98.0
 20
147.25
 30
0.0
 11
102.75
 21
147.25
 31
0.0
  0
CIRCLE
  8
0
  6
CONTINUOUS
 62
     2
 10
100.25
 20
149.5
 30
0.0
 40
1.5
  0
CIRCLE
  8
0
  6
CONTINUOUS
 62
     2
 10
100.25
 20
149.5
 30
0.0
 40
1.75
  0
LINE
  8
0
  6
CONTINUOUS
 62
     2
 10
102.75
 20
144.0
 30
0.0
 11
37.25
 21
144.0
 31
0.0
  0
LINE
  8
0
  6
CONTINUOUS
 62
     1
 10
94.75
 20
148.25
 30
0.0
 11
94.75
 21
150.75
 31
0.0
  0
LINE
  8
0
  6
CONTINUOUS
 62
     1
 10
93.5
 20
149.5
 30
0.0
 11
96.0
 21
149.5
 31
0.0
  0
LINE
  8
0
  6
CONTINUOUS
 62
     1
 10
89.25
 20
148.25
 30
0.0
 11
89.25
 21
150.75
 31
0.0
  0
LINE
  8
0
  6
CONTINUOUS
 62
     1
 10
88.0
 20
149.5
 30
0.0
 11
90.5
 21
149.5
 31
0.0
  0
LINE
  8
0
  6
CONTINUOUS
 62
     1
 10
83.75
 20
148.25
 30
0.0
 11
83.75
 21
150.75
 31
0.0
  0
LINE
  8
0
  6
CONTINUOUS
 62
     1
 10
82.5
 20
149.5
 30
0.0
 11
85.0
 21
149.5
 31
0.0
  0
LINE
  8
0
  6
CONTINUOUS
 62
     2
 10
81.5
 20
154.0
 30
0.0
 11
81.5
 21
145.0
 31
0.0
  0
LINE
  8
0
  6
CONTINUOUS
 62
     2
 10
87.0
 20
154.0
 30
0.0
 11
87.0
 21
145.0
 31
0.0
  0
LINE
  8
0
  6
CONTINUOUS
 62
     2
 10
86.0
 20
154.0
 30
0.0
 11
86.0
 21
145.0
 31
0.0
  0
LINE
  8
0
  6
CONTINUOUS
 62
     2
 10
92.5
 20
154.0
 30
0.0
 11
92.5
 21
145.0
 31
0.0
  0
LINE
  8
0
  6
CONTINUOUS
 62
     2
 10
91.5
 20
154.0
 30
0.0
 11
91.5
 21
145.0
 31
0.0
  0
LINE
  8
0
  6
CONTINUOUS
 62
     2
 10
97.0
 20
154.0
 30
0.0
 11
97.0
 21
145.0
 31
0.0
  0
LINE
  8
0
  6
CONTINUOUS
 62
     2
 10
97.0
 20
151.75
 30
0.0
 11
92.5
 21
151.75
 31
0.0
  0
LINE
  8
0
  6
CONTINUOUS
 62
     2
 10
91.5
 20
151.75
 30
0.0
 11
87.0
 21
151.75
 31
0.0
  0
LINE
  8
0
  6
CONTINUOUS
 62
     2
 10
86.0
 20
151.75
 30
0.0
 11
81.5
 21
151.75
 31
0.0
  0
LINE
  8
0
  6
CONTINUOUS
 62
     2
 10
81.5
 20
147.25
 30
0.0
 11
86.0
 21
147.25
 31
0.0
  0
LINE
  8
0
  6
CONTINUOUS
 62
     2
 10
87.0
 20
147.25
 30
0.0
 11
91.5
 21
147.25
 31
0.0
  0
LINE
  8
0
  6
CONTINUOUS
 62
     2
 10
92.5
 20
147.25
 30
0.0
 11
97.0
 21
147.25
 31
0.0
  0
CIRCLE
  8
0
  6
CONTINUOUS
 62
     2
 10
83.75
 20
149.5
 30
0.0
 40
2.0
  0
CIRCLE
  8
0
  6
CONTINUOUS
 62
     2
 10
89.25
 20
149.5
 30
0.0
 40
2.0
  0
CIRCLE
  8
0
  6
CONTINUOUS
 62
     2
 10
94.75
 20
149.5
 30
0.0
 40
2.0
  0
LINE
  8
0
  6
CONTINUOUS
 62
     2
 10
37.25
 20
144.0
 30
0.0
 11
37.25
 21
115.0
 31
0.0
  0
LINE
  8
0
  6
CONTINUOUS
 62
     2
 10
102.75
 20
115.0
 30
0.0
 11
37.25
 21
115.0
 31
0.0
  0
LINE
  8
0
  6
CONTINUOUS
 62
     2
 10
102.75
 20
115.0
 30
0.0
 11
102.75
 21
144.0
 31
0.0
  0
CIRCLE
  8
0
  6
CONTINUOUS
 62
     2
 10
52.25
 20
123.0
 30
0.0
 40
1.5
  0
CIRCLE
  8
0
  6
CONTINUOUS
 62
     2
 10
63.75
 20
123.0
 30
0.0
 40
1.5
  0
LINE
  8
0
  6
LTYPE1
 62
     2
 10
136.0
 20
135.0
 30
0.0
 11
215.0
 21
135.0
 31
0.0
  0
LINE
  8
0
  6
LTYPE1
 62
     2
 10
44.0
 20
107.5
 30
0.0
 11
40.0
 21
107.5
 31
0.0
  0
LINE
  8
0
  6
LTYPE1
 62
     2
 10
42.0
 20
105.5
 30
0.0
 11
42.0
 21
109.5
 31
0.0
  0
LINE
  8
0
  6
LTYPE1
 62
     2
 10
98.0
 20
105.5
 30
0.0
 11
98.0
 21
109.5
 31
0.0
  0
LINE
  8
0
  6
LTYPE1
 62
     2
 10
44.0
 20
162.5
 30
0.0
 11
40.0
 21
162.5
 31
0.0
  0
TEXT
  8
0
  6
CONTINUOUS
 62
     2
 10
41.396947072
 20
136.0
 30
0.4
 40
4.0
  1
銘　板
 50
0.0
 41
0.9
 51
0.0
  7
KANJI3
  0
TEXT
  8
0
  6
CONTINUOUS
 62
     2
 10
37.384735358
 20
130.322
 30
0.4
 40
4.0
  1
（結線図）
 50
0.0
 41
0.9
 51
0.0
  7
KANJI3
  0
LINE
  8
0
  6
CONTINUOUS
 62
     2
 10
64.138228568
 20
121.551111261
 30
0.0
 11
65.388228568
 21
119.386047751
 31
0.0
  0
LINE
  8
0
  6
CONTINUOUS
 62
     2
 10
64.138228568
 20
121.551111261
 30
0.0
 11
64.138228568
 21
119.051111261
 31
0.0
  0
LINE
  8
0
  6
LTYPE1
 62
     2
 10
100.0
 20
162.5
 30
0.0
 11
96.0
 21
162.5
 31
0.0
  0
LINE
  8
0
  6
CONTINUOUS
 62
     2
 10
101.243
 20
162.5
 30
0.0
 11
128.0
 21
162.5
 31
0.0
  0
LINE
  8
0
  6
LTYPE1
 62
     2
 10
100.0
 20
107.5
 30
0.0
 11
96.0
 21
107.5
 31
0.0
  0
LINE
  8
0
  6
CONTINUOUS
 62
     2
 10
101.243
 20
107.5
 30
0.0
 11
128.0
 21
107.5
 31
0.0
  0
LINE
  8
0
  6
LTYPE1
 62
     2
 10
23.0
 20
135.0
 30
0.0
 11
117.0
 21
135.0
 31
0.0
  0
TEXT
  8
0
  6
CONTINUOUS
 62
     2
 10
73.03332335
 20
90.477
 30
0.3
 40
3.0
  1
検出表示灯（赤色発光ダイオード）
 50
0.0
 41
0.733333333
 51
0.0
  7
KANJI2
  0
LINE
  8
0
  6
CONTINUOUS
 62
     2
 10
112.61232335
 20
90.0
 30
0.0
 11
72.59232335
 21
90.0
 31
0.0
  0
LINE
  8
0
  6
CONTINUOUS
 62
     2
 10
64.138228568
 20
121.551111261
 30
0.0
 11
72.59232335
 21
90.0
 31
0.0
  0
LINE
  8
0
  6
CONTINUOUS
 62
     2
 10
52.638228568
 20
121.551111261
 30
0.0
 11
53.888228568
 21
119.386047751
 31
0.0
  0
LINE
  8
0
  6
CONTINUOUS
 62
     2
 10
52.638228568
 20
121.551111261
 30
0.0
 11
52.638228568
 21
119.051111261
 31
0.0
  0
TEXT
  8
0
  6
CONTINUOUS
 62
     2
 10
33.537577388
 20
95.477
 30
0.3
 40
3.0
  1
電源表示灯
 50
0.0
 41
0.733333333
 51
0.0
  7
KANJI2
  0
TEXT
  8
0
  6
CONTINUOUS
 62
     2
 10
33.537577388
 20
91.328
 30
0.3
 40
3.0
  1
（緑色発光ダイオード）
 50
0.0
 41
0.733333333
 51
0.0
  7
KANJI2
  0
LINE
  8
0
  6
CONTINUOUS
 62
     2
 10
59.752577388
 20
95.0
 30
0.0
 11
31.725254038
 21
95.0
 31
0.0
  0
LINE
  8
0
  6
CONTINUOUS
 62
     2
 10
52.638228568
 20
121.551111261
 30
0.0
 11
59.752577388
 21
95.0
 31
0.0
  0
TEXT
  8
0
  6
CONTINUOUS
 62
     2
 10
48.640361593
 20
81.078
 30
0.4
 40
4.0
  1
取付パネル
 50
0.0
 41
0.9
 51
0.0
  7
KANJI3
  0
POLYLINE
  8
0
  6
CONTINUOUS
 62
     1
 66
     1
  0
VERTEX
  8
0
  6
CONTINUOUS
 62
     1
 10
205.0
 20
104.0
 30
0.0
  0
VERTEX
  8
0
  6
CONTINUOUS
 62
     1
 10
204.2
 20
104.0
 30
0.0
  0
VERTEX
  8
0
  6
CONTINUOUS
 62
     1
 10
204.2
 20
111.5
 30
0.0
  0
SEQEND
  0
LINE
  8
0
  6
CONTINUOUS
 62
     1
 10
150.0
 20
111.5
 30
0.0
 11
204.2
 21
111.5
 31
0.0
  0
LINE
  8
0
  6
CONTINUOUS
 62
     2
 10
204.2
 20
98.5
 30
0.0
 11
204.2
 21
103.5
 31
0.0
  0
LINE
  8
0
  6
CONTINUOUS
 62
     2
 10
204.2
 20
99.5
 30
0.0
 11
201.785185434
 21
100.147047613
 31
0.0
  0
LINE
  8
0
  6
CONTINUOUS
 62
     2
 10
204.2
 20
99.5
 30
0.0
 11
201.785185434
 21
98.852952387
 31
0.0
  0
LINE
  8
0
  6
CONTINUOUS
 62
     2
 10
209.0
 20
99.5
 30
0.0
 11
200.2
 21
99.5
 31
0.0
  0
POLYLINE
  8
0
  6
CONTINUOUS
 62
     1
 66
     1
  0
VERTEX
  8
0
  6
CONTINUOUS
 62
     1
 10
205.0
 20
166.0
 30
0.0
  0
VERTEX
  8
0
  6
CONTINUOUS
 62
     1
 10
204.2
 20
166.0
 30
0.0
  0
VERTEX
  8
0
  6
CONTINUOUS
 62
     1
 10
204.2
 20
158.5
 30
0.0
  0
VERTEX
  8
0
  6
CONTINUOUS
 62
     1
 10
150.0
 20
158.5
 30
0.0
  0
SEQEND
  0
TEXT
  8
0
  6
CONTINUOUS
 62
     2
 10
201.082052928
 20
95.0
 30
0.3
 40
3.0
  1
１．６
 50
0.0
 41
0.9
 51
0.0
  7
KANJI0
  0
TEXT
  8
0
  6
CONTINUOUS
 62
     2
 10
110.596603532
 20
95.477
 30
0.3
 40
3.0
  1
絶縁抵抗値設定ツマミ（ロータリスイッチ）
 50
0.0
 41
0.733333333
 51
0.0
  7
KANJI2
  0
LINE
  8
0
  6
CONTINUOUS
 62
     2
 10
160.165603532
 20
95.0
 30
0.0
 11
110.155603532
 21
95.0
 31
0.0
  0
TEXT
  8
0
  6
CONTINUOUS
 62
     2
 10
124.878
 20
139.744
 30
0.3
 40
1.8
  1
±０．５
 50
90.0
 41
0.666666667
 51
0.0
  7
KANJI4
  0
CIRCLE
  8
0
  6
CONTINUOUS
 62
     2
 10
91.25
 20
121.0
 30
0.0
 40
4.5
  0
LINE
  8
0
  6
CONTINUOUS
 62
     2
 10
143.0
 20
125.5
 30
0.0
 11
143.0
 21
116.5
 31
0.0
  0
LINE
  8
0
  6
CONTINUOUS
 62
     2
 10
143.5
 20
125.5
 30
0.0
 11
143.5
 21
116.5
 31
0.0
  0
LINE
  8
0
  6
CONTINUOUS
 62
     2
 10
149.0
 20
125.5
 30
0.0
 11
149.0
 21
116.5
 31
0.0
  0
LINE
  8
0
  6
CONTINUOUS
 62
     2
 10
143.0
 20
118.5
 30
0.0
 11
149.0
 21
118.5
 31
0.0
  0
LINE
  8
0
  6
CONTINUOUS
 62
     2
 10
143.0
 20
119.5
 30
0.0
 11
149.0
 21
119.5
 31
0.0
  0
LINE
  8
0
  6
CONTINUOUS
 62
     2
 10
143.0
 20
120.5
 30
0.0
 11
149.0
 21
120.5
 31
0.0
  0
LINE
  8
0
  6
CONTINUOUS
 62
     2
 10
143.0
 20
121.5
 30
0.0
 11
149.0
 21
121.5
 31
0.0
  0
LINE
  8
0
  6
CONTINUOUS
 62
     2
 10
143.0
 20
122.5
 30
0.0
 11
149.0
 21
122.5
 31
0.0
  0
LINE
  8
0
  6
CONTINUOUS
 62
     2
 10
143.0
 20
123.5
 30
0.0
 11
149.0
 21
123.5
 31
0.0
  0
LINE
  8
0
  6
CONTINUOUS
 62
     2
 10
143.0
 20
124.5
 30
0.0
 11
150.0
 21
124.5
 31
0.0
  0
LINE
  8
0
  6
CONTINUOUS
 62
     2
 10
143.0
 20
117.5
 30
0.0
 11
150.0
 21
117.5
 31
0.0
  0
LINE
  8
0
  6
CONTINUOUS
 62
     2
 10
143.0
 20
116.5
 30
0.0
 11
149.0
 21
116.5
 31
0.0
  0
LINE
  8
0
  6
CONTINUOUS
 62
     2
 10
149.0
 20
125.5
 30
0.0
 11
143.0
 21
125.5
 31
0.0
  0
LINE
  8
0
  6
CONTINUOUS
 62
     2
 10
94.279887653
 20
117.672871988
 30
0.0
 11
96.194998761
 21
116.065902963
 31
0.0
  0
LINE
  8
0
  6
CONTINUOUS
 62
     2
 10
94.279887653
 20
117.672871988
 30
0.0
 11
95.134938011
 21
115.323640436
 31
0.0
  0
LINE
  8
0
  6
CONTINUOUS
 62
     2
 10
94.279887653
 20
117.672871988
 30
0.0
 11
110.155603532
 21
95.0
 31
0.0
  0
CIRCLE
  8
0
  6
CONTINUOUS
 62
     2
 10
91.25
 20
124.0
 30
0.0
 40
0.1
  0
CIRCLE
  8
0
  6
CONTINUOUS
 62
     2
 10
91.25
 20
124.0
 30
0.0
 40
0.2
  0
CIRCLE
  8
0
  6
CONTINUOUS
 62
     2
 10
91.25
 20
124.0
 30
0.0
 40
0.3
  0
TEXT
  8
0
  6
CONTINUOUS
 62
     3
 10
211.581
 20
29.897
 30
0.2
 40
5.8
  1
ＭＳ－１０９２２Ａ
 50
0.0
 41
0.827586207
 51
0.0
  7
KANJI5
  0
TEXT
  8
0
  6
CONTINUOUS
 62
     1
 10
213.0
 20
52.0
 30
0.4
 40
4.0
  1
ＩＳ－３
 50
0.0
 41
0.9
 51
0.0
  7
KANJI6
  0
TEXT
  8
0
  6
CONTINUOUS
 62
     1
 10
213.0
 20
42.0
 30
0.4
 40
4.0
  1
絶縁抵抗検出器　外形図
 50
0.0
 41
0.9
 51
0.0
  7
KANJI6
  0
ENDSEC
  0
EOF
