  0
SECTION
  2
HEADER
  9
$ACADVER
  1
AC1009
  9
$DWGCODEPAGE
  3
dos932
  9
$EXTMIN
 10
0.0
 20
0.0
 30
0.0
  9
$EXTMAX
 10
297.0
 20
210.0
 30
0.0
  9
$LIMMIN
 10
0.0
 20
0.0
  9
$LIMMAX
 10
297.0
 20
210.0
  9
$LTSCALE
 40
1.0
  9
$PDMODE
 70
     0
  0
ENDSEC
  0
SECTION
  2
TABLES
  0
TABLE
  2
VPORT
 70
     1
  0
VPORT
  2
*ACTIVE
 70
     0
 10
0.0
 20
0.0
 11
1.0
 21
1.0
 12
148.5
 22
105.0
 13
0.0
 23
0.0
 14
10.0
 24
10.0
 15
10.0
 25
10.0
 16
0.0
 26
0.0
 36
1.0
 17
0.0
 27
0.0
 37
0.0
 40
297.0
 41
1.414285714
 42
50.0
 43
0.0
 44
0.0
 50
0.0
 51
0.0
 71
     0
 72
  1000
 73
     1
 74
     3
 75
     0
 76
     0
 77
     0
 78
     0
  0
ENDTAB
  0
TABLE
  2
LTYPE
 70
     3
  0
LTYPE
  2
CONTINUOUS
 70
    64
  3
Solid line
 72
    65
 73
     0
 40
0.0
  0
LTYPE
  2
LTYPE1
 70
    64
  3
CENTERX2
 72
    65
 73
     4
 40
15.0
 49
12.75
 49
-0.75
 49
0.75
 49
-0.75
  0
LTYPE
  2
LTYPE2
 70
    64
  3
HIDDEN
 72
    65
 73
     2
 40
2.0
 49
1.2
 49
-0.8
  0
ENDTAB
  0
TABLE
  2
LAYER
 70
   128
  0
LAYER
  2
0
 70
     0
 62
     7
  6
CONTINUOUS
  0
LAYER
  2
2
 70
     0
 62
     7
  6
CONTINUOUS
  0
LAYER
  2
3
 70
     0
 62
     7
  6
CONTINUOUS
  0
LAYER
  2
4
 70
     0
 62
     7
  6
CONTINUOUS
  0
LAYER
  2
5
 70
     0
 62
     7
  6
CONTINUOUS
  0
LAYER
  2
6
 70
     0
 62
     7
  6
CONTINUOUS
  0
LAYER
  2
7
 70
     0
 62
     7
  6
CONTINUOUS
  0
LAYER
  2
8
 70
     0
 62
     7
  6
CONTINUOUS
  0
LAYER
  2
9
 70
     0
 62
     7
  6
CONTINUOUS
  0
LAYER
  2
10
 70
     0
 62
     7
  6
CONTINUOUS
  0
LAYER
  2
11
 70
     0
 62
     7
  6
CONTINUOUS
  0
LAYER
  2
12
 70
     0
 62
     7
  6
CONTINUOUS
  0
LAYER
  2
13
 70
     0
 62
     7
  6
CONTINUOUS
  0
LAYER
  2
14
 70
     0
 62
     7
  6
CONTINUOUS
  0
LAYER
  2
15
 70
     0
 62
     7
  6
CONTINUOUS
  0
LAYER
  2
16
 70
     0
 62
     7
  6
CONTINUOUS
  0
LAYER
  2
17
 70
     0
 62
     7
  6
CONTINUOUS
  0
LAYER
  2
18
 70
     0
 62
     7
  6
CONTINUOUS
  0
LAYER
  2
19
 70
     0
 62
     7
  6
CONTINUOUS
  0
LAYER
  2
20
 70
     0
 62
     7
  6
CONTINUOUS
  0
LAYER
  2
21
 70
     0
 62
     7
  6
CONTINUOUS
  0
LAYER
  2
22
 70
     0
 62
     7
  6
CONTINUOUS
  0
LAYER
  2
23
 70
     0
 62
     7
  6
CONTINUOUS
  0
LAYER
  2
24
 70
     0
 62
     7
  6
CONTINUOUS
  0
LAYER
  2
25
 70
     0
 62
     7
  6
CONTINUOUS
  0
LAYER
  2
26
 70
     0
 62
     7
  6
CONTINUOUS
  0
LAYER
  2
27
 70
     0
 62
     7
  6
CONTINUOUS
  0
LAYER
  2
28
 70
     0
 62
     7
  6
CONTINUOUS
  0
LAYER
  2
29
 70
     0
 62
     7
  6
CONTINUOUS
  0
LAYER
  2
30
 70
     0
 62
     7
  6
CONTINUOUS
  0
LAYER
  2
31
 70
     0
 62
     7
  6
CONTINUOUS
  0
LAYER
  2
32
 70
     0
 62
     7
  6
CONTINUOUS
  0
LAYER
  2
33
 70
     0
 62
     7
  6
CONTINUOUS
  0
LAYER
  2
34
 70
     0
 62
     7
  6
CONTINUOUS
  0
LAYER
  2
35
 70
     0
 62
     7
  6
CONTINUOUS
  0
LAYER
  2
36
 70
     0
 62
     7
  6
CONTINUOUS
  0
LAYER
  2
37
 70
     0
 62
     7
  6
CONTINUOUS
  0
LAYER
  2
38
 70
     0
 62
     7
  6
CONTINUOUS
  0
LAYER
  2
39
 70
     0
 62
     7
  6
CONTINUOUS
  0
LAYER
  2
40
 70
     0
 62
     7
  6
CONTINUOUS
  0
LAYER
  2
41
 70
     0
 62
     7
  6
CONTINUOUS
  0
LAYER
  2
42
 70
     0
 62
     7
  6
CONTINUOUS
  0
LAYER
  2
43
 70
     0
 62
     7
  6
CONTINUOUS
  0
LAYER
  2
44
 70
     0
 62
     7
  6
CONTINUOUS
  0
LAYER
  2
45
 70
     0
 62
     7
  6
CONTINUOUS
  0
LAYER
  2
46
 70
     0
 62
     7
  6
CONTINUOUS
  0
LAYER
  2
47
 70
     0
 62
     7
  6
CONTINUOUS
  0
LAYER
  2
48
 70
     0
 62
     7
  6
CONTINUOUS
  0
LAYER
  2
49
 70
     0
 62
     7
  6
CONTINUOUS
  0
LAYER
  2
50
 70
     0
 62
     7
  6
CONTINUOUS
  0
LAYER
  2
51
 70
     0
 62
     7
  6
CONTINUOUS
  0
LAYER
  2
52
 70
     0
 62
     7
  6
CONTINUOUS
  0
LAYER
  2
53
 70
     0
 62
     7
  6
CONTINUOUS
  0
LAYER
  2
54
 70
     0
 62
     7
  6
CONTINUOUS
  0
LAYER
  2
55
 70
     0
 62
     7
  6
CONTINUOUS
  0
LAYER
  2
56
 70
     0
 62
     7
  6
CONTINUOUS
  0
LAYER
  2
57
 70
     0
 62
     7
  6
CONTINUOUS
  0
LAYER
  2
58
 70
     0
 62
     7
  6
CONTINUOUS
  0
LAYER
  2
59
 70
     0
 62
     7
  6
CONTINUOUS
  0
LAYER
  2
60
 70
     0
 62
     7
  6
CONTINUOUS
  0
LAYER
  2
61
 70
     0
 62
     7
  6
CONTINUOUS
  0
LAYER
  2
62
 70
     0
 62
     7
  6
CONTINUOUS
  0
LAYER
  2
63
 70
     0
 62
     7
  6
CONTINUOUS
  0
LAYER
  2
64
 70
     0
 62
     7
  6
CONTINUOUS
  0
LAYER
  2
65
 70
     0
 62
     7
  6
CONTINUOUS
  0
LAYER
  2
66
 70
     0
 62
     7
  6
CONTINUOUS
  0
LAYER
  2
67
 70
     0
 62
     7
  6
CONTINUOUS
  0
LAYER
  2
68
 70
     0
 62
     7
  6
CONTINUOUS
  0
LAYER
  2
69
 70
     0
 62
     7
  6
CONTINUOUS
  0
LAYER
  2
70
 70
     0
 62
     7
  6
CONTINUOUS
  0
LAYER
  2
71
 70
     0
 62
     7
  6
CONTINUOUS
  0
LAYER
  2
72
 70
     0
 62
     7
  6
CONTINUOUS
  0
LAYER
  2
73
 70
     0
 62
     7
  6
CONTINUOUS
  0
LAYER
  2
74
 70
     0
 62
     7
  6
CONTINUOUS
  0
LAYER
  2
75
 70
     0
 62
     7
  6
CONTINUOUS
  0
LAYER
  2
76
 70
     0
 62
     7
  6
CONTINUOUS
  0
LAYER
  2
77
 70
     0
 62
     7
  6
CONTINUOUS
  0
LAYER
  2
78
 70
     0
 62
     7
  6
CONTINUOUS
  0
LAYER
  2
79
 70
     0
 62
     7
  6
CONTINUOUS
  0
LAYER
  2
80
 70
     0
 62
     7
  6
CONTINUOUS
  0
LAYER
  2
81
 70
     0
 62
     7
  6
CONTINUOUS
  0
LAYER
  2
82
 70
     0
 62
     7
  6
CONTINUOUS
  0
LAYER
  2
83
 70
     0
 62
     7
  6
CONTINUOUS
  0
LAYER
  2
84
 70
     0
 62
     7
  6
CONTINUOUS
  0
LAYER
  2
85
 70
     0
 62
     7
  6
CONTINUOUS
  0
LAYER
  2
86
 70
     0
 62
     7
  6
CONTINUOUS
  0
LAYER
  2
87
 70
     0
 62
     7
  6
CONTINUOUS
  0
LAYER
  2
88
 70
     0
 62
     7
  6
CONTINUOUS
  0
LAYER
  2
89
 70
     0
 62
     7
  6
CONTINUOUS
  0
LAYER
  2
90
 70
     0
 62
     7
  6
CONTINUOUS
  0
LAYER
  2
91
 70
     0
 62
     7
  6
CONTINUOUS
  0
LAYER
  2
92
 70
     0
 62
     7
  6
CONTINUOUS
  0
LAYER
  2
93
 70
     0
 62
     7
  6
CONTINUOUS
  0
LAYER
  2
94
 70
     0
 62
     7
  6
CONTINUOUS
  0
LAYER
  2
95
 70
     0
 62
     7
  6
CONTINUOUS
  0
LAYER
  2
96
 70
     0
 62
     7
  6
CONTINUOUS
  0
LAYER
  2
97
 70
     0
 62
     7
  6
CONTINUOUS
  0
LAYER
  2
98
 70
     0
 62
     7
  6
CONTINUOUS
  0
LAYER
  2
99
 70
     0
 62
     7
  6
CONTINUOUS
  0
LAYER
  2
100
 70
     0
 62
     7
  6
CONTINUOUS
  0
LAYER
  2
101
 70
     0
 62
     7
  6
CONTINUOUS
  0
LAYER
  2
102
 70
     0
 62
     7
  6
CONTINUOUS
  0
LAYER
  2
103
 70
     0
 62
     7
  6
CONTINUOUS
  0
LAYER
  2
104
 70
     0
 62
     7
  6
CONTINUOUS
  0
LAYER
  2
105
 70
     0
 62
     7
  6
CONTINUOUS
  0
LAYER
  2
106
 70
     0
 62
     7
  6
CONTINUOUS
  0
LAYER
  2
107
 70
     0
 62
     7
  6
CONTINUOUS
  0
LAYER
  2
108
 70
     0
 62
     7
  6
CONTINUOUS
  0
LAYER
  2
109
 70
     0
 62
     7
  6
CONTINUOUS
  0
LAYER
  2
110
 70
     0
 62
     7
  6
CONTINUOUS
  0
LAYER
  2
111
 70
     0
 62
     7
  6
CONTINUOUS
  0
LAYER
  2
112
 70
     0
 62
     7
  6
CONTINUOUS
  0
LAYER
  2
113
 70
     0
 62
     7
  6
CONTINUOUS
  0
LAYER
  2
114
 70
     0
 62
     7
  6
CONTINUOUS
  0
LAYER
  2
115
 70
     0
 62
     7
  6
CONTINUOUS
  0
LAYER
  2
116
 70
     0
 62
     7
  6
CONTINUOUS
  0
LAYER
  2
117
 70
     0
 62
     7
  6
CONTINUOUS
  0
LAYER
  2
118
 70
     0
 62
     7
  6
CONTINUOUS
  0
LAYER
  2
119
 70
     0
 62
     7
  6
CONTINUOUS
  0
LAYER
  2
120
 70
     0
 62
     7
  6
CONTINUOUS
  0
LAYER
  2
121
 70
     0
 62
     7
  6
CONTINUOUS
  0
LAYER
  2
122
 70
     0
 62
     7
  6
CONTINUOUS
  0
LAYER
  2
123
 70
     0
 62
     7
  6
CONTINUOUS
  0
LAYER
  2
124
 70
     0
 62
     7
  6
CONTINUOUS
  0
LAYER
  2
125
 70
     0
 62
     7
  6
CONTINUOUS
  0
LAYER
  2
126
 70
     0
 62
     7
  6
CONTINUOUS
  0
LAYER
  2
127
 70
     0
 62
     7
  6
CONTINUOUS
  0
LAYER
  2
128
 70
     0
 62
     7
  6
CONTINUOUS
  0
ENDTAB
  0
TABLE
  2
STYLE
 70
    18
  0
STYLE
  2
STANDARD
 70
     0
 40
0.0
 41
1.0
 50
0.0
 71
     0
 42
0.2
  3
txt.shx
  4
extfont.shx
  0
STYLE
  2
KANJI0
 70
     0
 40
3.0
 41
0.6
 50
0.0
 71
     0
 42
3.0
  3
txt.shx
  4
extfont.shx
  0
STYLE
  2
KANJI1
 70
     0
 40
1.8
 41
0.6
 50
0.0
 71
     0
 42
1.8
  3
txt.shx
  4
extfont.shx
  0
STYLE
  2
KANJI2
 70
     0
 40
3.0
 41
0.8
 50
0.0
 71
     0
 42
3.0
  3
txt.shx
  4
extfont.shx
  0
STYLE
  2
KANJI3
 70
     0
 40
3.0
 41
0.7
 50
0.0
 71
     0
 42
3.0
  3
txt.shx
  4
extfont.shx
  0
STYLE
  2
KANJI4
 70
     0
 40
3.0
 41
0.8
 50
0.0
 71
     0
 42
3.0
  3
txt.shx
  4
extfont.shx
  0
STYLE
  2
KANJI5
 70
     0
 40
3.0
 41
0.8
 50
0.0
 71
     0
 42
3.0
  3
txt.shx
  4
extfont.shx
  0
STYLE
  2
KANJI6
 70
     0
 40
3.0
 41
0.8
 50
0.0
 71
     0
 42
3.0
  3
txt.shx
  4
extfont.shx
  0
STYLE
  2
KANJI7
 70
     0
 40
3.0
 41
0.5
 50
0.0
 71
     0
 42
3.0
  3
txt.shx
  4
extfont.shx
  0
STYLE
  2
KANJI8
 70
     0
 40
3.0
 41
1.666666667
 50
0.0
 71
     0
 42
3.0
  3
txt.shx
  4
extfont.shx
  0
STYLE
  2
KANJI9
 70
     0
 40
3.0
 41
0.9
 50
0.0
 71
     0
 42
3.0
  3
txt.shx
  4
extfont.shx
  0
STYLE
  2
KANJI10
 70
     0
 40
3.0
 41
0.7
 50
0.0
 71
     0
 42
3.0
  3
txt.shx
  4
extfont.shx
  0
STYLE
  2
KANJI11
 70
     0
 40
4.0
 41
0.9
 50
0.0
 71
     0
 42
4.0
  3
txt.shx
  4
extfont.shx
  0
STYLE
  2
KANJI12
 70
     0
 40
1.5
 41
0.666666667
 50
0.0
 71
     0
 42
1.5
  3
txt.shx
  4
extfont.shx
  0
STYLE
  2
KANJI13
 70
     0
 40
2.0
 41
0.65
 50
0.0
 71
     0
 42
2.0
  3
txt.shx
  4
extfont.shx
  0
STYLE
  2
KANJI14
 70
     0
 40
2.0
 41
0.65
 50
0.0
 71
     0
 42
2.0
  3
txt.shx
  4
extfont.shx
  0
STYLE
  2
KANJI15
 70
     0
 40
4.0
 41
0.9
 50
0.0
 71
     0
 42
4.0
  3
txt.shx
  4
extfont.shx
  0
STYLE
  2
KANJI16
 70
     0
 40
5.8
 41
0.827586207
 50
0.0
 71
     0
 42
5.8
  3
txt.shx
  4
extfont.shx
  0
ENDTAB
  0
TABLE
  2
VIEW
 70
     0
  0
ENDTAB
  0
ENDSEC
  0
SECTION
  2
BLOCKS
  0
ENDSEC
  0
SECTION
  2
ENTITIES
  0
CIRCLE
  8
0
  6
CONTINUOUS
 62
     1
 10
80.0
 20
80.0
 30
0.0
 40
12.5
  0
LINE
  8
0
  6
CONTINUOUS
 62
     1
 10
60.0
 20
40.0
 30
0.0
 11
65.0
 21
42.0
 31
0.0
  0
LINE
  8
0
  6
CONTINUOUS
 62
     1
 10
65.0
 20
42.0
 30
0.0
 11
95.0
 21
42.0
 31
0.0
  0
LINE
  8
0
  6
CONTINUOUS
 62
     1
 10
95.0
 20
42.0
 30
0.0
 11
100.0
 21
40.0
 31
0.0
  0
LINE
  8
0
  6
CONTINUOUS
 62
     1
 10
100.0
 20
40.0
 30
0.0
 11
124.0
 21
40.0
 31
0.0
  0
LINE
  8
0
  6
CONTINUOUS
 62
     1
 10
36.0
 20
40.0
 30
0.0
 11
60.0
 21
40.0
 31
0.0
  0
LINE
  8
0
  6
CONTINUOUS
 62
     2
 10
77.03
 20
96.68
 30
0.0
 11
77.03
 21
105.32
 31
0.0
  0
LINE
  8
0
  6
CONTINUOUS
 62
     2
 10
77.03
 20
105.32
 30
0.0
 11
77.93
 21
105.32
 31
0.0
  0
LINE
  8
0
  6
CONTINUOUS
 62
     2
 10
77.93
 20
105.32
 30
0.0
 11
77.93
 21
101.60652299
 31
0.0
  0
LINE
  8
0
  6
CONTINUOUS
 62
     2
 10
77.93
 20
101.60652299
 30
0.0
 11
81.782626765
 21
105.32
 31
0.0
  0
LINE
  8
0
  6
CONTINUOUS
 62
     2
 10
81.782626765
 20
105.32
 30
0.0
 11
83.079484989
 21
105.32
 31
0.0
  0
LINE
  8
0
  6
CONTINUOUS
 62
     2
 10
83.079484989
 20
105.32
 30
0.0
 11
79.095593376
 21
101.479999186
 31
0.0
  0
LINE
  8
0
  6
CONTINUOUS
 62
     2
 10
79.095593376
 20
101.479999186
 30
0.0
 11
83.20871246
 21
96.68
 31
0.0
  0
LINE
  8
0
  6
CONTINUOUS
 62
     2
 10
83.20871246
 20
96.68
 30
0.0
 11
82.023484718
 21
96.68
 31
0.0
  0
LINE
  8
0
  6
CONTINUOUS
 62
     2
 10
82.023484718
 20
96.68
 30
0.0
 11
78.446491517
 21
100.854341686
 31
0.0
  0
LINE
  8
0
  6
CONTINUOUS
 62
     2
 10
78.446491517
 20
100.854341686
 30
0.0
 11
77.93
 21
100.356504888
 31
0.0
  0
LINE
  8
0
  6
CONTINUOUS
 62
     2
 10
77.93
 20
100.356504888
 30
0.0
 11
77.93
 21
96.68
 31
0.0
  0
LINE
  8
0
  6
CONTINUOUS
 62
     2
 10
77.93
 20
96.68
 30
0.0
 11
77.03
 21
96.68
 31
0.0
  0
LINE
  8
0
  6
CONTINUOUS
 62
     2
 10
77.13
 20
96.78
 30
0.0
 11
77.13
 21
105.22
 31
0.0
  0
LINE
  8
0
  6
CONTINUOUS
 62
     2
 10
77.13
 20
105.22
 30
0.0
 11
77.83
 21
105.22
 31
0.0
  0
LINE
  8
0
  6
CONTINUOUS
 62
     2
 10
77.83
 20
105.22
 30
0.0
 11
77.83
 21
101.371243905
 31
0.0
  0
LINE
  8
0
  6
CONTINUOUS
 62
     2
 10
77.83
 20
101.371243905
 30
0.0
 11
81.822974968
 21
105.22
 31
0.0
  0
LINE
  8
0
  6
CONTINUOUS
 62
     2
 10
81.822974968
 20
105.22
 30
0.0
 11
82.831642475
 21
105.22
 31
0.0
  0
LINE
  8
0
  6
CONTINUOUS
 62
     2
 10
82.831642475
 20
105.22
 30
0.0
 11
78.958290857
 21
101.486546681
 31
0.0
  0
LINE
  8
0
  6
CONTINUOUS
 62
     2
 10
78.958290857
 20
101.486546681
 30
0.0
 11
82.991330493
 21
96.78
 31
0.0
  0
LINE
  8
0
  6
CONTINUOUS
 62
     2
 10
82.991330493
 20
96.78
 30
0.0
 11
82.069486694
 21
96.78
 31
0.0
  0
LINE
  8
0
  6
CONTINUOUS
 62
     2
 10
82.069486694
 20
96.78
 30
0.0
 11
78.453433856
 21
100.999924181
 31
0.0
  0
LINE
  8
0
  6
CONTINUOUS
 62
     2
 10
78.453433856
 20
100.999924181
 30
0.0
 11
77.83
 21
100.399007603
 31
0.0
  0
LINE
  8
0
  6
CONTINUOUS
 62
     2
 10
77.83
 20
100.399007603
 30
0.0
 11
77.83
 21
96.78
 31
0.0
  0
LINE
  8
0
  6
CONTINUOUS
 62
     2
 10
77.83
 20
96.78
 30
0.0
 11
77.13
 21
96.78
 31
0.0
  0
LINE
  8
0
  6
CONTINUOUS
 62
     2
 10
77.23
 20
96.88
 30
0.0
 11
77.23
 21
105.12
 31
0.0
  0
LINE
  8
0
  6
CONTINUOUS
 62
     2
 10
77.23
 20
105.12
 30
0.0
 11
77.73
 21
105.12
 31
0.0
  0
LINE
  8
0
  6
CONTINUOUS
 62
     2
 10
77.73
 20
105.12
 30
0.0
 11
77.73
 21
101.13596482
 31
0.0
  0
LINE
  8
0
  6
CONTINUOUS
 62
     2
 10
77.73
 20
101.13596482
 30
0.0
 11
81.863323171
 21
105.12
 31
0.0
  0
LINE
  8
0
  6
CONTINUOUS
 62
     2
 10
81.863323171
 20
105.12
 30
0.0
 11
82.583799962
 21
105.12
 31
0.0
  0
LINE
  8
0
  6
CONTINUOUS
 62
     2
 10
82.583799962
 20
105.12
 30
0.0
 11
78.820988338
 21
101.493094175
 31
0.0
  0
LINE
  8
0
  6
CONTINUOUS
 62
     2
 10
78.820988338
 20
101.493094175
 30
0.0
 11
82.773948526
 21
96.88
 31
0.0
  0
LINE
  8
0
  6
CONTINUOUS
 62
     2
 10
82.773948526
 20
96.88
 30
0.0
 11
82.115488669
 21
96.88
 31
0.0
  0
LINE
  8
0
  6
CONTINUOUS
 62
     2
 10
82.115488669
 20
96.88
 30
0.0
 11
78.460376194
 21
101.145506675
 31
0.0
  0
LINE
  8
0
  6
CONTINUOUS
 62
     2
 10
78.460376194
 20
101.145506675
 30
0.0
 11
77.73
 21
100.441510319
 31
0.0
  0
LINE
  8
0
  6
CONTINUOUS
 62
     2
 10
77.73
 20
100.441510319
 30
0.0
 11
77.73
 21
96.88
 31
0.0
  0
LINE
  8
0
  6
CONTINUOUS
 62
     2
 10
77.73
 20
96.88
 30
0.0
 11
77.23
 21
96.88
 31
0.0
  0
LINE
  8
0
  6
CONTINUOUS
 62
     2
 10
77.33
 20
96.98
 30
0.0
 11
77.33
 21
105.02
 31
0.0
  0
LINE
  8
0
  6
CONTINUOUS
 62
     2
 10
77.33
 20
105.02
 30
0.0
 11
77.63
 21
105.02
 31
0.0
  0
LINE
  8
0
  6
CONTINUOUS
 62
     2
 10
77.63
 20
105.02
 30
0.0
 11
77.63
 21
100.900685735
 31
0.0
  0
LINE
  8
0
  6
CONTINUOUS
 62
     2
 10
77.63
 20
100.900685735
 30
0.0
 11
81.903671373
 21
105.02
 31
0.0
  0
LINE
  8
0
  6
CONTINUOUS
 62
     2
 10
81.903671373
 20
105.02
 30
0.0
 11
82.335957448
 21
105.02
 31
0.0
  0
LINE
  8
0
  6
CONTINUOUS
 62
     2
 10
82.335957448
 20
105.02
 30
0.0
 11
78.683685819
 21
101.49964167
 31
0.0
  0
LINE
  8
0
  6
CONTINUOUS
 62
     2
 10
78.683685819
 20
101.49964167
 30
0.0
 11
82.556566559
 21
96.98
 31
0.0
  0
LINE
  8
0
  6
CONTINUOUS
 62
     2
 10
82.556566559
 20
96.98
 30
0.0
 11
82.161490645
 21
96.98
 31
0.0
  0
LINE
  8
0
  6
CONTINUOUS
 62
     2
 10
82.161490645
 20
96.98
 30
0.0
 11
78.467318533
 21
101.29108917
 31
0.0
  0
LINE
  8
0
  6
CONTINUOUS
 62
     2
 10
78.467318533
 20
101.29108917
 30
0.0
 11
77.63
 21
100.484013034
 31
0.0
  0
LINE
  8
0
  6
CONTINUOUS
 62
     2
 10
77.63
 20
100.484013034
 30
0.0
 11
77.63
 21
96.98
 31
0.0
  0
LINE
  8
0
  6
CONTINUOUS
 62
     2
 10
77.63
 20
96.98
 30
0.0
 11
77.33
 21
96.98
 31
0.0
  0
LINE
  8
0
  6
CONTINUOUS
 62
     2
 10
77.43
 20
97.08
 30
0.0
 11
77.43
 21
104.92
 31
0.0
  0
LINE
  8
0
  6
CONTINUOUS
 62
     2
 10
77.43
 20
104.92
 30
0.0
 11
77.53
 21
104.92
 31
0.0
  0
LINE
  8
0
  6
CONTINUOUS
 62
     2
 10
77.53
 20
104.92
 30
0.0
 11
77.53
 21
100.66540665
 31
0.0
  0
LINE
  8
0
  6
CONTINUOUS
 62
     2
 10
77.53
 20
100.66540665
 30
0.0
 11
81.944019576
 21
104.92
 31
0.0
  0
LINE
  8
0
  6
CONTINUOUS
 62
     2
 10
81.944019576
 20
104.92
 30
0.0
 11
82.088114934
 21
104.92
 31
0.0
  0
LINE
  8
0
  6
CONTINUOUS
 62
     2
 10
82.088114934
 20
104.92
 30
0.0
 11
78.5463833
 21
101.506189164
 31
0.0
  0
LINE
  8
0
  6
CONTINUOUS
 62
     2
 10
78.5463833
 20
101.506189164
 30
0.0
 11
82.339184593
 21
97.08
 31
0.0
  0
LINE
  8
0
  6
CONTINUOUS
 62
     2
 10
82.339184593
 20
97.08
 30
0.0
 11
82.207492621
 21
97.08
 31
0.0
  0
LINE
  8
0
  6
CONTINUOUS
 62
     2
 10
82.207492621
 20
97.08
 30
0.0
 11
78.474260871
 21
101.436671664
 31
0.0
  0
LINE
  8
0
  6
CONTINUOUS
 62
     2
 10
78.474260871
 20
101.436671664
 30
0.0
 11
77.53
 21
100.526515749
 31
0.0
  0
LINE
  8
0
  6
CONTINUOUS
 62
     2
 10
77.53
 20
100.526515749
 30
0.0
 11
77.53
 21
97.08
 31
0.0
  0
LINE
  8
0
  6
CONTINUOUS
 62
     2
 10
77.53
 20
97.08
 30
0.0
 11
77.43
 21
97.08
 31
0.0
  0
LINE
  8
0
  6
CONTINUOUS
 62
     1
 10
95.148046656
 20
109.073056256
 30
0.0
 11
95.339439936
 21
109.195547955
 31
0.0
  0
LINE
  8
0
  6
CONTINUOUS
 62
     1
 10
95.339439936
 20
109.195547955
 30
0.0
 11
95.530833216
 21
109.31931561
 31
0.0
  0
LINE
  8
0
  6
CONTINUOUS
 62
     1
 10
95.530833216
 20
109.31931561
 30
0.0
 11
95.722226496
 21
109.445635174
 31
0.0
  0
LINE
  8
0
  6
CONTINUOUS
 62
     1
 10
95.722226496
 20
109.445635174
 30
0.0
 11
95.913619776
 21
109.575782605
 31
0.0
  0
LINE
  8
0
  6
CONTINUOUS
 62
     1
 10
95.913619776
 20
109.575782605
 30
0.0
 11
96.105013056
 21
109.711033856
 31
0.0
  0
LINE
  8
0
  6
CONTINUOUS
 62
     1
 10
96.105013056
 20
109.711033856
 30
0.0
 11
96.306613978
 21
109.862872525
 31
0.0
  0
LINE
  8
0
  6
CONTINUOUS
 62
     1
 10
96.306613978
 20
109.862872525
 30
0.0
 11
96.505662989
 21
110.019815014
 31
0.0
  0
LINE
  8
0
  6
CONTINUOUS
 62
     1
 10
96.505662989
 20
110.019815014
 30
0.0
 11
96.699608179
 21
110.18058537
 31
0.0
  0
LINE
  8
0
  6
CONTINUOUS
 62
     1
 10
96.699608179
 20
110.18058537
 30
0.0
 11
96.885897638
 21
110.343907635
 31
0.0
  0
LINE
  8
0
  6
CONTINUOUS
 62
     1
 10
96.885897638
 20
110.343907635
 30
0.0
 11
97.061979456
 21
110.508505856
 31
0.0
  0
LINE
  8
0
  6
CONTINUOUS
 62
     1
 10
97.061979456
 20
110.508505856
 30
0.0
 11
97.220197901
 21
110.662896435
 31
0.0
  0
LINE
  8
0
  6
CONTINUOUS
 62
     1
 10
97.220197901
 20
110.662896435
 30
0.0
 11
97.364380838
 21
110.81856297
 31
0.0
  0
LINE
  8
0
  6
CONTINUOUS
 62
     1
 10
97.364380838
 20
110.81856297
 30
0.0
 11
97.493252314
 21
110.976781414
 31
0.0
  0
LINE
  8
0
  6
CONTINUOUS
 62
     1
 10
97.493252314
 20
110.976781414
 30
0.0
 11
97.605536371
 21
111.138827725
 31
0.0
  0
LINE
  8
0
  6
CONTINUOUS
 62
     1
 10
97.605536371
 20
111.138827725
 30
0.0
 11
97.699957056
 21
111.305977856
 31
0.0
  0
LINE
  8
0
  6
CONTINUOUS
 62
     1
 10
97.699957056
 20
111.305977856
 30
0.0
 11
97.765030771
 21
111.505026867
 31
0.0
  0
LINE
  8
0
  6
CONTINUOUS
 62
     1
 10
97.765030771
 20
111.505026867
 30
0.0
 11
97.812241114
 21
111.705351834
 31
0.0
  0
LINE
  8
0
  6
CONTINUOUS
 62
     1
 10
97.812241114
 20
111.705351834
 30
0.0
 11
97.842864038
 21
111.901848934
 31
0.0
  0
LINE
  8
0
  6
CONTINUOUS
 62
     1
 10
97.842864038
 20
111.901848934
 30
0.0
 11
97.858175501
 21
112.089414349
 31
0.0
  0
LINE
  8
0
  6
CONTINUOUS
 62
     1
 10
97.858175501
 20
112.089414349
 30
0.0
 11
97.859451456
 21
112.262944256
 31
0.0
  0
LINE
  8
0
  6
CONTINUOUS
 62
     1
 10
97.859451456
 20
112.262944256
 30
0.0
 11
97.858175501
 21
112.402023373
 31
0.0
  0
LINE
  8
0
  6
CONTINUOUS
 62
     1
 10
97.858175501
 20
112.402023373
 30
0.0
 11
97.842864038
 21
112.520687206
 31
0.0
  0
LINE
  8
0
  6
CONTINUOUS
 62
     1
 10
97.842864038
 20
112.520687206
 30
0.0
 11
97.812241114
 21
112.617659802
 31
0.0
  0
LINE
  8
0
  6
CONTINUOUS
 62
     1
 10
97.812241114
 20
112.617659802
 30
0.0
 11
97.765030771
 21
112.691665203
 31
0.0
  0
LINE
  8
0
  6
CONTINUOUS
 62
     1
 10
97.765030771
 20
112.691665203
 30
0.0
 11
97.699957056
 21
112.741427456
 31
0.0
  0
LINE
  8
0
  6
CONTINUOUS
 62
     1
 10
97.699957056
 20
112.741427456
 30
0.0
 11
97.585121088
 21
112.755462963
 31
0.0
  0
LINE
  8
0
  6
CONTINUOUS
 62
     1
 10
97.585121088
 20
112.755462963
 30
0.0
 11
97.457525568
 21
112.745255322
 31
0.0
  0
LINE
  8
0
  6
CONTINUOUS
 62
     1
 10
97.457525568
 20
112.745255322
 30
0.0
 11
97.323550272
 21
112.712080486
 31
0.0
  0
LINE
  8
0
  6
CONTINUOUS
 62
     1
 10
97.323550272
 20
112.712080486
 30
0.0
 11
97.189574976
 21
112.657214413
 31
0.0
  0
LINE
  8
0
  6
CONTINUOUS
 62
     1
 10
97.189574976
 20
112.657214413
 30
0.0
 11
97.061979456
 21
112.581933056
 31
0.0
  0
LINE
  8
0
  6
CONTINUOUS
 62
     1
 10
97.061979456
 20
112.581933056
 30
0.0
 11
96.987974054
 21
112.487512371
 31
0.0
  0
LINE
  8
0
  6
CONTINUOUS
 62
     1
 10
96.987974054
 20
112.487512371
 30
0.0
 11
96.922900339
 21
112.375228314
 31
0.0
  0
LINE
  8
0
  6
CONTINUOUS
 62
     1
 10
96.922900339
 20
112.375228314
 30
0.0
 11
96.862930445
 21
112.246356838
 31
0.0
  0
LINE
  8
0
  6
CONTINUOUS
 62
     1
 10
96.862930445
 20
112.246356838
 30
0.0
 11
96.804236506
 21
112.102173901
 31
0.0
  0
LINE
  8
0
  6
CONTINUOUS
 62
     1
 10
96.804236506
 20
112.102173901
 30
0.0
 11
96.742990656
 21
111.943955456
 31
0.0
  0
LINE
  8
0
  6
CONTINUOUS
 62
     1
 10
96.742990656
 20
111.943955456
 30
0.0
 11
96.644742106
 21
111.772977459
 31
0.0
  0
LINE
  8
0
  6
CONTINUOUS
 62
     1
 10
96.644742106
 20
111.772977459
 30
0.0
 11
96.543941645
 21
111.590515866
 31
0.0
  0
LINE
  8
0
  6
CONTINUOUS
 62
     1
 10
96.543941645
 20
111.590515866
 30
0.0
 11
96.444417139
 21
111.39784663
 31
0.0
  0
LINE
  8
0
  6
CONTINUOUS
 62
     1
 10
96.444417139
 20
111.39784663
 30
0.0
 11
96.349996454
 21
111.196245709
 31
0.0
  0
LINE
  8
0
  6
CONTINUOUS
 62
     1
 10
96.349996454
 20
111.196245709
 30
0.0
 11
96.264507456
 21
110.986989056
 31
0.0
  0
LINE
  8
0
  6
CONTINUOUS
 62
     1
 10
96.264507456
 20
110.986989056
 30
0.0
 11
96.212193293
 21
110.771352627
 31
0.0
  0
LINE
  8
0
  6
CONTINUOUS
 62
     1
 10
96.212193293
 20
110.771352627
 30
0.0
 11
96.171362726
 21
110.550612378
 31
0.0
  0
LINE
  8
0
  6
CONTINUOUS
 62
     1
 10
96.171362726
 20
110.550612378
 30
0.0
 11
96.140739802
 21
110.326044262
 31
0.0
  0
LINE
  8
0
  6
CONTINUOUS
 62
     1
 10
96.140739802
 20
110.326044262
 30
0.0
 11
96.119048563
 21
110.098924237
 31
0.0
  0
LINE
  8
0
  6
CONTINUOUS
 62
     1
 10
96.119048563
 20
110.098924237
 30
0.0
 11
96.105013056
 21
109.870528256
 31
0.0
  0
LINE
  8
0
  6
CONTINUOUS
 62
     1
 10
96.105013056
 20
109.870528256
 30
0.0
 11
96.097357325
 21
109.637028454
 31
0.0
  0
LINE
  8
0
  6
CONTINUOUS
 62
     1
 10
96.097357325
 20
109.637028454
 30
0.0
 11
96.094805414
 21
109.406080563
 31
0.0
  0
LINE
  8
0
  6
CONTINUOUS
 62
     1
 10
96.094805414
 20
109.406080563
 30
0.0
 11
96.09608137
 21
109.180236493
 31
0.0
  0
LINE
  8
0
  6
CONTINUOUS
 62
     1
 10
96.09608137
 20
109.180236493
 30
0.0
 11
96.099909235
 21
108.962048154
 31
0.0
  0
LINE
  8
0
  6
CONTINUOUS
 62
     1
 10
96.099909235
 20
108.962048154
 30
0.0
 11
96.105013056
 21
108.754067456
 31
0.0
  0
LINE
  8
0
  6
CONTINUOUS
 62
     1
 10
96.105013056
 20
108.754067456
 30
0.0
 11
96.105013056
 21
108.569053952
 31
0.0
  0
LINE
  8
0
  6
CONTINUOUS
 62
     1
 10
96.105013056
 20
108.569053952
 30
0.0
 11
96.105013056
 21
108.3968
 31
0.0
  0
LINE
  8
0
  6
CONTINUOUS
 62
     1
 10
96.105013056
 20
108.3968
 30
0.0
 11
96.105013056
 21
108.2373056
 31
0.0
  0
LINE
  8
0
  6
CONTINUOUS
 62
     1
 10
96.105013056
 20
108.2373056
 30
0.0
 11
96.105013056
 21
108.090570752
 31
0.0
  0
LINE
  8
0
  6
CONTINUOUS
 62
     1
 10
96.105013056
 20
108.090570752
 30
0.0
 11
96.105013056
 21
107.956595456
 31
0.0
  0
LINE
  8
0
  6
CONTINUOUS
 62
     1
 10
96.105013056
 20
107.956595456
 30
0.0
 11
96.099909235
 21
107.779237683
 31
0.0
  0
LINE
  8
0
  6
CONTINUOUS
 62
     1
 10
96.099909235
 20
107.779237683
 30
0.0
 11
96.09608137
 21
107.62867497
 31
0.0
  0
LINE
  8
0
  6
CONTINUOUS
 62
     1
 10
96.09608137
 20
107.62867497
 30
0.0
 11
96.094805414
 21
107.518942822
 31
0.0
  0
LINE
  8
0
  6
CONTINUOUS
 62
     1
 10
96.094805414
 20
107.518942822
 30
0.0
 11
96.097357325
 21
107.464076749
 31
0.0
  0
LINE
  8
0
  6
CONTINUOUS
 62
     1
 10
96.097357325
 20
107.464076749
 30
0.0
 11
96.105013056
 21
107.478112256
 31
0.0
  0
LINE
  8
0
  6
CONTINUOUS
 62
     1
 10
96.105013056
 20
107.478112256
 30
0.0
 11
96.113944742
 21
107.728199475
 31
0.0
  0
LINE
  8
0
  6
CONTINUOUS
 62
     1
 10
96.113944742
 20
107.728199475
 30
0.0
 11
96.131808115
 21
108.036980634
 31
0.0
  0
LINE
  8
0
  6
CONTINUOUS
 62
     1
 10
96.131808115
 20
108.036980634
 30
0.0
 11
96.161155085
 21
108.380212582
 31
0.0
  0
LINE
  8
0
  6
CONTINUOUS
 62
     1
 10
96.161155085
 20
108.380212582
 30
0.0
 11
96.204537562
 21
108.733652173
 31
0.0
  0
LINE
  8
0
  6
CONTINUOUS
 62
     1
 10
96.204537562
 20
108.733652173
 30
0.0
 11
96.264507456
 21
109.073056256
 31
0.0
  0
LINE
  8
0
  6
CONTINUOUS
 62
     1
 10
96.264507456
 20
109.073056256
 30
0.0
 11
96.369135782
 21
109.261897626
 31
0.0
  0
LINE
  8
0
  6
CONTINUOUS
 62
     1
 10
96.369135782
 20
109.261897626
 30
0.0
 11
96.489075571
 21
109.416288205
 31
0.0
  0
LINE
  8
0
  6
CONTINUOUS
 62
     1
 10
96.489075571
 20
109.416288205
 30
0.0
 11
96.620498957
 21
109.540055859
 31
0.0
  0
LINE
  8
0
  6
CONTINUOUS
 62
     1
 10
96.620498957
 20
109.540055859
 30
0.0
 11
96.759578074
 21
109.637028454
 31
0.0
  0
LINE
  8
0
  6
CONTINUOUS
 62
     1
 10
96.759578074
 20
109.637028454
 30
0.0
 11
96.902485056
 21
109.711033856
 31
0.0
  0
LINE
  8
0
  6
CONTINUOUS
 62
     1
 10
96.902485056
 20
109.711033856
 30
0.0
 11
97.030080576
 21
109.776107571
 31
0.0
  0
LINE
  8
0
  6
CONTINUOUS
 62
     1
 10
97.030080576
 20
109.776107571
 30
0.0
 11
97.157676096
 21
109.823317914
 31
0.0
  0
LINE
  8
0
  6
CONTINUOUS
 62
     1
 10
97.157676096
 20
109.823317914
 30
0.0
 11
97.285271616
 21
109.853940838
 31
0.0
  0
LINE
  8
0
  6
CONTINUOUS
 62
     1
 10
97.285271616
 20
109.853940838
 30
0.0
 11
97.412867136
 21
109.869252301
 31
0.0
  0
LINE
  8
0
  6
CONTINUOUS
 62
     1
 10
97.412867136
 20
109.869252301
 30
0.0
 11
97.540462656
 21
109.870528256
 31
0.0
  0
LINE
  8
0
  6
CONTINUOUS
 62
     1
 10
97.540462656
 20
109.870528256
 30
0.0
 11
97.688473459
 21
109.874356122
 31
0.0
  0
LINE
  8
0
  6
CONTINUOUS
 62
     1
 10
97.688473459
 20
109.874356122
 30
0.0
 11
97.831380442
 21
109.862872525
 31
0.0
  0
LINE
  8
0
  6
CONTINUOUS
 62
     1
 10
97.831380442
 20
109.862872525
 30
0.0
 11
97.964079782
 21
109.833525555
 31
0.0
  0
LINE
  8
0
  6
CONTINUOUS
 62
     1
 10
97.964079782
 20
109.833525555
 30
0.0
 11
98.081467661
 21
109.783763302
 31
0.0
  0
LINE
  8
0
  6
CONTINUOUS
 62
     1
 10
98.081467661
 20
109.783763302
 30
0.0
 11
98.178440256
 21
109.711033856
 31
0.0
  0
LINE
  8
0
  6
CONTINUOUS
 62
     1
 10
98.178440256
 20
109.711033856
 30
0.0
 11
98.224374643
 21
109.566850918
 31
0.0
  0
LINE
  8
0
  6
CONTINUOUS
 62
     1
 10
98.224374643
 20
109.566850918
 30
0.0
 11
98.246065882
 21
109.406080563
 31
0.0
  0
LINE
  8
0
  6
CONTINUOUS
 62
     1
 10
98.246065882
 20
109.406080563
 30
0.0
 11
98.244789926
 21
109.237654477
 31
0.0
  0
LINE
  8
0
  6
CONTINUOUS
 62
     1
 10
98.244789926
 20
109.237654477
 30
0.0
 11
98.221822733
 21
109.070504346
 31
0.0
  0
LINE
  8
0
  6
CONTINUOUS
 62
     1
 10
98.221822733
 20
109.070504346
 30
0.0
 11
98.178440256
 21
108.913561856
 31
0.0
  0
LINE
  8
0
  6
CONTINUOUS
 62
     1
 10
98.178440256
 20
108.913561856
 30
0.0
 11
98.10571081
 21
108.81148544
 31
0.0
  0
LINE
  8
0
  6
CONTINUOUS
 62
     1
 10
98.10571081
 20
108.81148544
 30
0.0
 11
98.017669901
 21
108.728548352
 31
0.0
  0
LINE
  8
0
  6
CONTINUOUS
 62
     1
 10
98.017669901
 20
108.728548352
 30
0.0
 11
97.918145395
 21
108.664750592
 31
0.0
  0
LINE
  8
0
  6
CONTINUOUS
 62
     1
 10
97.918145395
 20
108.664750592
 30
0.0
 11
97.810965158
 21
108.62009216
 31
0.0
  0
LINE
  8
0
  6
CONTINUOUS
 62
     1
 10
97.810965158
 20
108.62009216
 30
0.0
 11
97.699957056
 21
108.594573056
 31
0.0
  0
LINE
  8
0
  6
CONTINUOUS
 62
     1
 10
97.699957056
 20
108.594573056
 30
0.0
 11
97.588948954
 21
108.598400922
 31
0.0
  0
LINE
  8
0
  6
CONTINUOUS
 62
     1
 10
97.588948954
 20
108.598400922
 30
0.0
 11
97.481768717
 21
108.618816205
 31
0.0
  0
LINE
  8
0
  6
CONTINUOUS
 62
     1
 10
97.481768717
 20
108.618816205
 30
0.0
 11
97.382244211
 21
108.653266995
 31
0.0
  0
LINE
  8
0
  6
CONTINUOUS
 62
     1
 10
97.382244211
 20
108.653266995
 30
0.0
 11
97.294203302
 21
108.699201382
 31
0.0
  0
LINE
  8
0
  6
CONTINUOUS
 62
     1
 10
97.294203302
 20
108.699201382
 30
0.0
 11
97.221473856
 21
108.754067456
 31
0.0
  0
LINE
  8
0
  6
CONTINUOUS
 62
     1
 10
97.221473856
 20
108.754067456
 30
0.0
 11
97.198506662
 21
108.851040051
 31
0.0
  0
LINE
  8
0
  6
CONTINUOUS
 62
     1
 10
97.198506662
 20
108.851040051
 30
0.0
 11
97.190850931
 21
108.942908826
 31
0.0
  0
LINE
  8
0
  6
CONTINUOUS
 62
     1
 10
97.190850931
 20
108.942908826
 30
0.0
 11
97.194678797
 21
109.018190182
 31
0.0
  0
LINE
  8
0
  6
CONTINUOUS
 62
     1
 10
97.194678797
 20
109.018190182
 30
0.0
 11
97.206162394
 21
109.065400525
 31
0.0
  0
LINE
  8
0
  6
CONTINUOUS
 62
     1
 10
97.206162394
 20
109.065400525
 30
0.0
 11
97.221473856
 21
109.073056256
 31
0.0
  0
LINE
  8
0
  6
CONTINUOUS
 62
     1
 10
97.221473856
 20
109.073056256
 30
0.0
 11
97.211266214
 21
108.932701184
 31
0.0
  0
LINE
  8
0
  6
CONTINUOUS
 62
     1
 10
97.211266214
 20
108.932701184
 30
0.0
 11
97.203610483
 21
108.754067456
 31
0.0
  0
LINE
  8
0
  6
CONTINUOUS
 62
     1
 10
97.203610483
 20
108.754067456
 30
0.0
 11
97.201058573
 21
108.549914624
 31
0.0
  0
LINE
  8
0
  6
CONTINUOUS
 62
     1
 10
97.201058573
 20
108.549914624
 30
0.0
 11
97.206162394
 21
108.33300224
 31
0.0
  0
LINE
  8
0
  6
CONTINUOUS
 62
     1
 10
97.206162394
 20
108.33300224
 30
0.0
 11
97.221473856
 21
108.116089856
 31
0.0
  0
LINE
  8
0
  6
CONTINUOUS
 62
     1
 10
97.221473856
 20
108.116089856
 30
0.0
 11
97.264856333
 21
107.95276759
 31
0.0
  0
LINE
  8
0
  6
CONTINUOUS
 62
     1
 10
97.264856333
 20
107.95276759
 30
0.0
 11
97.319722406
 21
107.804756787
 31
0.0
  0
LINE
  8
0
  6
CONTINUOUS
 62
     1
 10
97.319722406
 20
107.804756787
 30
0.0
 11
97.384796122
 21
107.674609357
 31
0.0
  0
LINE
  8
0
  6
CONTINUOUS
 62
     1
 10
97.384796122
 20
107.674609357
 30
0.0
 11
97.458801523
 21
107.56487721
 31
0.0
  0
LINE
  8
0
  6
CONTINUOUS
 62
     1
 10
97.458801523
 20
107.56487721
 30
0.0
 11
97.540462656
 21
107.478112256
 31
0.0
  0
LINE
  8
0
  6
CONTINUOUS
 62
     1
 10
97.540462656
 20
107.478112256
 30
0.0
 11
97.633607386
 21
107.447489331
 31
0.0
  0
LINE
  8
0
  6
CONTINUOUS
 62
     1
 10
97.633607386
 20
107.447489331
 30
0.0
 11
97.730579981
 21
107.43728169
 31
0.0
  0
LINE
  8
0
  6
CONTINUOUS
 62
     1
 10
97.730579981
 20
107.43728169
 30
0.0
 11
97.828828531
 21
107.44238551
 31
0.0
  0
LINE
  8
0
  6
CONTINUOUS
 62
     1
 10
97.828828531
 20
107.44238551
 30
0.0
 11
97.925801126
 21
107.457696973
 31
0.0
  0
LINE
  8
0
  6
CONTINUOUS
 62
     1
 10
97.925801126
 20
107.457696973
 30
0.0
 11
98.018945856
 21
107.478112256
 31
0.0
  0
LINE
  8
0
  6
CONTINUOUS
 62
     1
 10
98.018945856
 20
107.478112256
 30
0.0
 11
98.090399347
 21
107.478112256
 31
0.0
  0
LINE
  8
0
  6
CONTINUOUS
 62
     1
 10
98.090399347
 20
107.478112256
 30
0.0
 11
98.156749018
 21
107.478112256
 31
0.0
  0
LINE
  8
0
  6
CONTINUOUS
 62
     1
 10
98.156749018
 20
107.478112256
 30
0.0
 11
98.219270822
 21
107.478112256
 31
0.0
  0
LINE
  8
0
  6
LTYPE1
 62
     2
 10
42.0
 20
80.0
 30
0.0
 11
118.0
 21
80.0
 31
0.0
  0
LINE
  8
0
  6
LTYPE1
 62
     2
 10
43.5
 20
50.0
 30
0.0
 11
43.5
 21
37.0
 31
0.0
  0
LINE
  8
0
  6
LTYPE1
 62
     2
 10
116.5
 20
50.0
 30
0.0
 11
116.5
 21
37.0
 31
0.0
  0
LINE
  8
0
  6
CONTINUOUS
 62
     5
 10
43.5
 20
33.0
 30
0.0
 11
45.914814566
 21
32.352952387
 31
0.0
  0
LINE
  8
0
  6
CONTINUOUS
 62
     5
 10
43.5
 20
33.0
 30
0.0
 11
45.914814566
 21
33.647047613
 31
0.0
  0
LINE
  8
0
  6
CONTINUOUS
 62
     5
 10
43.5
 20
33.0
 30
0.0
 11
116.5
 21
33.0
 31
0.0
  0
LINE
  8
0
  6
CONTINUOUS
 62
     5
 10
116.5
 20
33.0
 30
0.0
 11
114.085185434
 21
33.647047613
 31
0.0
  0
LINE
  8
0
  6
CONTINUOUS
 62
     5
 10
116.5
 20
33.0
 30
0.0
 11
114.085185434
 21
32.352952387
 31
0.0
  0
TEXT
  8
0
  6
CONTINUOUS
 62
     2
 10
76.88
 20
33.8
 30
0.3
 40
3.0
  1
７３
 50
0.0
 41
0.6
 51
0.0
  7
KANJI0
  0
LINE
  8
0
  6
CONTINUOUS
 62
     5
 10
36.0
 20
26.0
 30
0.0
 11
38.414814566
 21
25.352952387
 31
0.0
  0
LINE
  8
0
  6
CONTINUOUS
 62
     5
 10
36.0
 20
26.0
 30
0.0
 11
38.414814566
 21
26.647047613
 31
0.0
  0
LINE
  8
0
  6
CONTINUOUS
 62
     5
 10
36.0
 20
26.0
 30
0.0
 11
124.0
 21
26.0
 31
0.0
  0
LINE
  8
0
  6
CONTINUOUS
 62
     5
 10
124.0
 20
26.0
 30
0.0
 11
121.585185434
 21
26.647047613
 31
0.0
  0
LINE
  8
0
  6
CONTINUOUS
 62
     5
 10
124.0
 20
26.0
 30
0.0
 11
121.585185434
 21
25.352952387
 31
0.0
  0
TEXT
  8
0
  6
CONTINUOUS
 62
     2
 10
78.05
 20
26.8
 30
0.3
 40
3.0
  1
８８
 50
0.0
 41
0.6
 51
0.0
  7
KANJI0
  0
LINE
  8
0
  6
CONTINUOUS
 62
     5
 10
36.0
 20
39.0
 30
0.0
 11
36.0
 21
24.0
 31
0.0
  0
LINE
  8
0
  6
CONTINUOUS
 62
     5
 10
124.0
 20
39.0
 30
0.0
 11
124.0
 21
24.0
 31
0.0
  0
LINE
  8
0
  6
CONTINUOUS
 62
     5
 10
43.5
 20
36.0
 30
0.0
 11
43.5
 21
31.0
 31
0.0
  0
LINE
  8
0
  6
CONTINUOUS
 62
     5
 10
116.5
 20
36.0
 30
0.0
 11
116.5
 21
31.0
 31
0.0
  0
TEXT
  8
0
  6
CONTINUOUS
 62
     2
 10
81.08
 20
35.6
 30
0.18
 40
1.8
  1
±１
 50
0.0
 41
0.6
 51
0.0
  7
KANJI1
  0
LINE
  8
0
  6
CONTINUOUS
 62
     5
 10
67.5
 20
79.0
 30
0.0
 11
67.5
 21
58.0
 31
0.0
  0
LINE
  8
0
  6
CONTINUOUS
 62
     5
 10
67.5
 20
60.0
 30
0.0
 11
69.914814566
 21
59.352952387
 31
0.0
  0
LINE
  8
0
  6
CONTINUOUS
 62
     5
 10
67.5
 20
60.0
 30
0.0
 11
69.914814566
 21
60.647047613
 31
0.0
  0
LINE
  8
0
  6
CONTINUOUS
 62
     5
 10
67.5
 20
60.0
 30
0.0
 11
92.5
 21
60.0
 31
0.0
  0
LINE
  8
0
  6
CONTINUOUS
 62
     5
 10
92.5
 20
60.0
 30
0.0
 11
90.085185434
 21
60.647047613
 31
0.0
  0
LINE
  8
0
  6
CONTINUOUS
 62
     5
 10
92.5
 20
60.0
 30
0.0
 11
90.085185434
 21
59.352952387
 31
0.0
  0
LINE
  8
0
  6
CONTINUOUS
 62
     5
 10
92.5
 20
79.0
 30
0.0
 11
92.5
 21
58.0
 31
0.0
  0
LINE
  8
0
  6
CONTINUOUS
 62
     5
 10
35.0
 20
47.0
 30
0.0
 11
28.0
 21
47.0
 31
0.0
  0
LINE
  8
0
  6
CONTINUOUS
 62
     5
 10
30.0
 20
47.0
 30
0.0
 11
29.352952387
 21
44.585185434
 31
0.0
  0
LINE
  8
0
  6
CONTINUOUS
 62
     5
 10
30.0
 20
47.0
 30
0.0
 11
30.647047613
 21
44.585185434
 31
0.0
  0
LINE
  8
0
  6
CONTINUOUS
 62
     5
 10
30.0
 20
47.0
 30
0.0
 11
30.0
 21
40.0
 31
0.0
  0
LINE
  8
0
  6
CONTINUOUS
 62
     5
 10
30.0
 20
40.0
 30
0.0
 11
30.647047613
 21
42.414814566
 31
0.0
  0
LINE
  8
0
  6
CONTINUOUS
 62
     5
 10
30.0
 20
40.0
 30
0.0
 11
29.352952387
 21
42.414814566
 31
0.0
  0
TEXT
  8
0
  6
CONTINUOUS
 62
     2
 10
29.2
 20
42.6
 30
0.3
 40
3.0
  1
７
 50
90.0
 41
0.6
 51
0.0
  7
KANJI0
  0
LINE
  8
0
  6
CONTINUOUS
 62
     5
 10
35.0
 20
40.0
 30
0.0
 11
21.0
 21
40.0
 31
0.0
  0
LINE
  8
0
  6
CONTINUOUS
 62
     5
 10
23.0
 20
40.0
 30
0.0
 11
23.647047613
 21
42.414814566
 31
0.0
  0
LINE
  8
0
  6
CONTINUOUS
 62
     5
 10
23.0
 20
40.0
 30
0.0
 11
22.352952387
 21
42.414814566
 31
0.0
  0
LINE
  8
0
  6
CONTINUOUS
 62
     5
 10
23.0
 20
40.0
 30
0.0
 11
23.0
 21
80.0
 31
0.0
  0
LINE
  8
0
  6
CONTINUOUS
 62
     5
 10
23.0
 20
80.0
 30
0.0
 11
22.352952387
 21
77.585185434
 31
0.0
  0
LINE
  8
0
  6
CONTINUOUS
 62
     5
 10
23.0
 20
80.0
 30
0.0
 11
23.647047613
 21
77.585185434
 31
0.0
  0
LINE
  8
0
  6
CONTINUOUS
 62
     5
 10
41.0
 20
80.0
 30
0.0
 11
21.0
 21
80.0
 31
0.0
  0
TEXT
  8
0
  6
CONTINUOUS
 62
     2
 10
22.2
 20
56.88
 30
0.3
 40
3.0
  1
４０
 50
90.0
 41
0.6
 51
0.0
  7
KANJI0
  0
TEXT
  8
0
  6
CONTINUOUS
 62
     2
 10
146.0
 20
161.5
 30
0.1
 40
3.0
  1
定格二次電流
 50
0.0
 41
0.8
 51
0.0
  7
KANJI2
  0
TEXT
  8
0
  6
CONTINUOUS
 62
     2
 10
146.0
 20
165.5
 30
0.1
 40
3.0
  1
定格一次電流
 50
0.0
 41
0.8
 51
0.0
  7
KANJI2
  0
TEXT
  8
0
  6
CONTINUOUS
 62
     2
 10
162.5
 20
181.5
 30
0.1
 40
3.0
  1
樹脂ケース密封形
 50
0.0
 41
0.8
 51
0.0
  7
KANJI2
  0
TEXT
  8
0
  6
CONTINUOUS
 62
     2
 10
162.5
 20
141.5
 30
0.1
 40
3.0
  1
４０以上
 50
0.0
 41
0.7
 51
0.0
  7
KANJI3
  0
TEXT
  8
0
  6
CONTINUOUS
 62
     2
 10
162.5
 20
145.5
 30
0.1
 40
3.0
  1
約２３０ｇ
 50
0.0
 41
0.7
 51
0.0
  7
KANJI3
  0
TEXT
  8
0
  6
CONTINUOUS
 62
     2
 10
162.5
 20
149.5
 30
0.1
 40
3.0
  1
５０，６０Ｈｚ
 50
0.0
 41
0.7
 51
0.0
  7
KANJI3
  0
TEXT
  8
0
  6
CONTINUOUS
 62
     2
 10
162.5
 20
157.5
 30
0.1
 40
3.0
  1
３ＶＡ
 50
0.0
 41
0.7
 51
0.0
  7
KANJI3
  0
TEXT
  8
0
  6
CONTINUOUS
 62
     2
 10
162.5
 20
161.5
 30
0.1
 40
3.0
  1
５Ａ
 50
0.0
 41
0.7
 51
0.0
  7
KANJI3
  0
TEXT
  8
0
  6
CONTINUOUS
 62
     2
 10
162.5
 20
165.5
 30
0.1
 40
3.0
  1
２０～２５０Ａ
 50
0.0
 41
0.7
 51
0.0
  7
KANJI3
  0
TEXT
  8
0
  6
CONTINUOUS
 62
     2
 10
162.5
 20
173.5
 30
0.1
 40
3.0
  1
１．０級
 50
0.0
 41
0.7
 51
0.0
  7
KANJI3
  0
TEXT
  8
0
  6
CONTINUOUS
 62
     2
 10
162.5
 20
169.5
 30
0.1
 40
3.0
  1
１１５０Ｖ
 50
0.0
 41
0.7
 51
0.0
  7
KANJI3
  0
LINE
  8
0
  6
CONTINUOUS
 62
     2
 10
145.0
 20
185.0
 30
0.0
 11
183.5
 21
185.0
 31
0.0
  0
LINE
  8
0
  6
CONTINUOUS
 62
     2
 10
145.0
 20
181.0
 30
0.0
 11
183.5
 21
181.0
 31
0.0
  0
LINE
  8
0
  6
CONTINUOUS
 62
     2
 10
145.0
 20
177.0
 30
0.0
 11
183.5
 21
177.0
 31
0.0
  0
LINE
  8
0
  6
CONTINUOUS
 62
     2
 10
145.0
 20
173.0
 30
0.0
 11
183.5
 21
173.0
 31
0.0
  0
LINE
  8
0
  6
CONTINUOUS
 62
     2
 10
145.0
 20
169.0
 30
0.0
 11
183.5
 21
169.0
 31
0.0
  0
LINE
  8
0
  6
CONTINUOUS
 62
     2
 10
145.0
 20
165.0
 30
0.0
 11
183.5
 21
165.0
 31
0.0
  0
LINE
  8
0
  6
CONTINUOUS
 62
     2
 10
145.0
 20
161.0
 30
0.0
 11
183.5
 21
161.0
 31
0.0
  0
LINE
  8
0
  6
CONTINUOUS
 62
     2
 10
145.0
 20
157.0
 30
0.0
 11
183.5
 21
157.0
 31
0.0
  0
LINE
  8
0
  6
CONTINUOUS
 62
     2
 10
145.0
 20
153.0
 30
0.0
 11
183.5
 21
153.0
 31
0.0
  0
LINE
  8
0
  6
CONTINUOUS
 62
     2
 10
145.0
 20
149.0
 30
0.0
 11
183.5
 21
149.0
 31
0.0
  0
LINE
  8
0
  6
CONTINUOUS
 62
     2
 10
145.0
 20
145.0
 30
0.0
 11
183.5
 21
145.0
 31
0.0
  0
LINE
  8
0
  6
CONTINUOUS
 62
     2
 10
145.0
 20
141.0
 30
0.0
 11
183.5
 21
141.0
 31
0.0
  0
LINE
  8
0
  6
CONTINUOUS
 62
     2
 10
161.5
 20
185.0
 30
0.0
 11
161.5
 21
141.0
 31
0.0
  0
LINE
  8
0
  6
CONTINUOUS
 62
     2
 10
145.0
 20
185.0
 30
0.0
 11
145.0
 21
141.0
 31
0.0
  0
LINE
  8
0
  6
CONTINUOUS
 62
     2
 10
183.5
 20
185.0
 30
0.0
 11
183.5
 21
141.0
 31
0.0
  0
TEXT
  8
0
  6
CONTINUOUS
 62
     2
 10
146.0
 20
181.5
 30
8.0
 40
3.0
  1
構造
 50
0.0
 41
0.8
 51
0.0
  7
KANJI4
  0
TEXT
  8
0
  6
CONTINUOUS
 62
     2
 10
146.0
 20
177.5
 30
8.0
 40
3.0
  1
規格
 50
0.0
 41
0.8
 51
0.0
  7
KANJI4
  0
TEXT
  8
0
  6
CONTINUOUS
 62
     2
 10
146.0
 20
173.5
 30
8.0
 40
3.0
  1
階級
 50
0.0
 41
0.8
 51
0.0
  7
KANJI4
  0
TEXT
  8
0
  6
CONTINUOUS
 62
     2
 10
146.0
 20
169.5
 30
1.1
 40
3.0
  1
最高電圧
 50
0.0
 41
0.8
 51
0.0
  7
KANJI5
  0
TEXT
  8
0
  6
CONTINUOUS
 62
     2
 10
146.0
 20
157.5
 30
1.1
 40
3.0
  1
定格負担
 50
0.0
 41
0.8
 51
0.0
  7
KANJI5
  0
TEXT
  8
0
  6
CONTINUOUS
 62
     2
 10
146.0
 20
153.5
 30
0.3
 40
3.0
  1
過電流定数
 50
0.0
 41
0.8
 51
0.0
  7
KANJI6
  0
TEXT
  8
0
  6
CONTINUOUS
 62
     2
 10
146.0
 20
149.5
 30
0.3
 40
3.0
  1
定格周波数
 50
0.0
 41
0.8
 51
0.0
  7
KANJI6
  0
TEXT
  8
0
  6
CONTINUOUS
 62
     2
 10
146.0
 20
141.5
 30
0.3
 40
3.0
  1
過電流強度
 50
0.0
 41
0.8
 51
0.0
  7
KANJI6
  0
TEXT
  8
0
  6
CONTINUOUS
 62
     2
 10
146.0
 20
145.5
 30
8.0
 40
3.0
  1
質量
 50
0.0
 41
0.8
 51
0.0
  7
KANJI4
  0
TEXT
  8
0
  6
CONTINUOUS
 62
     2
 10
191.0
 20
181.5
 30
0.1
 40
3.0
  1
定格一次
 50
0.0
 41
0.7
 51
0.0
  7
KANJI3
  0
TEXT
  8
0
  6
CONTINUOUS
 62
     2
 10
191.0
 20
178.5
 30
0.1
 40
3.0
  1
電流（Ａ）
 50
0.0
 41
0.7
 51
0.0
  7
KANJI3
  0
LINE
  8
0
  6
CONTINUOUS
 62
     2
 10
190.0
 20
185.0
 30
0.0
 11
190.0
 21
122.0
 31
0.0
  0
TEXT
  8
0
  6
CONTINUOUS
 62
     2
 10
201.0
 20
181.5
 30
0.1
 40
3.0
  1
一次貫
 50
0.0
 41
0.7
 51
0.0
  7
KANJI3
  0
TEXT
  8
0
  6
CONTINUOUS
 62
     2
 10
201.0
 20
178.5
 30
0.1
 40
3.0
  1
通数（Ｔ）
 50
0.0
 41
0.7
 51
0.0
  7
KANJI3
  0
LINE
  8
0
  6
CONTINUOUS
 62
     2
 10
222.0
 20
185.0
 30
0.0
 11
222.0
 21
122.0
 31
0.0
  0
LINE
  8
0
  6
CONTINUOUS
 62
     2
 10
190.0
 20
178.0
 30
0.0
 11
222.0
 21
178.0
 31
0.0
  0
LINE
  8
0
  6
CONTINUOUS
 62
     2
 10
190.0
 20
162.0
 30
0.0
 11
222.0
 21
162.0
 31
0.0
  0
LINE
  8
0
  6
CONTINUOUS
 62
     2
 10
190.0
 20
146.0
 30
0.0
 11
222.0
 21
146.0
 31
0.0
  0
LINE
  8
0
  6
CONTINUOUS
 62
     2
 10
190.0
 20
122.0
 30
0.0
 11
222.0
 21
122.0
 31
0.0
  0
LINE
  8
0
  6
CONTINUOUS
 62
     2
 10
190.0
 20
185.0
 30
0.0
 11
222.0
 21
185.0
 31
0.0
  0
TEXT
  8
0
  6
CONTINUOUS
 62
     2
 10
211.0
 20
181.5
 30
0.1
 40
3.0
  1
アンペア
 50
0.0
 41
0.7
 51
0.0
  7
KANJI3
  0
TEXT
  8
0
  6
CONTINUOUS
 62
     2
 10
211.0
 20
178.5
 30
0.1
 40
3.0
  1
回数（ＡＴ）
 50
0.0
 41
0.7
 51
0.0
  7
KANJI3
  0
TEXT
  8
0
  6
CONTINUOUS
 62
     2
 10
193.0
 20
142.5
 30
0.0
 40
3.0
  1
１００
 50
0.0
 41
0.5
 51
0.0
  7
KANJI7
  0
TEXT
  8
0
  6
CONTINUOUS
 62
     2
 10
193.0
 20
138.5
 30
0.0
 40
3.0
  1
１２０
 50
0.0
 41
0.5
 51
0.0
  7
KANJI7
  0
TEXT
  8
0
  6
CONTINUOUS
 62
     2
 10
193.0
 20
134.5
 30
0.0
 40
3.0
  1
１５０
 50
0.0
 41
0.5
 51
0.0
  7
KANJI7
  0
TEXT
  8
0
  6
CONTINUOUS
 62
     2
 10
193.0
 20
130.5
 30
0.0
 40
3.0
  1
２００
 50
0.0
 41
0.5
 51
0.0
  7
KANJI7
  0
TEXT
  8
0
  6
CONTINUOUS
 62
     2
 10
193.0
 20
126.5
 30
0.0
 40
3.0
  1
１８０
 50
0.0
 41
0.5
 51
0.0
  7
KANJI7
  0
TEXT
  8
0
  6
CONTINUOUS
 62
     2
 10
193.0
 20
122.5
 30
0.0
 40
3.0
  1
２５０
 50
0.0
 41
0.5
 51
0.0
  7
KANJI7
  0
TEXT
  8
0
  6
CONTINUOUS
 62
     2
 10
194.5
 20
174.5
 30
0.0
 40
3.0
  1
２０
 50
0.0
 41
0.5
 51
0.0
  7
KANJI7
  0
TEXT
  8
0
  6
CONTINUOUS
 62
     2
 10
194.5
 20
170.5
 30
0.0
 40
3.0
  1
２５
 50
0.0
 41
0.5
 51
0.0
  7
KANJI7
  0
TEXT
  8
0
  6
CONTINUOUS
 62
     2
 10
194.5
 20
166.5
 30
0.0
 40
3.0
  1
３０
 50
0.0
 41
0.5
 51
0.0
  7
KANJI7
  0
TEXT
  8
0
  6
CONTINUOUS
 62
     2
 10
194.5
 20
162.5
 30
0.0
 40
3.0
  1
４０
 50
0.0
 41
0.5
 51
0.0
  7
KANJI7
  0
TEXT
  8
0
  6
CONTINUOUS
 62
     2
 10
194.5
 20
158.5
 30
0.0
 40
3.0
  1
５０
 50
0.0
 41
0.5
 51
0.0
  7
KANJI7
  0
TEXT
  8
0
  6
CONTINUOUS
 62
     2
 10
194.5
 20
154.5
 30
0.0
 40
3.0
  1
６０
 50
0.0
 41
0.5
 51
0.0
  7
KANJI7
  0
TEXT
  8
0
  6
CONTINUOUS
 62
     2
 10
194.5
 20
150.5
 30
0.0
 40
3.0
  1
７５
 50
0.0
 41
0.5
 51
0.0
  7
KANJI7
  0
TEXT
  8
0
  6
CONTINUOUS
 62
     2
 10
194.5
 20
146.5
 30
0.0
 40
3.0
  1
８０
 50
0.0
 41
0.5
 51
0.0
  7
KANJI7
  0
TEXT
  8
0
  6
CONTINUOUS
 62
     2
 10
204.5
 20
174.5
 30
0.0
 40
3.0
  1
５
 50
0.0
 41
0.5
 51
0.0
  7
KANJI7
  0
TEXT
  8
0
  6
CONTINUOUS
 62
     2
 10
204.5
 20
162.5
 30
0.0
 40
3.0
  1
３
 50
0.0
 41
0.5
 51
0.0
  7
KANJI7
  0
TEXT
  8
0
  6
CONTINUOUS
 62
     2
 10
214.0
 20
158.5
 30
0.0
 40
3.0
  1
１００
 50
0.0
 41
0.5
 51
0.0
  7
KANJI7
  0
TEXT
  8
0
  6
CONTINUOUS
 62
     2
 10
214.0
 20
154.5
 30
0.0
 40
3.0
  1
１２０
 50
0.0
 41
0.5
 51
0.0
  7
KANJI7
  0
TEXT
  8
0
  6
CONTINUOUS
 62
     2
 10
214.0
 20
150.5
 30
0.0
 40
3.0
  1
１５０
 50
0.0
 41
0.5
 51
0.0
  7
KANJI7
  0
TEXT
  8
0
  6
CONTINUOUS
 62
     2
 10
214.0
 20
146.5
 30
0.0
 40
3.0
  1
１６０
 50
0.0
 41
0.5
 51
0.0
  7
KANJI7
  0
TEXT
  8
0
  6
CONTINUOUS
 62
     2
 10
214.0
 20
142.5
 30
0.0
 40
3.0
  1
１００
 50
0.0
 41
0.5
 51
0.0
  7
KANJI7
  0
TEXT
  8
0
  6
CONTINUOUS
 62
     2
 10
214.0
 20
138.5
 30
0.0
 40
3.0
  1
１２０
 50
0.0
 41
0.5
 51
0.0
  7
KANJI7
  0
TEXT
  8
0
  6
CONTINUOUS
 62
     2
 10
214.0
 20
134.5
 30
0.0
 40
3.0
  1
１５０
 50
0.0
 41
0.5
 51
0.0
  7
KANJI7
  0
TEXT
  8
0
  6
CONTINUOUS
 62
     2
 10
214.0
 20
130.5
 30
0.0
 40
3.0
  1
２００
 50
0.0
 41
0.5
 51
0.0
  7
KANJI7
  0
TEXT
  8
0
  6
CONTINUOUS
 62
     2
 10
214.0
 20
126.5
 30
0.0
 40
3.0
  1
１８０
 50
0.0
 41
0.5
 51
0.0
  7
KANJI7
  0
TEXT
  8
0
  6
CONTINUOUS
 62
     2
 10
214.0
 20
122.5
 30
0.0
 40
3.0
  1
２５０
 50
0.0
 41
0.5
 51
0.0
  7
KANJI7
  0
LINE
  8
0
  6
CONTINUOUS
 62
     2
 10
210.0
 20
170.0
 30
0.0
 11
222.0
 21
170.0
 31
0.0
  0
LINE
  8
0
  6
CONTINUOUS
 62
     2
 10
190.0
 20
170.0
 30
0.0
 11
200.0
 21
170.0
 31
0.0
  0
LINE
  8
0
  6
CONTINUOUS
 62
     2
 10
210.0
 20
158.0
 30
0.0
 11
222.0
 21
158.0
 31
0.0
  0
LINE
  8
0
  6
CONTINUOUS
 62
     2
 10
190.0
 20
158.0
 30
0.0
 11
200.0
 21
158.0
 31
0.0
  0
LINE
  8
0
  6
CONTINUOUS
 62
     2
 10
210.0
 20
154.0
 30
0.0
 11
222.0
 21
154.0
 31
0.0
  0
LINE
  8
0
  6
CONTINUOUS
 62
     2
 10
190.0
 20
154.0
 30
0.0
 11
200.0
 21
154.0
 31
0.0
  0
LINE
  8
0
  6
CONTINUOUS
 62
     2
 10
210.0
 20
150.0
 30
0.0
 11
222.0
 21
150.0
 31
0.0
  0
LINE
  8
0
  6
CONTINUOUS
 62
     2
 10
190.0
 20
150.0
 30
0.0
 11
200.0
 21
150.0
 31
0.0
  0
LINE
  8
0
  6
CONTINUOUS
 62
     2
 10
190.0
 20
142.0
 30
0.0
 11
200.0
 21
142.0
 31
0.0
  0
LINE
  8
0
  6
CONTINUOUS
 62
     2
 10
210.0
 20
142.0
 30
0.0
 11
222.0
 21
142.0
 31
0.0
  0
LINE
  8
0
  6
CONTINUOUS
 62
     2
 10
190.0
 20
138.0
 30
0.0
 11
200.0
 21
138.0
 31
0.0
  0
LINE
  8
0
  6
CONTINUOUS
 62
     2
 10
210.0
 20
138.0
 30
0.0
 11
222.0
 21
138.0
 31
0.0
  0
LINE
  8
0
  6
CONTINUOUS
 62
     2
 10
190.0
 20
134.0
 30
0.0
 11
200.0
 21
134.0
 31
0.0
  0
LINE
  8
0
  6
CONTINUOUS
 62
     2
 10
210.0
 20
134.0
 30
0.0
 11
222.0
 21
134.0
 31
0.0
  0
LINE
  8
0
  6
CONTINUOUS
 62
     2
 10
190.0
 20
130.0
 30
0.0
 11
200.0
 21
130.0
 31
0.0
  0
LINE
  8
0
  6
CONTINUOUS
 62
     2
 10
210.0
 20
130.0
 30
0.0
 11
222.0
 21
130.0
 31
0.0
  0
LINE
  8
0
  6
CONTINUOUS
 62
     2
 10
190.0
 20
126.0
 30
0.0
 11
200.0
 21
126.0
 31
0.0
  0
LINE
  8
0
  6
CONTINUOUS
 62
     2
 10
210.0
 20
126.0
 30
0.0
 11
222.0
 21
126.0
 31
0.0
  0
LINE
  8
0
  6
CONTINUOUS
 62
     2
 10
200.0
 20
185.0
 30
0.0
 11
200.0
 21
122.0
 31
0.0
  0
LINE
  8
0
  6
CONTINUOUS
 62
     2
 10
210.0
 20
185.0
 30
0.0
 11
210.0
 21
122.0
 31
0.0
  0
TEXT
  8
0
  6
CONTINUOUS
 62
     2
 10
204.5
 20
168.5
 30
0.0
 40
3.0
  1
４
 50
0.0
 41
0.5
 51
0.0
  7
KANJI7
  0
TEXT
  8
0
  6
CONTINUOUS
 62
     2
 10
204.5
 20
132.5
 30
0.0
 40
3.0
  1
１
 50
0.0
 41
0.5
 51
0.0
  7
KANJI7
  0
TEXT
  8
0
  6
CONTINUOUS
 62
     2
 10
204.5
 20
152.5
 30
0.0
 40
3.0
  1
２
 50
0.0
 41
0.5
 51
0.0
  7
KANJI7
  0
LINE
  8
0
  6
CONTINUOUS
 62
     1
 10
154.0
 20
40.0
 30
0.0
 11
186.0
 21
40.0
 31
0.0
  0
LINE
  8
0
  6
CONTINUOUS
 62
     5
 10
166.5
 20
39.0
 30
0.0
 11
166.5
 21
31.0
 31
0.0
  0
LINE
  8
0
  6
CONTINUOUS
 62
     5
 10
166.5
 20
33.0
 30
0.0
 11
168.914814566
 21
32.352952387
 31
0.0
  0
LINE
  8
0
  6
CONTINUOUS
 62
     5
 10
166.5
 20
33.0
 30
0.0
 11
168.914814566
 21
33.647047613
 31
0.0
  0
LINE
  8
0
  6
CONTINUOUS
 62
     5
 10
166.5
 20
33.0
 30
0.0
 11
173.5
 21
33.0
 31
0.0
  0
LINE
  8
0
  6
CONTINUOUS
 62
     5
 10
173.5
 20
33.0
 30
0.0
 11
171.085185434
 21
33.647047613
 31
0.0
  0
LINE
  8
0
  6
CONTINUOUS
 62
     5
 10
173.5
 20
33.0
 30
0.0
 11
171.085185434
 21
32.352952387
 31
0.0
  0
LINE
  8
0
  6
CONTINUOUS
 62
     5
 10
173.5
 20
39.0
 30
0.0
 11
173.5
 21
31.0
 31
0.0
  0
TEXT
  8
0
  6
CONTINUOUS
 62
     2
 10
169.1
 20
33.8
 30
0.3
 40
3.0
  1
７
 50
0.0
 41
0.6
 51
0.0
  7
KANJI0
  0
LINE
  8
0
  6
CONTINUOUS
 62
     5
 10
154.0
 20
39.0
 30
0.0
 11
154.0
 21
24.0
 31
0.0
  0
LINE
  8
0
  6
CONTINUOUS
 62
     5
 10
154.0
 20
26.0
 30
0.0
 11
156.414814566
 21
25.352952387
 31
0.0
  0
LINE
  8
0
  6
CONTINUOUS
 62
     5
 10
154.0
 20
26.0
 30
0.0
 11
156.414814566
 21
26.647047613
 31
0.0
  0
LINE
  8
0
  6
CONTINUOUS
 62
     5
 10
154.0
 20
26.0
 30
0.0
 11
186.0
 21
26.0
 31
0.0
  0
LINE
  8
0
  6
CONTINUOUS
 62
     5
 10
186.0
 20
26.0
 30
0.0
 11
183.585185434
 21
26.647047613
 31
0.0
  0
LINE
  8
0
  6
CONTINUOUS
 62
     5
 10
186.0
 20
26.0
 30
0.0
 11
183.585185434
 21
25.352952387
 31
0.0
  0
LINE
  8
0
  6
CONTINUOUS
 62
     5
 10
186.0
 20
39.0
 30
0.0
 11
186.0
 21
24.0
 31
0.0
  0
TEXT
  8
0
  6
CONTINUOUS
 62
     2
 10
168.05
 20
26.8
 30
0.3
 40
3.0
  1
３２
 50
0.0
 41
0.6
 51
0.0
  7
KANJI0
  0
LINE
  8
0
  6
CONTINUOUS
 62
     5
 10
148.0
 20
40.0
 30
0.0
 11
148.647047613
 21
42.414814566
 31
0.0
  0
LINE
  8
0
  6
CONTINUOUS
 62
     5
 10
148.0
 20
40.0
 30
0.0
 11
147.352952387
 21
42.414814566
 31
0.0
  0
LINE
  8
0
  6
CONTINUOUS
 62
     5
 10
148.0
 20
40.0
 30
0.0
 11
148.0
 21
115.0
 31
0.0
  0
LINE
  8
0
  6
CONTINUOUS
 62
     5
 10
148.0
 20
115.0
 30
0.0
 11
147.352952387
 21
112.585185434
 31
0.0
  0
LINE
  8
0
  6
CONTINUOUS
 62
     5
 10
148.0
 20
115.0
 30
0.0
 11
148.647047613
 21
112.585185434
 31
0.0
  0
LINE
  8
0
  6
CONTINUOUS
 62
     5
 10
153.0
 20
115.0
 30
0.0
 11
146.0
 21
115.0
 31
0.0
  0
TEXT
  8
0
  6
CONTINUOUS
 62
     2
 10
147.2
 20
75.55
 30
0.3
 40
3.0
  1
７５
 50
90.0
 41
0.6
 51
0.0
  7
KANJI0
  0
LINE
  8
0
  6
CONTINUOUS
 62
     5
 10
153.0
 20
40.0
 30
0.0
 11
139.0
 21
40.0
 31
0.0
  0
LINE
  8
0
  6
CONTINUOUS
 62
     5
 10
141.0
 20
40.0
 30
0.0
 11
141.647047613
 21
42.414814566
 31
0.0
  0
LINE
  8
0
  6
CONTINUOUS
 62
     5
 10
141.0
 20
40.0
 30
0.0
 11
140.352952387
 21
42.414814566
 31
0.0
  0
LINE
  8
0
  6
CONTINUOUS
 62
     5
 10
141.0
 20
40.0
 30
0.0
 11
141.0
 21
122.0
 31
0.0
  0
LINE
  8
0
  6
CONTINUOUS
 62
     5
 10
141.0
 20
122.0
 30
0.0
 11
140.352952387
 21
119.585185434
 31
0.0
  0
LINE
  8
0
  6
CONTINUOUS
 62
     5
 10
141.0
 20
122.0
 30
0.0
 11
141.647047613
 21
119.585185434
 31
0.0
  0
TEXT
  8
0
  6
CONTINUOUS
 62
     2
 10
140.2
 20
79.05
 30
0.3
 40
3.0
  1
８２
 50
90.0
 41
0.6
 51
0.0
  7
KANJI0
  0
LINE
  8
0
  6
CONTINUOUS
 62
     5
 10
47.0
 20
127.0
 30
0.0
 11
49.414814566
 21
126.352952387
 31
0.0
  0
LINE
  8
0
  6
CONTINUOUS
 62
     5
 10
47.0
 20
127.0
 30
0.0
 11
49.414814566
 21
127.647047613
 31
0.0
  0
LINE
  8
0
  6
CONTINUOUS
 62
     5
 10
47.0
 20
127.0
 30
0.0
 11
113.0
 21
127.0
 31
0.0
  0
LINE
  8
0
  6
CONTINUOUS
 62
     5
 10
113.0
 20
127.0
 30
0.0
 11
110.585185434
 21
127.647047613
 31
0.0
  0
LINE
  8
0
  6
CONTINUOUS
 62
     5
 10
113.0
 20
127.0
 30
0.0
 11
110.585185434
 21
126.352952387
 31
0.0
  0
TEXT
  8
0
  6
CONTINUOUS
 62
     2
 10
78.05
 20
127.8
 30
0.3
 40
3.0
  1
６６
 50
0.0
 41
0.6
 51
0.0
  7
KANJI0
  0
LINE
  8
0
  6
CONTINUOUS
 62
     5
 10
47.0
 20
81.0
 30
0.0
 11
47.0
 21
129.0
 31
0.0
  0
LINE
  8
0
  6
CONTINUOUS
 62
     5
 10
113.0
 20
81.0
 30
0.0
 11
113.0
 21
129.0
 31
0.0
  0
LINE
  8
0
  6
CONTINUOUS
 62
     1
 10
47.0
 20
176.0
 30
0.0
 11
47.0
 21
144.0
 31
0.0
  0
LINE
  8
0
  6
LTYPE1
 62
     2
 10
31.0
 20
160.0
 30
0.0
 11
129.0
 21
160.0
 31
0.0
  0
LINE
  8
0
  6
LTYPE1
 62
     2
 10
80.0
 20
181.0
 30
0.0
 11
80.0
 21
139.0
 31
0.0
  0
LINE
  8
0
  6
LTYPE1
 62
     2
 10
43.5
 20
166.5
 30
0.0
 11
43.5
 21
153.5
 31
0.0
  0
LINE
  8
0
  6
LTYPE1
 62
     2
 10
116.5
 20
166.5
 30
0.0
 11
116.5
 21
153.5
 31
0.0
  0
LINE
  8
0
  6
LTYPE1
 62
     2
 10
149.0
 20
80.0
 30
0.0
 11
191.0
 21
80.0
 31
0.0
  0
TEXT
  8
0
  6
CONTINUOUS
 62
     2
 10
162.5
 20
177.5
 30
0.0
 40
3.0
  1
－
 50
0.0
 41
1.666666667
 51
0.0
  7
KANJI8
  0
ARC
  8
0
  6
CONTINUOUS
 62
     1
 10
169.75
 20
119.25
 30
0.0
 40
0.75
 50
90.0
 51
180.0
  0
LINE
  8
0
  6
CONTINUOUS
 62
     1
 10
169.75
 20
120.0
 30
0.0
 11
170.25
 21
120.0
 31
0.0
  0
ARC
  8
0
  6
CONTINUOUS
 62
     1
 10
170.25
 20
119.25
 30
0.0
 40
0.75
 50
0.0
 51
90.0
  0
LINE
  8
0
  6
CONTINUOUS
 62
     1
 10
169.0
 20
119.25
 30
0.0
 11
169.0
 21
115.0
 31
0.0
  0
LINE
  8
0
  6
CONTINUOUS
 62
     1
 10
171.0
 20
119.25
 30
0.0
 11
171.0
 21
115.0
 31
0.0
  0
LINE
  8
0
  6
CONTINUOUS
 62
     1
 10
157.5
 20
115.0
 30
0.0
 11
157.5
 21
117.0
 31
0.0
  0
LINE
  8
0
  6
CONTINUOUS
 62
     1
 10
171.8
 20
117.0
 30
0.0
 11
171.0
 21
117.0
 31
0.0
  0
LINE
  8
0
  6
CONTINUOUS
 62
     1
 10
183.0
 20
117.0
 30
0.0
 11
183.0
 21
115.0
 31
0.0
  0
LINE
  8
0
  6
CONTINUOUS
 62
     1
 10
104.160776773
 20
119.196116135
 30
0.0
 11
105.0
 21
115.0
 31
0.0
  0
ARC
  8
0
  6
CONTINUOUS
 62
     1
 10
103.180196097
 20
119.0
 30
0.0
 40
1.0
 50
11.309932474
 51
90.0
  0
LINE
  8
0
  6
CONTINUOUS
 62
     1
 10
89.0
 20
115.0
 30
0.0
 11
89.839223227
 21
119.196116135
 31
0.0
  0
ARC
  8
0
  6
CONTINUOUS
 62
     1
 10
90.819803903
 20
119.0
 30
0.0
 40
1.0
 50
90.0
 51
168.690067526
  0
LINE
  8
0
  6
CONTINUOUS
 62
     1
 10
156.0
 20
73.0
 30
0.0
 11
184.0
 21
73.0
 31
0.0
  0
LINE
  8
0
  6
CONTINUOUS
 62
     1
 10
184.0
 20
73.0
 30
0.0
 11
184.0
 21
113.0
 31
0.0
  0
LINE
  8
0
  6
CONTINUOUS
 62
     1
 10
184.0
 20
113.0
 30
0.0
 11
156.0
 21
113.0
 31
0.0
  0
LINE
  8
0
  6
CONTINUOUS
 62
     1
 10
156.0
 20
113.0
 30
0.0
 11
156.0
 21
73.0
 31
0.0
  0
ARC
  8
0
  6
CONTINUOUS
 62
     1
 10
104.0
 20
160.0
 30
0.0
 40
1.0
 50
270.0
 51
90.0
  0
LINE
  8
0
  6
CONTINUOUS
 62
     1
 10
104.0
 20
159.0
 30
0.0
 11
90.0
 21
159.0
 31
0.0
  0
ARC
  8
0
  6
CONTINUOUS
 62
     1
 10
92.2
 20
116.9
 30
0.0
 40
0.3
 50
89.999871209
 51
179.999871205
  0
ARC
  8
0
  6
CONTINUOUS
 62
     1
 10
101.8
 20
116.9
 30
0.0
 40
0.3
 50
0.0
 51
90.0
  0
ARC
  8
0
  6
CONTINUOUS
 62
     1
 10
91.8
 20
117.3
 30
0.0
 40
0.7
 50
89.999944804
 51
179.999944801
  0
LINE
  8
0
  6
CONTINUOUS
 62
     1
 10
91.800000674
 20
118.0
 30
0.0
 11
102.200000954
 21
118.0
 31
0.0
  0
ARC
  8
0
  6
CONTINUOUS
 62
     1
 10
102.2
 20
117.3
 30
0.0
 40
0.7
 50
0.000078058
 51
89.999921941
  0
LINE
  8
0
  6
CONTINUOUS
 62
     1
 10
102.1
 20
116.9
 30
0.0
 11
102.1
 21
115.0
 31
0.0
  0
LINE
  8
0
  6
CONTINUOUS
 62
     1
 10
102.9
 20
117.300000954
 30
0.0
 11
102.9
 21
115.0
 31
0.0
  0
LINE
  8
0
  6
CONTINUOUS
 62
     1
 10
91.1
 20
117.300000674
 30
0.0
 11
91.1
 21
115.0
 31
0.0
  0
LINE
  8
0
  6
CONTINUOUS
 62
     1
 10
91.9
 20
116.900000674
 30
0.0
 11
91.9
 21
115.0
 31
0.0
  0
LINE
  8
0
  6
CONTINUOUS
 62
     1
 10
92.200000674
 20
117.2
 30
0.0
 11
101.8
 21
117.2
 31
0.0
  0
LINE
  8
0
  6
CONTINUOUS
 62
     1
 10
171.85
 20
118.0
 30
0.0
 11
181.15
 21
118.0
 31
0.0
  0
LINE
  8
0
  6
CONTINUOUS
 62
     1
 10
158.85
 20
117.0
 30
0.0
 11
157.5
 21
117.0
 31
0.0
  0
LINE
  8
0
  6
CONTINUOUS
 62
     1
 10
169.0
 20
117.0
 30
0.0
 11
168.15
 21
117.0
 31
0.0
  0
LINE
  8
0
  6
CONTINUOUS
 62
     1
 10
183.0
 20
117.0
 30
0.0
 11
181.15
 21
117.0
 31
0.0
  0
LINE
  8
0
  6
CONTINUOUS
 62
     1
 10
158.85
 20
118.0
 30
0.0
 11
158.85
 21
115.0
 31
0.0
  0
LINE
  8
0
  6
CONTINUOUS
 62
     1
 10
168.15
 20
118.0
 30
0.0
 11
168.15
 21
115.0
 31
0.0
  0
LINE
  8
0
  6
CONTINUOUS
 62
     1
 10
158.85
 20
118.0
 30
0.0
 11
168.15
 21
118.0
 31
0.0
  0
LINE
  8
0
  6
CONTINUOUS
 62
     1
 10
171.85
 20
118.0
 30
0.0
 11
171.85
 21
115.0
 31
0.0
  0
LINE
  8
0
  6
CONTINUOUS
 62
     1
 10
181.15
 20
118.0
 30
0.0
 11
181.15
 21
115.0
 31
0.0
  0
CIRCLE
  8
0
  6
CONTINUOUS
 62
     5
 10
80.0
 20
101.0
 30
0.0
 40
5.5
  0
LINE
  8
0
  6
CONTINUOUS
 62
     5
 10
98.219270822
 20
107.478112256
 30
0.0
 11
98.279240717
 21
107.478112256
 31
0.0
  0
LINE
  8
0
  6
CONTINUOUS
 62
     5
 10
98.279240717
 20
107.478112256
 30
0.0
 11
98.337934656
 21
107.478112256
 31
0.0
  0
CIRCLE
  8
0
  6
CONTINUOUS
 62
     5
 10
97.0
 20
110.0
 30
0.0
 40
4.0
  0
LINE
  8
0
  6
CONTINUOUS
 62
     1
 10
86.748075442
 20
114.832050294
 30
0.0
 11
83.689631905
 21
112.793087936
 31
0.0
  0
ARC
  8
0
  6
CONTINUOUS
 62
     1
 10
87.302775638
 20
114.0
 30
0.0
 40
1.0
 50
90.0
 51
123.690067526
  0
LINE
  8
0
  6
CONTINUOUS
 62
     1
 10
110.156788261
 20
113.170803622
 30
0.0
 11
112.518638574
 21
85.615883306
 31
0.0
  0
ARC
  8
0
  6
CONTINUOUS
 62
     1
 10
108.164095078
 20
113.0
 30
0.0
 40
2.0
 50
4.899092454
 51
90.0
  0
LINE
  8
0
  6
CONTINUOUS
 62
     1
 10
108.164096426
 20
115.0
 30
0.0
 11
87.302776591
 21
115.0
 31
0.0
  0
LINE
  8
0
  6
CONTINUOUS
 62
     1
 10
163.0345
 20
122.0
 30
0.0
 11
163.0345
 21
121.0
 31
0.0
  0
LINE
  8
0
  6
CONTINUOUS
 62
     1
 10
163.0345
 20
121.0
 30
0.0
 11
163.9655
 21
121.0
 31
0.0
  0
LINE
  8
0
  6
CONTINUOUS
 62
     1
 10
163.9655
 20
121.0
 30
0.0
 11
163.9655
 21
122.0
 31
0.0
  0
LINE
  8
0
  6
CONTINUOUS
 62
     1
 10
176.0345
 20
122.0
 30
0.0
 11
176.0345
 21
121.0
 31
0.0
  0
LINE
  8
0
  6
CONTINUOUS
 62
     1
 10
176.0345
 20
121.0
 30
0.0
 11
176.9655
 21
121.0
 31
0.0
  0
LINE
  8
0
  6
CONTINUOUS
 62
     1
 10
176.9655
 20
121.0
 30
0.0
 11
176.9655
 21
122.0
 31
0.0
  0
LINE
  8
0
  6
CONTINUOUS
 62
     1
 10
160.175
 20
119.0
 30
0.0
 11
166.825
 21
119.0
 31
0.0
  0
LINE
  8
0
  6
CONTINUOUS
 62
     1
 10
173.175
 20
119.0
 30
0.0
 11
179.825
 21
119.0
 31
0.0
  0
LINE
  8
0
  6
CONTINUOUS
 62
     5
 10
160.0
 20
122.0
 30
0.0
 11
139.0
 21
122.0
 31
0.0
  0
LINE
  8
0
  6
CONTINUOUS
 62
     1
 10
93.675
 20
119.0
 30
0.0
 11
100.325
 21
119.0
 31
0.0
  0
LINE
  8
0
  6
CONTINUOUS
 62
     1
 10
100.325
 20
120.0
 30
0.0
 11
103.180196097
 21
120.0
 31
0.0
  0
LINE
  8
0
  6
CONTINUOUS
 62
     1
 10
90.819803903
 20
120.0
 30
0.0
 11
93.675
 21
120.0
 31
0.0
  0
LINE
  8
0
  6
CONTINUOUS
 62
     5
 10
190.0
 20
105.0
 30
0.0
 11
199.0
 21
105.0
 31
0.0
  0
TEXT
  8
0
  6
CONTINUOUS
 62
     2
 10
190.0
 20
105.8
 30
0.3
 40
3.0
  1
Ｌ文字
 50
0.0
 41
0.9
 51
0.0
  7
KANJI9
  0
LINE
  8
0
  6
CONTINUOUS
 62
     5
 10
186.0
 20
101.0
 30
0.0
 11
188.165063509
 21
102.25
 31
0.0
  0
LINE
  8
0
  6
CONTINUOUS
 62
     5
 10
186.0
 20
101.0
 30
0.0
 11
187.25
 21
103.165063509
 31
0.0
  0
LINE
  8
0
  6
CONTINUOUS
 62
     5
 10
186.0
 20
101.0
 30
0.0
 11
190.0
 21
105.0
 31
0.0
  0
LINE
  8
0
  6
CONTINUOUS
 62
     5
 10
190.0
 20
114.0
 30
0.0
 11
199.0
 21
114.0
 31
0.0
  0
LINE
  8
0
  6
CONTINUOUS
 62
     5
 10
186.0
 20
110.0
 30
0.0
 11
188.165063509
 21
111.25
 31
0.0
  0
LINE
  8
0
  6
CONTINUOUS
 62
     5
 10
186.0
 20
110.0
 30
0.0
 11
187.25
 21
112.165063509
 31
0.0
  0
LINE
  8
0
  6
CONTINUOUS
 62
     5
 10
186.0
 20
110.0
 30
0.0
 11
190.0
 21
114.0
 31
0.0
  0
TEXT
  8
0
  6
CONTINUOUS
 62
     2
 10
190.0
 20
114.8
 30
0.3
 40
3.0
  1
　文字
 50
0.0
 41
0.9
 51
0.0
  7
KANJI9
  0
LINE
  8
0
  6
CONTINUOUS
 62
     2
 10
190.665824
 20
114.850112
 30
0.0
 11
190.696928
 21
114.86912
 31
0.0
  0
LINE
  8
0
  6
CONTINUOUS
 62
     2
 10
190.696928
 20
114.86912
 30
0.0
 11
190.740992
 21
114.900224
 31
0.0
  0
LINE
  8
0
  6
CONTINUOUS
 62
     2
 10
190.740992
 20
114.900224
 30
0.0
 11
190.796288
 21
114.930464
 31
0.0
  0
LINE
  8
0
  6
CONTINUOUS
 62
     2
 10
190.796288
 20
114.930464
 30
0.0
 11
190.840352
 21
114.96848
 31
0.0
  0
LINE
  8
0
  6
CONTINUOUS
 62
     2
 10
190.840352
 20
114.96848
 30
0.0
 11
190.8896
 21
114.999584
 31
0.0
  0
LINE
  8
0
  6
CONTINUOUS
 62
     2
 10
190.8896
 20
114.999584
 30
0.0
 11
190.94576
 21
115.030688
 31
0.0
  0
LINE
  8
0
  6
CONTINUOUS
 62
     2
 10
190.94576
 20
115.030688
 30
0.0
 11
190.98896
 21
115.061792
 31
0.0
  0
LINE
  8
0
  6
CONTINUOUS
 62
     2
 10
190.98896
 20
115.061792
 30
0.0
 11
191.007968
 21
115.092896
 31
0.0
  0
LINE
  8
0
  6
CONTINUOUS
 62
     2
 10
191.007968
 20
115.092896
 30
0.0
 11
191.04512
 21
115.130048
 31
0.0
  0
LINE
  8
0
  6
CONTINUOUS
 62
     2
 10
191.04512
 20
115.130048
 30
0.0
 11
191.076224
 21
115.161152
 31
0.0
  0
LINE
  8
0
  6
CONTINUOUS
 62
     2
 10
191.076224
 20
115.161152
 30
0.0
 11
191.119424
 21
115.198304
 31
0.0
  0
LINE
  8
0
  6
CONTINUOUS
 62
     2
 10
191.119424
 20
115.198304
 30
0.0
 11
191.15744
 21
115.229408
 31
0.0
  0
LINE
  8
0
  6
CONTINUOUS
 62
     2
 10
191.15744
 20
115.229408
 30
0.0
 11
191.18768
 21
115.260512
 31
0.0
  0
LINE
  8
0
  6
CONTINUOUS
 62
     2
 10
191.18768
 20
115.260512
 30
0.0
 11
191.225696
 21
115.30976
 31
0.0
  0
LINE
  8
0
  6
CONTINUOUS
 62
     2
 10
191.225696
 20
115.30976
 30
0.0
 11
191.262848
 21
115.340864
 31
0.0
  0
LINE
  8
0
  6
CONTINUOUS
 62
     2
 10
191.262848
 20
115.340864
 30
0.0
 11
191.293952
 21
115.384928
 31
0.0
  0
LINE
  8
0
  6
CONTINUOUS
 62
     2
 10
191.293952
 20
115.384928
 30
0.0
 11
191.331104
 21
115.416032
 31
0.0
  0
LINE
  8
0
  6
CONTINUOUS
 62
     2
 10
191.331104
 20
115.416032
 30
0.0
 11
191.374304
 21
115.453184
 31
0.0
  0
LINE
  8
0
  6
CONTINUOUS
 62
     2
 10
191.374304
 20
115.453184
 30
0.0
 11
191.39936
 21
115.496384
 31
0.0
  0
LINE
  8
0
  6
CONTINUOUS
 62
     2
 10
191.39936
 20
115.496384
 30
0.0
 11
191.424416
 21
115.540448
 31
0.0
  0
LINE
  8
0
  6
CONTINUOUS
 62
     2
 10
191.424416
 20
115.540448
 30
0.0
 11
191.461568
 21
115.589696
 31
0.0
  0
LINE
  8
0
  6
CONTINUOUS
 62
     2
 10
191.461568
 20
115.589696
 30
0.0
 11
191.492672
 21
115.632896
 31
0.0
  0
LINE
  8
0
  6
CONTINUOUS
 62
     2
 10
191.492672
 20
115.632896
 30
0.0
 11
191.523776
 21
115.67696
 31
0.0
  0
LINE
  8
0
  6
CONTINUOUS
 62
     2
 10
191.523776
 20
115.67696
 30
0.0
 11
191.548832
 21
115.73312
 31
0.0
  0
LINE
  8
0
  6
CONTINUOUS
 62
     2
 10
191.548832
 20
115.73312
 30
0.0
 11
191.573888
 21
115.788416
 31
0.0
  0
LINE
  8
0
  6
CONTINUOUS
 62
     2
 10
191.573888
 20
115.788416
 30
0.0
 11
191.59808
 21
115.850624
 31
0.0
  0
LINE
  8
0
  6
CONTINUOUS
 62
     2
 10
191.59808
 20
115.850624
 30
0.0
 11
191.623136
 21
115.900736
 31
0.0
  0
LINE
  8
0
  6
CONTINUOUS
 62
     2
 10
191.623136
 20
115.900736
 30
0.0
 11
191.648192
 21
115.968992
 31
0.0
  0
LINE
  8
0
  6
CONTINUOUS
 62
     2
 10
191.648192
 20
115.968992
 30
0.0
 11
191.666336
 21
116.037248
 31
0.0
  0
LINE
  8
0
  6
CONTINUOUS
 62
     2
 10
191.666336
 20
116.037248
 30
0.0
 11
191.685344
 21
116.099456
 31
0.0
  0
LINE
  8
0
  6
CONTINUOUS
 62
     2
 10
191.685344
 20
116.099456
 30
0.0
 11
191.704352
 21
116.161664
 31
0.0
  0
LINE
  8
0
  6
CONTINUOUS
 62
     2
 10
191.704352
 20
116.161664
 30
0.0
 11
191.722496
 21
116.217824
 31
0.0
  0
LINE
  8
0
  6
CONTINUOUS
 62
     2
 10
191.722496
 20
116.217824
 30
0.0
 11
191.728544
 21
116.27312
 31
0.0
  0
LINE
  8
0
  6
CONTINUOUS
 62
     2
 10
191.728544
 20
116.27312
 30
0.0
 11
191.735456
 21
116.32928
 31
0.0
  0
LINE
  8
0
  6
CONTINUOUS
 62
     2
 10
191.735456
 20
116.32928
 30
0.0
 11
191.741504
 21
116.379392
 31
0.0
  0
LINE
  8
0
  6
CONTINUOUS
 62
     2
 10
191.741504
 20
116.379392
 30
0.0
 11
191.747552
 21
116.447648
 31
0.0
  0
LINE
  8
0
  6
CONTINUOUS
 62
     2
 10
191.747552
 20
116.447648
 30
0.0
 11
191.759648
 21
116.521952
 31
0.0
  0
LINE
  8
0
  6
CONTINUOUS
 62
     2
 10
191.759648
 20
116.521952
 30
0.0
 11
191.759648
 21
116.578112
 31
0.0
  0
LINE
  8
0
  6
CONTINUOUS
 62
     2
 10
191.759648
 20
116.578112
 30
0.0
 11
191.759648
 21
116.634272
 31
0.0
  0
LINE
  8
0
  6
CONTINUOUS
 62
     2
 10
191.759648
 20
116.634272
 30
0.0
 11
191.7536
 21
116.689568
 31
0.0
  0
LINE
  8
0
  6
CONTINUOUS
 62
     2
 10
191.7536
 20
116.689568
 30
0.0
 11
191.7536
 21
116.758688
 31
0.0
  0
LINE
  8
0
  6
CONTINUOUS
 62
     2
 10
191.7536
 20
116.758688
 30
0.0
 11
191.7536
 21
116.826944
 31
0.0
  0
LINE
  8
0
  6
CONTINUOUS
 62
     2
 10
191.7536
 20
116.826944
 30
0.0
 11
191.741504
 21
116.8952
 31
0.0
  0
LINE
  8
0
  6
CONTINUOUS
 62
     2
 10
191.741504
 20
116.8952
 30
0.0
 11
191.741504
 21
116.95136
 31
0.0
  0
LINE
  8
0
  6
CONTINUOUS
 62
     2
 10
191.741504
 20
116.95136
 30
0.0
 11
191.728544
 21
117.006656
 31
0.0
  0
LINE
  8
0
  6
CONTINUOUS
 62
     2
 10
191.728544
 20
117.006656
 30
0.0
 11
191.7104
 21
117.081824
 31
0.0
  0
LINE
  8
0
  6
CONTINUOUS
 62
     2
 10
191.7104
 20
117.081824
 30
0.0
 11
191.691392
 21
117.162176
 31
0.0
  0
LINE
  8
0
  6
CONTINUOUS
 62
     2
 10
191.691392
 20
117.162176
 30
0.0
 11
191.666336
 21
117.237344
 31
0.0
  0
LINE
  8
0
  6
CONTINUOUS
 62
     2
 10
191.666336
 20
117.237344
 30
0.0
 11
191.629184
 21
117.29264
 31
0.0
  0
LINE
  8
0
  6
CONTINUOUS
 62
     2
 10
191.629184
 20
117.29264
 30
0.0
 11
191.604992
 21
117.329792
 31
0.0
  0
LINE
  8
0
  6
CONTINUOUS
 62
     2
 10
191.604992
 20
117.329792
 30
0.0
 11
191.560928
 21
117.379904
 31
0.0
  0
LINE
  8
0
  6
CONTINUOUS
 62
     2
 10
191.560928
 20
117.379904
 30
0.0
 11
191.523776
 21
117.417056
 31
0.0
  0
LINE
  8
0
  6
CONTINUOUS
 62
     2
 10
191.523776
 20
117.417056
 30
0.0
 11
191.467616
 21
117.442112
 31
0.0
  0
LINE
  8
0
  6
CONTINUOUS
 62
     2
 10
191.467616
 20
117.442112
 30
0.0
 11
191.393312
 21
117.46112
 31
0.0
  0
LINE
  8
0
  6
CONTINUOUS
 62
     2
 10
191.393312
 20
117.46112
 30
0.0
 11
191.337152
 21
117.467168
 31
0.0
  0
LINE
  8
0
  6
CONTINUOUS
 62
     2
 10
191.337152
 20
117.467168
 30
0.0
 11
191.274944
 21
117.454208
 31
0.0
  0
LINE
  8
0
  6
CONTINUOUS
 62
     2
 10
191.274944
 20
117.454208
 30
0.0
 11
191.212736
 21
117.423104
 31
0.0
  0
LINE
  8
0
  6
CONTINUOUS
 62
     2
 10
191.212736
 20
117.423104
 30
0.0
 11
191.150528
 21
117.379904
 31
0.0
  0
LINE
  8
0
  6
CONTINUOUS
 62
     2
 10
191.150528
 20
117.379904
 30
0.0
 11
191.10128
 21
117.329792
 31
0.0
  0
LINE
  8
0
  6
CONTINUOUS
 62
     2
 10
191.10128
 20
117.329792
 30
0.0
 11
191.051168
 21
117.274496
 31
0.0
  0
LINE
  8
0
  6
CONTINUOUS
 62
     2
 10
191.051168
 20
117.274496
 30
0.0
 11
191.020064
 21
117.224384
 31
0.0
  0
LINE
  8
0
  6
CONTINUOUS
 62
     2
 10
191.020064
 20
117.224384
 30
0.0
 11
190.995008
 21
117.181184
 31
0.0
  0
LINE
  8
0
  6
CONTINUOUS
 62
     2
 10
190.995008
 20
117.181184
 30
0.0
 11
190.957856
 21
117.125024
 31
0.0
  0
LINE
  8
0
  6
CONTINUOUS
 62
     2
 10
190.957856
 20
117.125024
 30
0.0
 11
190.926752
 21
117.062816
 31
0.0
  0
LINE
  8
0
  6
CONTINUOUS
 62
     2
 10
190.926752
 20
117.062816
 30
0.0
 11
190.90256
 21
116.99456
 31
0.0
  0
LINE
  8
0
  6
CONTINUOUS
 62
     2
 10
190.90256
 20
116.99456
 30
0.0
 11
190.871456
 21
116.932352
 31
0.0
  0
LINE
  8
0
  6
CONTINUOUS
 62
     2
 10
190.871456
 20
116.932352
 30
0.0
 11
190.8464
 21
116.858048
 31
0.0
  0
LINE
  8
0
  6
CONTINUOUS
 62
     2
 10
190.8464
 20
116.858048
 30
0.0
 11
190.83344
 21
116.801888
 31
0.0
  0
LINE
  8
0
  6
CONTINUOUS
 62
     2
 10
190.83344
 20
116.801888
 30
0.0
 11
190.809248
 21
116.73968
 31
0.0
  0
LINE
  8
0
  6
CONTINUOUS
 62
     2
 10
190.809248
 20
116.73968
 30
0.0
 11
190.796288
 21
116.665376
 31
0.0
  0
LINE
  8
0
  6
CONTINUOUS
 62
     2
 10
190.796288
 20
116.665376
 30
0.0
 11
190.778144
 21
116.59712
 31
0.0
  0
LINE
  8
0
  6
CONTINUOUS
 62
     2
 10
190.778144
 20
116.59712
 30
0.0
 11
190.759136
 21
116.521952
 31
0.0
  0
LINE
  8
0
  6
CONTINUOUS
 62
     2
 10
190.759136
 20
116.521952
 30
0.0
 11
190.74704
 21
116.447648
 31
0.0
  0
LINE
  8
0
  6
CONTINUOUS
 62
     2
 10
190.74704
 20
116.447648
 30
0.0
 11
190.753088
 21
116.373344
 31
0.0
  0
LINE
  8
0
  6
CONTINUOUS
 62
     2
 10
190.753088
 20
116.373344
 30
0.0
 11
190.74704
 21
116.317184
 31
0.0
  0
LINE
  8
0
  6
CONTINUOUS
 62
     2
 10
190.74704
 20
116.317184
 30
0.0
 11
190.740992
 21
116.254976
 31
0.0
  0
LINE
  8
0
  6
CONTINUOUS
 62
     2
 10
190.740992
 20
116.254976
 30
0.0
 11
190.740992
 21
116.192768
 31
0.0
  0
LINE
  8
0
  6
CONTINUOUS
 62
     2
 10
190.740992
 20
116.192768
 30
0.0
 11
190.740992
 21
116.124512
 31
0.0
  0
LINE
  8
0
  6
CONTINUOUS
 62
     2
 10
190.740992
 20
116.124512
 30
0.0
 11
190.740992
 21
116.062304
 31
0.0
  0
LINE
  8
0
  6
CONTINUOUS
 62
     2
 10
190.740992
 20
116.062304
 30
0.0
 11
190.740992
 21
115.994048
 31
0.0
  0
LINE
  8
0
  6
CONTINUOUS
 62
     2
 10
190.740992
 20
115.994048
 30
0.0
 11
190.753088
 21
115.937888
 31
0.0
  0
LINE
  8
0
  6
CONTINUOUS
 62
     2
 10
190.753088
 20
115.937888
 30
0.0
 11
190.753088
 21
115.87568
 31
0.0
  0
LINE
  8
0
  6
CONTINUOUS
 62
     2
 10
190.753088
 20
115.87568
 30
0.0
 11
190.759136
 21
115.801376
 31
0.0
  0
LINE
  8
0
  6
CONTINUOUS
 62
     2
 10
190.759136
 20
115.801376
 30
0.0
 11
190.765184
 21
115.739168
 31
0.0
  0
LINE
  8
0
  6
CONTINUOUS
 62
     2
 10
190.765184
 20
115.739168
 30
0.0
 11
190.778144
 21
115.67696
 31
0.0
  0
LINE
  8
0
  6
CONTINUOUS
 62
     2
 10
190.778144
 20
115.67696
 30
0.0
 11
190.79024
 21
115.614752
 31
0.0
  0
LINE
  8
0
  6
CONTINUOUS
 62
     2
 10
190.79024
 20
115.614752
 30
0.0
 11
190.802336
 21
115.558592
 31
0.0
  0
LINE
  8
0
  6
CONTINUOUS
 62
     2
 10
190.802336
 20
115.558592
 30
0.0
 11
190.821344
 21
115.496384
 31
0.0
  0
LINE
  8
0
  6
CONTINUOUS
 62
     2
 10
190.821344
 20
115.496384
 30
0.0
 11
190.840352
 21
115.428128
 31
0.0
  0
LINE
  8
0
  6
CONTINUOUS
 62
     2
 10
190.840352
 20
115.428128
 30
0.0
 11
190.871456
 21
115.36592
 31
0.0
  0
LINE
  8
0
  6
CONTINUOUS
 62
     2
 10
190.871456
 20
115.36592
 30
0.0
 11
190.8896
 21
115.32272
 31
0.0
  0
LINE
  8
0
  6
CONTINUOUS
 62
     2
 10
190.8896
 20
115.32272
 30
0.0
 11
190.908608
 21
115.278656
 31
0.0
  0
LINE
  8
0
  6
CONTINUOUS
 62
     2
 10
190.908608
 20
115.278656
 30
0.0
 11
190.933664
 21
115.22336
 31
0.0
  0
LINE
  8
0
  6
CONTINUOUS
 62
     2
 10
190.933664
 20
115.22336
 30
0.0
 11
190.951808
 21
115.179296
 31
0.0
  0
LINE
  8
0
  6
CONTINUOUS
 62
     2
 10
190.951808
 20
115.179296
 30
0.0
 11
190.970816
 21
115.161152
 31
0.0
  0
LINE
  8
0
  6
CONTINUOUS
 62
     2
 10
190.970816
 20
115.161152
 30
0.0
 11
190.982912
 21
115.104992
 31
0.0
  0
LINE
  8
0
  6
CONTINUOUS
 62
     2
 10
190.982912
 20
115.104992
 30
0.0
 11
191.014016
 21
115.061792
 31
0.0
  0
LINE
  8
0
  6
CONTINUOUS
 62
     2
 10
191.014016
 20
115.061792
 30
0.0
 11
191.026112
 21
115.017728
 31
0.0
  0
LINE
  8
0
  6
CONTINUOUS
 62
     2
 10
191.026112
 20
115.017728
 30
0.0
 11
191.057216
 21
114.974528
 31
0.0
  0
LINE
  8
0
  6
CONTINUOUS
 62
     2
 10
191.04512
 20
114.992672
 30
0.0
 11
191.070176
 21
114.961568
 31
0.0
  0
LINE
  8
0
  6
CONTINUOUS
 62
     2
 10
191.070176
 20
114.961568
 30
0.0
 11
191.132384
 21
114.906272
 31
0.0
  0
LINE
  8
0
  6
CONTINUOUS
 62
     2
 10
191.132384
 20
114.906272
 30
0.0
 11
191.169536
 21
114.86912
 31
0.0
  0
LINE
  8
0
  6
CONTINUOUS
 62
     2
 10
191.169536
 20
114.86912
 30
0.0
 11
191.225696
 21
114.838016
 31
0.0
  0
LINE
  8
0
  6
CONTINUOUS
 62
     2
 10
191.225696
 20
114.838016
 30
0.0
 11
191.3
 21
114.8
 31
0.0
  0
LINE
  8
0
  6
CONTINUOUS
 62
     2
 10
191.3
 20
114.8
 30
0.0
 11
191.418368
 21
114.806912
 31
0.0
  0
LINE
  8
0
  6
CONTINUOUS
 62
     2
 10
191.418368
 20
114.806912
 30
0.0
 11
191.486624
 21
114.825056
 31
0.0
  0
LINE
  8
0
  6
CONTINUOUS
 62
     2
 10
191.486624
 20
114.825056
 30
0.0
 11
191.548832
 21
114.844064
 31
0.0
  0
LINE
  8
0
  6
CONTINUOUS
 62
     2
 10
191.548832
 20
114.844064
 30
0.0
 11
191.617088
 21
114.881216
 31
0.0
  0
LINE
  8
0
  6
CONTINUOUS
 62
     2
 10
191.617088
 20
114.881216
 30
0.0
 11
191.691392
 21
114.943424
 31
0.0
  0
LINE
  8
0
  6
CONTINUOUS
 62
     2
 10
191.691392
 20
114.943424
 30
0.0
 11
191.728544
 21
114.986624
 31
0.0
  0
LINE
  8
0
  6
CONTINUOUS
 62
     2
 10
190.652648
 20
114.842336
 30
0.0
 11
190.588928
 21
114.804536
 31
0.0
  0
LINE
  8
0
  6
CONTINUOUS
 62
     2
 10
190.588928
 20
114.804536
 30
0.0
 11
190.512248
 21
114.791576
 31
0.0
  0
LINE
  8
0
  6
CONTINUOUS
 62
     2
 10
190.512248
 20
114.791576
 30
0.0
 11
190.434488
 21
114.765656
 31
0.0
  0
LINE
  8
0
  6
CONTINUOUS
 62
     1
 10
100.5
 20
170.75
 30
0.0
 11
93.5
 21
170.75
 31
0.0
  0
LINE
  8
0
  6
CONTINUOUS
 62
     1
 10
93.5
 20
170.75
 30
0.0
 11
93.0
 21
171.15
 31
0.0
  0
LINE
  8
0
  6
CONTINUOUS
 62
     1
 10
100.5
 20
170.75
 30
0.0
 11
93.5
 21
170.75
 31
0.0
  0
LINE
  8
0
  6
CONTINUOUS
 62
     1
 10
93.0
 20
171.15
 30
0.0
 11
91.1
 21
171.15
 31
0.0
  0
LINE
  8
0
  6
CONTINUOUS
 62
     1
 10
93.0
 20
171.15
 30
0.0
 11
91.1
 21
171.15
 31
0.0
  0
LINE
  8
0
  6
CONTINUOUS
 62
     1
 10
91.9
 20
172.5
 30
0.0
 11
91.9
 21
171.15
 31
0.0
  0
LINE
  8
0
  6
CONTINUOUS
 62
     1
 10
100.2585
 20
166.9655
 30
0.0
 11
98.463
 21
166.9655
 31
0.0
  0
LINE
  8
0
  6
CONTINUOUS
 62
     1
 10
98.463
 20
166.0345
 30
0.0
 11
100.292253749
 21
166.0345
 31
0.0
  0
LINE
  8
0
  6
CONTINUOUS
 62
     1
 10
95.537
 20
166.9655
 30
0.0
 11
93.707746251
 21
166.9655
 31
0.0
  0
LINE
  8
0
  6
CONTINUOUS
 62
     1
 10
93.707746251
 20
166.0345
 30
0.0
 11
95.537
 21
166.0345
 31
0.0
  0
LINE
  8
0
  6
CONTINUOUS
 62
     1
 10
97.4655
 20
168.32875
 30
0.0
 11
96.5345
 21
168.32875
 31
0.0
  0
LINE
  8
0
  6
CONTINUOUS
 62
     1
 10
96.5345
 20
168.32875
 30
0.0
 11
96.5345
 21
167.963
 31
0.0
  0
ARC
  8
0
  6
CONTINUOUS
 62
     1
 10
95.537
 20
167.963
 30
0.0
 40
0.9975
 50
270.0
 51
0.0
  0
LINE
  8
0
  6
CONTINUOUS
 62
     1
 10
97.4655
 20
167.963
 30
0.0
 11
97.4655
 21
168.32875
 31
0.0
  0
ARC
  8
0
  6
CONTINUOUS
 62
     1
 10
98.463
 20
167.963
 30
0.0
 40
0.9975
 50
180.0
 51
270.0
  0
LINE
  8
0
  6
CONTINUOUS
 62
     1
 10
104.0
 20
161.0
 30
0.0
 11
90.0
 21
161.0
 31
0.0
  0
ARC
  8
0
  6
CONTINUOUS
 62
     1
 10
90.0
 20
160.0
 30
0.0
 40
1.0
 50
90.0
 51
270.0
  0
LINE
  8
0
  6
CONTINUOUS
 62
     1
 10
93.0
 20
161.85
 30
0.0
 11
91.1
 21
161.85
 31
0.0
  0
LINE
  8
0
  6
CONTINUOUS
 62
     1
 10
91.9
 20
161.85
 30
0.0
 11
91.9
 21
161.0
 31
0.0
  0
LINE
  8
0
  6
CONTINUOUS
 62
     1
 10
93.5
 20
162.25
 30
0.0
 11
93.0
 21
161.85
 31
0.0
  0
LINE
  8
0
  6
CONTINUOUS
 62
     1
 10
100.5
 20
162.25
 30
0.0
 11
93.5
 21
162.25
 31
0.0
  0
LINE
  8
0
  6
CONTINUOUS
 62
     1
 10
91.1
 20
161.85
 30
0.0
 11
91.1
 21
171.15
 31
0.0
  0
LINE
  8
0
  6
CONTINUOUS
 62
     1
 10
91.1
 20
171.15
 30
0.0
 11
91.1
 21
161.85
 31
0.0
  0
CIRCLE
  8
0
  6
CONTINUOUS
 62
     1
 10
97.0
 20
166.5
 30
0.0
 40
3.325
  0
LINE
  8
0
  6
CONTINUOUS
 62
     1
 10
96.5345
 20
164.67125
 30
0.0
 11
97.4655
 21
164.67125
 31
0.0
  0
LINE
  8
0
  6
CONTINUOUS
 62
     1
 10
97.4655
 20
164.67125
 30
0.0
 11
97.4655
 21
165.037
 31
0.0
  0
ARC
  8
0
  6
CONTINUOUS
 62
     1
 10
98.463
 20
165.037
 30
0.0
 40
0.9975
 50
90.0
 51
180.0
  0
LINE
  8
0
  6
CONTINUOUS
 62
     1
 10
96.5345
 20
165.037
 30
0.0
 11
96.5345
 21
164.67125
 31
0.0
  0
ARC
  8
0
  6
CONTINUOUS
 62
     1
 10
95.537
 20
165.037
 30
0.0
 40
0.9975
 50
0.0
 51
90.0
  0
LINE
  8
0
  6
CONTINUOUS
 62
     1
 10
105.0
 20
147.0
 30
0.0
 11
89.0
 21
147.0
 31
0.0
  0
LINE
  8
0
  6
CONTINUOUS
 62
     1
 10
93.5
 20
149.25
 30
0.0
 11
93.0
 21
148.85
 31
0.0
  0
LINE
  8
0
  6
CONTINUOUS
 62
     1
 10
100.5
 20
149.25
 30
0.0
 11
93.5
 21
149.25
 31
0.0
  0
LINE
  8
0
  6
CONTINUOUS
 62
     1
 10
100.5
 20
157.75
 30
0.0
 11
93.5
 21
157.75
 31
0.0
  0
LINE
  8
0
  6
CONTINUOUS
 62
     1
 10
93.5
 20
157.75
 30
0.0
 11
93.0
 21
158.15
 31
0.0
  0
LINE
  8
0
  6
CONTINUOUS
 62
     1
 10
100.5
 20
157.75
 30
0.0
 11
93.5
 21
157.75
 31
0.0
  0
LINE
  8
0
  6
CONTINUOUS
 62
     1
 10
91.1
 20
148.85
 30
0.0
 11
91.1
 21
158.15
 31
0.0
  0
LINE
  8
0
  6
CONTINUOUS
 62
     1
 10
91.1
 20
158.15
 30
0.0
 11
91.1
 21
148.85
 31
0.0
  0
LINE
  8
0
  6
CONTINUOUS
 62
     1
 10
93.0
 20
148.85
 30
0.0
 11
91.1
 21
148.85
 31
0.0
  0
LINE
  8
0
  6
CONTINUOUS
 62
     1
 10
93.0
 20
158.15
 30
0.0
 11
91.1
 21
158.15
 31
0.0
  0
LINE
  8
0
  6
CONTINUOUS
 62
     1
 10
93.0
 20
158.15
 30
0.0
 11
91.1
 21
158.15
 31
0.0
  0
CIRCLE
  8
0
  6
CONTINUOUS
 62
     1
 10
97.0
 20
153.5
 30
0.0
 40
3.325
  0
LINE
  8
0
  6
CONTINUOUS
 62
     1
 10
91.9
 20
148.85
 30
0.0
 11
91.9
 21
147.0
 31
0.0
  0
LINE
  8
0
  6
CONTINUOUS
 62
     1
 10
91.9
 20
159.0
 30
0.0
 11
91.9
 21
158.15
 31
0.0
  0
LINE
  8
0
  6
CONTINUOUS
 62
     1
 10
97.4655
 20
155.32875
 30
0.0
 11
96.5345
 21
155.32875
 31
0.0
  0
LINE
  8
0
  6
CONTINUOUS
 62
     1
 10
96.5345
 20
151.67125
 30
0.0
 11
97.4655
 21
151.67125
 31
0.0
  0
LINE
  8
0
  6
CONTINUOUS
 62
     1
 10
96.5345
 20
155.32875
 30
0.0
 11
96.5345
 21
154.963
 31
0.0
  0
LINE
  8
0
  6
CONTINUOUS
 62
     1
 10
95.537
 20
153.9655
 30
0.0
 11
93.707746251
 21
153.9655
 31
0.0
  0
ARC
  8
0
  6
CONTINUOUS
 62
     1
 10
95.537
 20
154.963
 30
0.0
 40
0.9975
 50
270.0
 51
0.0
  0
LINE
  8
0
  6
CONTINUOUS
 62
     1
 10
97.4655
 20
154.963
 30
0.0
 11
97.4655
 21
155.32875
 31
0.0
  0
LINE
  8
0
  6
CONTINUOUS
 62
     1
 10
100.2585
 20
153.9655
 30
0.0
 11
98.463
 21
153.9655
 31
0.0
  0
ARC
  8
0
  6
CONTINUOUS
 62
     1
 10
98.463
 20
154.963
 30
0.0
 40
0.9975
 50
180.0
 51
270.0
  0
LINE
  8
0
  6
CONTINUOUS
 62
     1
 10
97.4655
 20
151.67125
 30
0.0
 11
97.4655
 21
152.037
 31
0.0
  0
LINE
  8
0
  6
CONTINUOUS
 62
     1
 10
98.463
 20
153.0345
 30
0.0
 11
100.292253749
 21
153.0345
 31
0.0
  0
ARC
  8
0
  6
CONTINUOUS
 62
     1
 10
98.463
 20
152.037
 30
0.0
 40
0.9975
 50
90.0
 51
180.0
  0
LINE
  8
0
  6
CONTINUOUS
 62
     1
 10
96.5345
 20
152.037
 30
0.0
 11
96.5345
 21
151.67125
 31
0.0
  0
LINE
  8
0
  6
CONTINUOUS
 62
     1
 10
93.707746251
 20
153.0345
 30
0.0
 11
95.537
 21
153.0345
 31
0.0
  0
ARC
  8
0
  6
CONTINUOUS
 62
     1
 10
95.537
 20
152.037
 30
0.0
 40
0.9975
 50
0.0
 51
90.0
  0
LINE
  8
0
  6
CONTINUOUS
 62
     1
 10
93.675
 20
118.0
 30
0.0
 11
93.675
 21
120.0
 31
0.0
  0
ARC
  8
0
  6
CONTINUOUS
 62
     1
 10
95.675
 20
120.0
 30
0.0
 40
2.0
 50
90.0
 51
180.0
  0
LINE
  8
0
  6
CONTINUOUS
 62
     1
 10
95.675
 20
122.0
 30
0.0
 11
98.325
 21
122.0
 31
0.0
  0
LINE
  8
0
  6
CONTINUOUS
 62
     1
 10
100.325
 20
120.0
 30
0.0
 11
100.325
 21
118.0
 31
0.0
  0
ARC
  8
0
  6
CONTINUOUS
 62
     1
 10
98.325
 20
120.0
 30
0.0
 40
2.0
 50
0.0
 51
90.0
  0
LINE
  8
0
  6
CONTINUOUS
 62
     1
 10
160.175
 20
118.0
 30
0.0
 11
160.175
 21
120.0
 31
0.0
  0
ARC
  8
0
  6
CONTINUOUS
 62
     1
 10
162.175
 20
120.0
 30
0.0
 40
2.0
 50
90.0
 51
180.0
  0
LINE
  8
0
  6
CONTINUOUS
 62
     1
 10
162.175
 20
122.0
 30
0.0
 11
164.825
 21
122.0
 31
0.0
  0
LINE
  8
0
  6
CONTINUOUS
 62
     1
 10
166.825
 20
120.0
 30
0.0
 11
166.825
 21
118.0
 31
0.0
  0
ARC
  8
0
  6
CONTINUOUS
 62
     1
 10
164.825
 20
120.0
 30
0.0
 40
2.0
 50
0.0
 51
90.0
  0
LINE
  8
0
  6
CONTINUOUS
 62
     1
 10
173.175
 20
118.0
 30
0.0
 11
173.175
 21
120.0
 31
0.0
  0
ARC
  8
0
  6
CONTINUOUS
 62
     1
 10
175.175
 20
120.0
 30
0.0
 40
2.0
 50
90.0
 51
180.0
  0
LINE
  8
0
  6
CONTINUOUS
 62
     1
 10
175.175
 20
122.0
 30
0.0
 11
177.825
 21
122.0
 31
0.0
  0
LINE
  8
0
  6
CONTINUOUS
 62
     1
 10
179.825
 20
120.0
 30
0.0
 11
179.825
 21
118.0
 31
0.0
  0
ARC
  8
0
  6
CONTINUOUS
 62
     1
 10
177.825
 20
120.0
 30
0.0
 40
2.0
 50
0.0
 51
90.0
  0
LINE
  8
0
  6
CONTINUOUS
 62
     1
 10
154.0
 20
114.0
 30
0.0
 11
154.0
 21
40.0
 31
0.0
  0
ARC
  8
0
  6
CONTINUOUS
 62
     1
 10
155.0
 20
114.0
 30
0.0
 40
1.0
 50
90.0
 51
180.0
  0
LINE
  8
0
  6
CONTINUOUS
 62
     1
 10
185.0
 20
115.0
 30
0.0
 11
155.0
 21
115.0
 31
0.0
  0
LINE
  8
0
  6
CONTINUOUS
 62
     1
 10
186.0
 20
40.0
 30
0.0
 11
186.0
 21
114.0
 31
0.0
  0
ARC
  8
0
  6
CONTINUOUS
 62
     1
 10
185.0
 20
114.0
 30
0.0
 40
1.0
 50
0.0
 51
90.0
  0
LINE
  8
0
  6
CONTINUOUS
 62
     1
 10
36.0
 20
46.0
 30
0.0
 11
36.0
 21
40.0
 31
0.0
  0
ARC
  8
0
  6
CONTINUOUS
 62
     1
 10
37.0
 20
46.0
 30
0.0
 40
1.0
 50
90.0
 51
180.0
  0
LINE
  8
0
  6
CONTINUOUS
 62
     1
 10
124.0
 20
40.0
 30
0.0
 11
124.0
 21
46.0
 31
0.0
  0
ARC
  8
0
  6
CONTINUOUS
 62
     1
 10
123.0
 20
46.0
 30
0.0
 40
1.0
 50
0.0
 51
90.0
  0
LINE
  8
0
  6
CONTINUOUS
 62
     1
 10
49.0
 20
47.0
 30
0.0
 11
37.0
 21
47.0
 31
0.0
  0
LINE
  8
0
  6
CONTINUOUS
 62
     1
 10
50.0
 20
66.252272915
 30
0.0
 11
50.0
 21
48.0
 31
0.0
  0
ARC
  8
0
  6
CONTINUOUS
 62
     1
 10
49.0
 20
48.0
 30
0.0
 40
1.0
 50
270.0
 51
0.0
  0
LINE
  8
0
  6
CONTINUOUS
 62
     1
 10
123.0
 20
47.0
 30
0.0
 11
111.0
 21
47.0
 31
0.0
  0
LINE
  8
0
  6
CONTINUOUS
 62
     1
 10
110.0
 20
66.252272915
 30
0.0
 11
110.0
 21
48.0
 31
0.0
  0
ARC
  8
0
  6
CONTINUOUS
 62
     1
 10
111.0
 20
48.0
 30
0.0
 40
1.0
 50
180.0
 51
270.0
  0
ARC
  8
0
  6
CONTINUOUS
 62
     1
 10
155.0
 20
46.0
 30
0.0
 40
1.0
 50
90.0
 51
180.0
  0
LINE
  8
0
  6
CONTINUOUS
 62
     1
 10
166.5
 20
46.0
 30
0.0
 11
166.5
 21
40.0
 31
0.0
  0
ARC
  8
0
  6
CONTINUOUS
 62
     1
 10
165.5
 20
46.0
 30
0.0
 40
1.0
 50
0.0
 51
90.0
  0
ARC
  8
0
  6
CONTINUOUS
 62
     1
 10
185.0
 20
46.0
 30
0.0
 40
1.0
 50
0.0
 51
90.0
  0
ARC
  8
0
  6
CONTINUOUS
 62
     1
 10
174.5
 20
46.0
 30
0.0
 40
1.0
 50
90.0
 51
180.0
  0
LINE
  8
0
  6
CONTINUOUS
 62
     1
 10
173.5
 20
40.0
 30
0.0
 11
173.5
 21
46.0
 31
0.0
  0
ARC
  8
0
  6
CONTINUOUS
 62
     1
 10
37.0
 20
175.0
 30
0.0
 40
1.0
 50
90.0
 51
180.0
  0
ARC
  8
0
  6
CONTINUOUS
 62
     1
 10
37.0
 20
145.0
 30
0.0
 40
1.0
 50
180.0
 51
270.0
  0
LINE
  8
0
  6
CONTINUOUS
 62
     1
 10
36.0
 20
145.0
 30
0.0
 11
36.0
 21
155.5
 31
0.0
  0
LINE
  8
0
  6
CONTINUOUS
 62
     1
 10
37.0
 20
156.5
 30
0.0
 11
47.0
 21
156.5
 31
0.0
  0
ARC
  8
0
  6
CONTINUOUS
 62
     1
 10
37.0
 20
155.5
 30
0.0
 40
1.0
 50
90.0
 51
180.0
  0
LINE
  8
0
  6
CONTINUOUS
 62
     1
 10
37.0
 20
163.5
 30
0.0
 11
47.0
 21
163.5
 31
0.0
  0
LINE
  8
0
  6
CONTINUOUS
 62
     1
 10
36.0
 20
164.5
 30
0.0
 11
36.0
 21
175.0
 31
0.0
  0
ARC
  8
0
  6
CONTINUOUS
 62
     1
 10
37.0
 20
164.5
 30
0.0
 40
1.0
 50
180.0
 51
270.0
  0
ARC
  8
0
  6
CONTINUOUS
 62
     1
 10
123.0
 20
175.0
 30
0.0
 40
1.0
 50
0.0
 51
90.0
  0
LINE
  8
0
  6
CONTINUOUS
 62
     1
 10
113.0
 20
163.5
 30
0.0
 11
123.0
 21
163.5
 31
0.0
  0
LINE
  8
0
  6
CONTINUOUS
 62
     1
 10
124.0
 20
164.5
 30
0.0
 11
124.0
 21
175.0
 31
0.0
  0
ARC
  8
0
  6
CONTINUOUS
 62
     1
 10
123.0
 20
164.5
 30
0.0
 40
1.0
 50
270.0
 51
0.0
  0
LINE
  8
0
  6
CONTINUOUS
 62
     1
 10
113.0
 20
156.5
 30
0.0
 11
123.0
 21
156.5
 31
0.0
  0
ARC
  8
0
  6
CONTINUOUS
 62
     1
 10
123.0
 20
155.5
 30
0.0
 40
1.0
 50
0.0
 51
90.0
  0
LINE
  8
0
  6
CONTINUOUS
 62
     1
 10
124.0
 20
145.0
 30
0.0
 11
124.0
 21
155.5
 31
0.0
  0
LINE
  8
0
  6
CONTINUOUS
 62
     1
 10
37.0
 20
144.0
 30
0.0
 11
123.0
 21
144.0
 31
0.0
  0
ARC
  8
0
  6
CONTINUOUS
 62
     1
 10
123.0
 20
145.0
 30
0.0
 40
1.0
 50
270.0
 51
0.0
  0
LINE
  8
0
  6
CONTINUOUS
 62
     1
 10
123.0
 20
176.0
 30
0.0
 11
37.0
 21
176.0
 31
0.0
  0
LINE
  8
0
  6
CONTINUOUS
 62
     2
 10
155.1
 20
115.0
 30
0.0
 11
155.1
 21
40.0
 31
0.0
  0
LINE
  8
0
  6
CONTINUOUS
 62
     2
 10
36.0
 20
145.1
 30
0.0
 11
87.0
 21
145.1
 31
0.0
  0
LINE
  8
0
  6
CONTINUOUS
 62
     2
 10
47.0
 20
174.9
 30
0.0
 11
36.0
 21
174.9
 31
0.0
  0
LINE
  8
0
  6
CONTINUOUS
 62
     2
 10
124.0
 20
174.9
 30
0.0
 11
113.0
 21
174.9
 31
0.0
  0
ARC
  8
0
  6
CONTINUOUS
 62
     1
 10
88.0
 20
175.0
 30
0.0
 40
1.0
 50
90.0
 51
180.0
  0
ARC
  8
0
  6
CONTINUOUS
 62
     1
 10
109.0
 20
175.0
 30
0.0
 40
1.0
 50
0.0
 51
90.0
  0
LINE
  8
0
  6
CONTINUOUS
 62
     1
 10
155.0
 20
47.0
 30
0.0
 11
185.0
 21
47.0
 31
0.0
  0
LINE
  8
0
  6
CONTINUOUS
 62
     5
 10
176.5
 20
122.0
 30
0.0
 11
178.665063509
 21
123.25
 31
0.0
  0
LINE
  8
0
  6
CONTINUOUS
 62
     5
 10
176.5
 20
122.0
 30
0.0
 11
177.75
 21
124.165063509
 31
0.0
  0
TEXT
  8
0
  6
CONTINUOUS
 62
     2
 10
156.5
 20
126.8
 30
0.0
 40
3.0
  1
２－Ｍ４ターミナルネジ
 50
0.0
 41
0.7
 51
0.0
  7
KANJI10
  0
LINE
  8
0
  6
CONTINUOUS
 62
     5
 10
156.5
 20
126.0
 30
0.0
 11
180.5
 21
126.0
 31
0.0
  0
LINE
  8
0
  6
CONTINUOUS
 62
     5
 10
176.5
 20
122.0
 30
0.0
 11
180.5
 21
126.0
 31
0.0
  0
ARC
  8
0
  6
CONTINUOUS
 62
     1
 10
109.0
 20
145.0
 30
0.0
 40
1.0
 50
270.0
 51
0.0
  0
LINE
  8
0
  6
CONTINUOUS
 62
     1
 10
110.0
 20
145.0
 30
0.0
 11
110.0
 21
175.0
 31
0.0
  0
TEXT
  8
0
  6
CONTINUOUS
 62
     2
 10
20.4
 20
61.08
 30
0.18
 40
1.8
  1
±２
 50
90.0
 41
0.6
 51
0.0
  7
KANJI1
  0
LINE
  8
0
  6
CONTINUOUS
 62
     1
 10
84.0
 20
144.0
 30
0.0
 11
84.0
 21
176.0
 31
0.0
  0
LINE
  8
0
  6
CONTINUOUS
 62
     1
 10
113.0
 20
144.0
 30
0.0
 11
113.0
 21
176.0
 31
0.0
  0
LINE
  8
0
  6
CONTINUOUS
 62
     2
 10
108.0
 20
145.0
 30
0.0
 11
124.0
 21
145.0
 31
0.0
  0
LINE
  8
0
  6
CONTINUOUS
 62
     2
 10
87.0
 20
145.1
 30
0.0
 11
87.0
 21
146.0
 31
0.0
  0
LINE
  8
0
  6
CONTINUOUS
 62
     1
 10
87.0
 20
175.0
 30
0.0
 11
87.0
 21
146.0
 31
0.0
  0
LINE
  8
0
  6
CONTINUOUS
 62
     2
 10
87.0
 20
146.0
 30
0.0
 11
89.0
 21
146.0
 31
0.0
  0
LINE
  8
0
  6
CONTINUOUS
 62
     2
 10
89.0
 20
172.5
 30
0.0
 11
89.0
 21
146.0
 31
0.0
  0
LINE
  8
0
  6
CONTINUOUS
 62
     2
 10
105.0
 20
172.5
 30
0.0
 11
89.0
 21
172.5
 31
0.0
  0
LINE
  8
0
  6
CONTINUOUS
 62
     2
 10
105.0
 20
172.5
 30
0.0
 11
105.0
 21
146.0
 31
0.0
  0
LINE
  8
0
  6
CONTINUOUS
 62
     2
 10
105.0
 20
146.0
 30
0.0
 11
108.0
 21
146.0
 31
0.0
  0
LINE
  8
0
  6
CONTINUOUS
 62
     2
 10
108.0
 20
146.0
 30
0.0
 11
108.0
 21
145.0
 31
0.0
  0
ARC
  8
0
  6
CONTINUOUS
 62
     1
 10
88.0
 20
145.0
 30
0.0
 40
1.0
 50
180.0
 51
270.0
  0
LINE
  8
0
  6
CONTINUOUS
 62
     1
 10
87.0
 20
145.1
 30
0.0
 11
87.0
 21
145.0
 31
0.0
  0
LINE
  8
0
  6
CONTINUOUS
 62
     1
 10
97.0
 20
118.0
 30
0.0
 11
97.577350269
 21
119.0
 31
0.0
  0
LINE
  8
0
  6
CONTINUOUS
 62
     1
 10
96.422649731
 20
118.0
 30
0.0
 11
97.0
 21
119.0
 31
0.0
  0
LINE
  8
0
  6
LTYPE2
 62
     2
 10
154.0
 20
92.5
 30
0.0
 11
186.0
 21
92.5
 31
0.0
  0
LINE
  8
0
  6
LTYPE2
 62
     2
 10
154.0
 20
67.5
 30
0.0
 11
186.0
 21
67.5
 31
0.0
  0
TEXT
  8
0
  6
CONTINUOUS
 62
     2
 10
78.0
 20
60.8
 30
0.3
 40
3.0
  1
φ２５
 50
0.0
 41
0.6
 51
0.0
  7
KANJI0
  0
ARC
  8
0
  6
LTYPE2
 62
     2
 10
46.458333333
 20
160.0
 30
0.0
 40
3.541666667
 50
278.79741071
 51
81.20258929
  0
ARC
  8
0
  6
LTYPE2
 62
     2
 10
113.541666667
 20
160.0
 30
0.0
 40
3.541666667
 50
98.79741071
 51
261.20258929
  0
LINE
  8
0
  6
CONTINUOUS
 62
     2
 10
190.0
 20
174.0
 30
0.0
 11
210.0
 21
174.0
 31
0.0
  0
LINE
  8
0
  6
CONTINUOUS
 62
     2
 10
190.0
 20
166.0
 30
0.0
 11
210.0
 21
166.0
 31
0.0
  0
TEXT
  8
0
  6
CONTINUOUS
 62
     2
 10
214.0
 20
172.5
 30
0.0
 40
3.0
  1
１００
 50
0.0
 41
0.5
 51
0.0
  7
KANJI7
  0
TEXT
  8
0
  6
CONTINUOUS
 62
     2
 10
214.0
 20
164.5
 30
0.0
 40
3.0
  1
１２０
 50
0.0
 41
0.5
 51
0.0
  7
KANJI7
  0
TEXT
  8
0
  6
CONTINUOUS
 62
     2
 10
165.0
 20
95.0
 30
0.4
 40
4.0
  1
銘　板
 50
0.0
 41
0.9
 51
0.0
  7
KANJI11
  0
ARC
  8
0
  6
CONTINUOUS
 62
     1
 10
80.0
 20
80.0
 30
0.0
 40
33.0
 50
83.580506718
 51
204.619977329
  0
ARC
  8
0
  6
CONTINUOUS
 62
     1
 10
80.0
 20
80.0
 30
0.0
 40
33.0
 50
335.380022671
 51
9.798184908
  0
LINE
  8
0
  6
CONTINUOUS
 62
     1
 10
154.0
 20
66.252272915
 30
0.0
 11
186.0
 21
66.252272915
 31
0.0
  0
ARC
  8
0
  6
CONTINUOUS
 62
     2
 10
106.1
 20
45.9
 30
0.0
 40
1.9
 50
270.0
 51
0.0
  0
ARC
  8
0
  6
CONTINUOUS
 62
     2
 10
53.9
 20
45.9
 30
0.0
 40
1.9
 50
180.0
 51
270.0
  0
ARC
  8
0
  6
CONTINUOUS
 62
     2
 10
80.0
 20
80.0
 30
0.0
 40
33.0
 50
204.619977329
 51
211.9527464
  0
LINE
  8
0
  6
CONTINUOUS
 62
     2
 10
52.0
 20
45.9
 30
0.0
 11
52.0
 21
62.535750803
 31
0.0
  0
ARC
  8
0
  6
CONTINUOUS
 62
     2
 10
80.0
 20
80.0
 30
0.0
 40
33.0
 50
328.0472536
 51
335.380022671
  0
LINE
  8
0
  6
CONTINUOUS
 62
     2
 10
108.0
 20
62.535750803
 30
0.0
 11
108.0
 21
45.9
 31
0.0
  0
LINE
  8
0
  6
CONTINUOUS
 62
     2
 10
106.1
 20
44.0
 30
0.0
 11
53.9
 21
44.0
 31
0.0
  0
LINE
  8
0
  6
CONTINUOUS
 62
     2
 10
161.5
 20
65.5
 30
0.0
 11
160.5
 21
64.5
 31
0.0
  0
LINE
  8
0
  6
CONTINUOUS
 62
     2
 10
178.5
 20
65.5
 30
0.0
 11
161.5
 21
65.5
 31
0.0
  0
LINE
  8
0
  6
CONTINUOUS
 62
     2
 10
179.5
 20
61.5
 30
0.0
 11
179.5
 21
64.5
 31
0.0
  0
LINE
  8
0
  6
CONTINUOUS
 62
     2
 10
179.5
 20
61.5
 30
0.0
 11
178.5
 21
60.5
 31
0.0
  0
LINE
  8
0
  6
CONTINUOUS
 62
     2
 10
161.5
 20
60.5
 30
0.0
 11
178.5
 21
60.5
 31
0.0
  0
LINE
  8
0
  6
CONTINUOUS
 62
     2
 10
160.5
 20
64.5
 30
0.0
 11
160.5
 21
61.5
 31
0.0
  0
LINE
  8
0
  6
CONTINUOUS
 62
     2
 10
161.5
 20
60.5
 30
0.0
 11
160.5
 21
61.5
 31
0.0
  0
TEXT
  8
0
  6
CONTINUOUS
 62
     2
 10
161.0
 20
62.25
 30
-0.1
 40
1.5
  1
ＩＮＳＰＥＣＴＥＤ
 50
0.0
 41
0.666666667
 51
0.0
  7
KANJI12
  0
LINE
  8
0
  6
CONTINUOUS
 62
     2
 10
178.5
 20
65.5
 30
0.0
 11
179.5
 21
64.5
 31
0.0
  0
TEXT
  8
0
  6
CONTINUOUS
 62
     2
 10
174.0
 20
63.0
 30
-0.1
 40
2.0
  1
ＴＯＹＯ
 50
0.0
 41
0.65
 51
0.0
  7
KANJI13
  0
TEXT
  8
0
  6
CONTINUOUS
 62
     2
 10
174.0
 20
61.0
 30
-0.3
 40
2.0
  1
ＫＥＩＫＩ
 50
0.0
 41
0.65
 51
0.0
  7
KANJI14
  0
LINE
  8
0
  6
CONTINUOUS
 62
     2
 10
171.442196532
 20
63.788829528
 30
0.0
 11
171.442196532
 21
64.122656955
 31
0.0
  0
LINE
  8
0
  6
CONTINUOUS
 62
     2
 10
171.557803468
 20
63.788829528
 30
0.0
 11
171.557803468
 21
64.122656955
 31
0.0
  0
LINE
  8
0
  6
CONTINUOUS
 62
     2
 10
171.971835023
 20
62.894176706
 30
0.0
 11
172.355619638
 21
62.672335888
 31
0.0
  0
LINE
  8
0
  6
CONTINUOUS
 62
     2
 10
171.557803468
 20
63.788829528
 30
0.0
 11
172.066858914
 21
63.494577825
 31
0.0
  0
LINE
  8
0
  6
CONTINUOUS
 62
     2
 10
172.822478552
 20
63.057803468
 30
0.0
 11
173.4
 21
63.057803468
 31
0.0
  0
LINE
  8
0
  6
CONTINUOUS
 62
     2
 10
173.4
 20
62.942196532
 30
0.0
 11
172.822478552
 21
62.942196532
 31
0.0
  0
LINE
  8
0
  6
CONTINUOUS
 62
     2
 10
172.355619638
 20
63.327664112
 30
0.0
 11
171.971835023
 21
63.105823294
 31
0.0
  0
LINE
  8
0
  6
CONTINUOUS
 62
     2
 10
172.355619638
 20
63.327664112
 30
0.0
 11
172.822478552
 21
63.057803468
 31
0.0
  0
LINE
  8
0
  6
CONTINUOUS
 62
     2
 10
172.822478552
 20
62.942196532
 30
0.0
 11
172.355619638
 21
62.672335888
 31
0.0
  0
LINE
  8
0
  6
CONTINUOUS
 62
     2
 10
171.557803468
 20
64.122656955
 30
0.0
 11
173.4
 21
63.057803468
 31
0.0
  0
LINE
  8
0
  6
CONTINUOUS
 62
     2
 10
171.028164977
 20
62.894176706
 30
0.0
 11
171.316925701
 21
62.727262992
 31
0.0
  0
LINE
  8
0
  6
CONTINUOUS
 62
     2
 10
171.316925701
 20
63.272737008
 30
0.0
 11
171.028164977
 21
63.105823294
 31
0.0
  0
LINE
  8
0
  6
CONTINUOUS
 62
     2
 10
171.442196532
 20
62.211170472
 30
0.0
 11
171.442196532
 21
61.877343045
 31
0.0
  0
LINE
  8
0
  6
CONTINUOUS
 62
     2
 10
171.557803468
 20
62.211170472
 30
0.0
 11
171.557803468
 21
61.877343045
 31
0.0
  0
LINE
  8
0
  6
CONTINUOUS
 62
     2
 10
170.933141086
 20
63.494577825
 30
0.0
 11
171.316925701
 21
63.272737008
 31
0.0
  0
LINE
  8
0
  6
CONTINUOUS
 62
     2
 10
170.644380362
 20
63.327664112
 30
0.0
 11
171.028164977
 21
63.105823294
 31
0.0
  0
LINE
  8
0
  6
CONTINUOUS
 62
     2
 10
170.644380362
 20
63.327664112
 30
0.0
 11
170.177521448
 21
63.057803468
 31
0.0
  0
LINE
  8
0
  6
CONTINUOUS
 62
     2
 10
171.028164977
 20
62.894176706
 30
0.0
 11
170.644380362
 21
62.672335888
 31
0.0
  0
LINE
  8
0
  6
CONTINUOUS
 62
     2
 10
171.316925701
 20
62.727262992
 30
0.0
 11
170.933141086
 21
62.505422175
 31
0.0
  0
LINE
  8
0
  6
CONTINUOUS
 62
     2
 10
170.177521448
 20
62.942196532
 30
0.0
 11
170.644380362
 21
62.672335888
 31
0.0
  0
LINE
  8
0
  6
CONTINUOUS
 62
     2
 10
170.933141086
 20
62.505422175
 30
0.0
 11
171.442196532
 21
62.211170472
 31
0.0
  0
LINE
  8
0
  6
CONTINUOUS
 62
     2
 10
171.442196532
 20
63.788829528
 30
0.0
 11
170.933141086
 21
63.494577825
 31
0.0
  0
LINE
  8
0
  6
CONTINUOUS
 62
     2
 10
171.683074299
 20
63.272737008
 30
0.0
 11
171.971835023
 21
63.105823294
 31
0.0
  0
LINE
  8
0
  6
CONTINUOUS
 62
     2
 10
171.971835023
 20
62.894176706
 30
0.0
 11
171.683074299
 21
62.727262992
 31
0.0
  0
LINE
  8
0
  6
CONTINUOUS
 62
     2
 10
172.066858914
 20
63.494577825
 30
0.0
 11
171.683074299
 21
63.272737008
 31
0.0
  0
LINE
  8
0
  6
CONTINUOUS
 62
     2
 10
171.683074299
 20
62.727262992
 30
0.0
 11
172.066858914
 21
62.505422175
 31
0.0
  0
LINE
  8
0
  6
CONTINUOUS
 62
     2
 10
172.066858914
 20
62.505422175
 30
0.0
 11
171.557803468
 21
62.211170472
 31
0.0
  0
LINE
  8
0
  6
CONTINUOUS
 62
     2
 10
173.4
 20
62.942196532
 30
0.0
 11
171.557803468
 21
61.877343045
 31
0.0
  0
LINE
  8
0
  6
CONTINUOUS
 62
     2
 10
170.177521448
 20
63.057803468
 30
0.0
 11
169.6
 21
63.057803468
 31
0.0
  0
LINE
  8
0
  6
CONTINUOUS
 62
     2
 10
169.6
 20
62.942196532
 30
0.0
 11
170.177521448
 21
62.942196532
 31
0.0
  0
LINE
  8
0
  6
CONTINUOUS
 62
     2
 10
169.6
 20
62.942196532
 30
0.0
 11
171.442196532
 21
61.877343045
 31
0.0
  0
LINE
  8
0
  6
CONTINUOUS
 62
     2
 10
171.442196532
 20
64.122656955
 30
0.0
 11
169.6
 21
63.057803468
 31
0.0
  0
LINE
  8
0
  6
CONTINUOUS
 62
     2
 10
167.207
 20
57.109
 30
0.0
 11
167.207
 21
51.829
 31
0.0
  0
ARC
  8
0
  6
CONTINUOUS
 62
     2
 10
168.96548
 20
56.269
 30
0.0
 40
1.08
 50
45.0
 51
90.0
  0
ARC
  8
0
  6
CONTINUOUS
 62
     2
 10
168.96548
 20
56.269
 30
0.0
 40
0.6
 50
45.0
 51
90.0
  0
LINE
  8
0
  6
CONTINUOUS
 62
     2
 10
167.447
 20
57.349
 30
0.0
 11
168.965459364
 21
57.349
 31
0.0
  0
ARC
  8
0
  6
CONTINUOUS
 62
     2
 10
168.96548
 20
55.549
 30
0.0
 40
0.6
 50
270.0
 51
315.0
  0
ARC
  8
0
  6
CONTINUOUS
 62
     2
 10
168.647
 20
55.909
 30
0.0
 40
1.08
 50
313.442487171
 51
46.557512829
  0
ARC
  8
0
  6
CONTINUOUS
 62
     2
 10
168.647
 20
55.909
 30
0.0
 40
1.56
 50
313.92165798
 51
46.07834202
  0
ARC
  8
0
  6
CONTINUOUS
 62
     2
 10
167.447
 20
57.109
 30
0.0
 40
0.24
 50
90.0
 51
180.0
  0
LINE
  8
0
  6
CONTINUOUS
 62
     2
 10
167.687
 20
54.469
 30
0.0
 11
167.687
 21
51.829
 31
0.0
  0
LINE
  8
0
  6
CONTINUOUS
 62
     2
 10
167.687
 20
54.949
 30
0.0
 11
168.965459364
 21
54.949
 31
0.0
  0
LINE
  8
0
  6
CONTINUOUS
 62
     2
 10
167.687
 20
56.869
 30
0.0
 11
168.965459364
 21
56.869
 31
0.0
  0
LINE
  8
0
  6
CONTINUOUS
 62
     2
 10
167.687
 20
56.869
 30
0.0
 11
167.687
 21
54.949
 31
0.0
  0
ARC
  8
0
  6
CONTINUOUS
 62
     2
 10
167.447
 20
51.829
 30
0.0
 40
0.24
 50
180.0
 51
0.0
  0
LINE
  8
0
  6
CONTINUOUS
 62
     2
 10
167.687
 20
54.469
 30
0.0
 11
168.483768676
 21
54.469
 31
0.0
  0
LINE
  8
0
  6
CONTINUOUS
 62
     2
 10
168.483768676
 20
54.469
 30
0.0
 11
169.749103084
 21
51.728397147
 31
0.0
  0
ARC
  8
0
  6
CONTINUOUS
 62
     2
 10
168.96548
 20
55.549
 30
0.0
 40
1.08
 50
272.468531092
 51
315.0
  0
LINE
  8
0
  6
CONTINUOUS
 62
     2
 10
169.011996321
 20
54.47000221
 30
0.0
 11
170.184896916
 21
51.929602853
 31
0.0
  0
ARC
  8
0
  6
CONTINUOUS
 62
     2
 10
169.967
 20
51.829
 30
0.0
 40
0.24
 50
204.782736982
 51
24.782736982
  0
LINE
  8
0
  6
CONTINUOUS
 62
     2
 10
167.447
 20
57.229
 30
0.0
 11
168.965459364
 21
57.229
 31
0.0
  0
LINE
  8
0
  6
CONTINUOUS
 62
     2
 10
167.447
 20
57.109
 30
0.0
 11
168.965459364
 21
57.109
 31
0.0
  0
ARC
  8
0
  6
CONTINUOUS
 62
     2
 10
167.447
 20
57.109
 30
0.0
 40
0.12
 50
90.0
 51
180.0
  0
LINE
  8
0
  6
CONTINUOUS
 62
     2
 10
167.567
 20
56.989
 30
0.0
 11
168.965459364
 21
56.989
 31
0.0
  0
LINE
  8
0
  6
CONTINUOUS
 62
     2
 10
167.567
 20
54.829
 30
0.0
 11
167.567
 21
56.989
 31
0.0
  0
ARC
  8
0
  6
CONTINUOUS
 62
     2
 10
167.447
 20
51.829
 30
0.0
 40
0.12
 50
180.0
 51
0.0
  0
LINE
  8
0
  6
CONTINUOUS
 62
     2
 10
167.447
 20
57.109
 30
0.0
 11
167.447
 21
51.829
 31
0.0
  0
LINE
  8
0
  6
CONTINUOUS
 62
     2
 10
167.327
 20
51.829
 30
0.0
 11
167.327
 21
57.109
 31
0.0
  0
LINE
  8
0
  6
CONTINUOUS
 62
     2
 10
167.447
 20
54.709
 30
0.0
 11
168.965459364
 21
54.709
 31
0.0
  0
LINE
  8
0
  6
CONTINUOUS
 62
     2
 10
167.567
 20
54.589
 30
0.0
 11
168.560537351
 21
54.589
 31
0.0
  0
LINE
  8
0
  6
CONTINUOUS
 62
     2
 10
167.567
 20
51.829
 30
0.0
 11
167.567
 21
54.589
 31
0.0
  0
LINE
  8
0
  6
CONTINUOUS
 62
     2
 10
167.567
 20
54.829
 30
0.0
 11
168.965459364
 21
54.829
 31
0.0
  0
ARC
  8
0
  6
CONTINUOUS
 62
     2
 10
168.96548
 20
56.269
 30
0.0
 40
0.96
 50
45.0
 51
90.0
  0
ARC
  8
0
  6
CONTINUOUS
 62
     2
 10
168.96548
 20
56.269
 30
0.0
 40
0.84
 50
45.0
 51
90.0
  0
ARC
  8
0
  6
CONTINUOUS
 62
     2
 10
168.96548
 20
56.269
 30
0.0
 40
0.72
 50
45.0
 51
90.0
  0
ARC
  8
0
  6
CONTINUOUS
 62
     2
 10
168.647
 20
55.909
 30
0.0
 40
1.44
 50
313.831804978
 51
46.168195022
  0
ARC
  8
0
  6
CONTINUOUS
 62
     2
 10
168.96548
 20
55.549
 30
0.0
 40
0.96
 50
270.0
 51
315.0
  0
ARC
  8
0
  6
CONTINUOUS
 62
     2
 10
168.96548
 20
55.549
 30
0.0
 40
0.84
 50
270.0
 51
315.0
  0
ARC
  8
0
  6
CONTINUOUS
 62
     2
 10
168.96548
 20
55.549
 30
0.0
 40
0.72
 50
270.0
 51
315.0
  0
ARC
  8
0
  6
CONTINUOUS
 62
     2
 10
168.647
 20
55.909
 30
0.0
 40
1.2
 50
313.598204284
 51
46.401795716
  0
ARC
  8
0
  6
CONTINUOUS
 62
     2
 10
168.647
 20
55.909
 30
0.0
 40
1.32
 50
313.725619511
 51
46.274380489
  0
LINE
  8
0
  6
CONTINUOUS
 62
     2
 10
168.560537351
 20
54.589
 30
0.0
 11
169.858051542
 21
51.778698574
 31
0.0
  0
LINE
  8
0
  6
CONTINUOUS
 62
     2
 10
168.637306027
 20
54.709
 30
0.0
 11
169.967
 21
51.829
 31
0.0
  0
LINE
  8
0
  6
CONTINUOUS
 62
     2
 10
168.824882534
 20
54.589
 30
0.0
 11
170.075948458
 21
51.879301426
 31
0.0
  0
LINE
  8
0
  6
CONTINUOUS
 62
     2
 10
168.824882534
 20
54.589
 30
0.0
 11
168.965459364
 21
54.589
 31
0.0
  0
ARC
  8
0
  6
CONTINUOUS
 62
     2
 10
169.967
 20
51.829
 30
0.0
 40
0.12
 50
204.782736982
 51
24.782736982
  0
ARC
  8
0
  6
CONTINUOUS
 62
     2
 10
172.0645
 20
53.7775
 30
0.0
 40
1.08
 50
27.633324901
 51
152.366675099
  0
ARC
  8
0
  6
CONTINUOUS
 62
     2
 10
172.0645
 20
52.5775
 30
0.0
 40
0.6
 50
209.41298058
 51
330.585032134
  0
ARC
  8
0
  6
CONTINUOUS
 62
     2
 10
172.0645
 20
52.5775
 30
0.0
 40
1.08
 50
207.633324901
 51
332.367333091
  0
ARC
  8
0
  6
CONTINUOUS
 62
     2
 10
173.1745
 20
53.1775
 30
0.0
 40
2.34
 50
151.957037999
 51
208.042658791
  0
ARC
  8
0
  6
CONTINUOUS
 62
     2
 10
173.1745
 20
53.1775
 30
0.0
 40
1.86
 50
151.278919654
 51
208.721719614
  0
ARC
  8
0
  6
CONTINUOUS
 62
     2
 10
170.9545
 20
53.1775
 30
0.0
 40
2.34
 50
331.957341209
 51
28.042962001
  0
ARC
  8
0
  6
CONTINUOUS
 62
     2
 10
170.9545
 20
53.1775
 30
0.0
 40
1.86
 50
331.278280386
 51
28.721080346
  0
ARC
  8
0
  6
CONTINUOUS
 62
     2
 10
173.1745
 20
53.1775
 30
0.0
 40
2.22
 50
151.918553366
 51
208.081125103
  0
ARC
  8
0
  6
CONTINUOUS
 62
     2
 10
172.0645
 20
52.5775
 30
0.0
 40
0.72
 50
208.339312218
 51
331.660772731
  0
ARC
  8
0
  6
CONTINUOUS
 62
     2
 10
172.0645
 20
52.5775
 30
0.0
 40
0.84
 50
208.158803126
 51
331.841495505
  0
ARC
  8
0
  6
CONTINUOUS
 62
     2
 10
172.0645
 20
52.5775
 30
0.0
 40
0.96
 50
207.671182588
 51
332.329562283
  0
ARC
  8
0
  6
CONTINUOUS
 62
     2
 10
170.9545
 20
53.1775
 30
0.0
 40
2.22
 50
331.918874897
 51
28.081446634
  0
ARC
  8
0
  6
CONTINUOUS
 62
     2
 10
170.9545
 20
53.1775
 30
0.0
 40
2.1
 50
331.700587524
 51
28.299531675
  0
ARC
  8
0
  6
CONTINUOUS
 62
     2
 10
170.9545
 20
53.1775
 30
0.0
 40
1.98
 50
331.626492885
 51
28.373537929
  0
ARC
  8
0
  6
CONTINUOUS
 62
     2
 10
172.0645
 20
53.7775
 30
0.0
 40
0.72
 50
28.339312218
 51
151.660687782
  0
ARC
  8
0
  6
CONTINUOUS
 62
     2
 10
172.0645
 20
53.7775
 30
0.0
 40
0.84
 50
28.158803126
 51
151.841196874
  0
ARC
  8
0
  6
CONTINUOUS
 62
     2
 10
172.0645
 20
53.7775
 30
0.0
 40
0.96
 50
27.671182588
 51
152.328817412
  0
ARC
  8
0
  6
CONTINUOUS
 62
     2
 10
173.1745
 20
53.1775
 30
0.0
 40
2.1
 50
151.700468325
 51
208.299412476
  0
ARC
  8
0
  6
CONTINUOUS
 62
     2
 10
173.1745
 20
53.1775
 30
0.0
 40
1.98
 50
151.626462071
 51
208.373507115
  0
ARC
  8
0
  6
CONTINUOUS
 62
     2
 10
172.0645
 20
53.7775
 30
0.0
 40
0.6
 50
29.41298058
 51
150.58701942
  0
CIRCLE
  8
0
  6
CONTINUOUS
 62
     2
 10
170.0
 20
54.5
 30
0.0
 40
5.0
  0
LINE
  8
0
  6
LTYPE2
 62
     2
 10
110.0
 20
47.0
 30
0.0
 11
110.0
 21
40.0
 31
0.0
  0
LINE
  8
0
  6
LTYPE2
 62
     2
 10
50.0
 20
47.0
 30
0.0
 11
50.0
 21
40.0
 31
0.0
  0
LINE
  8
0
  6
LTYPE1
 62
     2
 10
170.0
 20
122.0
 30
0.0
 11
170.0
 21
38.0
 31
0.0
  0
LINE
  8
0
  6
LTYPE1
 62
     2
 10
80.0
 20
40.0
 30
0.0
 11
80.0
 21
122.0
 31
0.0
  0
LINE
  8
0
  6
CONTINUOUS
 62
     2
 10
184.9
 20
66.252272915
 30
0.0
 11
184.9
 21
40.0
 31
0.0
  0
LINE
  8
0
  6
CONTINUOUS
 62
     1
 10
100.5
 20
170.75
 30
0.0
 11
101.0
 21
171.15
 31
0.0
  0
LINE
  8
0
  6
CONTINUOUS
 62
     1
 10
101.0
 20
171.15
 30
0.0
 11
102.9
 21
171.15
 31
0.0
  0
LINE
  8
0
  6
CONTINUOUS
 62
     1
 10
101.0
 20
171.15
 30
0.0
 11
102.9
 21
171.15
 31
0.0
  0
LINE
  8
0
  6
CONTINUOUS
 62
     1
 10
102.1
 20
172.5
 30
0.0
 11
102.1
 21
171.15
 31
0.0
  0
LINE
  8
0
  6
CONTINUOUS
 62
     1
 10
101.0
 20
161.85
 30
0.0
 11
102.9
 21
161.85
 31
0.0
  0
LINE
  8
0
  6
CONTINUOUS
 62
     1
 10
102.1
 20
161.85
 30
0.0
 11
102.1
 21
161.0
 31
0.0
  0
LINE
  8
0
  6
CONTINUOUS
 62
     1
 10
100.5
 20
162.25
 30
0.0
 11
101.0
 21
161.85
 31
0.0
  0
LINE
  8
0
  6
CONTINUOUS
 62
     1
 10
102.9
 20
161.85
 30
0.0
 11
102.9
 21
171.15
 31
0.0
  0
LINE
  8
0
  6
CONTINUOUS
 62
     1
 10
102.9
 20
171.15
 30
0.0
 11
102.9
 21
161.85
 31
0.0
  0
TEXT
  8
0
  6
CONTINUOUS
 62
     2
 10
162.5
 20
153.5
 30
0.1
 40
3.0
  1
ｎ＞１．６
 50
0.0
 41
0.7
 51
0.0
  7
KANJI3
  0
LINE
  8
0
  6
CONTINUOUS
 62
     1
 10
100.5
 20
149.25
 30
0.0
 11
101.0
 21
148.85
 31
0.0
  0
LINE
  8
0
  6
CONTINUOUS
 62
     1
 10
100.5
 20
157.75
 30
0.0
 11
101.0
 21
158.15
 31
0.0
  0
LINE
  8
0
  6
CONTINUOUS
 62
     1
 10
102.9
 20
148.85
 30
0.0
 11
102.9
 21
158.15
 31
0.0
  0
LINE
  8
0
  6
CONTINUOUS
 62
     1
 10
102.9
 20
158.15
 30
0.0
 11
102.9
 21
148.85
 31
0.0
  0
LINE
  8
0
  6
CONTINUOUS
 62
     1
 10
101.0
 20
148.85
 30
0.0
 11
102.9
 21
148.85
 31
0.0
  0
LINE
  8
0
  6
CONTINUOUS
 62
     1
 10
101.0
 20
158.15
 30
0.0
 11
102.9
 21
158.15
 31
0.0
  0
LINE
  8
0
  6
CONTINUOUS
 62
     1
 10
101.0
 20
158.15
 30
0.0
 11
102.9
 21
158.15
 31
0.0
  0
LINE
  8
0
  6
CONTINUOUS
 62
     1
 10
102.1
 20
148.85
 30
0.0
 11
102.1
 21
147.0
 31
0.0
  0
LINE
  8
0
  6
CONTINUOUS
 62
     1
 10
102.1
 20
159.0
 30
0.0
 11
102.1
 21
158.15
 31
0.0
  0
TEXT
  8
0
  6
CONTINUOUS
 62
     1
 10
214.0
 20
79.0
 30
0.4
 40
4.0
  1
ＣＯＣ－３
 50
0.0
 41
0.9
 51
0.0
  7
KANJI15
  0
TEXT
  8
0
  6
CONTINUOUS
 62
     1
 10
214.0
 20
69.0
 30
0.4
 40
4.0
  1
貫通形変流器　外形図
 50
0.0
 41
0.9
 51
0.0
  7
KANJI15
  0
TEXT
  8
0
  6
CONTINUOUS
 62
     3
 10
214.0
 20
53.0
 30
0.2
 40
5.8
  1
ＭＳ－１０６２８Ａ
 50
0.0
 41
0.827586207
 51
0.0
  7
KANJI16
  0
ENDSEC
  0
EOF
