  0
SECTION
  2
HEADER
  9
$ACADVER
  1
AC1009
  9
$DWGCODEPAGE
  3
dos932
  9
$EXTMIN
 10
0.0
 20
0.0
 30
0.0
  9
$EXTMAX
 10
297.0
 20
210.0
 30
0.0
  9
$LIMMIN
 10
0.0
 20
0.0
  9
$LIMMAX
 10
297.0
 20
210.0
  9
$LTSCALE
 40
1.0
  9
$PDMODE
 70
     0
  0
ENDSEC
  0
SECTION
  2
TABLES
  0
TABLE
  2
VPORT
 70
     1
  0
VPORT
  2
*ACTIVE
 70
     0
 10
0.0
 20
0.0
 11
1.0
 21
1.0
 12
148.5
 22
105.0
 13
0.0
 23
0.0
 14
10.0
 24
10.0
 15
10.0
 25
10.0
 16
0.0
 26
0.0
 36
1.0
 17
0.0
 27
0.0
 37
0.0
 40
297.0
 41
1.414285714
 42
50.0
 43
0.0
 44
0.0
 50
0.0
 51
0.0
 71
     0
 72
  1000
 73
     1
 74
     3
 75
     0
 76
     0
 77
     0
 78
     0
  0
ENDTAB
  0
TABLE
  2
LTYPE
 70
     2
  0
LTYPE
  2
LTYPE0
 70
    64
  3
CENTERX2
 72
    65
 73
     4
 40
15.0
 49
12.75
 49
-0.75
 49
0.75
 49
-0.75
  0
LTYPE
  2
CONTINUOUS
 70
    64
  3
Solid line
 72
    65
 73
     0
 40
0.0
  0
ENDTAB
  0
TABLE
  2
LAYER
 70
   128
  0
LAYER
  2
0
 70
     0
 62
     7
  6
CONTINUOUS
  0
LAYER
  2
2
 70
     0
 62
     7
  6
CONTINUOUS
  0
LAYER
  2
3
 70
     0
 62
     7
  6
CONTINUOUS
  0
LAYER
  2
4
 70
     0
 62
     7
  6
CONTINUOUS
  0
LAYER
  2
5
 70
     0
 62
     7
  6
CONTINUOUS
  0
LAYER
  2
6
 70
     0
 62
     7
  6
CONTINUOUS
  0
LAYER
  2
7
 70
     0
 62
     7
  6
CONTINUOUS
  0
LAYER
  2
8
 70
     0
 62
     7
  6
CONTINUOUS
  0
LAYER
  2
9
 70
     0
 62
     7
  6
CONTINUOUS
  0
LAYER
  2
10
 70
     0
 62
     7
  6
CONTINUOUS
  0
LAYER
  2
11
 70
     0
 62
     7
  6
CONTINUOUS
  0
LAYER
  2
12
 70
     0
 62
     7
  6
CONTINUOUS
  0
LAYER
  2
13
 70
     0
 62
     7
  6
CONTINUOUS
  0
LAYER
  2
14
 70
     0
 62
     7
  6
CONTINUOUS
  0
LAYER
  2
15
 70
     0
 62
     7
  6
CONTINUOUS
  0
LAYER
  2
16
 70
     0
 62
     7
  6
CONTINUOUS
  0
LAYER
  2
17
 70
     0
 62
     7
  6
CONTINUOUS
  0
LAYER
  2
18
 70
     0
 62
     7
  6
CONTINUOUS
  0
LAYER
  2
19
 70
     0
 62
     7
  6
CONTINUOUS
  0
LAYER
  2
20
 70
     0
 62
     7
  6
CONTINUOUS
  0
LAYER
  2
21
 70
     0
 62
     7
  6
CONTINUOUS
  0
LAYER
  2
22
 70
     0
 62
     7
  6
CONTINUOUS
  0
LAYER
  2
23
 70
     0
 62
     7
  6
CONTINUOUS
  0
LAYER
  2
24
 70
     0
 62
     7
  6
CONTINUOUS
  0
LAYER
  2
25
 70
     0
 62
     7
  6
CONTINUOUS
  0
LAYER
  2
26
 70
     0
 62
     7
  6
CONTINUOUS
  0
LAYER
  2
27
 70
     0
 62
     7
  6
CONTINUOUS
  0
LAYER
  2
28
 70
     0
 62
     7
  6
CONTINUOUS
  0
LAYER
  2
29
 70
     0
 62
     7
  6
CONTINUOUS
  0
LAYER
  2
30
 70
     0
 62
     7
  6
CONTINUOUS
  0
LAYER
  2
31
 70
     0
 62
     7
  6
CONTINUOUS
  0
LAYER
  2
32
 70
     0
 62
     7
  6
CONTINUOUS
  0
LAYER
  2
33
 70
     0
 62
     7
  6
CONTINUOUS
  0
LAYER
  2
34
 70
     0
 62
     7
  6
CONTINUOUS
  0
LAYER
  2
35
 70
     0
 62
     7
  6
CONTINUOUS
  0
LAYER
  2
36
 70
     0
 62
     7
  6
CONTINUOUS
  0
LAYER
  2
37
 70
     0
 62
     7
  6
CONTINUOUS
  0
LAYER
  2
38
 70
     0
 62
     7
  6
CONTINUOUS
  0
LAYER
  2
39
 70
     0
 62
     7
  6
CONTINUOUS
  0
LAYER
  2
40
 70
     0
 62
     7
  6
CONTINUOUS
  0
LAYER
  2
41
 70
     0
 62
     7
  6
CONTINUOUS
  0
LAYER
  2
42
 70
     0
 62
     7
  6
CONTINUOUS
  0
LAYER
  2
43
 70
     0
 62
     7
  6
CONTINUOUS
  0
LAYER
  2
44
 70
     0
 62
     7
  6
CONTINUOUS
  0
LAYER
  2
45
 70
     0
 62
     7
  6
CONTINUOUS
  0
LAYER
  2
46
 70
     0
 62
     7
  6
CONTINUOUS
  0
LAYER
  2
47
 70
     0
 62
     7
  6
CONTINUOUS
  0
LAYER
  2
48
 70
     0
 62
     7
  6
CONTINUOUS
  0
LAYER
  2
49
 70
     0
 62
     7
  6
CONTINUOUS
  0
LAYER
  2
50
 70
     0
 62
     7
  6
CONTINUOUS
  0
LAYER
  2
51
 70
     0
 62
     7
  6
CONTINUOUS
  0
LAYER
  2
52
 70
     0
 62
     7
  6
CONTINUOUS
  0
LAYER
  2
53
 70
     0
 62
     7
  6
CONTINUOUS
  0
LAYER
  2
54
 70
     0
 62
     7
  6
CONTINUOUS
  0
LAYER
  2
55
 70
     0
 62
     7
  6
CONTINUOUS
  0
LAYER
  2
56
 70
     0
 62
     7
  6
CONTINUOUS
  0
LAYER
  2
57
 70
     0
 62
     7
  6
CONTINUOUS
  0
LAYER
  2
58
 70
     0
 62
     7
  6
CONTINUOUS
  0
LAYER
  2
59
 70
     0
 62
     7
  6
CONTINUOUS
  0
LAYER
  2
60
 70
     0
 62
     7
  6
CONTINUOUS
  0
LAYER
  2
61
 70
     0
 62
     7
  6
CONTINUOUS
  0
LAYER
  2
62
 70
     0
 62
     7
  6
CONTINUOUS
  0
LAYER
  2
63
 70
     0
 62
     7
  6
CONTINUOUS
  0
LAYER
  2
64
 70
     0
 62
     7
  6
CONTINUOUS
  0
LAYER
  2
65
 70
     0
 62
     7
  6
CONTINUOUS
  0
LAYER
  2
66
 70
     0
 62
     7
  6
CONTINUOUS
  0
LAYER
  2
67
 70
     0
 62
     7
  6
CONTINUOUS
  0
LAYER
  2
68
 70
     0
 62
     7
  6
CONTINUOUS
  0
LAYER
  2
69
 70
     0
 62
     7
  6
CONTINUOUS
  0
LAYER
  2
70
 70
     0
 62
     7
  6
CONTINUOUS
  0
LAYER
  2
71
 70
     0
 62
     7
  6
CONTINUOUS
  0
LAYER
  2
72
 70
     0
 62
     7
  6
CONTINUOUS
  0
LAYER
  2
73
 70
     0
 62
     7
  6
CONTINUOUS
  0
LAYER
  2
74
 70
     0
 62
     7
  6
CONTINUOUS
  0
LAYER
  2
75
 70
     0
 62
     7
  6
CONTINUOUS
  0
LAYER
  2
76
 70
     0
 62
     7
  6
CONTINUOUS
  0
LAYER
  2
77
 70
     0
 62
     7
  6
CONTINUOUS
  0
LAYER
  2
78
 70
     0
 62
     7
  6
CONTINUOUS
  0
LAYER
  2
79
 70
     0
 62
     7
  6
CONTINUOUS
  0
LAYER
  2
80
 70
     0
 62
     7
  6
CONTINUOUS
  0
LAYER
  2
81
 70
     0
 62
     7
  6
CONTINUOUS
  0
LAYER
  2
82
 70
     0
 62
     7
  6
CONTINUOUS
  0
LAYER
  2
83
 70
     0
 62
     7
  6
CONTINUOUS
  0
LAYER
  2
84
 70
     0
 62
     7
  6
CONTINUOUS
  0
LAYER
  2
85
 70
     0
 62
     7
  6
CONTINUOUS
  0
LAYER
  2
86
 70
     0
 62
     7
  6
CONTINUOUS
  0
LAYER
  2
87
 70
     0
 62
     7
  6
CONTINUOUS
  0
LAYER
  2
88
 70
     0
 62
     7
  6
CONTINUOUS
  0
LAYER
  2
89
 70
     0
 62
     7
  6
CONTINUOUS
  0
LAYER
  2
90
 70
     0
 62
     7
  6
CONTINUOUS
  0
LAYER
  2
91
 70
     0
 62
     7
  6
CONTINUOUS
  0
LAYER
  2
92
 70
     0
 62
     7
  6
CONTINUOUS
  0
LAYER
  2
93
 70
     0
 62
     7
  6
CONTINUOUS
  0
LAYER
  2
94
 70
     0
 62
     7
  6
CONTINUOUS
  0
LAYER
  2
95
 70
     0
 62
     7
  6
CONTINUOUS
  0
LAYER
  2
96
 70
     0
 62
     7
  6
CONTINUOUS
  0
LAYER
  2
97
 70
     0
 62
     7
  6
CONTINUOUS
  0
LAYER
  2
98
 70
     0
 62
     7
  6
CONTINUOUS
  0
LAYER
  2
99
 70
     0
 62
     7
  6
CONTINUOUS
  0
LAYER
  2
100
 70
     0
 62
     7
  6
CONTINUOUS
  0
LAYER
  2
101
 70
     0
 62
     7
  6
CONTINUOUS
  0
LAYER
  2
102
 70
     0
 62
     7
  6
CONTINUOUS
  0
LAYER
  2
103
 70
     0
 62
     7
  6
CONTINUOUS
  0
LAYER
  2
104
 70
     0
 62
     7
  6
CONTINUOUS
  0
LAYER
  2
105
 70
     0
 62
     7
  6
CONTINUOUS
  0
LAYER
  2
106
 70
     0
 62
     7
  6
CONTINUOUS
  0
LAYER
  2
107
 70
     0
 62
     7
  6
CONTINUOUS
  0
LAYER
  2
108
 70
     0
 62
     7
  6
CONTINUOUS
  0
LAYER
  2
109
 70
     0
 62
     7
  6
CONTINUOUS
  0
LAYER
  2
110
 70
     0
 62
     7
  6
CONTINUOUS
  0
LAYER
  2
111
 70
     0
 62
     7
  6
CONTINUOUS
  0
LAYER
  2
112
 70
     0
 62
     7
  6
CONTINUOUS
  0
LAYER
  2
113
 70
     0
 62
     7
  6
CONTINUOUS
  0
LAYER
  2
114
 70
     0
 62
     7
  6
CONTINUOUS
  0
LAYER
  2
115
 70
     0
 62
     7
  6
CONTINUOUS
  0
LAYER
  2
116
 70
     0
 62
     7
  6
CONTINUOUS
  0
LAYER
  2
117
 70
     0
 62
     7
  6
CONTINUOUS
  0
LAYER
  2
118
 70
     0
 62
     7
  6
CONTINUOUS
  0
LAYER
  2
119
 70
     0
 62
     7
  6
CONTINUOUS
  0
LAYER
  2
120
 70
     0
 62
     7
  6
CONTINUOUS
  0
LAYER
  2
121
 70
     0
 62
     7
  6
CONTINUOUS
  0
LAYER
  2
122
 70
     0
 62
     7
  6
CONTINUOUS
  0
LAYER
  2
123
 70
     0
 62
     7
  6
CONTINUOUS
  0
LAYER
  2
124
 70
     0
 62
     7
  6
CONTINUOUS
  0
LAYER
  2
125
 70
     0
 62
     7
  6
CONTINUOUS
  0
LAYER
  2
126
 70
     0
 62
     7
  6
CONTINUOUS
  0
LAYER
  2
127
 70
     0
 62
     7
  6
CONTINUOUS
  0
LAYER
  2
128
 70
     0
 62
     7
  6
CONTINUOUS
  0
ENDTAB
  0
TABLE
  2
STYLE
 70
     4
  0
STYLE
  2
STANDARD
 70
     0
 40
0.0
 41
1.0
 50
0.0
 71
     0
 42
0.2
  3
txt.shx
  4
extfont.shx
  0
STYLE
  2
KANJI0
 70
     0
 40
3.0
 41
0.9
 50
0.0
 71
     0
 42
3.0
  3
txt.shx
  4
extfont.shx
  0
STYLE
  2
KANJI1
 70
     0
 40
4.0
 41
0.9
 50
0.0
 71
     0
 42
4.0
  3
txt.shx
  4
extfont.shx
  0
STYLE
  2
KANJI2
 70
     0
 40
5.8
 41
0.827586207
 50
0.0
 71
     0
 42
5.8
  3
txt.shx
  4
extfont.shx
  0
ENDTAB
  0
TABLE
  2
VIEW
 70
     0
  0
ENDTAB
  0
ENDSEC
  0
SECTION
  2
BLOCKS
  0
ENDSEC
  0
SECTION
  2
ENTITIES
  0
LINE
  8
0
  6
LTYPE0
 62
     2
 10
38.500006238
 20
99.0
 30
0.0
 11
38.500006238
 21
94.5
 31
0.0
  0
LINE
  8
0
  6
LTYPE0
 62
     2
 10
51.500006238
 20
99.0
 30
0.0
 11
51.500006238
 21
94.5
 31
0.0
  0
LINE
  8
0
  6
LTYPE0
 62
     2
 10
38.500006238
 20
44.0
 30
0.0
 11
38.500006238
 21
50.0
 31
0.0
  0
LINE
  8
0
  6
LTYPE0
 62
     2
 10
51.500006238
 20
50.0
 30
0.0
 11
51.500006238
 21
44.0
 31
0.0
  0
LINE
  8
0
  6
LTYPE0
 62
     2
 10
21.0
 20
144.0
 30
0.0
 11
21.0
 21
136.0
 31
0.0
  0
LINE
  8
0
  6
LTYPE0
 62
     2
 10
69.0
 20
144.0
 30
0.0
 11
69.0
 21
136.0
 31
0.0
  0
LINE
  8
0
  6
LTYPE0
 62
     2
 10
45.0
 20
162.0
 30
0.0
 11
45.0
 21
118.0
 31
0.0
  0
CIRCLE
  8
0
  6
CONTINUOUS
 62
     2
 10
108.0
 20
160.0
 30
0.0
 40
0.75
  0
CIRCLE
  8
0
  6
CONTINUOUS
 62
     2
 10
148.0
 20
160.0
 30
0.0
 40
0.75
  0
LINE
  8
0
  6
CONTINUOUS
 62
     2
 10
108.75
 20
160.0
 30
0.0
 11
147.25
 21
160.0
 31
0.0
  0
CIRCLE
  8
0
  6
CONTINUOUS
 62
     2
 10
118.0
 20
144.5
 30
0.0
 40
0.75
  0
CIRCLE
  8
0
  6
CONTINUOUS
 62
     2
 10
138.0
 20
144.5
 30
0.0
 40
0.75
  0
ARC
  8
0
  6
CONTINUOUS
 62
     2
 10
120.5
 20
160.0
 30
0.0
 40
2.5
 50
0.0
 51
180.0
  0
ARC
  8
0
  6
CONTINUOUS
 62
     2
 10
125.5
 20
160.0
 30
0.0
 40
2.5
 50
0.0
 51
180.0
  0
ARC
  8
0
  6
CONTINUOUS
 62
     2
 10
130.5
 20
160.0
 30
0.0
 40
2.5
 50
0.0
 51
180.0
  0
ARC
  8
0
  6
CONTINUOUS
 62
     2
 10
135.5
 20
160.0
 30
0.0
 40
2.5
 50
0.0
 51
180.0
  0
LINE
  8
0
  6
CONTINUOUS
 62
     2
 10
118.0
 20
145.25
 30
0.0
 11
118.0
 21
160.0
 31
0.0
  0
LINE
  8
0
  6
CONTINUOUS
 62
     2
 10
138.0
 20
145.25
 30
0.0
 11
138.0
 21
160.0
 31
0.0
  0
LINE
  8
0
  6
CONTINUOUS
 62
     2
 10
117.107142857
 20
138.84375
 30
0.0
 11
117.821428571
 21
139.71875
 31
0.0
  0
LINE
  8
0
  6
CONTINUOUS
 62
     2
 10
117.821428571
 20
139.71875
 30
0.0
 11
118.178571429
 21
140.375
 31
0.0
  0
LINE
  8
0
  6
CONTINUOUS
 62
     2
 10
118.178571429
 20
140.375
 30
0.0
 11
118.0
 21
140.8125
 31
0.0
  0
LINE
  8
0
  6
CONTINUOUS
 62
     2
 10
118.0
 20
140.8125
 30
0.0
 11
117.642857143
 21
140.59375
 31
0.0
  0
LINE
  8
0
  6
CONTINUOUS
 62
     2
 10
117.642857143
 20
140.59375
 30
0.0
 11
117.464285714
 21
139.9375
 31
0.0
  0
LINE
  8
0
  6
CONTINUOUS
 62
     2
 10
117.464285714
 20
139.9375
 30
0.0
 11
117.285714286
 21
137.96875
 31
0.0
  0
LINE
  8
0
  6
CONTINUOUS
 62
     2
 10
117.285714286
 20
137.96875
 30
0.0
 11
117.642857143
 21
139.28125
 31
0.0
  0
LINE
  8
0
  6
CONTINUOUS
 62
     2
 10
117.642857143
 20
139.28125
 30
0.0
 11
118.357142857
 21
139.28125
 31
0.0
  0
LINE
  8
0
  6
CONTINUOUS
 62
     2
 10
118.357142857
 20
139.28125
 30
0.0
 11
118.535714286
 21
139.0625
 31
0.0
  0
LINE
  8
0
  6
CONTINUOUS
 62
     2
 10
118.535714286
 20
139.0625
 30
0.0
 11
118.535714286
 21
138.625
 31
0.0
  0
LINE
  8
0
  6
CONTINUOUS
 62
     2
 10
118.535714286
 20
138.625
 30
0.0
 11
117.821428571
 21
138.625
 31
0.0
  0
LINE
  8
0
  6
CONTINUOUS
 62
     2
 10
117.821428571
 20
138.84375
 30
0.0
 11
117.821428571
 21
138.1875
 31
0.0
  0
LINE
  8
0
  6
CONTINUOUS
 62
     2
 10
117.821428571
 20
138.1875
 30
0.0
 11
118.0
 21
137.96875
 31
0.0
  0
LINE
  8
0
  6
CONTINUOUS
 62
     2
 10
118.0
 20
137.96875
 30
0.0
 11
118.535714286
 21
137.96875
 31
0.0
  0
LINE
  8
0
  6
CONTINUOUS
 62
     2
 10
137.107142857
 20
138.1875
 30
0.0
 11
137.642857143
 21
138.40625
 31
0.0
  0
LINE
  8
0
  6
CONTINUOUS
 62
     2
 10
137.642857143
 20
138.40625
 30
0.0
 11
138.0
 21
138.84375
 31
0.0
  0
LINE
  8
0
  6
CONTINUOUS
 62
     2
 10
138.0
 20
138.84375
 30
0.0
 11
138.178571429
 21
139.28125
 31
0.0
  0
LINE
  8
0
  6
CONTINUOUS
 62
     2
 10
138.178571429
 20
139.28125
 30
0.0
 11
138.178571429
 21
140.15625
 31
0.0
  0
LINE
  8
0
  6
CONTINUOUS
 62
     2
 10
138.178571429
 20
140.15625
 30
0.0
 11
138.0
 21
140.59375
 31
0.0
  0
LINE
  8
0
  6
CONTINUOUS
 62
     2
 10
138.0
 20
140.59375
 30
0.0
 11
137.642857143
 21
140.59375
 31
0.0
  0
LINE
  8
0
  6
CONTINUOUS
 62
     2
 10
137.642857143
 20
140.59375
 30
0.0
 11
137.464285714
 21
140.15625
 31
0.0
  0
LINE
  8
0
  6
CONTINUOUS
 62
     2
 10
137.464285714
 20
140.15625
 30
0.0
 11
137.464285714
 21
139.0625
 31
0.0
  0
LINE
  8
0
  6
CONTINUOUS
 62
     2
 10
137.464285714
 20
139.0625
 30
0.0
 11
137.821428571
 21
138.1875
 31
0.0
  0
LINE
  8
0
  6
CONTINUOUS
 62
     2
 10
137.821428571
 20
138.1875
 30
0.0
 11
138.357142857
 21
138.1875
 31
0.0
  0
LINE
  8
0
  6
CONTINUOUS
 62
     2
 10
138.357142857
 20
138.1875
 30
0.0
 11
138.535714286
 21
138.40625
 31
0.0
  0
LINE
  8
0
  6
CONTINUOUS
 62
     2
 10
102.107142857
 20
158.46875
 30
0.0
 11
102.107142857
 21
161.3125
 31
0.0
  0
LINE
  8
0
  6
CONTINUOUS
 62
     2
 10
102.107142857
 20
159.78125
 30
0.0
 11
103.714285714
 21
161.3125
 31
0.0
  0
LINE
  8
0
  6
CONTINUOUS
 62
     2
 10
102.642857143
 20
160.21875
 30
0.0
 11
103.714285714
 21
158.46875
 31
0.0
  0
LINE
  8
0
  6
CONTINUOUS
 62
     2
 10
152.107142857
 20
161.3125
 30
0.0
 11
152.107142857
 21
158.46875
 31
0.0
  0
LINE
  8
0
  6
CONTINUOUS
 62
     2
 10
152.107142857
 20
158.46875
 30
0.0
 11
153.714285714
 21
158.46875
 31
0.0
  0
ARC
  8
0
  6
CONTINUOUS
 62
     2
 10
59.000006238
 20
55.0
 30
0.0
 40
1.0
 50
0.0
 51
90.0
  0
LINE
  8
0
  6
CONTINUOUS
 62
     2
 10
59.000006238
 20
56.0
 30
0.0
 11
31.000006238
 21
56.0
 31
0.0
  0
ARC
  8
0
  6
CONTINUOUS
 62
     2
 10
31.000006238
 20
55.0
 30
0.0
 40
1.0
 50
90.0
 51
180.0
  0
LINE
  8
0
  6
CONTINUOUS
 62
     2
 10
25.000006238
 20
56.0
 30
0.0
 11
30.000010053
 21
49.0
 31
0.0
  0
ARC
  8
0
  6
CONTINUOUS
 62
     2
 10
29.000006238
 20
52.120464325
 30
0.0
 40
1.0
 50
215.537704468
 51
0.0
  0
LINE
  8
0
  6
CONTINUOUS
 62
     2
 10
65.000006238
 20
56.0
 30
0.0
 11
59.999998608
 21
49.0
 31
0.0
  0
ARC
  8
0
  6
CONTINUOUS
 62
     2
 10
61.000006238
 20
52.12046814
 30
0.0
 40
1.0
 50
180.0
 51
324.462432861
  0
ARC
  8
0
  6
CONTINUOUS
 62
     2
 10
59.566191235
 20
44.999996185
 30
0.0
 40
1.0
 50
210.963638306
 51
270.0
  0
ARC
  8
0
  6
CONTINUOUS
 62
     2
 10
58.566191235
 20
44.0
 30
0.0
 40
1.0
 50
210.96383667
 51
270.0
  0
LINE
  8
0
  6
CONTINUOUS
 62
     2
 10
45.000006238
 20
48.0
 30
0.0
 11
54.433813611
 21
48.0
 31
0.0
  0
LINE
  8
0
  6
CONTINUOUS
 62
     2
 10
57.708700696
 20
43.48550415
 30
0.0
 11
55.29130415
 21
47.51449585
 31
0.0
  0
ARC
  8
0
  6
CONTINUOUS
 62
     2
 10
54.433813611
 20
47.0
 30
0.0
 40
1.0
 50
30.963832855
 51
90.0
  0
LINE
  8
0
  6
CONTINUOUS
 62
     2
 10
30.000006238
 20
49.0
 30
0.0
 11
59.999998608
 21
49.0
 31
0.0
  0
LINE
  8
0
  6
CONTINUOUS
 62
     2
 10
58.708700696
 20
44.48550415
 30
0.0
 11
56.29131178
 21
48.514492035
 31
0.0
  0
ARC
  8
0
  6
CONTINUOUS
 62
     2
 10
55.433813611
 20
47.999996185
 30
0.0
 40
1.0
 50
30.963607788
 51
90.0
  0
LINE
  8
0
  6
CONTINUOUS
 62
     2
 10
54.000006238
 20
48.0
 30
0.0
 11
54.000006238
 21
47.5
 31
0.0
  0
LINE
  8
0
  6
CONTINUOUS
 62
     2
 10
54.000006238
 20
47.5
 30
0.0
 11
49.000006238
 21
47.5
 31
0.0
  0
LINE
  8
0
  6
CONTINUOUS
 62
     2
 10
49.000006238
 20
47.5
 30
0.0
 11
49.000006238
 21
48.0
 31
0.0
  0
LINE
  8
0
  6
CONTINUOUS
 62
     2
 10
49.500006238
 20
47.5
 30
0.0
 11
49.500006238
 21
47.0
 31
0.0
  0
LINE
  8
0
  6
CONTINUOUS
 62
     2
 10
49.500006238
 20
47.0
 30
0.0
 11
53.500006238
 21
47.0
 31
0.0
  0
LINE
  8
0
  6
CONTINUOUS
 62
     2
 10
53.500006238
 20
47.0
 30
0.0
 11
53.500006238
 21
47.5
 31
0.0
  0
ARC
  8
0
  6
CONTINUOUS
 62
     2
 10
51.500006238
 20
47.0
 30
0.0
 40
2.0
 50
180.0
 51
0.0
  0
ARC
  8
0
  6
CONTINUOUS
 62
     2
 10
30.433813611
 20
44.999996185
 30
0.0
 40
1.0
 50
270.0
 51
329.03616333
  0
ARC
  8
0
  6
CONTINUOUS
 62
     2
 10
31.433813611
 20
44.0
 30
0.0
 40
1.0
 50
270.0
 51
329.03616333
  0
LINE
  8
0
  6
CONTINUOUS
 62
     2
 10
44.999998608
 20
48.0
 30
0.0
 11
35.566191235
 21
48.0
 31
0.0
  0
LINE
  8
0
  6
CONTINUOUS
 62
     2
 10
32.29130415
 20
43.48550415
 30
0.0
 11
34.708700696
 21
47.51449585
 31
0.0
  0
ARC
  8
0
  6
CONTINUOUS
 62
     2
 10
35.566191235
 20
47.0
 30
0.0
 40
1.0
 50
90.0
 51
149.03616333
  0
LINE
  8
0
  6
CONTINUOUS
 62
     2
 10
31.29130415
 20
44.48550415
 30
0.0
 11
33.708693066
 21
48.514492035
 31
0.0
  0
ARC
  8
0
  6
CONTINUOUS
 62
     2
 10
34.566191235
 20
47.999996185
 30
0.0
 40
1.0
 50
90.0
 51
149.036346436
  0
LINE
  8
0
  6
CONTINUOUS
 62
     2
 10
35.999998608
 20
48.0
 30
0.0
 11
35.999998608
 21
47.5
 31
0.0
  0
LINE
  8
0
  6
CONTINUOUS
 62
     2
 10
35.999998608
 20
47.5
 30
0.0
 11
40.999998608
 21
47.5
 31
0.0
  0
LINE
  8
0
  6
CONTINUOUS
 62
     2
 10
40.999998608
 20
47.5
 30
0.0
 11
40.999998608
 21
48.0
 31
0.0
  0
LINE
  8
0
  6
CONTINUOUS
 62
     2
 10
40.499998608
 20
47.5
 30
0.0
 11
40.499998608
 21
47.0
 31
0.0
  0
LINE
  8
0
  6
CONTINUOUS
 62
     2
 10
40.499998608
 20
47.0
 30
0.0
 11
36.499998608
 21
47.0
 31
0.0
  0
LINE
  8
0
  6
CONTINUOUS
 62
     2
 10
36.499998608
 20
47.0
 30
0.0
 11
36.499998608
 21
47.5
 31
0.0
  0
ARC
  8
0
  6
CONTINUOUS
 62
     2
 10
38.499998608
 20
47.0
 30
0.0
 40
2.0
 50
180.0
 51
0.0
  0
LINE
  8
0
  6
CONTINUOUS
 62
     2
 10
36.000006238
 20
95.0
 30
0.0
 11
36.000006238
 21
95.5
 31
0.0
  0
LINE
  8
0
  6
CONTINUOUS
 62
     2
 10
36.000006238
 20
95.5
 30
0.0
 11
41.000006238
 21
95.5
 31
0.0
  0
LINE
  8
0
  6
CONTINUOUS
 62
     2
 10
41.000006238
 20
95.5
 30
0.0
 11
41.000006238
 21
95.0
 31
0.0
  0
LINE
  8
0
  6
CONTINUOUS
 62
     2
 10
36.500006238
 20
95.5
 30
0.0
 11
36.500006238
 21
96.0
 31
0.0
  0
LINE
  8
0
  6
CONTINUOUS
 62
     2
 10
36.500006238
 20
96.0
 30
0.0
 11
40.500006238
 21
96.0
 31
0.0
  0
LINE
  8
0
  6
CONTINUOUS
 62
     2
 10
40.500006238
 20
96.0
 30
0.0
 11
40.500006238
 21
95.5
 31
0.0
  0
ARC
  8
0
  6
CONTINUOUS
 62
     2
 10
38.500006238
 20
96.0
 30
0.0
 40
2.0
 50
0.0
 51
180.0
  0
LINE
  8
0
  6
CONTINUOUS
 62
     2
 10
54.000006238
 20
95.0
 30
0.0
 11
54.000006238
 21
95.5
 31
0.0
  0
LINE
  8
0
  6
CONTINUOUS
 62
     2
 10
54.000006238
 20
95.5
 30
0.0
 11
49.000006238
 21
95.5
 31
0.0
  0
LINE
  8
0
  6
CONTINUOUS
 62
     2
 10
49.000006238
 20
95.5
 30
0.0
 11
49.000006238
 21
95.0
 31
0.0
  0
LINE
  8
0
  6
CONTINUOUS
 62
     2
 10
53.500006238
 20
95.5
 30
0.0
 11
53.500006238
 21
96.0
 31
0.0
  0
LINE
  8
0
  6
CONTINUOUS
 62
     2
 10
53.500006238
 20
96.0
 30
0.0
 11
49.500006238
 21
96.0
 31
0.0
  0
LINE
  8
0
  6
CONTINUOUS
 62
     2
 10
49.500006238
 20
96.0
 30
0.0
 11
49.500006238
 21
95.5
 31
0.0
  0
ARC
  8
0
  6
CONTINUOUS
 62
     2
 10
51.500006238
 20
96.0
 30
0.0
 40
2.0
 50
0.0
 51
180.0
  0
LINE
  8
0
  6
CONTINUOUS
 62
     2
 10
40.232058087
 20
97.0
 30
0.0
 11
49.767954388
 21
97.0
 31
0.0
  0
LINE
  8
0
  6
CONTINUOUS
 62
     2
 10
75.000006238
 20
44.0
 30
0.0
 11
75.000006238
 21
43.0
 31
0.0
  0
LINE
  8
0
  6
CONTINUOUS
 62
     2
 10
75.000006238
 20
44.0
 30
0.0
 11
59.566191235
 21
44.0
 31
0.0
  0
LINE
  8
0
  6
CONTINUOUS
 62
     2
 10
75.000006238
 20
43.0
 30
0.0
 11
58.566191235
 21
43.0
 31
0.0
  0
LINE
  8
0
  6
CONTINUOUS
 62
     2
 10
15.000006238
 20
44.0
 30
0.0
 11
30.433813611
 21
44.0
 31
0.0
  0
LINE
  8
0
  6
CONTINUOUS
 62
     2
 10
15.000006238
 20
43.0
 30
0.0
 11
31.433813611
 21
43.0
 31
0.0
  0
LINE
  8
0
  6
CONTINUOUS
 62
     2
 10
53.232058087
 20
97.0
 30
0.0
 11
64.500006238
 21
97.0
 31
0.0
  0
LINE
  8
0
  6
CONTINUOUS
 62
     2
 10
65.000006238
 20
56.0
 30
0.0
 11
65.000006238
 21
96.5
 31
0.0
  0
ARC
  8
0
  6
CONTINUOUS
 62
     2
 10
64.500006238
 20
96.5
 30
0.0
 40
0.5
 50
0.0
 51
90.0
  0
LINE
  8
0
  6
CONTINUOUS
 62
     2
 10
36.767954388
 20
97.0
 30
0.0
 11
25.500006238
 21
97.0
 31
0.0
  0
LINE
  8
0
  6
CONTINUOUS
 62
     2
 10
25.000006238
 20
56.0
 30
0.0
 11
25.000006238
 21
96.5
 31
0.0
  0
ARC
  8
0
  6
CONTINUOUS
 62
     2
 10
25.500006238
 20
96.5
 30
0.0
 40
0.5
 50
90.0
 51
180.0
  0
LINE
  8
0
  6
CONTINUOUS
 62
     2
 10
30.000006238
 20
49.0
 30
0.0
 11
30.000006238
 21
94.5
 31
0.0
  0
ARC
  8
0
  6
CONTINUOUS
 62
     2
 10
30.500006238
 20
94.5
 30
0.0
 40
0.5
 50
90.0
 51
180.0
  0
LINE
  8
0
  6
CONTINUOUS
 62
     2
 10
30.500006238
 20
95.0
 30
0.0
 11
59.500006238
 21
95.0
 31
0.0
  0
LINE
  8
0
  6
CONTINUOUS
 62
     2
 10
59.999998608
 20
49.0
 30
0.0
 11
60.000006238
 21
94.5
 31
0.0
  0
ARC
  8
0
  6
CONTINUOUS
 62
     2
 10
59.500006238
 20
94.5
 30
0.0
 40
0.5
 50
0.0
 51
90.0
  0
LINE
  8
0
  6
CONTINUOUS
 62
     2
 10
43.500006238
 20
95.0
 30
0.0
 11
43.500006238
 21
96.5
 31
0.0
  0
LINE
  8
0
  6
CONTINUOUS
 62
     2
 10
43.500006238
 20
96.5
 30
0.0
 11
46.500006238
 21
96.5
 31
0.0
  0
LINE
  8
0
  6
CONTINUOUS
 62
     2
 10
46.500006238
 20
96.5
 30
0.0
 11
46.500006238
 21
95.0
 31
0.0
  0
LINE
  8
0
  6
CONTINUOUS
 62
     2
 10
65.500006238
 20
97.0
 30
0.0
 11
92.000006238
 21
97.0
 31
0.0
  0
LINE
  8
0
  6
CONTINUOUS
 62
     2
 10
69.000006238
 20
46.0
 30
0.0
 11
69.000006238
 21
43.0
 31
0.0
  0
LINE
  8
0
  6
CONTINUOUS
 62
     2
 10
20.999990979
 20
46.000007629
 30
0.0
 11
20.999990979
 21
43.000007629
 31
0.0
  0
LINE
  8
0
  6
CONTINUOUS
 62
     2
 10
37.607149095
 20
92.34375
 30
0.0
 11
38.321434809
 21
93.21875
 31
0.0
  0
LINE
  8
0
  6
CONTINUOUS
 62
     2
 10
38.321434809
 20
93.21875
 30
0.0
 11
38.678577666
 21
93.875
 31
0.0
  0
LINE
  8
0
  6
CONTINUOUS
 62
     2
 10
38.678577666
 20
93.875
 30
0.0
 11
38.500006238
 21
94.3125
 31
0.0
  0
LINE
  8
0
  6
CONTINUOUS
 62
     2
 10
38.500006238
 20
94.3125
 30
0.0
 11
38.142863381
 21
94.09375
 31
0.0
  0
LINE
  8
0
  6
CONTINUOUS
 62
     2
 10
38.142863381
 20
94.09375
 30
0.0
 11
37.964291952
 21
93.4375
 31
0.0
  0
LINE
  8
0
  6
CONTINUOUS
 62
     2
 10
37.964291952
 20
93.4375
 30
0.0
 11
37.785720524
 21
91.46875
 31
0.0
  0
LINE
  8
0
  6
CONTINUOUS
 62
     2
 10
37.785720524
 20
91.46875
 30
0.0
 11
38.142863381
 21
92.78125
 31
0.0
  0
LINE
  8
0
  6
CONTINUOUS
 62
     2
 10
38.142863381
 20
92.78125
 30
0.0
 11
38.857149095
 21
92.78125
 31
0.0
  0
LINE
  8
0
  6
CONTINUOUS
 62
     2
 10
38.857149095
 20
92.78125
 30
0.0
 11
39.035720524
 21
92.5625
 31
0.0
  0
LINE
  8
0
  6
CONTINUOUS
 62
     2
 10
39.035720524
 20
92.5625
 30
0.0
 11
39.035720524
 21
92.125
 31
0.0
  0
LINE
  8
0
  6
CONTINUOUS
 62
     2
 10
39.035720524
 20
92.125
 30
0.0
 11
38.321434809
 21
92.125
 31
0.0
  0
LINE
  8
0
  6
CONTINUOUS
 62
     2
 10
38.321434809
 20
92.34375
 30
0.0
 11
38.321434809
 21
91.6875
 31
0.0
  0
LINE
  8
0
  6
CONTINUOUS
 62
     2
 10
38.321434809
 20
91.6875
 30
0.0
 11
38.500006238
 21
91.46875
 31
0.0
  0
LINE
  8
0
  6
CONTINUOUS
 62
     2
 10
38.500006238
 20
91.46875
 30
0.0
 11
39.035720524
 21
91.46875
 31
0.0
  0
LINE
  8
0
  6
CONTINUOUS
 62
     2
 10
50.607149095
 20
91.6875
 30
0.0
 11
51.142863381
 21
91.90625
 31
0.0
  0
LINE
  8
0
  6
CONTINUOUS
 62
     2
 10
51.142863381
 20
91.90625
 30
0.0
 11
51.500006238
 21
92.34375
 31
0.0
  0
LINE
  8
0
  6
CONTINUOUS
 62
     2
 10
51.500006238
 20
92.34375
 30
0.0
 11
51.678577666
 21
92.78125
 31
0.0
  0
LINE
  8
0
  6
CONTINUOUS
 62
     2
 10
51.678577666
 20
92.78125
 30
0.0
 11
51.678577666
 21
93.65625
 31
0.0
  0
LINE
  8
0
  6
CONTINUOUS
 62
     2
 10
51.678577666
 20
93.65625
 30
0.0
 11
51.500006238
 21
94.09375
 31
0.0
  0
LINE
  8
0
  6
CONTINUOUS
 62
     2
 10
51.500006238
 20
94.09375
 30
0.0
 11
51.142863381
 21
94.09375
 31
0.0
  0
LINE
  8
0
  6
CONTINUOUS
 62
     2
 10
51.142863381
 20
94.09375
 30
0.0
 11
50.964291952
 21
93.65625
 31
0.0
  0
LINE
  8
0
  6
CONTINUOUS
 62
     2
 10
50.964291952
 20
93.65625
 30
0.0
 11
50.964291952
 21
92.5625
 31
0.0
  0
LINE
  8
0
  6
CONTINUOUS
 62
     2
 10
50.964291952
 20
92.5625
 30
0.0
 11
51.321434809
 21
91.6875
 31
0.0
  0
LINE
  8
0
  6
CONTINUOUS
 62
     2
 10
51.321434809
 20
91.6875
 30
0.0
 11
51.857149095
 21
91.6875
 31
0.0
  0
LINE
  8
0
  6
CONTINUOUS
 62
     2
 10
51.857149095
 20
91.6875
 30
0.0
 11
52.035720524
 21
91.90625
 31
0.0
  0
LINE
  8
0
  6
CONTINUOUS
 62
     2
 10
20.999989072
 20
33.0
 30
0.0
 11
69.000006238
 21
33.0
 31
0.0
  0
LINE
  8
0
  6
CONTINUOUS
 62
     2
 10
20.999989072
 20
33.0
 30
0.0
 11
22.931840724
 21
33.51763809
 31
0.0
  0
LINE
  8
0
  6
CONTINUOUS
 62
     2
 10
20.999989072
 20
33.0
 30
0.0
 11
22.931840724
 21
32.48236191
 31
0.0
  0
LINE
  8
0
  6
CONTINUOUS
 62
     2
 10
69.000006238
 20
33.0
 30
0.0
 11
67.068154585
 21
33.51763809
 31
0.0
  0
LINE
  8
0
  6
CONTINUOUS
 62
     2
 10
69.000006238
 20
33.0
 30
0.0
 11
67.068154585
 21
32.48236191
 31
0.0
  0
LINE
  8
0
  6
CONTINUOUS
 62
     2
 10
69.000006238
 20
42.0
 30
0.0
 11
69.000006238
 21
31.0
 31
0.0
  0
LINE
  8
0
  6
CONTINUOUS
 62
     2
 10
20.999989072
 20
42.0
 30
0.0
 11
20.999989072
 21
31.0
 31
0.0
  0
LINE
  8
0
  6
CONTINUOUS
 62
     2
 10
40.339284323
 20
35.53125
 30
0.0
 11
39.982141466
 21
35.09375
 31
0.0
  0
LINE
  8
0
  6
CONTINUOUS
 62
     2
 10
39.982141466
 20
35.09375
 30
0.0
 11
39.982141466
 21
34.4375
 31
0.0
  0
LINE
  8
0
  6
CONTINUOUS
 62
     2
 10
39.982141466
 20
34.4375
 30
0.0
 11
40.339284323
 21
34.0
 31
0.0
  0
LINE
  8
0
  6
CONTINUOUS
 62
     2
 10
40.339284323
 20
34.0
 30
0.0
 11
41.232141466
 21
34.0
 31
0.0
  0
LINE
  8
0
  6
CONTINUOUS
 62
     2
 10
41.232141466
 20
34.0
 30
0.0
 11
41.589284323
 21
34.4375
 31
0.0
  0
LINE
  8
0
  6
CONTINUOUS
 62
     2
 10
41.589284323
 20
34.4375
 30
0.0
 11
41.589284323
 21
35.09375
 31
0.0
  0
LINE
  8
0
  6
CONTINUOUS
 62
     2
 10
41.589284323
 20
35.09375
 30
0.0
 11
41.232141466
 21
35.53125
 31
0.0
  0
LINE
  8
0
  6
CONTINUOUS
 62
     2
 10
41.232141466
 20
35.53125
 30
0.0
 11
40.339284323
 21
35.53125
 31
0.0
  0
LINE
  8
0
  6
CONTINUOUS
 62
     2
 10
40.339284323
 20
35.53125
 30
0.0
 11
40.160712894
 21
35.96875
 31
0.0
  0
LINE
  8
0
  6
CONTINUOUS
 62
     2
 10
40.160712894
 20
35.96875
 30
0.0
 11
40.160712894
 21
36.40625
 31
0.0
  0
LINE
  8
0
  6
CONTINUOUS
 62
     2
 10
40.160712894
 20
36.40625
 30
0.0
 11
40.517855751
 21
36.84375
 31
0.0
  0
LINE
  8
0
  6
CONTINUOUS
 62
     2
 10
40.517855751
 20
36.84375
 30
0.0
 11
41.053570037
 21
36.84375
 31
0.0
  0
LINE
  8
0
  6
CONTINUOUS
 62
     2
 10
41.053570037
 20
36.84375
 30
0.0
 11
41.410712894
 21
36.40625
 31
0.0
  0
LINE
  8
0
  6
CONTINUOUS
 62
     2
 10
41.410712894
 20
36.40625
 30
0.0
 11
41.410712894
 21
35.96875
 31
0.0
  0
LINE
  8
0
  6
CONTINUOUS
 62
     2
 10
41.410712894
 20
35.96875
 30
0.0
 11
41.232141466
 21
35.53125
 31
0.0
  0
LINE
  8
0
  6
CONTINUOUS
 62
     2
 10
43.624998608
 20
34.0
 30
0.0
 11
43.624998608
 21
36.84375
 31
0.0
  0
LINE
  8
0
  6
CONTINUOUS
 62
     2
 10
43.624998608
 20
36.84375
 30
0.0
 11
42.553570037
 21
34.65625
 31
0.0
  0
LINE
  8
0
  6
CONTINUOUS
 62
     2
 10
42.553570037
 20
34.65625
 30
0.0
 11
44.160712894
 21
34.65625
 31
0.0
  0
LINE
  8
0
  6
CONTINUOUS
 62
     2
 10
45.482141466
 20
34.21875
 30
0.0
 11
47.089284323
 21
34.21875
 31
0.0
  0
LINE
  8
0
  6
CONTINUOUS
 62
     2
 10
47.089284323
 20
35.53125
 30
0.0
 11
45.482141466
 21
35.53125
 31
0.0
  0
LINE
  8
0
  6
CONTINUOUS
 62
     2
 10
46.19642718
 20
36.625
 30
0.0
 11
46.19642718
 21
34.65625
 31
0.0
  0
LINE
  8
0
  6
CONTINUOUS
 62
     2
 10
49.124998608
 20
34.0
 30
0.0
 11
49.124998608
 21
36.84375
 31
0.0
  0
LINE
  8
0
  6
CONTINUOUS
 62
     2
 10
49.124998608
 20
36.84375
 30
0.0
 11
48.767855751
 21
36.1875
 31
0.0
  0
LINE
  8
0
  6
CONTINUOUS
 62
     2
 10
48.767855751
 20
34.0
 30
0.0
 11
49.482141466
 21
34.0
 31
0.0
  0
LINE
  8
0
  6
CONTINUOUS
 62
     2
 10
83.000005736
 20
49.000007629
 30
0.0
 11
83.000005736
 21
43.0
 31
0.0
  0
LINE
  8
0
  6
CONTINUOUS
 62
     2
 10
83.000005736
 20
49.000007629
 30
0.0
 11
82.482367646
 21
47.068155977
 31
0.0
  0
LINE
  8
0
  6
CONTINUOUS
 62
     2
 10
83.000005736
 20
49.000007629
 30
0.0
 11
83.517643826
 21
47.068155977
 31
0.0
  0
LINE
  8
0
  6
CONTINUOUS
 62
     2
 10
83.000005736
 20
43.0
 30
0.0
 11
82.482367646
 21
44.931851653
 31
0.0
  0
LINE
  8
0
  6
CONTINUOUS
 62
     2
 10
83.000005736
 20
43.0
 30
0.0
 11
83.517643826
 21
44.931851653
 31
0.0
  0
LINE
  8
0
  6
CONTINUOUS
 62
     2
 10
60.999998608
 20
49.000007629
 30
0.0
 11
85.000005736
 21
49.000007629
 31
0.0
  0
LINE
  8
0
  6
CONTINUOUS
 62
     2
 10
91.000005736
 20
97.0
 30
0.0
 11
91.000005736
 21
43.0
 31
0.0
  0
LINE
  8
0
  6
CONTINUOUS
 62
     2
 10
91.000005736
 20
97.0
 30
0.0
 11
90.482367646
 21
95.068148347
 31
0.0
  0
LINE
  8
0
  6
CONTINUOUS
 62
     2
 10
91.000005736
 20
97.0
 30
0.0
 11
91.517643826
 21
95.068148347
 31
0.0
  0
LINE
  8
0
  6
CONTINUOUS
 62
     2
 10
99.000005736
 20
98.0
 30
0.0
 11
99.000005736
 21
43.0
 31
0.0
  0
LINE
  8
0
  6
CONTINUOUS
 62
     2
 10
99.000005736
 20
98.0
 30
0.0
 11
98.482367646
 21
96.068148347
 31
0.0
  0
LINE
  8
0
  6
CONTINUOUS
 62
     2
 10
99.000005736
 20
98.0
 30
0.0
 11
99.517643826
 21
96.068148347
 31
0.0
  0
LINE
  8
0
  6
CONTINUOUS
 62
     2
 10
99.000005736
 20
43.0
 30
0.0
 11
98.482367646
 21
44.931851653
 31
0.0
  0
LINE
  8
0
  6
CONTINUOUS
 62
     2
 10
99.000005736
 20
43.0
 30
0.0
 11
99.517643826
 21
44.931851653
 31
0.0
  0
LINE
  8
0
  6
CONTINUOUS
 62
     2
 10
91.000005736
 20
43.0
 30
0.0
 11
90.482367646
 21
44.931851653
 31
0.0
  0
LINE
  8
0
  6
CONTINUOUS
 62
     2
 10
91.000005736
 20
43.0
 30
0.0
 11
91.517643826
 21
44.931851653
 31
0.0
  0
LINE
  8
0
  6
CONTINUOUS
 62
     2
 10
76.000006238
 20
43.0
 30
0.0
 11
101.000005736
 21
43.0
 31
0.0
  0
LINE
  8
0
  6
CONTINUOUS
 62
     2
 10
54.000006238
 20
98.0
 30
0.0
 11
101.000005736
 21
98.0
 31
0.0
  0
LINE
  8
0
  6
CONTINUOUS
 62
     2
 10
81.500005736
 20
44.625
 30
0.0
 11
78.656255736
 21
44.625
 31
0.0
  0
LINE
  8
0
  6
CONTINUOUS
 62
     2
 10
78.656255736
 20
44.625
 30
0.0
 11
79.312505736
 21
44.267857143
 31
0.0
  0
LINE
  8
0
  6
CONTINUOUS
 62
     2
 10
81.500005736
 20
44.267857143
 30
0.0
 11
81.500005736
 21
44.982142857
 31
0.0
  0
LINE
  8
0
  6
CONTINUOUS
 62
     2
 10
81.500005736
 20
47.375
 30
0.0
 11
78.656255736
 21
47.375
 31
0.0
  0
LINE
  8
0
  6
CONTINUOUS
 62
     2
 10
78.656255736
 20
47.375
 30
0.0
 11
79.312505736
 21
47.017857143
 31
0.0
  0
LINE
  8
0
  6
CONTINUOUS
 62
     2
 10
81.500005736
 20
47.017857143
 30
0.0
 11
81.500005736
 21
47.732142857
 31
0.0
  0
LINE
  8
0
  6
CONTINUOUS
 62
     2
 10
97.562505736
 20
67.732142857
 30
0.0
 11
98.000005736
 21
68.089285714
 31
0.0
  0
LINE
  8
0
  6
CONTINUOUS
 62
     2
 10
98.000005736
 20
68.089285714
 30
0.0
 11
98.000005736
 21
68.982142857
 31
0.0
  0
LINE
  8
0
  6
CONTINUOUS
 62
     2
 10
98.000005736
 20
68.982142857
 30
0.0
 11
97.562505736
 21
69.339285714
 31
0.0
  0
LINE
  8
0
  6
CONTINUOUS
 62
     2
 10
97.562505736
 20
69.339285714
 30
0.0
 11
95.593755736
 21
69.339285714
 31
0.0
  0
LINE
  8
0
  6
CONTINUOUS
 62
     2
 10
95.593755736
 20
69.339285714
 30
0.0
 11
95.156255736
 21
68.982142857
 31
0.0
  0
LINE
  8
0
  6
CONTINUOUS
 62
     2
 10
95.156255736
 20
68.982142857
 30
0.0
 11
95.156255736
 21
68.089285714
 31
0.0
  0
LINE
  8
0
  6
CONTINUOUS
 62
     2
 10
95.156255736
 20
68.089285714
 30
0.0
 11
95.593755736
 21
67.732142857
 31
0.0
  0
LINE
  8
0
  6
CONTINUOUS
 62
     2
 10
95.593755736
 20
67.732142857
 30
0.0
 11
96.250005736
 21
67.732142857
 31
0.0
  0
LINE
  8
0
  6
CONTINUOUS
 62
     2
 10
96.250005736
 20
67.732142857
 30
0.0
 11
96.687505736
 21
68.089285714
 31
0.0
  0
LINE
  8
0
  6
CONTINUOUS
 62
     2
 10
96.687505736
 20
68.089285714
 30
0.0
 11
96.687505736
 21
68.982142857
 31
0.0
  0
LINE
  8
0
  6
CONTINUOUS
 62
     2
 10
96.687505736
 20
68.982142857
 30
0.0
 11
96.250005736
 21
69.339285714
 31
0.0
  0
LINE
  8
0
  6
CONTINUOUS
 62
     2
 10
95.593755736
 20
70.482142857
 30
0.0
 11
95.156255736
 21
70.482142857
 31
0.0
  0
LINE
  8
0
  6
CONTINUOUS
 62
     2
 10
95.156255736
 20
70.482142857
 30
0.0
 11
95.156255736
 21
72.089285714
 31
0.0
  0
LINE
  8
0
  6
CONTINUOUS
 62
     2
 10
95.156255736
 20
72.089285714
 30
0.0
 11
98.000005736
 21
71.196428571
 31
0.0
  0
LINE
  8
0
  6
CONTINUOUS
 62
     2
 10
89.562505736
 20
67.732142857
 30
0.0
 11
90.000005736
 21
68.089285714
 31
0.0
  0
LINE
  8
0
  6
CONTINUOUS
 62
     2
 10
90.000005736
 20
68.089285714
 30
0.0
 11
90.000005736
 21
68.982142857
 31
0.0
  0
LINE
  8
0
  6
CONTINUOUS
 62
     2
 10
90.000005736
 20
68.982142857
 30
0.0
 11
89.562505736
 21
69.339285714
 31
0.0
  0
LINE
  8
0
  6
CONTINUOUS
 62
     2
 10
89.562505736
 20
69.339285714
 30
0.0
 11
87.593755736
 21
69.339285714
 31
0.0
  0
LINE
  8
0
  6
CONTINUOUS
 62
     2
 10
87.593755736
 20
69.339285714
 30
0.0
 11
87.156255736
 21
68.982142857
 31
0.0
  0
LINE
  8
0
  6
CONTINUOUS
 62
     2
 10
87.156255736
 20
68.982142857
 30
0.0
 11
87.156255736
 21
68.089285714
 31
0.0
  0
LINE
  8
0
  6
CONTINUOUS
 62
     2
 10
87.156255736
 20
68.089285714
 30
0.0
 11
87.593755736
 21
67.732142857
 31
0.0
  0
LINE
  8
0
  6
CONTINUOUS
 62
     2
 10
87.593755736
 20
67.732142857
 30
0.0
 11
88.250005736
 21
67.732142857
 31
0.0
  0
LINE
  8
0
  6
CONTINUOUS
 62
     2
 10
88.250005736
 20
67.732142857
 30
0.0
 11
88.687505736
 21
68.089285714
 31
0.0
  0
LINE
  8
0
  6
CONTINUOUS
 62
     2
 10
88.687505736
 20
68.089285714
 30
0.0
 11
88.687505736
 21
68.982142857
 31
0.0
  0
LINE
  8
0
  6
CONTINUOUS
 62
     2
 10
88.687505736
 20
68.982142857
 30
0.0
 11
88.250005736
 21
69.339285714
 31
0.0
  0
LINE
  8
0
  6
CONTINUOUS
 62
     2
 10
90.000005736
 20
71.375
 30
0.0
 11
87.156255736
 21
71.375
 31
0.0
  0
LINE
  8
0
  6
CONTINUOUS
 62
     2
 10
87.156255736
 20
71.375
 30
0.0
 11
89.343755736
 21
70.303571429
 31
0.0
  0
LINE
  8
0
  6
CONTINUOUS
 62
     2
 10
89.343755736
 20
70.303571429
 30
0.0
 11
89.343755736
 21
71.910714286
 31
0.0
  0
ARC
  8
0
  6
CONTINUOUS
 62
     2
 10
33.0
 20
160.0
 30
0.0
 40
1.0
 50
90.0
 51
180.0
  0
LINE
  8
0
  6
CONTINUOUS
 62
     2
 10
33.0
 20
161.0
 30
0.0
 11
57.0
 21
161.0
 31
0.0
  0
ARC
  8
0
  6
CONTINUOUS
 62
     2
 10
57.0
 20
160.0
 30
0.0
 40
1.0
 50
0.0
 51
90.0
  0
ARC
  8
0
  6
CONTINUOUS
 62
     2
 10
26.0
 20
151.0
 30
0.0
 40
1.0
 50
90.0
 51
180.0
  0
LINE
  8
0
  6
CONTINUOUS
 62
     2
 10
25.0
 20
151.0
 30
0.0
 11
25.0
 21
128.999984741
 31
0.0
  0
ARC
  8
0
  6
CONTINUOUS
 62
     2
 10
26.0
 20
128.999984741
 30
0.0
 40
1.0
 50
180.0
 51
270.0
  0
ARC
  8
0
  6
CONTINUOUS
 62
     2
 10
64.0
 20
128.999984741
 30
0.0
 40
1.0
 50
270.0
 51
0.0
  0
ARC
  8
0
  6
CONTINUOUS
 62
     2
 10
57.0
 20
120.0
 30
0.0
 40
1.0
 50
270.0
 51
0.0
  0
LINE
  8
0
  6
CONTINUOUS
 62
     2
 10
57.0
 20
119.0
 30
0.0
 11
33.0
 21
119.0
 31
0.0
  0
ARC
  8
0
  6
CONTINUOUS
 62
     2
 10
33.0
 20
120.0
 30
0.0
 40
1.0
 50
180.0
 51
270.0
  0
LINE
  8
0
  6
CONTINUOUS
 62
     2
 10
58.0
 20
120.0
 30
0.0
 11
58.0
 21
127.0
 31
0.0
  0
ARC
  8
0
  6
CONTINUOUS
 62
     2
 10
59.0
 20
127.0
 30
0.0
 40
1.0
 50
90.0
 51
180.0
  0
LINE
  8
0
  6
CONTINUOUS
 62
     2
 10
32.0
 20
160.0
 30
0.0
 11
32.0
 21
152.999984741
 31
0.0
  0
ARC
  8
0
  6
CONTINUOUS
 62
     2
 10
31.0
 20
152.999984741
 30
0.0
 40
1.0
 50
270.0
 51
0.0
  0
LINE
  8
0
  6
CONTINUOUS
 62
     2
 10
65.0
 20
128.999984741
 30
0.0
 11
65.0
 21
151.0
 31
0.0
  0
ARC
  8
0
  6
CONTINUOUS
 62
     2
 10
64.0
 20
151.0
 30
0.0
 40
1.0
 50
0.0
 51
90.0
  0
LINE
  8
0
  6
CONTINUOUS
 62
     2
 10
32.0
 20
120.0
 30
0.0
 11
32.0
 21
126.999984741
 31
0.0
  0
ARC
  8
0
  6
CONTINUOUS
 62
     2
 10
31.0
 20
126.999984741
 30
0.0
 40
1.0
 50
0.0
 51
90.0
  0
LINE
  8
0
  6
CONTINUOUS
 62
     2
 10
26.0
 20
127.999984741
 30
0.0
 11
64.0
 21
127.999984741
 31
0.0
  0
LINE
  8
0
  6
CONTINUOUS
 62
     2
 10
58.0
 20
160.0
 30
0.0
 11
58.0
 21
152.999984741
 31
0.0
  0
ARC
  8
0
  6
CONTINUOUS
 62
     2
 10
59.0
 20
152.999984741
 30
0.0
 40
1.0
 50
180.0
 51
270.0
  0
LINE
  8
0
  6
CONTINUOUS
 62
     2
 10
26.0
 20
152.0
 30
0.0
 11
64.0
 21
152.0
 31
0.0
  0
LINE
  8
0
  6
CONTINUOUS
 62
     2
 10
30.0
 20
149.0
 30
0.0
 11
60.0
 21
149.0
 31
0.0
  0
LINE
  8
0
  6
CONTINUOUS
 62
     2
 10
60.0
 20
149.0
 30
0.0
 11
60.0
 21
131.0
 31
0.0
  0
LINE
  8
0
  6
CONTINUOUS
 62
     2
 10
60.0
 20
131.0
 30
0.0
 11
30.0
 21
131.0
 31
0.0
  0
LINE
  8
0
  6
CONTINUOUS
 62
     2
 10
30.0
 20
131.0
 30
0.0
 11
30.0
 21
149.0
 31
0.0
  0
ARC
  8
0
  6
CONTINUOUS
 62
     2
 10
69.0
 20
140.0
 30
0.0
 40
2.0
 50
90.0
 51
270.0
  0
LINE
  8
0
  6
CONTINUOUS
 62
     2
 10
75.0
 20
138.0
 30
0.0
 11
75.0
 21
127.5
 31
0.0
  0
LINE
  8
0
  6
CONTINUOUS
 62
     2
 10
75.0
 20
152.5
 30
0.0
 11
75.0
 21
142.0
 31
0.0
  0
ARC
  8
0
  6
CONTINUOUS
 62
     2
 10
21.0
 20
140.0
 30
0.0
 40
2.0
 50
270.0
 51
90.0
  0
LINE
  8
0
  6
CONTINUOUS
 62
     2
 10
15.0
 20
152.5
 30
0.0
 11
15.0
 21
142.0
 31
0.0
  0
CIRCLE
  8
0
  6
CONTINUOUS
 62
     2
 10
38.5
 20
156.5
 30
0.0
 40
2.5
  0
CIRCLE
  8
0
  6
CONTINUOUS
 62
     2
 10
38.5
 20
156.5
 30
0.0
 40
2.0
  0
LINE
  8
0
  6
CONTINUOUS
 62
     2
 10
37.5
 20
156.5
 30
0.0
 11
39.5
 21
156.5
 31
0.0
  0
LINE
  8
0
  6
CONTINUOUS
 62
     2
 10
38.5
 20
157.5
 30
0.0
 11
38.5
 21
155.5
 31
0.0
  0
CIRCLE
  8
0
  6
CONTINUOUS
 62
     2
 10
51.5
 20
156.5
 30
0.0
 40
2.5
  0
CIRCLE
  8
0
  6
CONTINUOUS
 62
     2
 10
51.5
 20
156.5
 30
0.0
 40
2.0
  0
LINE
  8
0
  6
CONTINUOUS
 62
     2
 10
52.5
 20
156.5
 30
0.0
 11
50.5
 21
156.5
 31
0.0
  0
LINE
  8
0
  6
CONTINUOUS
 62
     2
 10
51.5
 20
157.5
 30
0.0
 11
51.5
 21
155.5
 31
0.0
  0
CIRCLE
  8
0
  6
CONTINUOUS
 62
     2
 10
38.5
 20
123.5
 30
0.0
 40
2.5
  0
CIRCLE
  8
0
  6
CONTINUOUS
 62
     2
 10
38.5
 20
123.5
 30
0.0
 40
2.0
  0
LINE
  8
0
  6
CONTINUOUS
 62
     2
 10
37.5
 20
123.5
 30
0.0
 11
39.5
 21
123.5
 31
0.0
  0
LINE
  8
0
  6
CONTINUOUS
 62
     2
 10
38.5
 20
122.5
 30
0.0
 11
38.5
 21
124.5
 31
0.0
  0
CIRCLE
  8
0
  6
CONTINUOUS
 62
     2
 10
51.5
 20
123.5
 30
0.0
 40
2.5
  0
CIRCLE
  8
0
  6
CONTINUOUS
 62
     2
 10
51.5
 20
123.5
 30
0.0
 40
2.0
  0
LINE
  8
0
  6
CONTINUOUS
 62
     2
 10
52.5
 20
123.5
 30
0.0
 11
50.5
 21
123.5
 31
0.0
  0
LINE
  8
0
  6
CONTINUOUS
 62
     2
 10
51.5
 20
122.5
 30
0.0
 11
51.5
 21
124.5
 31
0.0
  0
LINE
  8
0
  6
CONTINUOUS
 62
     2
 10
43.5
 20
161.0
 30
0.0
 11
43.5
 21
152.0
 31
0.0
  0
LINE
  8
0
  6
CONTINUOUS
 62
     2
 10
46.5
 20
161.0
 30
0.0
 11
46.5
 21
152.0
 31
0.0
  0
LINE
  8
0
  6
CONTINUOUS
 62
     2
 10
43.5
 20
119.0
 30
0.0
 11
43.5
 21
128.0
 31
0.0
  0
LINE
  8
0
  6
CONTINUOUS
 62
     2
 10
46.5
 20
119.0
 30
0.0
 11
46.5
 21
128.0
 31
0.0
  0
LINE
  8
0
  6
CONTINUOUS
 62
     2
 10
15.0
 20
138.0
 30
0.0
 11
15.0
 21
127.5
 31
0.0
  0
LINE
  8
0
  6
CONTINUOUS
 62
     2
 10
58.133964539
 20
152.5
 30
0.0
 11
75.0
 21
152.5
 31
0.0
  0
LINE
  8
0
  6
CONTINUOUS
 62
     2
 10
69.0
 20
142.0
 30
0.0
 11
75.0
 21
142.0
 31
0.0
  0
LINE
  8
0
  6
CONTINUOUS
 62
     2
 10
69.0
 20
138.0
 30
0.0
 11
75.0
 21
138.0
 31
0.0
  0
LINE
  8
0
  6
CONTINUOUS
 62
     2
 10
58.133972168
 20
127.5
 30
0.0
 11
75.0
 21
127.5
 31
0.0
  0
LINE
  8
0
  6
CONTINUOUS
 62
     2
 10
31.866035461
 20
152.5
 30
0.0
 11
15.0
 21
152.5
 31
0.0
  0
LINE
  8
0
  6
CONTINUOUS
 62
     2
 10
21.0
 20
142.0
 30
0.0
 11
15.0
 21
142.0
 31
0.0
  0
LINE
  8
0
  6
CONTINUOUS
 62
     2
 10
21.0
 20
138.0
 30
0.0
 11
15.0
 21
138.0
 31
0.0
  0
LINE
  8
0
  6
CONTINUOUS
 62
     2
 10
31.866027832
 20
127.5
 30
0.0
 11
15.0
 21
127.5
 31
0.0
  0
LINE
  8
0
  6
CONTINUOUS
 62
     2
 10
36.971428562
 20
135.625
 30
0.0
 11
36.971428562
 21
143.75
 31
0.0
  0
LINE
  8
0
  6
CONTINUOUS
 62
     2
 10
36.971428562
 20
143.75
 30
0.0
 11
39.542857134
 21
135.625
 31
0.0
  0
LINE
  8
0
  6
CONTINUOUS
 62
     2
 10
39.542857134
 20
135.625
 30
0.0
 11
39.542857134
 21
143.75
 31
0.0
  0
LINE
  8
0
  6
CONTINUOUS
 62
     2
 10
50.17142858
 20
135.625
 30
0.0
 11
50.17142858
 21
143.75
 31
0.0
  0
LINE
  8
0
  6
CONTINUOUS
 62
     2
 10
50.17142858
 20
143.75
 30
0.0
 11
51.885714295
 21
143.75
 31
0.0
  0
LINE
  8
0
  6
CONTINUOUS
 62
     2
 10
51.885714295
 20
143.75
 30
0.0
 11
52.457142866
 21
143.125
 31
0.0
  0
LINE
  8
0
  6
CONTINUOUS
 62
     2
 10
52.457142866
 20
143.125
 30
0.0
 11
52.742857152
 21
141.875
 31
0.0
  0
LINE
  8
0
  6
CONTINUOUS
 62
     2
 10
52.742857152
 20
141.875
 30
0.0
 11
52.742857152
 21
141.25
 31
0.0
  0
LINE
  8
0
  6
CONTINUOUS
 62
     2
 10
52.742857152
 20
141.25
 30
0.0
 11
52.457142866
 21
140.0
 31
0.0
  0
LINE
  8
0
  6
CONTINUOUS
 62
     2
 10
52.457142866
 20
140.0
 30
0.0
 11
51.885714295
 21
139.375
 31
0.0
  0
LINE
  8
0
  6
CONTINUOUS
 62
     2
 10
51.885714295
 20
139.375
 30
0.0
 11
50.17142858
 21
139.375
 31
0.0
  0
LINE
  8
0
  6
CONTINUOUS
 62
     2
 10
50.428571429
 20
165.375
 30
0.0
 11
50.428571429
 21
161.3125
 31
0.0
  0
LINE
  8
0
  6
CONTINUOUS
 62
     2
 10
50.428571429
 20
161.3125
 30
0.0
 11
52.357142857
 21
161.3125
 31
0.0
  0
LINE
  8
0
  6
CONTINUOUS
 62
     2
 10
37.428571429
 20
161.3125
 30
0.0
 11
37.428571429
 21
165.375
 31
0.0
  0
LINE
  8
0
  6
CONTINUOUS
 62
     2
 10
37.428571429
 20
163.1875
 30
0.0
 11
39.357142857
 21
165.375
 31
0.0
  0
LINE
  8
0
  6
CONTINUOUS
 62
     2
 10
38.071428571
 20
163.8125
 30
0.0
 11
39.357142857
 21
161.3125
 31
0.0
  0
LINE
  8
0
  6
CONTINUOUS
 62
     2
 10
85.0
 20
161.0
 30
0.0
 11
85.0
 21
119.0
 31
0.0
  0
LINE
  8
0
  6
CONTINUOUS
 62
     2
 10
85.0
 20
161.0
 30
0.0
 11
84.48236191
 21
159.068148347
 31
0.0
  0
LINE
  8
0
  6
CONTINUOUS
 62
     2
 10
85.0
 20
161.0
 30
0.0
 11
85.51763809
 21
159.068148347
 31
0.0
  0
LINE
  8
0
  6
CONTINUOUS
 62
     2
 10
85.0
 20
119.0
 30
0.0
 11
84.48236191
 21
120.931851653
 31
0.0
  0
LINE
  8
0
  6
CONTINUOUS
 62
     2
 10
85.0
 20
119.0
 30
0.0
 11
85.51763809
 21
120.931851653
 31
0.0
  0
LINE
  8
0
  6
CONTINUOUS
 62
     2
 10
58.0
 20
161.0
 30
0.0
 11
87.0
 21
161.0
 31
0.0
  0
LINE
  8
0
  6
CONTINUOUS
 62
     2
 10
58.0
 20
119.0
 30
0.0
 11
87.0
 21
119.0
 31
0.0
  0
LINE
  8
0
  6
CONTINUOUS
 62
     2
 10
25.0
 20
167.0
 30
0.0
 11
65.0
 21
167.0
 31
0.0
  0
LINE
  8
0
  6
CONTINUOUS
 62
     2
 10
25.0
 20
167.0
 30
0.0
 11
26.931851653
 21
167.51763809
 31
0.0
  0
LINE
  8
0
  6
CONTINUOUS
 62
     2
 10
25.0
 20
167.0
 30
0.0
 11
26.931851653
 21
166.48236191
 31
0.0
  0
LINE
  8
0
  6
CONTINUOUS
 62
     2
 10
65.0
 20
167.0
 30
0.0
 11
63.068148347
 21
167.51763809
 31
0.0
  0
LINE
  8
0
  6
CONTINUOUS
 62
     2
 10
65.0
 20
167.0
 30
0.0
 11
63.068148347
 21
166.48236191
 31
0.0
  0
LINE
  8
0
  6
CONTINUOUS
 62
     2
 10
15.0
 20
175.0
 30
0.0
 11
75.0
 21
175.0
 31
0.0
  0
LINE
  8
0
  6
CONTINUOUS
 62
     2
 10
15.0
 20
175.0
 30
0.0
 11
16.931851653
 21
175.51763809
 31
0.0
  0
LINE
  8
0
  6
CONTINUOUS
 62
     2
 10
15.0
 20
175.0
 30
0.0
 11
16.931851653
 21
174.48236191
 31
0.0
  0
LINE
  8
0
  6
CONTINUOUS
 62
     2
 10
75.0
 20
175.0
 30
0.0
 11
73.068148347
 21
175.51763809
 31
0.0
  0
LINE
  8
0
  6
CONTINUOUS
 62
     2
 10
75.0
 20
175.0
 30
0.0
 11
73.068148347
 21
174.48236191
 31
0.0
  0
LINE
  8
0
  6
CONTINUOUS
 62
     2
 10
15.0
 20
153.5
 30
0.0
 11
15.0
 21
177.0
 31
0.0
  0
LINE
  8
0
  6
CONTINUOUS
 62
     2
 10
75.0
 20
153.5
 30
0.0
 11
75.0
 21
177.0
 31
0.0
  0
LINE
  8
0
  6
CONTINUOUS
 62
     2
 10
65.0
 20
152.0
 30
0.0
 11
65.0
 21
169.0
 31
0.0
  0
LINE
  8
0
  6
CONTINUOUS
 62
     2
 10
25.0
 20
152.0
 30
0.0
 11
25.0
 21
169.0
 31
0.0
  0
LINE
  8
0
  6
CONTINUOUS
 62
     2
 10
42.25
 20
176.0
 30
0.0
 11
42.25
 21
178.84375
 31
0.0
  0
LINE
  8
0
  6
CONTINUOUS
 62
     2
 10
42.25
 20
178.84375
 30
0.0
 11
41.892857143
 21
178.1875
 31
0.0
  0
LINE
  8
0
  6
CONTINUOUS
 62
     2
 10
41.892857143
 20
176.0
 30
0.0
 11
42.607142857
 21
176.0
 31
0.0
  0
LINE
  8
0
  6
CONTINUOUS
 62
     2
 10
44.107142857
 20
176.875
 30
0.0
 11
44.285714286
 21
176.21875
 31
0.0
  0
LINE
  8
0
  6
CONTINUOUS
 62
     2
 10
44.285714286
 20
176.21875
 30
0.0
 11
44.642857143
 21
176.0
 31
0.0
  0
LINE
  8
0
  6
CONTINUOUS
 62
     2
 10
44.642857143
 20
176.0
 30
0.0
 11
45.178571429
 21
176.0
 31
0.0
  0
LINE
  8
0
  6
CONTINUOUS
 62
     2
 10
45.178571429
 20
176.0
 30
0.0
 11
45.535714286
 21
176.21875
 31
0.0
  0
LINE
  8
0
  6
CONTINUOUS
 62
     2
 10
45.535714286
 20
176.21875
 30
0.0
 11
45.714285714
 21
176.875
 31
0.0
  0
LINE
  8
0
  6
CONTINUOUS
 62
     2
 10
45.714285714
 20
176.875
 30
0.0
 11
45.714285714
 21
177.96875
 31
0.0
  0
LINE
  8
0
  6
CONTINUOUS
 62
     2
 10
45.714285714
 20
177.96875
 30
0.0
 11
45.535714286
 21
178.625
 31
0.0
  0
LINE
  8
0
  6
CONTINUOUS
 62
     2
 10
45.535714286
 20
178.625
 30
0.0
 11
45.178571429
 21
178.84375
 31
0.0
  0
LINE
  8
0
  6
CONTINUOUS
 62
     2
 10
45.178571429
 20
178.84375
 30
0.0
 11
44.642857143
 21
178.84375
 31
0.0
  0
LINE
  8
0
  6
CONTINUOUS
 62
     2
 10
44.642857143
 20
178.84375
 30
0.0
 11
44.285714286
 21
178.625
 31
0.0
  0
LINE
  8
0
  6
CONTINUOUS
 62
     2
 10
44.285714286
 20
178.625
 30
0.0
 11
44.107142857
 21
177.96875
 31
0.0
  0
LINE
  8
0
  6
CONTINUOUS
 62
     2
 10
44.107142857
 20
177.96875
 30
0.0
 11
44.107142857
 21
176.875
 31
0.0
  0
LINE
  8
0
  6
CONTINUOUS
 62
     2
 10
46.857142857
 20
178.40625
 30
0.0
 11
47.214285714
 21
178.84375
 31
0.0
  0
LINE
  8
0
  6
CONTINUOUS
 62
     2
 10
47.214285714
 20
178.84375
 30
0.0
 11
48.107142857
 21
178.84375
 31
0.0
  0
LINE
  8
0
  6
CONTINUOUS
 62
     2
 10
48.107142857
 20
178.84375
 30
0.0
 11
48.464285714
 21
178.40625
 31
0.0
  0
LINE
  8
0
  6
CONTINUOUS
 62
     2
 10
48.464285714
 20
178.40625
 30
0.0
 11
48.464285714
 21
177.75
 31
0.0
  0
LINE
  8
0
  6
CONTINUOUS
 62
     2
 10
48.464285714
 20
177.75
 30
0.0
 11
48.107142857
 21
177.3125
 31
0.0
  0
LINE
  8
0
  6
CONTINUOUS
 62
     2
 10
48.107142857
 20
177.3125
 30
0.0
 11
47.214285714
 21
176.875
 31
0.0
  0
LINE
  8
0
  6
CONTINUOUS
 62
     2
 10
47.214285714
 20
176.875
 30
0.0
 11
47.035714286
 21
176.65625
 31
0.0
  0
LINE
  8
0
  6
CONTINUOUS
 62
     2
 10
47.035714286
 20
176.65625
 30
0.0
 11
46.857142857
 21
176.21875
 31
0.0
  0
LINE
  8
0
  6
CONTINUOUS
 62
     2
 10
46.857142857
 20
176.21875
 30
0.0
 11
46.857142857
 21
176.0
 31
0.0
  0
LINE
  8
0
  6
CONTINUOUS
 62
     2
 10
46.857142857
 20
176.0
 30
0.0
 11
48.464285714
 21
176.0
 31
0.0
  0
LINE
  8
0
  6
CONTINUOUS
 62
     2
 10
42.732142857
 20
169.09375
 30
0.0
 11
43.089285714
 21
169.53125
 31
0.0
  0
LINE
  8
0
  6
CONTINUOUS
 62
     2
 10
43.089285714
 20
169.53125
 30
0.0
 11
43.982142857
 21
169.53125
 31
0.0
  0
LINE
  8
0
  6
CONTINUOUS
 62
     2
 10
43.982142857
 20
169.53125
 30
0.0
 11
44.339285714
 21
169.09375
 31
0.0
  0
LINE
  8
0
  6
CONTINUOUS
 62
     2
 10
44.339285714
 20
169.09375
 30
0.0
 11
44.339285714
 21
168.4375
 31
0.0
  0
LINE
  8
0
  6
CONTINUOUS
 62
     2
 10
44.339285714
 20
168.4375
 30
0.0
 11
43.982142857
 21
168.0
 31
0.0
  0
LINE
  8
0
  6
CONTINUOUS
 62
     2
 10
43.982142857
 20
168.0
 30
0.0
 11
43.089285714
 21
168.0
 31
0.0
  0
LINE
  8
0
  6
CONTINUOUS
 62
     2
 10
43.089285714
 20
168.0
 30
0.0
 11
42.732142857
 21
168.4375
 31
0.0
  0
LINE
  8
0
  6
CONTINUOUS
 62
     2
 10
42.732142857
 20
168.4375
 30
0.0
 11
42.732142857
 21
170.40625
 31
0.0
  0
LINE
  8
0
  6
CONTINUOUS
 62
     2
 10
42.732142857
 20
170.40625
 30
0.0
 11
43.089285714
 21
170.84375
 31
0.0
  0
LINE
  8
0
  6
CONTINUOUS
 62
     2
 10
43.089285714
 20
170.84375
 30
0.0
 11
43.982142857
 21
170.84375
 31
0.0
  0
LINE
  8
0
  6
CONTINUOUS
 62
     2
 10
43.982142857
 20
170.84375
 30
0.0
 11
44.339285714
 21
170.40625
 31
0.0
  0
LINE
  8
0
  6
CONTINUOUS
 62
     2
 10
45.482142857
 20
170.40625
 30
0.0
 11
45.482142857
 21
170.84375
 31
0.0
  0
LINE
  8
0
  6
CONTINUOUS
 62
     2
 10
45.482142857
 20
170.84375
 30
0.0
 11
47.089285714
 21
170.84375
 31
0.0
  0
LINE
  8
0
  6
CONTINUOUS
 62
     2
 10
47.089285714
 20
170.84375
 30
0.0
 11
46.196428571
 21
168.0
 31
0.0
  0
LINE
  8
0
  6
CONTINUOUS
 62
     2
 10
81.59375
 20
137.732142857
 30
0.0
 11
81.15625
 21
137.732142857
 31
0.0
  0
LINE
  8
0
  6
CONTINUOUS
 62
     2
 10
81.15625
 20
137.732142857
 30
0.0
 11
81.15625
 21
139.339285714
 31
0.0
  0
LINE
  8
0
  6
CONTINUOUS
 62
     2
 10
81.15625
 20
139.339285714
 30
0.0
 11
84.0
 21
138.446428571
 31
0.0
  0
LINE
  8
0
  6
CONTINUOUS
 62
     2
 10
83.125
 20
140.482142857
 30
0.0
 11
83.78125
 21
140.660714286
 31
0.0
  0
LINE
  8
0
  6
CONTINUOUS
 62
     2
 10
83.78125
 20
140.660714286
 30
0.0
 11
84.0
 21
141.017857143
 31
0.0
  0
LINE
  8
0
  6
CONTINUOUS
 62
     2
 10
84.0
 20
141.017857143
 30
0.0
 11
84.0
 21
141.553571429
 31
0.0
  0
LINE
  8
0
  6
CONTINUOUS
 62
     2
 10
84.0
 20
141.553571429
 30
0.0
 11
83.78125
 21
141.910714286
 31
0.0
  0
LINE
  8
0
  6
CONTINUOUS
 62
     2
 10
83.78125
 20
141.910714286
 30
0.0
 11
83.125
 21
142.089285714
 31
0.0
  0
LINE
  8
0
  6
CONTINUOUS
 62
     2
 10
83.125
 20
142.089285714
 30
0.0
 11
82.03125
 21
142.089285714
 31
0.0
  0
LINE
  8
0
  6
CONTINUOUS
 62
     2
 10
82.03125
 20
142.089285714
 30
0.0
 11
81.375
 21
141.910714286
 31
0.0
  0
LINE
  8
0
  6
CONTINUOUS
 62
     2
 10
81.375
 20
141.910714286
 30
0.0
 11
81.15625
 21
141.553571429
 31
0.0
  0
LINE
  8
0
  6
CONTINUOUS
 62
     2
 10
81.15625
 20
141.553571429
 30
0.0
 11
81.15625
 21
141.017857143
 31
0.0
  0
LINE
  8
0
  6
CONTINUOUS
 62
     2
 10
81.15625
 20
141.017857143
 30
0.0
 11
81.375
 21
140.660714286
 31
0.0
  0
LINE
  8
0
  6
CONTINUOUS
 62
     2
 10
81.375
 20
140.660714286
 30
0.0
 11
82.03125
 21
140.482142857
 31
0.0
  0
LINE
  8
0
  6
CONTINUOUS
 62
     2
 10
82.03125
 20
140.482142857
 30
0.0
 11
83.125
 21
140.482142857
 31
0.0
  0
LINE
  8
0
  6
CONTINUOUS
 62
     2
 10
223.0
 20
187.0
 30
0.0
 11
159.0
 21
187.0
 31
0.0
  0
LINE
  8
0
  6
CONTINUOUS
 62
     2
 10
223.0
 20
177.399951172
 30
0.0
 11
159.0
 21
177.399951172
 31
0.0
  0
LINE
  8
0
  6
CONTINUOUS
 62
     2
 10
223.0
 20
172.599951172
 30
0.0
 11
159.0
 21
172.599951172
 31
0.0
  0
LINE
  8
0
  6
CONTINUOUS
 62
     2
 10
223.0
 20
167.799951172
 30
0.0
 11
159.0
 21
167.799951172
 31
0.0
  0
LINE
  8
0
  6
CONTINUOUS
 62
     2
 10
223.0
 20
162.999951172
 30
0.0
 11
159.0
 21
162.999951172
 31
0.0
  0
LINE
  8
0
  6
CONTINUOUS
 62
     2
 10
223.0
 20
158.2
 30
0.0
 11
159.0
 21
158.2
 31
0.0
  0
LINE
  8
0
  6
CONTINUOUS
 62
     2
 10
223.0
 20
153.4
 30
0.0
 11
159.0
 21
153.4
 31
0.0
  0
LINE
  8
0
  6
CONTINUOUS
 62
     2
 10
223.0
 20
148.6
 30
0.0
 11
159.0
 21
148.6
 31
0.0
  0
LINE
  8
0
  6
CONTINUOUS
 62
     2
 10
223.0
 20
143.799975586
 30
0.0
 11
159.0
 21
143.799975586
 31
0.0
  0
LINE
  8
0
  6
CONTINUOUS
 62
     2
 10
223.0
 20
139.0
 30
0.0
 11
159.0
 21
139.0
 31
0.0
  0
LINE
  8
0
  6
CONTINUOUS
 62
     2
 10
223.0
 20
134.2
 30
0.0
 11
159.0
 21
134.2
 31
0.0
  0
LINE
  8
0
  6
CONTINUOUS
 62
     2
 10
223.0
 20
182.199926758
 30
0.0
 11
159.0
 21
182.199926758
 31
0.0
  0
LINE
  8
0
  6
CONTINUOUS
 62
     2
 10
161.160000014
 20
183.200012207
 30
0.0
 11
161.560000014
 21
184.425012207
 31
0.0
  0
LINE
  8
0
  6
CONTINUOUS
 62
     2
 10
161.560000014
 20
184.425012207
 30
0.0
 11
161.560000014
 21
185.825012207
 31
0.0
  0
LINE
  8
0
  6
CONTINUOUS
 62
     2
 10
161.160000014
 20
185.825012207
 30
0.0
 11
162.360000014
 21
185.825012207
 31
0.0
  0
LINE
  8
0
  6
CONTINUOUS
 62
     2
 10
162.160000014
 20
185.825012207
 30
0.0
 11
162.160000014
 21
183.200012207
 31
0.0
  0
LINE
  8
0
  6
CONTINUOUS
 62
     2
 10
161.160000014
 20
184.775012207
 30
0.0
 11
162.560000014
 21
184.775012207
 31
0.0
  0
LINE
  8
0
  6
CONTINUOUS
 62
     2
 10
162.960000014
 20
185.125012207
 30
0.0
 11
163.760000014
 21
185.825012207
 31
0.0
  0
LINE
  8
0
  6
CONTINUOUS
 62
     2
 10
163.760000014
 20
185.125012207
 30
0.0
 11
162.960000014
 21
184.250012207
 31
0.0
  0
LINE
  8
0
  6
CONTINUOUS
 62
     2
 10
162.960000014
 20
183.200012207
 30
0.0
 11
163.360000014
 21
183.550012207
 31
0.0
  0
LINE
  8
0
  6
CONTINUOUS
 62
     2
 10
163.360000014
 20
183.550012207
 30
0.0
 11
163.760000014
 21
184.075012207
 31
0.0
  0
LINE
  8
0
  6
CONTINUOUS
 62
     2
 10
179.639999986
 20
183.900012207
 30
0.0
 11
180.239999986
 21
184.075012207
 31
0.0
  0
LINE
  8
0
  6
CONTINUOUS
 62
     2
 10
180.239999986
 20
184.075012207
 30
0.0
 11
182.039999986
 21
184.075012207
 31
0.0
  0
LINE
  8
0
  6
CONTINUOUS
 62
     2
 10
182.039999986
 20
184.075012207
 30
0.0
 11
182.039999986
 21
183.200012207
 31
0.0
  0
LINE
  8
0
  6
CONTINUOUS
 62
     2
 10
182.039999986
 20
183.200012207
 30
0.0
 11
180.239999986
 21
183.200012207
 31
0.0
  0
LINE
  8
0
  6
CONTINUOUS
 62
     2
 10
180.239999986
 20
183.200012207
 30
0.0
 11
180.239999986
 21
184.075012207
 31
0.0
  0
LINE
  8
0
  6
CONTINUOUS
 62
     2
 10
180.239999986
 20
184.075012207
 30
0.0
 11
180.639999986
 21
184.250012207
 31
0.0
  0
LINE
  8
0
  6
CONTINUOUS
 62
     2
 10
180.639999986
 20
184.250012207
 30
0.0
 11
181.039999986
 21
184.600012207
 31
0.0
  0
LINE
  8
0
  6
CONTINUOUS
 62
     2
 10
181.039999986
 20
184.600012207
 30
0.0
 11
181.839999986
 21
185.650012207
 31
0.0
  0
LINE
  8
0
  6
CONTINUOUS
 62
     2
 10
181.839999986
 20
185.650012207
 30
0.0
 11
180.439999986
 21
185.650012207
 31
0.0
  0
LINE
  8
0
  6
CONTINUOUS
 62
     2
 10
180.439999986
 20
185.650012207
 30
0.0
 11
180.039999986
 21
185.125012207
 31
0.0
  0
LINE
  8
0
  6
CONTINUOUS
 62
     2
 10
180.039999986
 20
185.125012207
 30
0.0
 11
179.639999986
 21
184.600012207
 31
0.0
  0
LINE
  8
0
  6
CONTINUOUS
 62
     2
 10
180.039999986
 20
185.125012207
 30
0.0
 11
180.839999986
 21
184.425012207
 31
0.0
  0
LINE
  8
0
  6
CONTINUOUS
 62
     2
 10
161.560000014
 20
178.400012207
 30
0.0
 11
161.560000014
 21
181.025012207
 31
0.0
  0
LINE
  8
0
  6
CONTINUOUS
 62
     2
 10
161.960000014
 20
180.500012207
 30
0.0
 11
161.160000014
 21
180.500012207
 31
0.0
  0
LINE
  8
0
  6
CONTINUOUS
 62
     2
 10
161.160000014
 20
178.925012207
 30
0.0
 11
161.560000014
 21
180.500012207
 31
0.0
  0
LINE
  8
0
  6
CONTINUOUS
 62
     2
 10
161.560000014
 20
180.500012207
 30
0.0
 11
161.960000014
 21
179.450012207
 31
0.0
  0
LINE
  8
0
  6
CONTINUOUS
 62
     2
 10
161.960000014
 20
179.800012207
 30
0.0
 11
163.760000014
 21
179.800012207
 31
0.0
  0
LINE
  8
0
  6
CONTINUOUS
 62
     2
 10
163.360000014
 20
179.800012207
 30
0.0
 11
163.360000014
 21
181.025012207
 31
0.0
  0
LINE
  8
0
  6
CONTINUOUS
 62
     2
 10
163.760000014
 20
180.675012207
 30
0.0
 11
161.960000014
 21
180.675012207
 31
0.0
  0
LINE
  8
0
  6
CONTINUOUS
 62
     2
 10
162.360000014
 20
181.025012207
 30
0.0
 11
162.360000014
 21
179.800012207
 31
0.0
  0
LINE
  8
0
  6
CONTINUOUS
 62
     2
 10
162.160000014
 20
180.325012207
 30
0.0
 11
163.560000014
 21
180.325012207
 31
0.0
  0
LINE
  8
0
  6
CONTINUOUS
 62
     2
 10
162.960000014
 20
179.800012207
 30
0.0
 11
162.960000014
 21
178.925012207
 31
0.0
  0
LINE
  8
0
  6
CONTINUOUS
 62
     2
 10
162.160000014
 20
179.275012207
 30
0.0
 11
163.560000014
 21
179.275012207
 31
0.0
  0
LINE
  8
0
  6
CONTINUOUS
 62
     2
 10
163.760000014
 20
178.925012207
 30
0.0
 11
161.960000014
 21
178.925012207
 31
0.0
  0
LINE
  8
0
  6
CONTINUOUS
 62
     2
 10
162.160000014
 20
178.400012207
 30
0.0
 11
162.160000014
 21
179.625012207
 31
0.0
  0
LINE
  8
0
  6
CONTINUOUS
 62
     2
 10
162.160000014
 20
179.625012207
 30
0.0
 11
163.560000014
 21
179.625012207
 31
0.0
  0
LINE
  8
0
  6
CONTINUOUS
 62
     2
 10
163.560000014
 20
179.625012207
 30
0.0
 11
163.560000014
 21
178.400012207
 31
0.0
  0
LINE
  8
0
  6
CONTINUOUS
 62
     2
 10
163.560000014
 20
178.400012207
 30
0.0
 11
163.360000014
 21
178.400012207
 31
0.0
  0
LINE
  8
0
  6
CONTINUOUS
 62
     2
 10
179.639999986
 20
178.400012207
 30
0.0
 11
180.039999986
 21
178.750012207
 31
0.0
  0
LINE
  8
0
  6
CONTINUOUS
 62
     2
 10
180.039999986
 20
178.750012207
 30
0.0
 11
180.039999986
 21
179.800012207
 31
0.0
  0
LINE
  8
0
  6
CONTINUOUS
 62
     2
 10
180.039999986
 20
179.800012207
 30
0.0
 11
179.639999986
 21
179.800012207
 31
0.0
  0
LINE
  8
0
  6
CONTINUOUS
 62
     2
 10
180.039999986
 20
180.500012207
 30
0.0
 11
179.639999986
 21
181.025012207
 31
0.0
  0
LINE
  8
0
  6
CONTINUOUS
 62
     2
 10
180.839999986
 20
181.025012207
 30
0.0
 11
180.639999986
 21
180.500012207
 31
0.0
  0
LINE
  8
0
  6
CONTINUOUS
 62
     2
 10
180.639999986
 20
180.500012207
 30
0.0
 11
180.439999986
 21
179.975012207
 31
0.0
  0
LINE
  8
0
  6
CONTINUOUS
 62
     2
 10
180.439999986
 20
179.800012207
 30
0.0
 11
182.239999986
 21
179.800012207
 31
0.0
  0
LINE
  8
0
  6
CONTINUOUS
 62
     2
 10
182.239999986
 20
180.500012207
 30
0.0
 11
180.639999986
 21
180.500012207
 31
0.0
  0
LINE
  8
0
  6
CONTINUOUS
 62
     2
 10
181.439999986
 20
181.025012207
 30
0.0
 11
181.439999986
 21
179.800012207
 31
0.0
  0
LINE
  8
0
  6
CONTINUOUS
 62
     2
 10
180.639999986
 20
179.450012207
 30
0.0
 11
180.639999986
 21
178.750012207
 31
0.0
  0
LINE
  8
0
  6
CONTINUOUS
 62
     2
 10
180.639999986
 20
178.750012207
 30
0.0
 11
182.039999986
 21
178.750012207
 31
0.0
  0
LINE
  8
0
  6
CONTINUOUS
 62
     2
 10
182.039999986
 20
178.750012207
 30
0.0
 11
182.039999986
 21
179.450012207
 31
0.0
  0
LINE
  8
0
  6
CONTINUOUS
 62
     2
 10
182.039999986
 20
179.450012207
 30
0.0
 11
180.639999986
 21
179.450012207
 31
0.0
  0
LINE
  8
0
  6
CONTINUOUS
 62
     2
 10
180.039999986
 20
178.750012207
 30
0.0
 11
180.239999986
 21
178.400012207
 31
0.0
  0
LINE
  8
0
  6
CONTINUOUS
 62
     2
 10
180.239999986
 20
178.400012207
 30
0.0
 11
182.239999986
 21
178.400012207
 31
0.0
  0
LINE
  8
0
  6
CONTINUOUS
 62
     2
 10
161.160000014
 20
173.599987793
 30
0.0
 11
161.360000014
 21
173.774987793
 31
0.0
  0
LINE
  8
0
  6
CONTINUOUS
 62
     2
 10
161.360000014
 20
173.774987793
 30
0.0
 11
161.560000014
 21
174.124987793
 31
0.0
  0
LINE
  8
0
  6
CONTINUOUS
 62
     2
 10
161.560000014
 20
174.124987793
 30
0.0
 11
161.760000014
 21
174.824987793
 31
0.0
  0
LINE
  8
0
  6
CONTINUOUS
 62
     2
 10
161.760000014
 20
174.824987793
 30
0.0
 11
161.760000014
 21
176.224987793
 31
0.0
  0
LINE
  8
0
  6
CONTINUOUS
 62
     2
 10
162.160000014
 20
175.699987793
 30
0.0
 11
161.160000014
 21
175.699987793
 31
0.0
  0
LINE
  8
0
  6
CONTINUOUS
 62
     2
 10
161.160000014
 20
174.824987793
 30
0.0
 11
162.160000014
 21
174.824987793
 31
0.0
  0
LINE
  8
0
  6
CONTINUOUS
 62
     2
 10
161.760000014
 20
174.824987793
 30
0.0
 11
162.160000014
 21
174.124987793
 31
0.0
  0
LINE
  8
0
  6
CONTINUOUS
 62
     2
 10
162.160000014
 20
173.599987793
 30
0.0
 11
162.560000014
 21
173.949987793
 31
0.0
  0
LINE
  8
0
  6
CONTINUOUS
 62
     2
 10
162.560000014
 20
173.949987793
 30
0.0
 11
162.960000014
 21
174.299987793
 31
0.0
  0
LINE
  8
0
  6
CONTINUOUS
 62
     2
 10
163.160000014
 20
174.299987793
 30
0.0
 11
163.160000014
 21
173.774987793
 31
0.0
  0
LINE
  8
0
  6
CONTINUOUS
 62
     2
 10
163.160000014
 20
173.774987793
 30
0.0
 11
163.360000014
 21
173.599987793
 31
0.0
  0
LINE
  8
0
  6
CONTINUOUS
 62
     2
 10
163.360000014
 20
173.599987793
 30
0.0
 11
163.760000014
 21
173.599987793
 31
0.0
  0
LINE
  8
0
  6
CONTINUOUS
 62
     2
 10
163.760000014
 20
173.599987793
 30
0.0
 11
163.760000014
 21
173.949987793
 31
0.0
  0
LINE
  8
0
  6
CONTINUOUS
 62
     2
 10
163.560000014
 20
174.824987793
 30
0.0
 11
162.360000014
 21
174.824987793
 31
0.0
  0
LINE
  8
0
  6
CONTINUOUS
 62
     2
 10
162.360000014
 20
174.824987793
 30
0.0
 11
162.360000014
 21
174.299987793
 31
0.0
  0
LINE
  8
0
  6
CONTINUOUS
 62
     2
 10
162.360000014
 20
174.299987793
 30
0.0
 11
163.560000014
 21
174.299987793
 31
0.0
  0
LINE
  8
0
  6
CONTINUOUS
 62
     2
 10
163.560000014
 20
174.299987793
 30
0.0
 11
163.560000014
 21
176.049987793
 31
0.0
  0
LINE
  8
0
  6
CONTINUOUS
 62
     2
 10
163.560000014
 20
176.049987793
 30
0.0
 11
162.360000014
 21
176.049987793
 31
0.0
  0
LINE
  8
0
  6
CONTINUOUS
 62
     2
 10
162.360000014
 20
176.049987793
 30
0.0
 11
162.360000014
 21
174.824987793
 31
0.0
  0
LINE
  8
0
  6
CONTINUOUS
 62
     2
 10
162.360000014
 20
175.524987793
 30
0.0
 11
163.560000014
 21
175.524987793
 31
0.0
  0
LINE
  8
0
  6
CONTINUOUS
 62
     2
 10
180.039999986
 20
173.599987793
 30
0.0
 11
180.039999986
 21
176.224987793
 31
0.0
  0
LINE
  8
0
  6
CONTINUOUS
 62
     2
 10
180.439999986
 20
175.699987793
 30
0.0
 11
179.639999986
 21
175.699987793
 31
0.0
  0
LINE
  8
0
  6
CONTINUOUS
 62
     2
 10
179.639999986
 20
174.124987793
 30
0.0
 11
180.039999986
 21
175.699987793
 31
0.0
  0
LINE
  8
0
  6
CONTINUOUS
 62
     2
 10
180.039999986
 20
175.699987793
 30
0.0
 11
180.439999986
 21
174.649987793
 31
0.0
  0
LINE
  8
0
  6
CONTINUOUS
 62
     2
 10
180.639999986
 20
175.174987793
 30
0.0
 11
181.039999986
 21
176.049987793
 31
0.0
  0
LINE
  8
0
  6
CONTINUOUS
 62
     2
 10
181.039999986
 20
176.049987793
 30
0.0
 11
182.039999986
 21
176.049987793
 31
0.0
  0
LINE
  8
0
  6
CONTINUOUS
 62
     2
 10
182.039999986
 20
176.049987793
 30
0.0
 11
181.639999986
 21
175.174987793
 31
0.0
  0
LINE
  8
0
  6
CONTINUOUS
 62
     2
 10
181.639999986
 20
175.174987793
 30
0.0
 11
181.039999986
 21
174.649987793
 31
0.0
  0
LINE
  8
0
  6
CONTINUOUS
 62
     2
 10
181.039999986
 20
174.649987793
 30
0.0
 11
180.839999986
 21
174.474987793
 31
0.0
  0
LINE
  8
0
  6
CONTINUOUS
 62
     2
 10
180.839999986
 20
174.474987793
 30
0.0
 11
180.839999986
 21
173.599987793
 31
0.0
  0
LINE
  8
0
  6
CONTINUOUS
 62
     2
 10
180.839999986
 20
173.599987793
 30
0.0
 11
182.039999986
 21
173.599987793
 31
0.0
  0
LINE
  8
0
  6
CONTINUOUS
 62
     2
 10
182.039999986
 20
173.599987793
 30
0.0
 11
182.039999986
 21
174.474987793
 31
0.0
  0
LINE
  8
0
  6
CONTINUOUS
 62
     2
 10
182.039999986
 20
174.474987793
 30
0.0
 11
180.839999986
 21
174.474987793
 31
0.0
  0
LINE
  8
0
  6
CONTINUOUS
 62
     2
 10
180.839999986
 20
174.474987793
 30
0.0
 11
180.639999986
 21
174.299987793
 31
0.0
  0
LINE
  8
0
  6
CONTINUOUS
 62
     2
 10
181.839999986
 20
174.824987793
 30
0.0
 11
182.239999986
 21
174.474987793
 31
0.0
  0
LINE
  8
0
  6
CONTINUOUS
 62
     2
 10
181.039999986
 20
175.874987793
 30
0.0
 11
181.439999986
 21
175.174987793
 31
0.0
  0
LINE
  8
0
  6
CONTINUOUS
 62
     2
 10
181.439999986
 20
175.174987793
 30
0.0
 11
181.839999986
 21
174.824987793
 31
0.0
  0
LINE
  8
0
  6
CONTINUOUS
 62
     2
 10
161.160000014
 20
168.799987793
 30
0.0
 11
161.560000014
 21
169.149987793
 31
0.0
  0
LINE
  8
0
  6
CONTINUOUS
 62
     2
 10
161.560000014
 20
169.149987793
 30
0.0
 11
161.760000014
 21
169.674987793
 31
0.0
  0
LINE
  8
0
  6
CONTINUOUS
 62
     2
 10
162.360000014
 20
169.674987793
 30
0.0
 11
163.160000014
 21
169.674987793
 31
0.0
  0
LINE
  8
0
  6
CONTINUOUS
 62
     2
 10
163.360000014
 20
170.374987793
 30
0.0
 11
161.560000014
 21
170.374987793
 31
0.0
  0
LINE
  8
0
  6
CONTINUOUS
 62
     2
 10
161.160000014
 20
170.724987793
 30
0.0
 11
161.160000014
 21
171.074987793
 31
0.0
  0
LINE
  8
0
  6
CONTINUOUS
 62
     2
 10
161.160000014
 20
171.074987793
 30
0.0
 11
163.760000014
 21
171.074987793
 31
0.0
  0
LINE
  8
0
  6
CONTINUOUS
 62
     2
 10
163.760000014
 20
171.074987793
 30
0.0
 11
163.760000014
 21
170.724987793
 31
0.0
  0
LINE
  8
0
  6
CONTINUOUS
 62
     2
 10
162.360000014
 20
171.424987793
 30
0.0
 11
162.360000014
 21
171.074987793
 31
0.0
  0
LINE
  8
0
  6
CONTINUOUS
 62
     2
 10
162.360000014
 20
170.374987793
 30
0.0
 11
162.360000014
 21
168.799987793
 31
0.0
  0
LINE
  8
0
  6
CONTINUOUS
 62
     2
 10
161.560000014
 20
169.149987793
 30
0.0
 11
161.760000014
 21
168.974987793
 31
0.0
  0
LINE
  8
0
  6
CONTINUOUS
 62
     2
 10
161.760000014
 20
168.974987793
 30
0.0
 11
162.160000014
 21
168.799987793
 31
0.0
  0
LINE
  8
0
  6
CONTINUOUS
 62
     2
 10
162.160000014
 20
168.799987793
 30
0.0
 11
163.760000014
 21
168.799987793
 31
0.0
  0
LINE
  8
0
  6
CONTINUOUS
 62
     2
 10
167.720000005
 20
168.799987793
 30
0.0
 11
167.720000005
 21
171.424987793
 31
0.0
  0
LINE
  8
0
  6
CONTINUOUS
 62
     2
 10
168.120000005
 20
170.899987793
 30
0.0
 11
167.320000005
 21
170.899987793
 31
0.0
  0
LINE
  8
0
  6
CONTINUOUS
 62
     2
 10
167.320000005
 20
169.324987793
 30
0.0
 11
167.720000005
 21
170.899987793
 31
0.0
  0
LINE
  8
0
  6
CONTINUOUS
 62
     2
 10
167.720000005
 20
170.899987793
 30
0.0
 11
168.120000005
 21
169.849987793
 31
0.0
  0
LINE
  8
0
  6
CONTINUOUS
 62
     2
 10
168.320000005
 20
170.374987793
 30
0.0
 11
168.720000005
 21
171.249987793
 31
0.0
  0
LINE
  8
0
  6
CONTINUOUS
 62
     2
 10
168.720000005
 20
171.249987793
 30
0.0
 11
169.720000005
 21
171.249987793
 31
0.0
  0
LINE
  8
0
  6
CONTINUOUS
 62
     2
 10
169.720000005
 20
171.249987793
 30
0.0
 11
169.320000005
 21
170.374987793
 31
0.0
  0
LINE
  8
0
  6
CONTINUOUS
 62
     2
 10
169.320000005
 20
170.374987793
 30
0.0
 11
168.720000005
 21
169.849987793
 31
0.0
  0
LINE
  8
0
  6
CONTINUOUS
 62
     2
 10
168.720000005
 20
169.849987793
 30
0.0
 11
168.520000005
 21
169.674987793
 31
0.0
  0
LINE
  8
0
  6
CONTINUOUS
 62
     2
 10
168.520000005
 20
169.674987793
 30
0.0
 11
168.520000005
 21
168.799987793
 31
0.0
  0
LINE
  8
0
  6
CONTINUOUS
 62
     2
 10
168.520000005
 20
168.799987793
 30
0.0
 11
169.720000005
 21
168.799987793
 31
0.0
  0
LINE
  8
0
  6
CONTINUOUS
 62
     2
 10
169.720000005
 20
168.799987793
 30
0.0
 11
169.720000005
 21
169.674987793
 31
0.0
  0
LINE
  8
0
  6
CONTINUOUS
 62
     2
 10
169.720000005
 20
169.674987793
 30
0.0
 11
168.520000005
 21
169.674987793
 31
0.0
  0
LINE
  8
0
  6
CONTINUOUS
 62
     2
 10
168.520000005
 20
169.674987793
 30
0.0
 11
168.320000005
 21
169.499987793
 31
0.0
  0
LINE
  8
0
  6
CONTINUOUS
 62
     2
 10
169.520000005
 20
170.024987793
 30
0.0
 11
169.920000005
 21
169.674987793
 31
0.0
  0
LINE
  8
0
  6
CONTINUOUS
 62
     2
 10
168.720000005
 20
171.074987793
 30
0.0
 11
169.120000005
 21
170.374987793
 31
0.0
  0
LINE
  8
0
  6
CONTINUOUS
 62
     2
 10
169.120000005
 20
170.374987793
 30
0.0
 11
169.520000005
 21
170.024987793
 31
0.0
  0
LINE
  8
0
  6
CONTINUOUS
 62
     2
 10
173.679999995
 20
168.799987793
 30
0.0
 11
174.279999995
 21
169.149987793
 31
0.0
  0
LINE
  8
0
  6
CONTINUOUS
 62
     2
 10
175.879999995
 20
168.799987793
 30
0.0
 11
175.279999995
 21
169.149987793
 31
0.0
  0
LINE
  8
0
  6
CONTINUOUS
 62
     2
 10
175.279999995
 20
169.149987793
 30
0.0
 11
173.879999995
 21
169.149987793
 31
0.0
  0
LINE
  8
0
  6
CONTINUOUS
 62
     2
 10
173.879999995
 20
169.149987793
 30
0.0
 11
173.879999995
 21
170.899987793
 31
0.0
  0
LINE
  8
0
  6
CONTINUOUS
 62
     2
 10
173.879999995
 20
170.899987793
 30
0.0
 11
175.679999995
 21
170.899987793
 31
0.0
  0
LINE
  8
0
  6
CONTINUOUS
 62
     2
 10
175.679999995
 20
170.899987793
 30
0.0
 11
175.679999995
 21
169.149987793
 31
0.0
  0
LINE
  8
0
  6
CONTINUOUS
 62
     2
 10
175.679999995
 20
169.149987793
 30
0.0
 11
175.279999995
 21
169.149987793
 31
0.0
  0
LINE
  8
0
  6
CONTINUOUS
 62
     2
 10
173.879999995
 20
169.674987793
 30
0.0
 11
175.679999995
 21
169.674987793
 31
0.0
  0
LINE
  8
0
  6
CONTINUOUS
 62
     2
 10
175.679999995
 20
170.199987793
 30
0.0
 11
173.879999995
 21
170.199987793
 31
0.0
  0
LINE
  8
0
  6
CONTINUOUS
 62
     2
 10
173.479999995
 20
170.374987793
 30
0.0
 11
174.079999995
 21
171.074987793
 31
0.0
  0
LINE
  8
0
  6
CONTINUOUS
 62
     2
 10
174.079999995
 20
171.074987793
 30
0.0
 11
174.279999995
 21
171.424987793
 31
0.0
  0
LINE
  8
0
  6
CONTINUOUS
 62
     2
 10
174.279999995
 20
171.424987793
 30
0.0
 11
175.479999995
 21
171.424987793
 31
0.0
  0
LINE
  8
0
  6
CONTINUOUS
 62
     2
 10
175.479999995
 20
171.424987793
 30
0.0
 11
174.879999995
 21
170.899987793
 31
0.0
  0
LINE
  8
0
  6
CONTINUOUS
 62
     2
 10
179.839999986
 20
168.799987793
 30
0.0
 11
180.039999986
 21
168.799987793
 31
0.0
  0
LINE
  8
0
  6
CONTINUOUS
 62
     2
 10
180.039999986
 20
168.799987793
 30
0.0
 11
180.039999986
 21
171.424987793
 31
0.0
  0
LINE
  8
0
  6
CONTINUOUS
 62
     2
 10
180.439999986
 20
170.899987793
 30
0.0
 11
179.639999986
 21
170.899987793
 31
0.0
  0
LINE
  8
0
  6
CONTINUOUS
 62
     2
 10
179.639999986
 20
169.674987793
 30
0.0
 11
180.439999986
 21
170.024987793
 31
0.0
  0
LINE
  8
0
  6
CONTINUOUS
 62
     2
 10
180.839999986
 20
170.199987793
 30
0.0
 11
182.039999986
 21
170.199987793
 31
0.0
  0
LINE
  8
0
  6
CONTINUOUS
 62
     2
 10
182.039999986
 20
170.199987793
 30
0.0
 11
182.039999986
 21
171.249987793
 31
0.0
  0
LINE
  8
0
  6
CONTINUOUS
 62
     2
 10
182.039999986
 20
171.249987793
 30
0.0
 11
180.839999986
 21
171.249987793
 31
0.0
  0
LINE
  8
0
  6
CONTINUOUS
 62
     2
 10
180.839999986
 20
171.249987793
 30
0.0
 11
180.839999986
 21
169.149987793
 31
0.0
  0
LINE
  8
0
  6
CONTINUOUS
 62
     2
 10
180.839999986
 20
169.149987793
 30
0.0
 11
182.039999986
 21
169.149987793
 31
0.0
  0
LINE
  8
0
  6
CONTINUOUS
 62
     2
 10
182.039999986
 20
169.149987793
 30
0.0
 11
182.039999986
 21
170.199987793
 31
0.0
  0
LINE
  8
0
  6
CONTINUOUS
 62
     2
 10
180.639999986
 20
168.799987793
 30
0.0
 11
182.239999986
 21
168.799987793
 31
0.0
  0
LINE
  8
0
  6
CONTINUOUS
 62
     2
 10
161.360000014
 20
164.35
 30
0.0
 11
161.360000014
 21
165.4
 31
0.0
  0
LINE
  8
0
  6
CONTINUOUS
 62
     2
 10
161.360000014
 20
165.4
 30
0.0
 11
161.960000014
 21
165.4
 31
0.0
  0
LINE
  8
0
  6
CONTINUOUS
 62
     2
 10
161.960000014
 20
165.4
 30
0.0
 11
161.960000014
 21
164.35
 31
0.0
  0
LINE
  8
0
  6
CONTINUOUS
 62
     2
 10
161.960000014
 20
164.35
 30
0.0
 11
161.360000014
 21
164.35
 31
0.0
  0
LINE
  8
0
  6
CONTINUOUS
 62
     2
 10
161.160000014
 20
164.7
 30
0.0
 11
161.360000014
 21
165.4
 31
0.0
  0
LINE
  8
0
  6
CONTINUOUS
 62
     2
 10
161.360000014
 20
165.4
 30
0.0
 11
161.560000014
 21
166.45
 31
0.0
  0
LINE
  8
0
  6
CONTINUOUS
 62
     2
 10
161.160000014
 20
166.45
 30
0.0
 11
161.960000014
 21
166.45
 31
0.0
  0
LINE
  8
0
  6
CONTINUOUS
 62
     2
 10
162.160000014
 20
165.925
 30
0.0
 11
162.160000014
 21
166.275
 31
0.0
  0
LINE
  8
0
  6
CONTINUOUS
 62
     2
 10
162.160000014
 20
166.275
 30
0.0
 11
163.760000014
 21
166.275
 31
0.0
  0
LINE
  8
0
  6
CONTINUOUS
 62
     2
 10
163.760000014
 20
166.275
 30
0.0
 11
163.760000014
 21
165.925
 31
0.0
  0
LINE
  8
0
  6
CONTINUOUS
 62
     2
 10
163.760000014
 20
165.575
 30
0.0
 11
162.360000014
 21
165.575
 31
0.0
  0
LINE
  8
0
  6
CONTINUOUS
 62
     2
 10
162.360000014
 20
165.575
 30
0.0
 11
162.360000014
 21
164.0
 31
0.0
  0
LINE
  8
0
  6
CONTINUOUS
 62
     2
 10
162.360000014
 20
164.0
 30
0.0
 11
163.760000014
 21
164.0
 31
0.0
  0
LINE
  8
0
  6
CONTINUOUS
 62
     2
 10
163.760000014
 20
164.525
 30
0.0
 11
162.360000014
 21
164.525
 31
0.0
  0
LINE
  8
0
  6
CONTINUOUS
 62
     2
 10
162.360000014
 20
165.05
 30
0.0
 11
163.760000014
 21
165.05
 31
0.0
  0
LINE
  8
0
  6
CONTINUOUS
 62
     2
 10
163.360000014
 20
166.1
 30
0.0
 11
163.160000014
 21
165.575
 31
0.0
  0
LINE
  8
0
  6
CONTINUOUS
 62
     2
 10
163.160000014
 20
165.575
 30
0.0
 11
163.160000014
 21
164.0
 31
0.0
  0
LINE
  8
0
  6
CONTINUOUS
 62
     2
 10
162.960000014
 20
166.625
 30
0.0
 11
162.760000014
 21
166.275
 31
0.0
  0
LINE
  8
0
  6
CONTINUOUS
 62
     2
 10
162.560000014
 20
166.275
 30
0.0
 11
162.360000014
 21
165.575
 31
0.0
  0
LINE
  8
0
  6
CONTINUOUS
 62
     2
 10
162.360000014
 20
165.575
 30
0.0
 11
162.160000014
 21
165.225
 31
0.0
  0
LINE
  8
0
  6
CONTINUOUS
 62
     2
 10
167.320000005
 20
164.0
 30
0.0
 11
167.520000005
 21
164.35
 31
0.0
  0
LINE
  8
0
  6
CONTINUOUS
 62
     2
 10
167.520000005
 20
164.35
 30
0.0
 11
167.720000005
 21
165.225
 31
0.0
  0
LINE
  8
0
  6
CONTINUOUS
 62
     2
 10
167.720000005
 20
165.225
 30
0.0
 11
167.720000005
 21
166.275
 31
0.0
  0
LINE
  8
0
  6
CONTINUOUS
 62
     2
 10
167.720000005
 20
166.275
 30
0.0
 11
169.920000005
 21
166.275
 31
0.0
  0
LINE
  8
0
  6
CONTINUOUS
 62
     2
 10
168.720000005
 20
166.625
 30
0.0
 11
168.720000005
 21
166.275
 31
0.0
  0
LINE
  8
0
  6
CONTINUOUS
 62
     2
 10
168.320000005
 20
166.275
 30
0.0
 11
168.320000005
 21
165.4
 31
0.0
  0
LINE
  8
0
  6
CONTINUOUS
 62
     2
 10
168.320000005
 20
165.4
 30
0.0
 11
169.320000005
 21
165.4
 31
0.0
  0
LINE
  8
0
  6
CONTINUOUS
 62
     2
 10
169.320000005
 20
165.4
 30
0.0
 11
169.320000005
 21
166.275
 31
0.0
  0
LINE
  8
0
  6
CONTINUOUS
 62
     2
 10
169.720000005
 20
165.925
 30
0.0
 11
167.920000005
 21
165.925
 31
0.0
  0
LINE
  8
0
  6
CONTINUOUS
 62
     2
 10
167.920000005
 20
165.05
 30
0.0
 11
169.720000005
 21
165.05
 31
0.0
  0
LINE
  8
0
  6
CONTINUOUS
 62
     2
 10
169.720000005
 20
165.05
 30
0.0
 11
169.120000005
 21
164.525
 31
0.0
  0
LINE
  8
0
  6
CONTINUOUS
 62
     2
 10
169.120000005
 20
164.525
 30
0.0
 11
168.320000005
 21
164.175
 31
0.0
  0
LINE
  8
0
  6
CONTINUOUS
 62
     2
 10
168.320000005
 20
164.175
 30
0.0
 11
167.920000005
 21
164.0
 31
0.0
  0
LINE
  8
0
  6
CONTINUOUS
 62
     2
 10
168.120000005
 20
165.05
 30
0.0
 11
168.720000005
 21
164.525
 31
0.0
  0
LINE
  8
0
  6
CONTINUOUS
 62
     2
 10
168.720000005
 20
164.525
 30
0.0
 11
169.520000005
 21
164.175
 31
0.0
  0
LINE
  8
0
  6
CONTINUOUS
 62
     2
 10
169.520000005
 20
164.175
 30
0.0
 11
169.920000005
 21
164.0
 31
0.0
  0
LINE
  8
0
  6
CONTINUOUS
 62
     2
 10
173.479999995
 20
164.0
 30
0.0
 11
173.479999995
 21
166.625
 31
0.0
  0
LINE
  8
0
  6
CONTINUOUS
 62
     2
 10
173.479999995
 20
166.625
 30
0.0
 11
174.279999995
 21
166.625
 31
0.0
  0
LINE
  8
0
  6
CONTINUOUS
 62
     2
 10
174.279999995
 20
166.625
 30
0.0
 11
173.879999995
 21
165.925
 31
0.0
  0
LINE
  8
0
  6
CONTINUOUS
 62
     2
 10
173.879999995
 20
165.925
 30
0.0
 11
174.279999995
 21
165.05
 31
0.0
  0
LINE
  8
0
  6
CONTINUOUS
 62
     2
 10
174.279999995
 20
165.05
 30
0.0
 11
174.279999995
 21
164.875
 31
0.0
  0
LINE
  8
0
  6
CONTINUOUS
 62
     2
 10
174.279999995
 20
164.875
 30
0.0
 11
174.079999995
 21
164.7
 31
0.0
  0
LINE
  8
0
  6
CONTINUOUS
 62
     2
 10
174.079999995
 20
164.7
 30
0.0
 11
173.479999995
 21
164.7
 31
0.0
  0
LINE
  8
0
  6
CONTINUOUS
 62
     2
 10
174.479999995
 20
164.525
 30
0.0
 11
175.879999995
 21
164.525
 31
0.0
  0
LINE
  8
0
  6
CONTINUOUS
 62
     2
 10
175.879999995
 20
164.525
 30
0.0
 11
175.879999995
 21
164.0
 31
0.0
  0
LINE
  8
0
  6
CONTINUOUS
 62
     2
 10
175.879999995
 20
164.0
 30
0.0
 11
174.479999995
 21
164.0
 31
0.0
  0
LINE
  8
0
  6
CONTINUOUS
 62
     2
 10
174.479999995
 20
164.0
 30
0.0
 11
174.479999995
 21
165.05
 31
0.0
  0
LINE
  8
0
  6
CONTINUOUS
 62
     2
 10
174.479999995
 20
165.05
 30
0.0
 11
175.879999995
 21
165.05
 31
0.0
  0
LINE
  8
0
  6
CONTINUOUS
 62
     2
 10
175.879999995
 20
165.05
 30
0.0
 11
175.879999995
 21
164.525
 31
0.0
  0
LINE
  8
0
  6
CONTINUOUS
 62
     2
 10
174.879999995
 20
165.05
 30
0.0
 11
175.279999995
 21
165.4
 31
0.0
  0
LINE
  8
0
  6
CONTINUOUS
 62
     2
 10
175.279999995
 20
165.575
 30
0.0
 11
174.479999995
 21
165.4
 31
0.0
  0
LINE
  8
0
  6
CONTINUOUS
 62
     2
 10
174.479999995
 20
165.4
 30
0.0
 11
174.279999995
 21
165.4
 31
0.0
  0
LINE
  8
0
  6
CONTINUOUS
 62
     2
 10
174.479999995
 20
165.4
 30
0.0
 11
174.479999995
 21
166.625
 31
0.0
  0
LINE
  8
0
  6
CONTINUOUS
 62
     2
 10
174.479999995
 20
166.1
 30
0.0
 11
175.279999995
 21
166.1
 31
0.0
  0
LINE
  8
0
  6
CONTINUOUS
 62
     2
 10
175.479999995
 20
166.1
 30
0.0
 11
176.079999995
 21
166.275
 31
0.0
  0
LINE
  8
0
  6
CONTINUOUS
 62
     2
 10
175.479999995
 20
166.625
 30
0.0
 11
175.479999995
 21
165.575
 31
0.0
  0
LINE
  8
0
  6
CONTINUOUS
 62
     2
 10
175.479999995
 20
165.575
 30
0.0
 11
175.679999995
 21
165.4
 31
0.0
  0
LINE
  8
0
  6
CONTINUOUS
 62
     2
 10
175.679999995
 20
165.4
 30
0.0
 11
176.079999995
 21
165.4
 31
0.0
  0
LINE
  8
0
  6
CONTINUOUS
 62
     2
 10
176.079999995
 20
165.4
 30
0.0
 11
176.079999995
 21
165.925
 31
0.0
  0
LINE
  8
0
  6
CONTINUOUS
 62
     2
 10
179.639999986
 20
164.175
 30
0.0
 11
179.839999986
 21
164.875
 31
0.0
  0
LINE
  8
0
  6
CONTINUOUS
 62
     2
 10
180.039999986
 20
165.05
 30
0.0
 11
180.039999986
 21
164.0
 31
0.0
  0
LINE
  8
0
  6
CONTINUOUS
 62
     2
 10
180.439999986
 20
164.175
 30
0.0
 11
180.239999986
 21
164.875
 31
0.0
  0
LINE
  8
0
  6
CONTINUOUS
 62
     2
 10
180.239999986
 20
165.4
 30
0.0
 11
180.439999986
 21
165.05
 31
0.0
  0
LINE
  8
0
  6
CONTINUOUS
 62
     2
 10
180.439999986
 20
165.05
 30
0.0
 11
179.639999986
 21
165.05
 31
0.0
  0
LINE
  8
0
  6
CONTINUOUS
 62
     2
 10
179.639999986
 20
165.05
 30
0.0
 11
180.039999986
 21
165.575
 31
0.0
  0
LINE
  8
0
  6
CONTINUOUS
 62
     2
 10
180.039999986
 20
165.575
 30
0.0
 11
180.239999986
 21
166.1
 31
0.0
  0
LINE
  8
0
  6
CONTINUOUS
 62
     2
 10
180.039999986
 20
165.575
 30
0.0
 11
179.639999986
 21
166.1
 31
0.0
  0
LINE
  8
0
  6
CONTINUOUS
 62
     2
 10
179.639999986
 20
166.1
 30
0.0
 11
180.039999986
 21
166.625
 31
0.0
  0
LINE
  8
0
  6
CONTINUOUS
 62
     2
 10
180.639999986
 20
166.45
 30
0.0
 11
181.839999986
 21
166.45
 31
0.0
  0
LINE
  8
0
  6
CONTINUOUS
 62
     2
 10
181.839999986
 20
166.45
 30
0.0
 11
181.639999986
 21
165.575
 31
0.0
  0
LINE
  8
0
  6
CONTINUOUS
 62
     2
 10
181.639999986
 20
165.575
 30
0.0
 11
182.039999986
 21
165.575
 31
0.0
  0
LINE
  8
0
  6
CONTINUOUS
 62
     2
 10
182.039999986
 20
165.575
 30
0.0
 11
181.839999986
 21
164.7
 31
0.0
  0
LINE
  8
0
  6
CONTINUOUS
 62
     2
 10
181.839999986
 20
164.7
 30
0.0
 11
181.639999986
 21
164.35
 31
0.0
  0
LINE
  8
0
  6
CONTINUOUS
 62
     2
 10
181.639999986
 20
164.35
 30
0.0
 11
181.039999986
 21
164.0
 31
0.0
  0
LINE
  8
0
  6
CONTINUOUS
 62
     2
 10
180.439999986
 20
164.0
 30
0.0
 11
180.639999986
 21
164.7
 31
0.0
  0
LINE
  8
0
  6
CONTINUOUS
 62
     2
 10
180.639999986
 20
164.7
 30
0.0
 11
180.839999986
 21
165.575
 31
0.0
  0
LINE
  8
0
  6
CONTINUOUS
 62
     2
 10
180.839999986
 20
165.575
 30
0.0
 11
180.839999986
 21
166.45
 31
0.0
  0
LINE
  8
0
  6
CONTINUOUS
 62
     2
 10
180.839999986
 20
165.575
 30
0.0
 11
181.039999986
 21
165.05
 31
0.0
  0
LINE
  8
0
  6
CONTINUOUS
 62
     2
 10
181.039999986
 20
165.05
 30
0.0
 11
181.639999986
 21
164.525
 31
0.0
  0
LINE
  8
0
  6
CONTINUOUS
 62
     2
 10
181.639999986
 20
164.525
 30
0.0
 11
182.239999986
 21
164.0
 31
0.0
  0
LINE
  8
0
  6
CONTINUOUS
 62
     2
 10
161.160000014
 20
160.425
 30
0.0
 11
163.760000014
 21
160.425
 31
0.0
  0
LINE
  8
0
  6
CONTINUOUS
 62
     2
 10
167.320000005
 20
159.2
 30
0.0
 11
167.920000005
 21
160.25
 31
0.0
  0
LINE
  8
0
  6
CONTINUOUS
 62
     2
 10
167.920000005
 20
161.3
 30
0.0
 11
167.320000005
 21
161.825
 31
0.0
  0
LINE
  8
0
  6
CONTINUOUS
 62
     2
 10
168.720000005
 20
161.825
 30
0.0
 11
168.320000005
 21
160.6
 31
0.0
  0
LINE
  8
0
  6
CONTINUOUS
 62
     2
 10
168.520000005
 20
161.3
 30
0.0
 11
169.920000005
 21
161.3
 31
0.0
  0
LINE
  8
0
  6
CONTINUOUS
 62
     2
 10
169.920000005
 20
161.3
 30
0.0
 11
169.720000005
 21
160.6
 31
0.0
  0
LINE
  8
0
  6
CONTINUOUS
 62
     2
 10
169.120000005
 20
161.3
 30
0.0
 11
169.120000005
 21
160.6
 31
0.0
  0
LINE
  8
0
  6
CONTINUOUS
 62
     2
 10
169.120000005
 20
160.6
 30
0.0
 11
168.720000005
 21
159.9
 31
0.0
  0
LINE
  8
0
  6
CONTINUOUS
 62
     2
 10
168.720000005
 20
159.9
 30
0.0
 11
168.320000005
 21
159.2
 31
0.0
  0
LINE
  8
0
  6
CONTINUOUS
 62
     2
 10
169.120000005
 20
160.6
 30
0.0
 11
169.320000005
 21
160.075
 31
0.0
  0
LINE
  8
0
  6
CONTINUOUS
 62
     2
 10
169.320000005
 20
160.075
 30
0.0
 11
169.520000005
 21
159.725
 31
0.0
  0
LINE
  8
0
  6
CONTINUOUS
 62
     2
 10
169.520000005
 20
159.725
 30
0.0
 11
169.920000005
 21
159.2
 31
0.0
  0
LINE
  8
0
  6
CONTINUOUS
 62
     2
 10
173.879999995
 20
159.9
 30
0.0
 11
173.879999995
 21
159.55
 31
0.0
  0
LINE
  8
0
  6
CONTINUOUS
 62
     2
 10
173.879999995
 20
159.55
 30
0.0
 11
175.679999995
 21
159.55
 31
0.0
  0
LINE
  8
0
  6
CONTINUOUS
 62
     2
 10
175.679999995
 20
159.55
 30
0.0
 11
175.679999995
 21
160.25
 31
0.0
  0
LINE
  8
0
  6
CONTINUOUS
 62
     2
 10
175.679999995
 20
160.25
 30
0.0
 11
173.879999995
 21
160.25
 31
0.0
  0
LINE
  8
0
  6
CONTINUOUS
 62
     2
 10
173.879999995
 20
160.25
 30
0.0
 11
173.879999995
 21
159.9
 31
0.0
  0
LINE
  8
0
  6
CONTINUOUS
 62
     2
 10
173.879999995
 20
159.9
 30
0.0
 11
175.679999995
 21
159.9
 31
0.0
  0
LINE
  8
0
  6
CONTINUOUS
 62
     2
 10
176.079999995
 20
159.55
 30
0.0
 11
175.879999995
 21
159.2
 31
0.0
  0
LINE
  8
0
  6
CONTINUOUS
 62
     2
 10
175.879999995
 20
159.2
 30
0.0
 11
174.879999995
 21
159.2
 31
0.0
  0
LINE
  8
0
  6
CONTINUOUS
 62
     2
 10
174.879999995
 20
159.2
 30
0.0
 11
174.679999995
 21
159.375
 31
0.0
  0
LINE
  8
0
  6
CONTINUOUS
 62
     2
 10
174.679999995
 20
159.375
 30
0.0
 11
174.679999995
 21
160.25
 31
0.0
  0
LINE
  8
0
  6
CONTINUOUS
 62
     2
 10
174.679999995
 20
160.6
 30
0.0
 11
174.679999995
 21
161.825
 31
0.0
  0
LINE
  8
0
  6
CONTINUOUS
 62
     2
 10
175.879999995
 20
161.825
 30
0.0
 11
173.679999995
 21
161.825
 31
0.0
  0
LINE
  8
0
  6
CONTINUOUS
 62
     2
 10
173.479999995
 20
160.775
 30
0.0
 11
173.479999995
 21
161.475
 31
0.0
  0
LINE
  8
0
  6
CONTINUOUS
 62
     2
 10
173.479999995
 20
161.475
 30
0.0
 11
176.079999995
 21
161.475
 31
0.0
  0
LINE
  8
0
  6
CONTINUOUS
 62
     2
 10
176.079999995
 20
161.475
 30
0.0
 11
176.079999995
 21
160.775
 31
0.0
  0
LINE
  8
0
  6
CONTINUOUS
 62
     2
 10
175.879999995
 20
161.125
 30
0.0
 11
174.879999995
 21
161.125
 31
0.0
  0
LINE
  8
0
  6
CONTINUOUS
 62
     2
 10
174.479999995
 20
161.125
 30
0.0
 11
173.679999995
 21
161.125
 31
0.0
  0
LINE
  8
0
  6
CONTINUOUS
 62
     2
 10
173.679999995
 20
160.6
 30
0.0
 11
174.479999995
 21
160.6
 31
0.0
  0
LINE
  8
0
  6
CONTINUOUS
 62
     2
 10
174.879999995
 20
160.6
 30
0.0
 11
175.879999995
 21
160.6
 31
0.0
  0
LINE
  8
0
  6
CONTINUOUS
 62
     2
 10
179.639999986
 20
159.2
 30
0.0
 11
180.239999986
 21
160.25
 31
0.0
  0
LINE
  8
0
  6
CONTINUOUS
 62
     2
 10
180.239999986
 20
160.6
 30
0.0
 11
179.639999986
 21
161.125
 31
0.0
  0
LINE
  8
0
  6
CONTINUOUS
 62
     2
 10
179.639999986
 20
161.825
 30
0.0
 11
180.239999986
 21
161.3
 31
0.0
  0
LINE
  8
0
  6
CONTINUOUS
 62
     2
 10
180.439999986
 20
161.475
 30
0.0
 11
182.239999986
 21
161.475
 31
0.0
  0
LINE
  8
0
  6
CONTINUOUS
 62
     2
 10
181.439999986
 20
161.825
 30
0.0
 11
181.439999986
 21
161.475
 31
0.0
  0
LINE
  8
0
  6
CONTINUOUS
 62
     2
 10
181.439999986
 20
161.475
 30
0.0
 11
180.639999986
 21
160.6
 31
0.0
  0
LINE
  8
0
  6
CONTINUOUS
 62
     2
 10
180.639999986
 20
160.6
 30
0.0
 11
182.039999986
 21
160.6
 31
0.0
  0
LINE
  8
0
  6
CONTINUOUS
 62
     2
 10
181.839999986
 20
160.775
 30
0.0
 11
182.239999986
 21
160.425
 31
0.0
  0
LINE
  8
0
  6
CONTINUOUS
 62
     2
 10
180.839999986
 20
160.425
 30
0.0
 11
180.639999986
 21
159.55
 31
0.0
  0
LINE
  8
0
  6
CONTINUOUS
 62
     2
 10
180.639999986
 20
159.55
 30
0.0
 11
180.439999986
 21
159.2
 31
0.0
  0
LINE
  8
0
  6
CONTINUOUS
 62
     2
 10
181.439999986
 20
159.2
 30
0.0
 11
181.439999986
 21
160.425
 31
0.0
  0
LINE
  8
0
  6
CONTINUOUS
 62
     2
 10
181.839999986
 20
160.425
 30
0.0
 11
181.839999986
 21
159.375
 31
0.0
  0
LINE
  8
0
  6
CONTINUOUS
 62
     2
 10
181.839999986
 20
159.375
 30
0.0
 11
182.039999986
 21
159.2
 31
0.0
  0
LINE
  8
0
  6
CONTINUOUS
 62
     2
 10
182.039999986
 20
159.2
 30
0.0
 11
182.239999986
 21
159.2
 31
0.0
  0
LINE
  8
0
  6
CONTINUOUS
 62
     2
 10
182.239999986
 20
159.2
 30
0.0
 11
182.239999986
 21
159.55
 31
0.0
  0
LINE
  8
0
  6
CONTINUOUS
 62
     2
 10
161.160000014
 20
154.575
 30
0.0
 11
163.760000014
 21
154.575
 31
0.0
  0
LINE
  8
0
  6
CONTINUOUS
 62
     2
 10
161.560000014
 20
156.15
 30
0.0
 11
163.360000014
 21
156.15
 31
0.0
  0
LINE
  8
0
  6
CONTINUOUS
 62
     2
 10
167.320000005
 20
154.4
 30
0.0
 11
167.920000005
 21
155.45
 31
0.0
  0
LINE
  8
0
  6
CONTINUOUS
 62
     2
 10
167.920000005
 20
156.5
 30
0.0
 11
167.320000005
 21
157.025
 31
0.0
  0
LINE
  8
0
  6
CONTINUOUS
 62
     2
 10
168.720000005
 20
157.025
 30
0.0
 11
168.320000005
 21
155.8
 31
0.0
  0
LINE
  8
0
  6
CONTINUOUS
 62
     2
 10
168.520000005
 20
156.5
 30
0.0
 11
169.920000005
 21
156.5
 31
0.0
  0
LINE
  8
0
  6
CONTINUOUS
 62
     2
 10
169.920000005
 20
156.5
 30
0.0
 11
169.720000005
 21
155.8
 31
0.0
  0
LINE
  8
0
  6
CONTINUOUS
 62
     2
 10
169.120000005
 20
156.5
 30
0.0
 11
169.120000005
 21
155.8
 31
0.0
  0
LINE
  8
0
  6
CONTINUOUS
 62
     2
 10
169.120000005
 20
155.8
 30
0.0
 11
168.720000005
 21
155.1
 31
0.0
  0
LINE
  8
0
  6
CONTINUOUS
 62
     2
 10
168.720000005
 20
155.1
 30
0.0
 11
168.320000005
 21
154.4
 31
0.0
  0
LINE
  8
0
  6
CONTINUOUS
 62
     2
 10
169.120000005
 20
155.8
 30
0.0
 11
169.320000005
 21
155.275
 31
0.0
  0
LINE
  8
0
  6
CONTINUOUS
 62
     2
 10
169.320000005
 20
155.275
 30
0.0
 11
169.520000005
 21
154.925
 31
0.0
  0
LINE
  8
0
  6
CONTINUOUS
 62
     2
 10
169.520000005
 20
154.925
 30
0.0
 11
169.920000005
 21
154.4
 31
0.0
  0
LINE
  8
0
  6
CONTINUOUS
 62
     2
 10
173.879999995
 20
155.1
 30
0.0
 11
173.879999995
 21
154.75
 31
0.0
  0
LINE
  8
0
  6
CONTINUOUS
 62
     2
 10
173.879999995
 20
154.75
 30
0.0
 11
175.679999995
 21
154.75
 31
0.0
  0
LINE
  8
0
  6
CONTINUOUS
 62
     2
 10
175.679999995
 20
154.75
 30
0.0
 11
175.679999995
 21
155.45
 31
0.0
  0
LINE
  8
0
  6
CONTINUOUS
 62
     2
 10
175.679999995
 20
155.45
 30
0.0
 11
173.879999995
 21
155.45
 31
0.0
  0
LINE
  8
0
  6
CONTINUOUS
 62
     2
 10
173.879999995
 20
155.45
 30
0.0
 11
173.879999995
 21
155.1
 31
0.0
  0
LINE
  8
0
  6
CONTINUOUS
 62
     2
 10
173.879999995
 20
155.1
 30
0.0
 11
175.679999995
 21
155.1
 31
0.0
  0
LINE
  8
0
  6
CONTINUOUS
 62
     2
 10
176.079999995
 20
154.75
 30
0.0
 11
175.879999995
 21
154.4
 31
0.0
  0
LINE
  8
0
  6
CONTINUOUS
 62
     2
 10
175.879999995
 20
154.4
 30
0.0
 11
174.879999995
 21
154.4
 31
0.0
  0
LINE
  8
0
  6
CONTINUOUS
 62
     2
 10
174.879999995
 20
154.4
 30
0.0
 11
174.679999995
 21
154.575
 31
0.0
  0
LINE
  8
0
  6
CONTINUOUS
 62
     2
 10
174.679999995
 20
154.575
 30
0.0
 11
174.679999995
 21
155.45
 31
0.0
  0
LINE
  8
0
  6
CONTINUOUS
 62
     2
 10
174.679999995
 20
155.8
 30
0.0
 11
174.679999995
 21
157.025
 31
0.0
  0
LINE
  8
0
  6
CONTINUOUS
 62
     2
 10
175.879999995
 20
157.025
 30
0.0
 11
173.679999995
 21
157.025
 31
0.0
  0
LINE
  8
0
  6
CONTINUOUS
 62
     2
 10
173.479999995
 20
155.975
 30
0.0
 11
173.479999995
 21
156.675
 31
0.0
  0
LINE
  8
0
  6
CONTINUOUS
 62
     2
 10
173.479999995
 20
156.675
 30
0.0
 11
176.079999995
 21
156.675
 31
0.0
  0
LINE
  8
0
  6
CONTINUOUS
 62
     2
 10
176.079999995
 20
156.675
 30
0.0
 11
176.079999995
 21
155.975
 31
0.0
  0
LINE
  8
0
  6
CONTINUOUS
 62
     2
 10
175.879999995
 20
156.325
 30
0.0
 11
174.879999995
 21
156.325
 31
0.0
  0
LINE
  8
0
  6
CONTINUOUS
 62
     2
 10
174.479999995
 20
156.325
 30
0.0
 11
173.679999995
 21
156.325
 31
0.0
  0
LINE
  8
0
  6
CONTINUOUS
 62
     2
 10
173.679999995
 20
155.8
 30
0.0
 11
174.479999995
 21
155.8
 31
0.0
  0
LINE
  8
0
  6
CONTINUOUS
 62
     2
 10
174.879999995
 20
155.8
 30
0.0
 11
175.879999995
 21
155.8
 31
0.0
  0
LINE
  8
0
  6
CONTINUOUS
 62
     2
 10
179.639999986
 20
154.4
 30
0.0
 11
180.239999986
 21
155.45
 31
0.0
  0
LINE
  8
0
  6
CONTINUOUS
 62
     2
 10
180.239999986
 20
155.8
 30
0.0
 11
179.639999986
 21
156.325
 31
0.0
  0
LINE
  8
0
  6
CONTINUOUS
 62
     2
 10
179.639999986
 20
157.025
 30
0.0
 11
180.239999986
 21
156.5
 31
0.0
  0
LINE
  8
0
  6
CONTINUOUS
 62
     2
 10
180.439999986
 20
156.675
 30
0.0
 11
182.239999986
 21
156.675
 31
0.0
  0
LINE
  8
0
  6
CONTINUOUS
 62
     2
 10
181.439999986
 20
157.025
 30
0.0
 11
181.439999986
 21
156.675
 31
0.0
  0
LINE
  8
0
  6
CONTINUOUS
 62
     2
 10
181.439999986
 20
156.675
 30
0.0
 11
180.639999986
 21
155.8
 31
0.0
  0
LINE
  8
0
  6
CONTINUOUS
 62
     2
 10
180.639999986
 20
155.8
 30
0.0
 11
182.039999986
 21
155.8
 31
0.0
  0
LINE
  8
0
  6
CONTINUOUS
 62
     2
 10
181.839999986
 20
155.975
 30
0.0
 11
182.239999986
 21
155.625
 31
0.0
  0
LINE
  8
0
  6
CONTINUOUS
 62
     2
 10
180.839999986
 20
155.625
 30
0.0
 11
180.639999986
 21
154.75
 31
0.0
  0
LINE
  8
0
  6
CONTINUOUS
 62
     2
 10
180.639999986
 20
154.75
 30
0.0
 11
180.439999986
 21
154.4
 31
0.0
  0
LINE
  8
0
  6
CONTINUOUS
 62
     2
 10
181.439999986
 20
154.4
 30
0.0
 11
181.439999986
 21
155.625
 31
0.0
  0
LINE
  8
0
  6
CONTINUOUS
 62
     2
 10
181.839999986
 20
155.625
 30
0.0
 11
181.839999986
 21
154.575
 31
0.0
  0
LINE
  8
0
  6
CONTINUOUS
 62
     2
 10
181.839999986
 20
154.575
 30
0.0
 11
182.039999986
 21
154.4
 31
0.0
  0
LINE
  8
0
  6
CONTINUOUS
 62
     2
 10
182.039999986
 20
154.4
 30
0.0
 11
182.239999986
 21
154.4
 31
0.0
  0
LINE
  8
0
  6
CONTINUOUS
 62
     2
 10
182.239999986
 20
154.4
 30
0.0
 11
182.239999986
 21
154.75
 31
0.0
  0
LINE
  8
0
  6
CONTINUOUS
 62
     2
 10
161.160000014
 20
149.6
 30
0.0
 11
161.360000014
 21
150.3
 31
0.0
  0
LINE
  8
0
  6
CONTINUOUS
 62
     2
 10
161.360000014
 20
150.3
 30
0.0
 11
161.360000014
 21
152.05
 31
0.0
  0
LINE
  8
0
  6
CONTINUOUS
 62
     2
 10
161.360000014
 20
152.05
 30
0.0
 11
163.560000014
 21
152.05
 31
0.0
  0
LINE
  8
0
  6
CONTINUOUS
 62
     2
 10
163.560000014
 20
152.05
 30
0.0
 11
163.560000014
 21
149.6
 31
0.0
  0
LINE
  8
0
  6
CONTINUOUS
 62
     2
 10
163.560000014
 20
149.6
 30
0.0
 11
163.360000014
 21
149.6
 31
0.0
  0
LINE
  8
0
  6
CONTINUOUS
 62
     2
 10
163.160000014
 20
150.475
 30
0.0
 11
161.760000014
 21
150.475
 31
0.0
  0
LINE
  8
0
  6
CONTINUOUS
 62
     2
 10
161.760000014
 20
150.475
 30
0.0
 11
161.760000014
 21
149.95
 31
0.0
  0
LINE
  8
0
  6
CONTINUOUS
 62
     2
 10
161.760000014
 20
149.95
 30
0.0
 11
163.160000014
 21
149.95
 31
0.0
  0
LINE
  8
0
  6
CONTINUOUS
 62
     2
 10
163.160000014
 20
149.95
 30
0.0
 11
163.160000014
 21
150.475
 31
0.0
  0
LINE
  8
0
  6
CONTINUOUS
 62
     2
 10
163.360000014
 20
150.825
 30
0.0
 11
161.560000014
 21
150.825
 31
0.0
  0
LINE
  8
0
  6
CONTINUOUS
 62
     2
 10
162.360000014
 20
150.825
 30
0.0
 11
162.360000014
 21
151.875
 31
0.0
  0
LINE
  8
0
  6
CONTINUOUS
 62
     2
 10
163.160000014
 20
151.525
 30
0.0
 11
161.760000014
 21
151.525
 31
0.0
  0
LINE
  8
0
  6
CONTINUOUS
 62
     2
 10
170.4
 20
149.6
 30
0.0
 11
171.0
 21
150.65
 31
0.0
  0
LINE
  8
0
  6
CONTINUOUS
 62
     2
 10
171.0
 20
151.0
 30
0.0
 11
170.4
 21
151.525
 31
0.0
  0
LINE
  8
0
  6
CONTINUOUS
 62
     2
 10
170.4
 20
152.225
 30
0.0
 11
171.0
 21
151.7
 31
0.0
  0
LINE
  8
0
  6
CONTINUOUS
 62
     2
 10
172.2
 20
152.225
 30
0.0
 11
172.2
 21
151.0
 31
0.0
  0
LINE
  8
0
  6
CONTINUOUS
 62
     2
 10
172.8
 20
151.525
 30
0.0
 11
173.0
 21
151.875
 31
0.0
  0
LINE
  8
0
  6
CONTINUOUS
 62
     2
 10
173.0
 20
151.875
 30
0.0
 11
171.4
 21
151.875
 31
0.0
  0
LINE
  8
0
  6
CONTINUOUS
 62
     2
 10
171.4
 20
151.875
 30
0.0
 11
171.4
 21
150.65
 31
0.0
  0
LINE
  8
0
  6
CONTINUOUS
 62
     2
 10
171.4
 20
150.65
 30
0.0
 11
171.2
 21
149.6
 31
0.0
  0
LINE
  8
0
  6
CONTINUOUS
 62
     2
 10
171.8
 20
149.6
 30
0.0
 11
172.4
 21
150.125
 31
0.0
  0
LINE
  8
0
  6
CONTINUOUS
 62
     2
 10
172.4
 20
150.125
 30
0.0
 11
172.6
 21
150.475
 31
0.0
  0
LINE
  8
0
  6
CONTINUOUS
 62
     2
 10
172.6
 20
150.475
 30
0.0
 11
172.8
 21
151.0
 31
0.0
  0
LINE
  8
0
  6
CONTINUOUS
 62
     2
 10
172.8
 20
151.0
 30
0.0
 11
171.4
 21
151.0
 31
0.0
  0
LINE
  8
0
  6
CONTINUOUS
 62
     2
 10
171.4
 20
151.0
 30
0.0
 11
171.8
 21
150.475
 31
0.0
  0
LINE
  8
0
  6
CONTINUOUS
 62
     2
 10
171.8
 20
150.475
 30
0.0
 11
173.0
 21
149.6
 31
0.0
  0
LINE
  8
0
  6
CONTINUOUS
 62
     2
 10
179.639999986
 20
149.6
 30
0.0
 11
180.239999986
 21
149.775
 31
0.0
  0
LINE
  8
0
  6
CONTINUOUS
 62
     2
 10
180.239999986
 20
149.775
 30
0.0
 11
180.439999986
 21
149.95
 31
0.0
  0
LINE
  8
0
  6
CONTINUOUS
 62
     2
 10
180.439999986
 20
149.95
 30
0.0
 11
180.639999986
 21
150.475
 31
0.0
  0
LINE
  8
0
  6
CONTINUOUS
 62
     2
 10
180.839999986
 20
150.475
 30
0.0
 11
179.639999986
 21
150.475
 31
0.0
  0
LINE
  8
0
  6
CONTINUOUS
 62
     2
 10
180.239999986
 20
150.825
 30
0.0
 11
179.839999986
 21
150.125
 31
0.0
  0
LINE
  8
0
  6
CONTINUOUS
 62
     2
 10
179.839999986
 20
150.125
 30
0.0
 11
180.639999986
 21
149.775
 31
0.0
  0
LINE
  8
0
  6
CONTINUOUS
 62
     2
 10
180.839999986
 20
149.6
 30
0.0
 11
181.639999986
 21
150.125
 31
0.0
  0
LINE
  8
0
  6
CONTINUOUS
 62
     2
 10
181.639999986
 20
150.125
 30
0.0
 11
181.839999986
 21
150.475
 31
0.0
  0
LINE
  8
0
  6
CONTINUOUS
 62
     2
 10
181.839999986
 20
150.475
 30
0.0
 11
182.039999986
 21
151.175
 31
0.0
  0
LINE
  8
0
  6
CONTINUOUS
 62
     2
 10
182.039999986
 20
151.175
 30
0.0
 11
182.039999986
 21
151.7
 31
0.0
  0
LINE
  8
0
  6
CONTINUOUS
 62
     2
 10
182.239999986
 20
151.7
 30
0.0
 11
181.039999986
 21
151.7
 31
0.0
  0
LINE
  8
0
  6
CONTINUOUS
 62
     2
 10
180.839999986
 20
151.7
 30
0.0
 11
179.639999986
 21
151.7
 31
0.0
  0
LINE
  8
0
  6
CONTINUOUS
 62
     2
 10
179.639999986
 20
152.05
 30
0.0
 11
180.039999986
 21
151.7
 31
0.0
  0
LINE
  8
0
  6
CONTINUOUS
 62
     2
 10
180.439999986
 20
151.7
 30
0.0
 11
180.839999986
 21
152.05
 31
0.0
  0
LINE
  8
0
  6
CONTINUOUS
 62
     2
 10
180.239999986
 20
152.225
 30
0.0
 11
180.239999986
 21
151.0
 31
0.0
  0
LINE
  8
0
  6
CONTINUOUS
 62
     2
 10
179.639999986
 20
151.0
 30
0.0
 11
180.039999986
 21
151.175
 31
0.0
  0
LINE
  8
0
  6
CONTINUOUS
 62
     2
 10
180.039999986
 20
151.175
 30
0.0
 11
180.239999986
 21
151.7
 31
0.0
  0
LINE
  8
0
  6
CONTINUOUS
 62
     2
 10
180.239999986
 20
151.7
 30
0.0
 11
180.839999986
 21
151.0
 31
0.0
  0
LINE
  8
0
  6
CONTINUOUS
 62
     2
 10
180.839999986
 20
151.0
 30
0.0
 11
181.439999986
 21
152.225
 31
0.0
  0
LINE
  8
0
  6
CONTINUOUS
 62
     2
 10
182.039999986
 20
149.775
 30
0.0
 11
182.239999986
 21
149.6
 31
0.0
  0
LINE
  8
0
  6
CONTINUOUS
 62
     2
 10
181.039999986
 20
151.175
 30
0.0
 11
181.439999986
 21
150.475
 31
0.0
  0
LINE
  8
0
  6
CONTINUOUS
 62
     2
 10
181.439999986
 20
150.475
 30
0.0
 11
182.039999986
 21
149.775
 31
0.0
  0
LINE
  8
0
  6
CONTINUOUS
 62
     2
 10
161.160000014
 20
144.975
 30
0.0
 11
161.360000014
 21
145.675
 31
0.0
  0
LINE
  8
0
  6
CONTINUOUS
 62
     2
 10
161.560000014
 20
145.85
 30
0.0
 11
161.560000014
 21
144.8
 31
0.0
  0
LINE
  8
0
  6
CONTINUOUS
 62
     2
 10
161.960000014
 20
144.975
 30
0.0
 11
161.760000014
 21
145.675
 31
0.0
  0
LINE
  8
0
  6
CONTINUOUS
 62
     2
 10
161.760000014
 20
146.2
 30
0.0
 11
161.960000014
 21
145.85
 31
0.0
  0
LINE
  8
0
  6
CONTINUOUS
 62
     2
 10
161.960000014
 20
145.85
 30
0.0
 11
161.160000014
 21
145.85
 31
0.0
  0
LINE
  8
0
  6
CONTINUOUS
 62
     2
 10
161.160000014
 20
145.85
 30
0.0
 11
161.560000014
 21
146.375
 31
0.0
  0
LINE
  8
0
  6
CONTINUOUS
 62
     2
 10
161.560000014
 20
146.375
 30
0.0
 11
161.760000014
 21
146.9
 31
0.0
  0
LINE
  8
0
  6
CONTINUOUS
 62
     2
 10
161.560000014
 20
146.375
 30
0.0
 11
161.160000014
 21
146.9
 31
0.0
  0
LINE
  8
0
  6
CONTINUOUS
 62
     2
 10
161.160000014
 20
146.9
 30
0.0
 11
161.560000014
 21
147.425
 31
0.0
  0
LINE
  8
0
  6
CONTINUOUS
 62
     2
 10
161.960000014
 20
146.375
 30
0.0
 11
162.160000014
 21
146.725
 31
0.0
  0
LINE
  8
0
  6
CONTINUOUS
 62
     2
 10
162.160000014
 20
146.725
 30
0.0
 11
162.360000014
 21
147.425
 31
0.0
  0
LINE
  8
0
  6
CONTINUOUS
 62
     2
 10
162.360000014
 20
147.425
 30
0.0
 11
163.360000014
 21
147.425
 31
0.0
  0
LINE
  8
0
  6
CONTINUOUS
 62
     2
 10
163.360000014
 20
147.425
 30
0.0
 11
162.960000014
 21
146.725
 31
0.0
  0
LINE
  8
0
  6
CONTINUOUS
 62
     2
 10
162.960000014
 20
146.725
 30
0.0
 11
162.960000014
 21
145.85
 31
0.0
  0
LINE
  8
0
  6
CONTINUOUS
 62
     2
 10
162.160000014
 20
145.85
 30
0.0
 11
163.560000014
 21
145.85
 31
0.0
  0
LINE
  8
0
  6
CONTINUOUS
 62
     2
 10
163.560000014
 20
145.85
 30
0.0
 11
163.560000014
 21
146.725
 31
0.0
  0
LINE
  8
0
  6
CONTINUOUS
 62
     2
 10
163.560000014
 20
146.725
 30
0.0
 11
162.160000014
 21
146.725
 31
0.0
  0
LINE
  8
0
  6
CONTINUOUS
 62
     2
 10
162.160000014
 20
146.725
 30
0.0
 11
162.160000014
 21
144.975
 31
0.0
  0
LINE
  8
0
  6
CONTINUOUS
 62
     2
 10
162.160000014
 20
144.975
 30
0.0
 11
162.360000014
 21
144.8
 31
0.0
  0
LINE
  8
0
  6
CONTINUOUS
 62
     2
 10
162.360000014
 20
144.8
 30
0.0
 11
163.760000014
 21
144.8
 31
0.0
  0
LINE
  8
0
  6
CONTINUOUS
 62
     2
 10
163.760000014
 20
144.8
 30
0.0
 11
163.760000014
 21
145.15
 31
0.0
  0
LINE
  8
0
  6
CONTINUOUS
 62
     2
 10
167.320000005
 20
144.975
 30
0.0
 11
167.520000005
 21
145.325
 31
0.0
  0
LINE
  8
0
  6
CONTINUOUS
 62
     2
 10
167.520000005
 20
145.325
 30
0.0
 11
167.720000005
 21
145.85
 31
0.0
  0
LINE
  8
0
  6
CONTINUOUS
 62
     2
 10
167.920000005
 20
146.025
 30
0.0
 11
167.920000005
 21
144.8
 31
0.0
  0
LINE
  8
0
  6
CONTINUOUS
 62
     2
 10
168.320000005
 20
145.15
 30
0.0
 11
168.120000005
 21
145.85
 31
0.0
  0
LINE
  8
0
  6
CONTINUOUS
 62
     2
 10
168.120000005
 20
146.375
 30
0.0
 11
168.320000005
 21
146.025
 31
0.0
  0
LINE
  8
0
  6
CONTINUOUS
 62
     2
 10
168.320000005
 20
146.025
 30
0.0
 11
167.320000005
 21
146.025
 31
0.0
  0
LINE
  8
0
  6
CONTINUOUS
 62
     2
 10
167.320000005
 20
146.025
 30
0.0
 11
168.320000005
 21
147.075
 31
0.0
  0
LINE
  8
0
  6
CONTINUOUS
 62
     2
 10
167.920000005
 20
146.725
 30
0.0
 11
167.320000005
 21
146.9
 31
0.0
  0
LINE
  8
0
  6
CONTINUOUS
 62
     2
 10
167.320000005
 20
146.9
 30
0.0
 11
167.920000005
 21
147.425
 31
0.0
  0
LINE
  8
0
  6
CONTINUOUS
 62
     2
 10
168.520000005
 20
147.25
 30
0.0
 11
169.720000005
 21
147.25
 31
0.0
  0
LINE
  8
0
  6
CONTINUOUS
 62
     2
 10
169.720000005
 20
147.25
 30
0.0
 11
169.720000005
 21
146.375
 31
0.0
  0
LINE
  8
0
  6
CONTINUOUS
 62
     2
 10
169.920000005
 20
146.375
 30
0.0
 11
168.320000005
 21
146.375
 31
0.0
  0
LINE
  8
0
  6
CONTINUOUS
 62
     2
 10
168.520000005
 20
146.9
 30
0.0
 11
169.720000005
 21
146.9
 31
0.0
  0
LINE
  8
0
  6
CONTINUOUS
 62
     2
 10
169.320000005
 20
146.375
 30
0.0
 11
169.120000005
 21
146.2
 31
0.0
  0
LINE
  8
0
  6
CONTINUOUS
 62
     2
 10
169.120000005
 20
146.2
 30
0.0
 11
168.520000005
 21
146.025
 31
0.0
  0
LINE
  8
0
  6
CONTINUOUS
 62
     2
 10
168.520000005
 20
145.5
 30
0.0
 11
169.120000005
 21
145.675
 31
0.0
  0
LINE
  8
0
  6
CONTINUOUS
 62
     2
 10
169.120000005
 20
145.675
 30
0.0
 11
169.320000005
 21
145.85
 31
0.0
  0
LINE
  8
0
  6
CONTINUOUS
 62
     2
 10
169.320000005
 20
145.5
 30
0.0
 11
169.120000005
 21
145.325
 31
0.0
  0
LINE
  8
0
  6
CONTINUOUS
 62
     2
 10
169.120000005
 20
145.325
 30
0.0
 11
168.520000005
 21
145.15
 31
0.0
  0
LINE
  8
0
  6
CONTINUOUS
 62
     2
 10
168.720000005
 20
144.8
 30
0.0
 11
169.120000005
 21
144.8
 31
0.0
  0
LINE
  8
0
  6
CONTINUOUS
 62
     2
 10
169.120000005
 20
144.8
 30
0.0
 11
169.320000005
 21
145.15
 31
0.0
  0
LINE
  8
0
  6
CONTINUOUS
 62
     2
 10
169.320000005
 20
145.15
 30
0.0
 11
169.320000005
 21
146.025
 31
0.0
  0
LINE
  8
0
  6
CONTINUOUS
 62
     2
 10
169.320000005
 20
146.025
 30
0.0
 11
169.120000005
 21
146.2
 31
0.0
  0
LINE
  8
0
  6
CONTINUOUS
 62
     2
 10
169.920000005
 20
145.85
 30
0.0
 11
169.520000005
 21
145.675
 31
0.0
  0
LINE
  8
0
  6
CONTINUOUS
 62
     2
 10
169.320000005
 20
145.85
 30
0.0
 11
169.520000005
 21
145.5
 31
0.0
  0
LINE
  8
0
  6
CONTINUOUS
 62
     2
 10
169.520000005
 20
145.5
 30
0.0
 11
169.920000005
 21
144.975
 31
0.0
  0
LINE
  8
0
  6
CONTINUOUS
 62
     2
 10
173.879999995
 20
144.8
 30
0.0
 11
173.879999995
 21
147.25
 31
0.0
  0
LINE
  8
0
  6
CONTINUOUS
 62
     2
 10
174.279999995
 20
147.425
 30
0.0
 11
173.479999995
 21
147.075
 31
0.0
  0
LINE
  8
0
  6
CONTINUOUS
 62
     2
 10
173.479999995
 20
146.725
 30
0.0
 11
174.279999995
 21
146.725
 31
0.0
  0
LINE
  8
0
  6
CONTINUOUS
 62
     2
 10
174.279999995
 20
145.85
 30
0.0
 11
173.879999995
 21
146.725
 31
0.0
  0
LINE
  8
0
  6
CONTINUOUS
 62
     2
 10
173.879999995
 20
146.725
 30
0.0
 11
173.479999995
 21
145.325
 31
0.0
  0
LINE
  8
0
  6
CONTINUOUS
 62
     2
 10
174.279999995
 20
144.8
 30
0.0
 11
176.079999995
 21
144.8
 31
0.0
  0
LINE
  8
0
  6
CONTINUOUS
 62
     2
 10
175.879999995
 20
145.15
 30
0.0
 11
174.479999995
 21
145.15
 31
0.0
  0
LINE
  8
0
  6
CONTINUOUS
 62
     2
 10
174.479999995
 20
145.85
 30
0.0
 11
175.879999995
 21
145.85
 31
0.0
  0
LINE
  8
0
  6
CONTINUOUS
 62
     2
 10
175.879999995
 20
145.85
 30
0.0
 11
175.879999995
 21
145.5
 31
0.0
  0
LINE
  8
0
  6
CONTINUOUS
 62
     2
 10
175.879999995
 20
145.5
 30
0.0
 11
174.479999995
 21
145.5
 31
0.0
  0
LINE
  8
0
  6
CONTINUOUS
 62
     2
 10
174.479999995
 20
145.5
 30
0.0
 11
174.479999995
 21
146.2
 31
0.0
  0
LINE
  8
0
  6
CONTINUOUS
 62
     2
 10
174.479999995
 20
146.2
 30
0.0
 11
175.879999995
 21
146.2
 31
0.0
  0
LINE
  8
0
  6
CONTINUOUS
 62
     2
 10
175.879999995
 20
146.2
 30
0.0
 11
175.879999995
 21
145.85
 31
0.0
  0
LINE
  8
0
  6
CONTINUOUS
 62
     2
 10
175.879999995
 20
146.725
 30
0.0
 11
174.479999995
 21
146.725
 31
0.0
  0
LINE
  8
0
  6
CONTINUOUS
 62
     2
 10
174.479999995
 20
147.075
 30
0.0
 11
175.879999995
 21
147.425
 31
0.0
  0
LINE
  8
0
  6
CONTINUOUS
 62
     2
 10
175.279999995
 20
147.25
 30
0.0
 11
175.279999995
 21
144.8
 31
0.0
  0
LINE
  8
0
  6
CONTINUOUS
 62
     2
 10
179.639999986
 20
144.8
 30
0.0
 11
180.039999986
 21
145.5
 31
0.0
  0
LINE
  8
0
  6
CONTINUOUS
 62
     2
 10
180.039999986
 20
145.5
 30
0.0
 11
180.239999986
 21
146.025
 31
0.0
  0
LINE
  8
0
  6
CONTINUOUS
 62
     2
 10
180.239999986
 20
146.025
 30
0.0
 11
180.239999986
 21
146.375
 31
0.0
  0
LINE
  8
0
  6
CONTINUOUS
 62
     2
 10
180.239999986
 20
146.375
 30
0.0
 11
179.839999986
 21
146.375
 31
0.0
  0
LINE
  8
0
  6
CONTINUOUS
 62
     2
 10
179.839999986
 20
146.375
 30
0.0
 11
179.839999986
 21
147.425
 31
0.0
  0
LINE
  8
0
  6
CONTINUOUS
 62
     2
 10
179.839999986
 20
147.425
 30
0.0
 11
180.839999986
 21
147.425
 31
0.0
  0
LINE
  8
0
  6
CONTINUOUS
 62
     2
 10
180.839999986
 20
147.425
 30
0.0
 11
180.839999986
 21
146.375
 31
0.0
  0
LINE
  8
0
  6
CONTINUOUS
 62
     2
 10
180.839999986
 20
146.375
 30
0.0
 11
180.239999986
 21
146.375
 31
0.0
  0
LINE
  8
0
  6
CONTINUOUS
 62
     2
 10
180.239999986
 20
146.025
 30
0.0
 11
180.839999986
 21
146.025
 31
0.0
  0
LINE
  8
0
  6
CONTINUOUS
 62
     2
 10
180.839999986
 20
146.025
 30
0.0
 11
180.839999986
 21
145.5
 31
0.0
  0
LINE
  8
0
  6
CONTINUOUS
 62
     2
 10
180.839999986
 20
145.5
 30
0.0
 11
180.639999986
 21
144.8
 31
0.0
  0
LINE
  8
0
  6
CONTINUOUS
 62
     2
 10
180.639999986
 20
144.8
 30
0.0
 11
180.439999986
 21
144.8
 31
0.0
  0
LINE
  8
0
  6
CONTINUOUS
 62
     2
 10
181.439999986
 20
145.15
 30
0.0
 11
181.439999986
 21
147.075
 31
0.0
  0
LINE
  8
0
  6
CONTINUOUS
 62
     2
 10
182.239999986
 20
147.425
 30
0.0
 11
182.239999986
 21
144.8
 31
0.0
  0
LINE
  8
0
  6
CONTINUOUS
 62
     2
 10
182.239999986
 20
144.8
 30
0.0
 11
182.039999986
 21
144.8
 31
0.0
  0
LINE
  8
0
  6
CONTINUOUS
 62
     2
 10
161.160000014
 20
140.35
 30
0.0
 11
161.360000014
 21
140.35
 31
0.0
  0
LINE
  8
0
  6
CONTINUOUS
 62
     2
 10
161.360000014
 20
140.35
 30
0.0
 11
162.160000014
 21
140.525
 31
0.0
  0
LINE
  8
0
  6
CONTINUOUS
 62
     2
 10
162.160000014
 20
140.0
 30
0.0
 11
162.160000014
 21
141.575
 31
0.0
  0
LINE
  8
0
  6
CONTINUOUS
 62
     2
 10
162.160000014
 20
141.225
 30
0.0
 11
161.360000014
 21
141.225
 31
0.0
  0
LINE
  8
0
  6
CONTINUOUS
 62
     2
 10
161.360000014
 20
140.875
 30
0.0
 11
162.160000014
 21
140.875
 31
0.0
  0
LINE
  8
0
  6
CONTINUOUS
 62
     2
 10
161.360000014
 20
140.35
 30
0.0
 11
161.360000014
 21
141.575
 31
0.0
  0
LINE
  8
0
  6
CONTINUOUS
 62
     2
 10
161.160000014
 20
141.575
 30
0.0
 11
163.760000014
 21
141.575
 31
0.0
  0
LINE
  8
0
  6
CONTINUOUS
 62
     2
 10
163.360000014
 20
142.275
 30
0.0
 11
161.560000014
 21
142.275
 31
0.0
  0
LINE
  8
0
  6
CONTINUOUS
 62
     2
 10
161.560000014
 20
142.275
 30
0.0
 11
161.560000014
 21
141.925
 31
0.0
  0
LINE
  8
0
  6
CONTINUOUS
 62
     2
 10
161.560000014
 20
141.925
 30
0.0
 11
163.360000014
 21
141.925
 31
0.0
  0
LINE
  8
0
  6
CONTINUOUS
 62
     2
 10
163.360000014
 20
141.925
 30
0.0
 11
163.360000014
 21
142.625
 31
0.0
  0
LINE
  8
0
  6
CONTINUOUS
 62
     2
 10
163.360000014
 20
142.625
 30
0.0
 11
161.560000014
 21
142.625
 31
0.0
  0
LINE
  8
0
  6
CONTINUOUS
 62
     2
 10
161.560000014
 20
142.625
 30
0.0
 11
161.560000014
 21
142.275
 31
0.0
  0
LINE
  8
0
  6
CONTINUOUS
 62
     2
 10
162.360000014
 20
140.0
 30
0.0
 11
162.960000014
 21
140.175
 31
0.0
  0
LINE
  8
0
  6
CONTINUOUS
 62
     2
 10
162.960000014
 20
140.175
 30
0.0
 11
163.360000014
 21
140.7
 31
0.0
  0
LINE
  8
0
  6
CONTINUOUS
 62
     2
 10
163.360000014
 20
140.7
 30
0.0
 11
163.560000014
 21
141.225
 31
0.0
  0
LINE
  8
0
  6
CONTINUOUS
 62
     2
 10
163.560000014
 20
141.225
 30
0.0
 11
162.360000014
 21
141.225
 31
0.0
  0
LINE
  8
0
  6
CONTINUOUS
 62
     2
 10
162.360000014
 20
141.225
 30
0.0
 11
162.560000014
 21
140.875
 31
0.0
  0
LINE
  8
0
  6
CONTINUOUS
 62
     2
 10
162.560000014
 20
140.875
 30
0.0
 11
163.560000014
 21
140.0
 31
0.0
  0
LINE
  8
0
  6
CONTINUOUS
 62
     2
 10
167.320000005
 20
140.0
 30
0.0
 11
167.320000005
 21
141.05
 31
0.0
  0
LINE
  8
0
  6
CONTINUOUS
 62
     2
 10
167.320000005
 20
141.05
 30
0.0
 11
169.920000005
 21
141.05
 31
0.0
  0
LINE
  8
0
  6
CONTINUOUS
 62
     2
 10
169.920000005
 20
141.05
 30
0.0
 11
169.920000005
 21
140.0
 31
0.0
  0
LINE
  8
0
  6
CONTINUOUS
 62
     2
 10
169.920000005
 20
140.0
 30
0.0
 11
169.720000005
 21
140.0
 31
0.0
  0
LINE
  8
0
  6
CONTINUOUS
 62
     2
 10
169.320000005
 20
140.7
 30
0.0
 11
167.920000005
 21
140.7
 31
0.0
  0
LINE
  8
0
  6
CONTINUOUS
 62
     2
 10
167.920000005
 20
140.7
 30
0.0
 11
167.920000005
 21
140.175
 31
0.0
  0
LINE
  8
0
  6
CONTINUOUS
 62
     2
 10
167.920000005
 20
140.175
 30
0.0
 11
169.320000005
 21
140.175
 31
0.0
  0
LINE
  8
0
  6
CONTINUOUS
 62
     2
 10
169.320000005
 20
140.175
 30
0.0
 11
169.320000005
 21
140.7
 31
0.0
  0
LINE
  8
0
  6
CONTINUOUS
 62
     2
 10
169.320000005
 20
141.225
 30
0.0
 11
167.920000005
 21
141.225
 31
0.0
  0
LINE
  8
0
  6
CONTINUOUS
 62
     2
 10
167.920000005
 20
141.225
 30
0.0
 11
167.920000005
 21
141.925
 31
0.0
  0
LINE
  8
0
  6
CONTINUOUS
 62
     2
 10
167.920000005
 20
141.925
 30
0.0
 11
169.320000005
 21
141.925
 31
0.0
  0
LINE
  8
0
  6
CONTINUOUS
 62
     2
 10
169.320000005
 20
141.925
 30
0.0
 11
169.320000005
 21
141.225
 31
0.0
  0
LINE
  8
0
  6
CONTINUOUS
 62
     2
 10
169.920000005
 20
142.275
 30
0.0
 11
167.320000005
 21
142.275
 31
0.0
  0
LINE
  8
0
  6
CONTINUOUS
 62
     2
 10
168.520000005
 20
142.275
 30
0.0
 11
168.520000005
 21
142.625
 31
0.0
  0
LINE
  8
0
  6
CONTINUOUS
 62
     2
 10
173.879999995
 20
140.7
 30
0.0
 11
173.879999995
 21
140.35
 31
0.0
  0
LINE
  8
0
  6
CONTINUOUS
 62
     2
 10
173.879999995
 20
140.35
 30
0.0
 11
175.679999995
 21
140.35
 31
0.0
  0
LINE
  8
0
  6
CONTINUOUS
 62
     2
 10
175.679999995
 20
140.35
 30
0.0
 11
175.679999995
 21
141.05
 31
0.0
  0
LINE
  8
0
  6
CONTINUOUS
 62
     2
 10
175.679999995
 20
141.05
 30
0.0
 11
173.879999995
 21
141.05
 31
0.0
  0
LINE
  8
0
  6
CONTINUOUS
 62
     2
 10
173.879999995
 20
141.05
 30
0.0
 11
173.879999995
 21
140.7
 31
0.0
  0
LINE
  8
0
  6
CONTINUOUS
 62
     2
 10
173.879999995
 20
140.7
 30
0.0
 11
175.679999995
 21
140.7
 31
0.0
  0
LINE
  8
0
  6
CONTINUOUS
 62
     2
 10
176.079999995
 20
140.35
 30
0.0
 11
175.879999995
 21
140.0
 31
0.0
  0
LINE
  8
0
  6
CONTINUOUS
 62
     2
 10
175.879999995
 20
140.0
 30
0.0
 11
174.879999995
 21
140.0
 31
0.0
  0
LINE
  8
0
  6
CONTINUOUS
 62
     2
 10
174.879999995
 20
140.0
 30
0.0
 11
174.679999995
 21
140.175
 31
0.0
  0
LINE
  8
0
  6
CONTINUOUS
 62
     2
 10
174.679999995
 20
140.175
 30
0.0
 11
174.679999995
 21
141.05
 31
0.0
  0
LINE
  8
0
  6
CONTINUOUS
 62
     2
 10
174.679999995
 20
141.4
 30
0.0
 11
174.679999995
 21
142.625
 31
0.0
  0
LINE
  8
0
  6
CONTINUOUS
 62
     2
 10
175.879999995
 20
142.625
 30
0.0
 11
173.679999995
 21
142.625
 31
0.0
  0
LINE
  8
0
  6
CONTINUOUS
 62
     2
 10
173.479999995
 20
141.575
 30
0.0
 11
173.479999995
 21
142.275
 31
0.0
  0
LINE
  8
0
  6
CONTINUOUS
 62
     2
 10
173.479999995
 20
142.275
 30
0.0
 11
176.079999995
 21
142.275
 31
0.0
  0
LINE
  8
0
  6
CONTINUOUS
 62
     2
 10
176.079999995
 20
142.275
 30
0.0
 11
176.079999995
 21
141.575
 31
0.0
  0
LINE
  8
0
  6
CONTINUOUS
 62
     2
 10
175.879999995
 20
141.925
 30
0.0
 11
174.879999995
 21
141.925
 31
0.0
  0
LINE
  8
0
  6
CONTINUOUS
 62
     2
 10
174.479999995
 20
141.925
 30
0.0
 11
173.679999995
 21
141.925
 31
0.0
  0
LINE
  8
0
  6
CONTINUOUS
 62
     2
 10
173.679999995
 20
141.4
 30
0.0
 11
174.479999995
 21
141.4
 31
0.0
  0
LINE
  8
0
  6
CONTINUOUS
 62
     2
 10
174.879999995
 20
141.4
 30
0.0
 11
175.879999995
 21
141.4
 31
0.0
  0
LINE
  8
0
  6
CONTINUOUS
 62
     2
 10
179.639999986
 20
140.0
 30
0.0
 11
179.839999986
 21
140.35
 31
0.0
  0
LINE
  8
0
  6
CONTINUOUS
 62
     2
 10
179.839999986
 20
140.35
 30
0.0
 11
180.039999986
 21
141.05
 31
0.0
  0
LINE
  8
0
  6
CONTINUOUS
 62
     2
 10
180.039999986
 20
141.05
 30
0.0
 11
180.039999986
 21
142.45
 31
0.0
  0
LINE
  8
0
  6
CONTINUOUS
 62
     2
 10
180.039999986
 20
142.45
 30
0.0
 11
182.239999986
 21
142.45
 31
0.0
  0
LINE
  8
0
  6
CONTINUOUS
 62
     2
 10
182.039999986
 20
141.225
 30
0.0
 11
180.239999986
 21
141.225
 31
0.0
  0
LINE
  8
0
  6
CONTINUOUS
 62
     2
 10
181.039999986
 20
142.1
 30
0.0
 11
181.039999986
 21
140.0
 31
0.0
  0
LINE
  8
0
  6
CONTINUOUS
 62
     2
 10
180.039999986
 20
140.0
 30
0.0
 11
182.239999986
 21
140.0
 31
0.0
  0
LINE
  8
0
  6
CONTINUOUS
 62
     2
 10
164.24000001
 20
135.2
 30
0.0
 11
164.64000001
 21
135.55
 31
0.0
  0
LINE
  8
0
  6
CONTINUOUS
 62
     2
 10
164.64000001
 20
135.55
 30
0.0
 11
164.64000001
 21
136.6
 31
0.0
  0
LINE
  8
0
  6
CONTINUOUS
 62
     2
 10
164.64000001
 20
136.6
 30
0.0
 11
164.24000001
 21
136.6
 31
0.0
  0
LINE
  8
0
  6
CONTINUOUS
 62
     2
 10
164.64000001
 20
137.3
 30
0.0
 11
164.24000001
 21
137.825
 31
0.0
  0
LINE
  8
0
  6
CONTINUOUS
 62
     2
 10
165.24000001
 20
136.775
 30
0.0
 11
165.24000001
 21
137.825
 31
0.0
  0
LINE
  8
0
  6
CONTINUOUS
 62
     2
 10
165.24000001
 20
137.825
 30
0.0
 11
166.64000001
 21
137.825
 31
0.0
  0
LINE
  8
0
  6
CONTINUOUS
 62
     2
 10
166.64000001
 20
137.825
 30
0.0
 11
166.64000001
 21
136.775
 31
0.0
  0
LINE
  8
0
  6
CONTINUOUS
 62
     2
 10
166.04000001
 20
136.775
 30
0.0
 11
166.04000001
 21
137.475
 31
0.0
  0
LINE
  8
0
  6
CONTINUOUS
 62
     2
 10
166.04000001
 20
137.475
 30
0.0
 11
166.64000001
 21
137.475
 31
0.0
  0
LINE
  8
0
  6
CONTINUOUS
 62
     2
 10
166.44000001
 20
136.425
 30
0.0
 11
166.44000001
 21
135.9
 31
0.0
  0
LINE
  8
0
  6
CONTINUOUS
 62
     2
 10
166.44000001
 20
135.9
 30
0.0
 11
165.44000001
 21
135.9
 31
0.0
  0
LINE
  8
0
  6
CONTINUOUS
 62
     2
 10
165.44000001
 20
135.9
 30
0.0
 11
165.44000001
 21
136.425
 31
0.0
  0
LINE
  8
0
  6
CONTINUOUS
 62
     2
 10
165.44000001
 20
136.425
 30
0.0
 11
166.44000001
 21
136.425
 31
0.0
  0
LINE
  8
0
  6
CONTINUOUS
 62
     2
 10
166.64000001
 20
135.55
 30
0.0
 11
166.84000001
 21
135.55
 31
0.0
  0
LINE
  8
0
  6
CONTINUOUS
 62
     2
 10
166.84000001
 20
135.55
 30
0.0
 11
166.84000001
 21
136.775
 31
0.0
  0
LINE
  8
0
  6
CONTINUOUS
 62
     2
 10
166.84000001
 20
136.775
 30
0.0
 11
165.04000001
 21
136.775
 31
0.0
  0
LINE
  8
0
  6
CONTINUOUS
 62
     2
 10
165.04000001
 20
136.775
 30
0.0
 11
165.04000001
 21
135.55
 31
0.0
  0
LINE
  8
0
  6
CONTINUOUS
 62
     2
 10
164.64000001
 20
135.55
 30
0.0
 11
164.84000001
 21
135.2
 31
0.0
  0
LINE
  8
0
  6
CONTINUOUS
 62
     2
 10
164.84000001
 20
135.2
 30
0.0
 11
166.84000001
 21
135.2
 31
0.0
  0
LINE
  8
0
  6
CONTINUOUS
 62
     2
 10
167.720000005
 20
135.9
 30
0.0
 11
167.720000005
 21
135.55
 31
0.0
  0
LINE
  8
0
  6
CONTINUOUS
 62
     2
 10
167.720000005
 20
135.55
 30
0.0
 11
169.520000005
 21
135.55
 31
0.0
  0
LINE
  8
0
  6
CONTINUOUS
 62
     2
 10
169.520000005
 20
135.55
 30
0.0
 11
169.520000005
 21
136.25
 31
0.0
  0
LINE
  8
0
  6
CONTINUOUS
 62
     2
 10
169.520000005
 20
136.25
 30
0.0
 11
167.720000005
 21
136.25
 31
0.0
  0
LINE
  8
0
  6
CONTINUOUS
 62
     2
 10
167.720000005
 20
136.25
 30
0.0
 11
167.720000005
 21
135.9
 31
0.0
  0
LINE
  8
0
  6
CONTINUOUS
 62
     2
 10
167.720000005
 20
135.9
 30
0.0
 11
169.520000005
 21
135.9
 31
0.0
  0
LINE
  8
0
  6
CONTINUOUS
 62
     2
 10
169.920000005
 20
135.55
 30
0.0
 11
169.720000005
 21
135.2
 31
0.0
  0
LINE
  8
0
  6
CONTINUOUS
 62
     2
 10
169.720000005
 20
135.2
 30
0.0
 11
168.720000005
 21
135.2
 31
0.0
  0
LINE
  8
0
  6
CONTINUOUS
 62
     2
 10
168.720000005
 20
135.2
 30
0.0
 11
168.520000005
 21
135.375
 31
0.0
  0
LINE
  8
0
  6
CONTINUOUS
 62
     2
 10
168.520000005
 20
135.375
 30
0.0
 11
168.520000005
 21
136.25
 31
0.0
  0
LINE
  8
0
  6
CONTINUOUS
 62
     2
 10
168.520000005
 20
136.6
 30
0.0
 11
168.520000005
 21
137.825
 31
0.0
  0
LINE
  8
0
  6
CONTINUOUS
 62
     2
 10
169.720000005
 20
137.825
 30
0.0
 11
167.520000005
 21
137.825
 31
0.0
  0
LINE
  8
0
  6
CONTINUOUS
 62
     2
 10
167.320000005
 20
136.775
 30
0.0
 11
167.320000005
 21
137.475
 31
0.0
  0
LINE
  8
0
  6
CONTINUOUS
 62
     2
 10
167.320000005
 20
137.475
 30
0.0
 11
169.920000005
 21
137.475
 31
0.0
  0
LINE
  8
0
  6
CONTINUOUS
 62
     2
 10
169.920000005
 20
137.475
 30
0.0
 11
169.920000005
 21
136.775
 31
0.0
  0
LINE
  8
0
  6
CONTINUOUS
 62
     2
 10
169.720000005
 20
137.125
 30
0.0
 11
168.720000005
 21
137.125
 31
0.0
  0
LINE
  8
0
  6
CONTINUOUS
 62
     2
 10
168.320000005
 20
137.125
 30
0.0
 11
167.520000005
 21
137.125
 31
0.0
  0
LINE
  8
0
  6
CONTINUOUS
 62
     2
 10
167.520000005
 20
136.6
 30
0.0
 11
168.320000005
 21
136.6
 31
0.0
  0
LINE
  8
0
  6
CONTINUOUS
 62
     2
 10
168.720000005
 20
136.6
 30
0.0
 11
169.720000005
 21
136.6
 31
0.0
  0
LINE
  8
0
  6
CONTINUOUS
 62
     2
 10
170.4
 20
135.2
 30
0.0
 11
171.0
 21
136.25
 31
0.0
  0
LINE
  8
0
  6
CONTINUOUS
 62
     2
 10
171.0
 20
136.6
 30
0.0
 11
170.4
 21
137.125
 31
0.0
  0
LINE
  8
0
  6
CONTINUOUS
 62
     2
 10
170.4
 20
137.825
 30
0.0
 11
171.0
 21
137.3
 31
0.0
  0
LINE
  8
0
  6
CONTINUOUS
 62
     2
 10
171.2
 20
137.475
 30
0.0
 11
173.0
 21
137.475
 31
0.0
  0
LINE
  8
0
  6
CONTINUOUS
 62
     2
 10
172.2
 20
137.825
 30
0.0
 11
172.2
 21
137.475
 31
0.0
  0
LINE
  8
0
  6
CONTINUOUS
 62
     2
 10
172.2
 20
137.475
 30
0.0
 11
171.4
 21
136.6
 31
0.0
  0
LINE
  8
0
  6
CONTINUOUS
 62
     2
 10
171.4
 20
136.6
 30
0.0
 11
172.8
 21
136.6
 31
0.0
  0
LINE
  8
0
  6
CONTINUOUS
 62
     2
 10
172.6
 20
136.775
 30
0.0
 11
173.0
 21
136.425
 31
0.0
  0
LINE
  8
0
  6
CONTINUOUS
 62
     2
 10
171.6
 20
136.425
 30
0.0
 11
171.4
 21
135.55
 31
0.0
  0
LINE
  8
0
  6
CONTINUOUS
 62
     2
 10
171.4
 20
135.55
 30
0.0
 11
171.2
 21
135.2
 31
0.0
  0
LINE
  8
0
  6
CONTINUOUS
 62
     2
 10
172.2
 20
135.2
 30
0.0
 11
172.2
 21
136.425
 31
0.0
  0
LINE
  8
0
  6
CONTINUOUS
 62
     2
 10
172.6
 20
136.425
 30
0.0
 11
172.6
 21
135.375
 31
0.0
  0
LINE
  8
0
  6
CONTINUOUS
 62
     2
 10
172.6
 20
135.375
 30
0.0
 11
172.8
 21
135.2
 31
0.0
  0
LINE
  8
0
  6
CONTINUOUS
 62
     2
 10
172.8
 20
135.2
 30
0.0
 11
173.0
 21
135.2
 31
0.0
  0
LINE
  8
0
  6
CONTINUOUS
 62
     2
 10
173.0
 20
135.2
 30
0.0
 11
173.0
 21
135.55
 31
0.0
  0
LINE
  8
0
  6
CONTINUOUS
 62
     2
 10
173.479999995
 20
135.55
 30
0.0
 11
173.679999995
 21
135.2
 31
0.0
  0
LINE
  8
0
  6
CONTINUOUS
 62
     2
 10
173.679999995
 20
135.2
 30
0.0
 11
174.079999995
 21
135.2
 31
0.0
  0
LINE
  8
0
  6
CONTINUOUS
 62
     2
 10
174.079999995
 20
135.2
 30
0.0
 11
174.279999995
 21
135.725
 31
0.0
  0
LINE
  8
0
  6
CONTINUOUS
 62
     2
 10
174.279999995
 20
135.725
 30
0.0
 11
174.279999995
 21
136.25
 31
0.0
  0
LINE
  8
0
  6
CONTINUOUS
 62
     2
 10
174.279999995
 20
136.25
 30
0.0
 11
173.479999995
 21
136.25
 31
0.0
  0
LINE
  8
0
  6
CONTINUOUS
 62
     2
 10
173.479999995
 20
136.25
 30
0.0
 11
173.679999995
 21
137.125
 31
0.0
  0
LINE
  8
0
  6
CONTINUOUS
 62
     2
 10
173.679999995
 20
137.125
 30
0.0
 11
174.279999995
 21
137.125
 31
0.0
  0
LINE
  8
0
  6
CONTINUOUS
 62
     2
 10
174.279999995
 20
137.125
 30
0.0
 11
174.279999995
 21
137.825
 31
0.0
  0
LINE
  8
0
  6
CONTINUOUS
 62
     2
 10
174.279999995
 20
137.825
 30
0.0
 11
173.479999995
 21
137.825
 31
0.0
  0
LINE
  8
0
  6
CONTINUOUS
 62
     2
 10
174.879999995
 20
137.825
 30
0.0
 11
174.479999995
 21
137.125
 31
0.0
  0
LINE
  8
0
  6
CONTINUOUS
 62
     2
 10
174.479999995
 20
137.125
 30
0.0
 11
175.879999995
 21
137.125
 31
0.0
  0
LINE
  8
0
  6
CONTINUOUS
 62
     2
 10
175.879999995
 20
137.125
 30
0.0
 11
175.679999995
 21
137.475
 31
0.0
  0
LINE
  8
0
  6
CONTINUOUS
 62
     2
 10
175.279999995
 20
137.125
 30
0.0
 11
175.279999995
 21
136.6
 31
0.0
  0
LINE
  8
0
  6
CONTINUOUS
 62
     2
 10
175.279999995
 20
136.6
 30
0.0
 11
174.479999995
 21
136.6
 31
0.0
  0
LINE
  8
0
  6
CONTINUOUS
 62
     2
 10
174.479999995
 20
136.6
 30
0.0
 11
174.479999995
 21
135.9
 31
0.0
  0
LINE
  8
0
  6
CONTINUOUS
 62
     2
 10
174.479999995
 20
135.9
 30
0.0
 11
175.879999995
 21
135.9
 31
0.0
  0
LINE
  8
0
  6
CONTINUOUS
 62
     2
 10
175.879999995
 20
135.9
 30
0.0
 11
175.879999995
 21
136.6
 31
0.0
  0
LINE
  8
0
  6
CONTINUOUS
 62
     2
 10
175.879999995
 20
136.6
 30
0.0
 11
175.279999995
 21
136.6
 31
0.0
  0
LINE
  8
0
  6
CONTINUOUS
 62
     2
 10
175.279999995
 20
136.6
 30
0.0
 11
175.279999995
 21
135.2
 31
0.0
  0
LINE
  8
0
  6
CONTINUOUS
 62
     2
 10
174.479999995
 20
135.2
 30
0.0
 11
175.279999995
 21
135.2
 31
0.0
  0
LINE
  8
0
  6
CONTINUOUS
 62
     2
 10
175.279999995
 20
135.2
 30
0.0
 11
175.879999995
 21
135.375
 31
0.0
  0
LINE
  8
0
  6
CONTINUOUS
 62
     2
 10
175.679999995
 20
135.55
 30
0.0
 11
176.079999995
 21
135.2
 31
0.0
  0
LINE
  8
0
  6
CONTINUOUS
 62
     2
 10
176.55999999
 20
135.2
 30
0.0
 11
176.75999999
 21
135.55
 31
0.0
  0
LINE
  8
0
  6
CONTINUOUS
 62
     2
 10
176.75999999
 20
135.55
 30
0.0
 11
176.95999999
 21
136.425
 31
0.0
  0
LINE
  8
0
  6
CONTINUOUS
 62
     2
 10
176.95999999
 20
136.425
 30
0.0
 11
176.95999999
 21
137.475
 31
0.0
  0
LINE
  8
0
  6
CONTINUOUS
 62
     2
 10
176.95999999
 20
137.475
 30
0.0
 11
179.15999999
 21
137.475
 31
0.0
  0
LINE
  8
0
  6
CONTINUOUS
 62
     2
 10
177.95999999
 20
137.825
 30
0.0
 11
177.95999999
 21
137.475
 31
0.0
  0
LINE
  8
0
  6
CONTINUOUS
 62
     2
 10
177.55999999
 20
137.475
 30
0.0
 11
177.55999999
 21
136.6
 31
0.0
  0
LINE
  8
0
  6
CONTINUOUS
 62
     2
 10
177.55999999
 20
136.6
 30
0.0
 11
178.55999999
 21
136.6
 31
0.0
  0
LINE
  8
0
  6
CONTINUOUS
 62
     2
 10
178.55999999
 20
136.6
 30
0.0
 11
178.55999999
 21
137.475
 31
0.0
  0
LINE
  8
0
  6
CONTINUOUS
 62
     2
 10
178.95999999
 20
137.125
 30
0.0
 11
177.15999999
 21
137.125
 31
0.0
  0
LINE
  8
0
  6
CONTINUOUS
 62
     2
 10
177.15999999
 20
136.25
 30
0.0
 11
178.95999999
 21
136.25
 31
0.0
  0
LINE
  8
0
  6
CONTINUOUS
 62
     2
 10
178.95999999
 20
136.25
 30
0.0
 11
178.35999999
 21
135.725
 31
0.0
  0
LINE
  8
0
  6
CONTINUOUS
 62
     2
 10
178.35999999
 20
135.725
 30
0.0
 11
177.55999999
 21
135.375
 31
0.0
  0
LINE
  8
0
  6
CONTINUOUS
 62
     2
 10
177.55999999
 20
135.375
 30
0.0
 11
177.15999999
 21
135.2
 31
0.0
  0
LINE
  8
0
  6
CONTINUOUS
 62
     2
 10
177.35999999
 20
136.25
 30
0.0
 11
177.95999999
 21
135.725
 31
0.0
  0
LINE
  8
0
  6
CONTINUOUS
 62
     2
 10
177.95999999
 20
135.725
 30
0.0
 11
178.75999999
 21
135.375
 31
0.0
  0
LINE
  8
0
  6
CONTINUOUS
 62
     2
 10
178.75999999
 20
135.375
 30
0.0
 11
179.15999999
 21
135.2
 31
0.0
  0
LINE
  8
0
  6
CONTINUOUS
 62
     2
 10
190.642808315
 20
178.925012207
 30
0.0
 11
190.9285226
 21
179.625012207
 31
0.0
  0
LINE
  8
0
  6
CONTINUOUS
 62
     2
 10
190.642808315
 20
180.325012207
 30
0.0
 11
192.214236886
 21
180.325012207
 31
0.0
  0
LINE
  8
0
  6
CONTINUOUS
 62
     2
 10
192.071379743
 20
180.500012207
 30
0.0
 11
192.214236886
 21
180.500012207
 31
0.0
  0
LINE
  8
0
  6
CONTINUOUS
 62
     2
 10
192.214236886
 20
180.500012207
 30
0.0
 11
192.357094029
 21
180.675012207
 31
0.0
  0
LINE
  8
0
  6
CONTINUOUS
 62
     2
 10
192.357094029
 20
180.675012207
 30
0.0
 11
192.357094029
 21
180.850012207
 31
0.0
  0
LINE
  8
0
  6
CONTINUOUS
 62
     2
 10
192.357094029
 20
180.850012207
 30
0.0
 11
192.214236886
 21
181.025012207
 31
0.0
  0
LINE
  8
0
  6
CONTINUOUS
 62
     2
 10
192.214236886
 20
181.025012207
 30
0.0
 11
192.071379743
 21
181.025012207
 31
0.0
  0
LINE
  8
0
  6
CONTINUOUS
 62
     2
 10
192.071379743
 20
181.025012207
 30
0.0
 11
191.9285226
 21
180.850012207
 31
0.0
  0
LINE
  8
0
  6
CONTINUOUS
 62
     2
 10
191.9285226
 20
180.850012207
 30
0.0
 11
191.9285226
 21
180.675012207
 31
0.0
  0
LINE
  8
0
  6
CONTINUOUS
 62
     2
 10
191.9285226
 20
180.675012207
 30
0.0
 11
192.071379743
 21
180.500012207
 31
0.0
  0
LINE
  8
0
  6
CONTINUOUS
 62
     2
 10
191.357094029
 20
180.675012207
 30
0.0
 11
191.357094029
 21
178.575012207
 31
0.0
  0
LINE
  8
0
  6
CONTINUOUS
 62
     2
 10
191.9285226
 20
179.625012207
 30
0.0
 11
192.214236886
 21
178.925012207
 31
0.0
  0
LINE
  8
0
  6
CONTINUOUS
 62
     2
 10
193.1285226
 20
180.675012207
 30
0.0
 11
193.1285226
 21
179.625012207
 31
0.0
  0
LINE
  8
0
  6
CONTINUOUS
 62
     2
 10
194.1285226
 20
180.675012207
 30
0.0
 11
194.1285226
 21
179.625012207
 31
0.0
  0
LINE
  8
0
  6
CONTINUOUS
 62
     2
 10
194.1285226
 20
179.625012207
 30
0.0
 11
193.985665458
 21
178.925012207
 31
0.0
  0
LINE
  8
0
  6
CONTINUOUS
 62
     2
 10
193.985665458
 20
178.925012207
 30
0.0
 11
193.699951172
 21
178.750012207
 31
0.0
  0
LINE
  8
0
  6
CONTINUOUS
 62
     2
 10
193.699951172
 20
178.750012207
 30
0.0
 11
193.414236886
 21
178.575012207
 31
0.0
  0
LINE
  8
0
  6
CONTINUOUS
 62
     2
 10
195.185665458
 20
180.500012207
 30
0.0
 11
196.471379743
 21
180.500012207
 31
0.0
  0
LINE
  8
0
  6
CONTINUOUS
 62
     2
 10
195.757094029
 20
180.500012207
 30
0.0
 11
195.757094029
 21
178.750012207
 31
0.0
  0
LINE
  8
0
  6
CONTINUOUS
 62
     2
 10
195.042808315
 20
178.750012207
 30
0.0
 11
196.614236886
 21
178.750012207
 31
0.0
  0
LINE
  8
0
  6
CONTINUOUS
 62
     2
 10
197.242808315
 20
178.575012207
 30
0.0
 11
197.671379743
 21
178.925012207
 31
0.0
  0
LINE
  8
0
  6
CONTINUOUS
 62
     2
 10
197.671379743
 20
178.925012207
 30
0.0
 11
198.099951172
 21
179.450012207
 31
0.0
  0
LINE
  8
0
  6
CONTINUOUS
 62
     2
 10
198.099951172
 20
179.450012207
 30
0.0
 11
198.5285226
 21
180.325012207
 31
0.0
  0
LINE
  8
0
  6
CONTINUOUS
 62
     2
 10
198.5285226
 20
180.325012207
 30
0.0
 11
197.242808315
 21
180.325012207
 31
0.0
  0
LINE
  8
0
  6
CONTINUOUS
 62
     2
 10
197.957094029
 20
179.275012207
 30
0.0
 11
198.5285226
 21
178.750012207
 31
0.0
  0
LINE
  8
0
  6
CONTINUOUS
 62
     2
 10
198.5285226
 20
178.750012207
 30
0.0
 11
198.814236886
 21
178.575012207
 31
0.0
  0
LINE
  8
0
  6
CONTINUOUS
 62
     2
 10
199.7285226
 20
178.575012207
 30
0.0
 11
200.014236886
 21
178.925012207
 31
0.0
  0
LINE
  8
0
  6
CONTINUOUS
 62
     2
 10
200.014236886
 20
178.925012207
 30
0.0
 11
200.157094029
 21
179.275012207
 31
0.0
  0
LINE
  8
0
  6
CONTINUOUS
 62
     2
 10
200.157094029
 20
179.275012207
 30
0.0
 11
200.157094029
 21
179.975012207
 31
0.0
  0
LINE
  8
0
  6
CONTINUOUS
 62
     2
 10
201.014236886
 20
179.975012207
 30
0.0
 11
199.442808315
 21
179.975012207
 31
0.0
  0
LINE
  8
0
  6
CONTINUOUS
 62
     2
 10
199.7285226
 20
180.675012207
 30
0.0
 11
200.7285226
 21
180.675012207
 31
0.0
  0
LINE
  8
0
  6
CONTINUOUS
 62
     2
 10
201.642808315
 20
178.750012207
 30
0.0
 11
201.785665458
 21
178.925012207
 31
0.0
  0
LINE
  8
0
  6
CONTINUOUS
 62
     2
 10
201.785665458
 20
178.925012207
 30
0.0
 11
201.9285226
 21
179.275012207
 31
0.0
  0
LINE
  8
0
  6
CONTINUOUS
 62
     2
 10
201.9285226
 20
179.275012207
 30
0.0
 11
202.071379743
 21
179.800012207
 31
0.0
  0
LINE
  8
0
  6
CONTINUOUS
 62
     2
 10
202.071379743
 20
179.800012207
 30
0.0
 11
202.071379743
 21
180.500012207
 31
0.0
  0
LINE
  8
0
  6
CONTINUOUS
 62
     2
 10
202.499951172
 20
180.675012207
 30
0.0
 11
202.499951172
 21
178.750012207
 31
0.0
  0
LINE
  8
0
  6
CONTINUOUS
 62
     2
 10
202.499951172
 20
178.750012207
 30
0.0
 11
203.214236886
 21
179.450012207
 31
0.0
  0
LINE
  8
0
  6
CONTINUOUS
 62
     2
 10
203.842808315
 20
179.800012207
 30
0.0
 11
205.414236886
 21
179.800012207
 31
0.0
  0
LINE
  8
0
  6
CONTINUOUS
 62
     2
 10
205.271379743
 20
180.675012207
 30
0.0
 11
203.985665458
 21
180.675012207
 31
0.0
  0
LINE
  8
0
  6
CONTINUOUS
 62
     2
 10
204.414236886
 20
180.675012207
 30
0.0
 11
204.414236886
 21
178.925012207
 31
0.0
  0
LINE
  8
0
  6
CONTINUOUS
 62
     2
 10
204.414236886
 20
178.925012207
 30
0.0
 11
204.557094029
 21
178.750012207
 31
0.0
  0
LINE
  8
0
  6
CONTINUOUS
 62
     2
 10
204.557094029
 20
178.750012207
 30
0.0
 11
205.414236886
 21
178.750012207
 31
0.0
  0
LINE
  8
0
  6
CONTINUOUS
 62
     2
 10
205.899951172
 20
179.800012207
 30
0.0
 11
206.3285226
 21
179.625012207
 31
0.0
  0
LINE
  8
0
  6
CONTINUOUS
 62
     2
 10
206.3285226
 20
179.625012207
 30
0.0
 11
207.757094029
 21
179.625012207
 31
0.0
  0
LINE
  8
0
  6
CONTINUOUS
 62
     2
 10
208.242808315
 20
178.750012207
 30
0.0
 11
208.385665458
 21
178.925012207
 31
0.0
  0
LINE
  8
0
  6
CONTINUOUS
 62
     2
 10
208.385665458
 20
178.925012207
 30
0.0
 11
208.5285226
 21
179.275012207
 31
0.0
  0
LINE
  8
0
  6
CONTINUOUS
 62
     2
 10
208.5285226
 20
179.275012207
 30
0.0
 11
208.671379743
 21
179.800012207
 31
0.0
  0
LINE
  8
0
  6
CONTINUOUS
 62
     2
 10
208.671379743
 20
179.800012207
 30
0.0
 11
208.671379743
 21
180.500012207
 31
0.0
  0
LINE
  8
0
  6
CONTINUOUS
 62
     2
 10
209.099951172
 20
180.675012207
 30
0.0
 11
209.099951172
 21
178.750012207
 31
0.0
  0
LINE
  8
0
  6
CONTINUOUS
 62
     2
 10
209.099951172
 20
178.750012207
 30
0.0
 11
209.814236886
 21
179.450012207
 31
0.0
  0
LINE
  8
0
  6
CONTINUOUS
 62
     2
 10
210.871379743
 20
178.575012207
 30
0.0
 11
210.871379743
 21
180.850012207
 31
0.0
  0
LINE
  8
0
  6
CONTINUOUS
 62
     2
 10
211.871379743
 20
180.500012207
 30
0.0
 11
211.585665458
 21
180.850012207
 31
0.0
  0
LINE
  8
0
  6
CONTINUOUS
 62
     2
 10
211.7285226
 20
181.025012207
 30
0.0
 11
212.014236886
 21
180.675012207
 31
0.0
  0
LINE
  8
0
  6
CONTINUOUS
 62
     2
 10
210.871379743
 20
179.800012207
 30
0.0
 11
211.7285226
 21
179.450012207
 31
0.0
  0
LINE
  8
0
  6
CONTINUOUS
 62
     2
 10
218.785714286
 20
171.249938965
 30
0.0
 11
219.357142857
 21
168.974938965
 31
0.0
  0
LINE
  8
0
  6
CONTINUOUS
 62
     2
 10
219.357142857
 20
168.974938965
 30
0.0
 11
220.071428571
 21
171.249938965
 31
0.0
  0
LINE
  8
0
  6
CONTINUOUS
 62
     2
 10
221.557142857
 20
171.249938965
 30
0.0
 11
220.985714286
 21
168.974938965
 31
0.0
  0
LINE
  8
0
  6
CONTINUOUS
 62
     2
 10
221.7
 20
171.249938965
 30
0.0
 11
222.271428571
 21
168.974938965
 31
0.0
  0
LINE
  8
0
  6
CONTINUOUS
 62
     2
 10
221.557142857
 20
171.249938965
 30
0.0
 11
221.7
 21
171.249938965
 31
0.0
  0
LINE
  8
0
  6
CONTINUOUS
 62
     2
 10
221.271428571
 20
169.849938965
 30
0.0
 11
221.985714286
 21
169.849938965
 31
0.0
  0
LINE
  8
0
  6
CONTINUOUS
 62
     2
 10
221.557142857
 20
161.649951172
 30
0.0
 11
220.985714286
 21
159.374951172
 31
0.0
  0
LINE
  8
0
  6
CONTINUOUS
 62
     2
 10
221.7
 20
161.649951172
 30
0.0
 11
222.271428571
 21
159.374951172
 31
0.0
  0
LINE
  8
0
  6
CONTINUOUS
 62
     2
 10
221.557142857
 20
161.649951172
 30
0.0
 11
221.7
 21
161.649951172
 31
0.0
  0
LINE
  8
0
  6
CONTINUOUS
 62
     2
 10
221.271428571
 20
160.249951172
 30
0.0
 11
221.985714286
 21
160.249951172
 31
0.0
  0
LINE
  8
0
  6
CONTINUOUS
 62
     2
 10
221.557142857
 20
156.849951172
 30
0.0
 11
220.985714286
 21
154.574951172
 31
0.0
  0
LINE
  8
0
  6
CONTINUOUS
 62
     2
 10
221.7
 20
156.849951172
 30
0.0
 11
222.271428571
 21
154.574951172
 31
0.0
  0
LINE
  8
0
  6
CONTINUOUS
 62
     2
 10
221.557142857
 20
156.849951172
 30
0.0
 11
221.7
 21
156.849951172
 31
0.0
  0
LINE
  8
0
  6
CONTINUOUS
 62
     2
 10
221.271428571
 20
155.449951172
 30
0.0
 11
221.985714286
 21
155.449951172
 31
0.0
  0
LINE
  8
0
  6
CONTINUOUS
 62
     2
 10
218.785714286
 20
149.774975586
 30
0.0
 11
218.785714286
 21
152.049975586
 31
0.0
  0
LINE
  8
0
  6
CONTINUOUS
 62
     2
 10
220.071428571
 20
152.049975586
 30
0.0
 11
220.071428571
 21
149.774975586
 31
0.0
  0
LINE
  8
0
  6
CONTINUOUS
 62
     2
 10
218.785714286
 20
150.999975586
 30
0.0
 11
220.071428571
 21
150.999975586
 31
0.0
  0
LINE
  8
0
  6
CONTINUOUS
 62
     2
 10
221.128571429
 20
151.174975586
 30
0.0
 11
222.128571429
 21
151.174975586
 31
0.0
  0
LINE
  8
0
  6
CONTINUOUS
 62
     2
 10
222.128571429
 20
151.174975586
 30
0.0
 11
221.128571429
 21
149.774975586
 31
0.0
  0
LINE
  8
0
  6
CONTINUOUS
 62
     2
 10
221.128571429
 20
149.774975586
 30
0.0
 11
222.128571429
 21
149.774975586
 31
0.0
  0
LINE
  8
0
  6
CONTINUOUS
 62
     2
 10
219.6
 20
144.799975586
 30
0.0
 11
219.6
 21
147.249975586
 31
0.0
  0
LINE
  8
0
  6
CONTINUOUS
 62
     2
 10
220.0
 20
147.424975586
 30
0.0
 11
219.2
 21
147.074975586
 31
0.0
  0
LINE
  8
0
  6
CONTINUOUS
 62
     2
 10
219.2
 20
146.724975586
 30
0.0
 11
220.0
 21
146.724975586
 31
0.0
  0
LINE
  8
0
  6
CONTINUOUS
 62
     2
 10
220.0
 20
145.849975586
 30
0.0
 11
219.6
 21
146.724975586
 31
0.0
  0
LINE
  8
0
  6
CONTINUOUS
 62
     2
 10
219.6
 20
146.724975586
 30
0.0
 11
219.2
 21
145.324975586
 31
0.0
  0
LINE
  8
0
  6
CONTINUOUS
 62
     2
 10
220.0
 20
144.799975586
 30
0.0
 11
221.8
 21
144.799975586
 31
0.0
  0
LINE
  8
0
  6
CONTINUOUS
 62
     2
 10
221.6
 20
145.149975586
 30
0.0
 11
220.2
 21
145.149975586
 31
0.0
  0
LINE
  8
0
  6
CONTINUOUS
 62
     2
 10
220.2
 20
145.849975586
 30
0.0
 11
221.6
 21
145.849975586
 31
0.0
  0
LINE
  8
0
  6
CONTINUOUS
 62
     2
 10
221.6
 20
145.849975586
 30
0.0
 11
221.6
 21
145.499975586
 31
0.0
  0
LINE
  8
0
  6
CONTINUOUS
 62
     2
 10
221.6
 20
145.499975586
 30
0.0
 11
220.2
 21
145.499975586
 31
0.0
  0
LINE
  8
0
  6
CONTINUOUS
 62
     2
 10
220.2
 20
145.499975586
 30
0.0
 11
220.2
 21
146.199975586
 31
0.0
  0
LINE
  8
0
  6
CONTINUOUS
 62
     2
 10
220.2
 20
146.199975586
 30
0.0
 11
221.6
 21
146.199975586
 31
0.0
  0
LINE
  8
0
  6
CONTINUOUS
 62
     2
 10
221.6
 20
146.199975586
 30
0.0
 11
221.6
 21
145.849975586
 31
0.0
  0
LINE
  8
0
  6
CONTINUOUS
 62
     2
 10
221.6
 20
146.724975586
 30
0.0
 11
220.2
 21
146.724975586
 31
0.0
  0
LINE
  8
0
  6
CONTINUOUS
 62
     2
 10
220.2
 20
147.074975586
 30
0.0
 11
221.6
 21
147.424975586
 31
0.0
  0
LINE
  8
0
  6
CONTINUOUS
 62
     2
 10
221.0
 20
147.249975586
 30
0.0
 11
221.0
 21
144.799975586
 31
0.0
  0
LINE
  8
0
  6
CONTINUOUS
 62
     2
 10
220.985714286
 20
142.449975586
 30
0.0
 11
221.557142857
 21
140.174975586
 31
0.0
  0
LINE
  8
0
  6
CONTINUOUS
 62
     2
 10
221.557142857
 20
140.174975586
 30
0.0
 11
222.271428571
 21
142.449975586
 31
0.0
  0
LINE
  8
0
  6
CONTINUOUS
 62
     2
 10
196.285665458
 20
150.125
 30
0.0
 11
196.571379743
 21
149.775
 31
0.0
  0
LINE
  8
0
  6
CONTINUOUS
 62
     2
 10
196.571379743
 20
149.775
 30
0.0
 11
197.285665458
 21
149.775
 31
0.0
  0
LINE
  8
0
  6
CONTINUOUS
 62
     2
 10
197.285665458
 20
149.775
 30
0.0
 11
197.571379743
 21
150.125
 31
0.0
  0
LINE
  8
0
  6
CONTINUOUS
 62
     2
 10
197.571379743
 20
150.125
 30
0.0
 11
197.571379743
 21
150.65
 31
0.0
  0
LINE
  8
0
  6
CONTINUOUS
 62
     2
 10
197.571379743
 20
150.65
 30
0.0
 11
197.285665458
 21
151.0
 31
0.0
  0
LINE
  8
0
  6
CONTINUOUS
 62
     2
 10
197.285665458
 20
151.0
 30
0.0
 11
196.4285226
 21
151.0
 31
0.0
  0
LINE
  8
0
  6
CONTINUOUS
 62
     2
 10
196.4285226
 20
151.0
 30
0.0
 11
196.4285226
 21
152.05
 31
0.0
  0
LINE
  8
0
  6
CONTINUOUS
 62
     2
 10
196.4285226
 20
152.05
 30
0.0
 11
197.571379743
 21
152.05
 31
0.0
  0
LINE
  8
0
  6
CONTINUOUS
 62
     2
 10
198.485665458
 20
150.475
 30
0.0
 11
198.6285226
 21
149.95
 31
0.0
  0
LINE
  8
0
  6
CONTINUOUS
 62
     2
 10
198.6285226
 20
149.95
 30
0.0
 11
198.914236886
 21
149.775
 31
0.0
  0
LINE
  8
0
  6
CONTINUOUS
 62
     2
 10
198.914236886
 20
149.775
 30
0.0
 11
199.342808315
 21
149.775
 31
0.0
  0
LINE
  8
0
  6
CONTINUOUS
 62
     2
 10
199.342808315
 20
149.775
 30
0.0
 11
199.6285226
 21
149.95
 31
0.0
  0
LINE
  8
0
  6
CONTINUOUS
 62
     2
 10
199.6285226
 20
149.95
 30
0.0
 11
199.771379743
 21
150.475
 31
0.0
  0
LINE
  8
0
  6
CONTINUOUS
 62
     2
 10
199.771379743
 20
150.475
 30
0.0
 11
199.771379743
 21
151.35
 31
0.0
  0
LINE
  8
0
  6
CONTINUOUS
 62
     2
 10
199.771379743
 20
151.35
 30
0.0
 11
199.6285226
 21
151.875
 31
0.0
  0
LINE
  8
0
  6
CONTINUOUS
 62
     2
 10
199.6285226
 20
151.875
 30
0.0
 11
199.342808315
 21
152.05
 31
0.0
  0
LINE
  8
0
  6
CONTINUOUS
 62
     2
 10
199.342808315
 20
152.05
 30
0.0
 11
198.914236886
 21
152.05
 31
0.0
  0
LINE
  8
0
  6
CONTINUOUS
 62
     2
 10
198.914236886
 20
152.05
 30
0.0
 11
198.6285226
 21
151.875
 31
0.0
  0
LINE
  8
0
  6
CONTINUOUS
 62
     2
 10
198.6285226
 20
151.875
 30
0.0
 11
198.485665458
 21
151.35
 31
0.0
  0
LINE
  8
0
  6
CONTINUOUS
 62
     2
 10
198.485665458
 20
151.35
 30
0.0
 11
198.485665458
 21
150.475
 31
0.0
  0
LINE
  8
0
  6
CONTINUOUS
 62
     2
 10
200.8285226
 20
149.6
 30
0.0
 11
201.114236886
 21
149.95
 31
0.0
  0
LINE
  8
0
  6
CONTINUOUS
 62
     2
 10
201.114236886
 20
149.95
 30
0.0
 11
201.114236886
 21
150.3
 31
0.0
  0
LINE
  8
0
  6
CONTINUOUS
 62
     2
 10
201.114236886
 20
150.3
 30
0.0
 11
200.8285226
 21
150.3
 31
0.0
  0
LINE
  8
0
  6
CONTINUOUS
 62
     2
 10
200.8285226
 20
150.3
 30
0.0
 11
200.8285226
 21
149.95
 31
0.0
  0
LINE
  8
0
  6
CONTINUOUS
 62
     2
 10
200.8285226
 20
149.95
 30
0.0
 11
201.114236886
 21
149.95
 31
0.0
  0
LINE
  8
0
  6
CONTINUOUS
 62
     2
 10
201.114236886
 20
149.95
 30
0.0
 11
200.8285226
 21
150.3
 31
0.0
  0
LINE
  8
0
  6
CONTINUOUS
 62
     2
 10
202.885665458
 20
150.65
 30
0.0
 11
203.171379743
 21
151.0
 31
0.0
  0
LINE
  8
0
  6
CONTINUOUS
 62
     2
 10
203.171379743
 20
151.0
 30
0.0
 11
203.885665458
 21
151.0
 31
0.0
  0
LINE
  8
0
  6
CONTINUOUS
 62
     2
 10
203.885665458
 20
151.0
 30
0.0
 11
204.171379743
 21
150.65
 31
0.0
  0
LINE
  8
0
  6
CONTINUOUS
 62
     2
 10
204.171379743
 20
150.65
 30
0.0
 11
204.171379743
 21
150.125
 31
0.0
  0
LINE
  8
0
  6
CONTINUOUS
 62
     2
 10
204.171379743
 20
150.125
 30
0.0
 11
203.885665458
 21
149.775
 31
0.0
  0
LINE
  8
0
  6
CONTINUOUS
 62
     2
 10
203.885665458
 20
149.775
 30
0.0
 11
203.171379743
 21
149.775
 31
0.0
  0
LINE
  8
0
  6
CONTINUOUS
 62
     2
 10
203.171379743
 20
149.775
 30
0.0
 11
202.885665458
 21
150.125
 31
0.0
  0
LINE
  8
0
  6
CONTINUOUS
 62
     2
 10
202.885665458
 20
150.125
 30
0.0
 11
202.885665458
 21
151.7
 31
0.0
  0
LINE
  8
0
  6
CONTINUOUS
 62
     2
 10
202.885665458
 20
151.7
 30
0.0
 11
203.171379743
 21
152.05
 31
0.0
  0
LINE
  8
0
  6
CONTINUOUS
 62
     2
 10
203.171379743
 20
152.05
 30
0.0
 11
203.885665458
 21
152.05
 31
0.0
  0
LINE
  8
0
  6
CONTINUOUS
 62
     2
 10
203.885665458
 20
152.05
 30
0.0
 11
204.171379743
 21
151.7
 31
0.0
  0
LINE
  8
0
  6
CONTINUOUS
 62
     2
 10
205.085665458
 20
150.475
 30
0.0
 11
205.2285226
 21
149.95
 31
0.0
  0
LINE
  8
0
  6
CONTINUOUS
 62
     2
 10
205.2285226
 20
149.95
 30
0.0
 11
205.514236886
 21
149.775
 31
0.0
  0
LINE
  8
0
  6
CONTINUOUS
 62
     2
 10
205.514236886
 20
149.775
 30
0.0
 11
205.942808315
 21
149.775
 31
0.0
  0
LINE
  8
0
  6
CONTINUOUS
 62
     2
 10
205.942808315
 20
149.775
 30
0.0
 11
206.2285226
 21
149.95
 31
0.0
  0
LINE
  8
0
  6
CONTINUOUS
 62
     2
 10
206.2285226
 20
149.95
 30
0.0
 11
206.371379743
 21
150.475
 31
0.0
  0
LINE
  8
0
  6
CONTINUOUS
 62
     2
 10
206.371379743
 20
150.475
 30
0.0
 11
206.371379743
 21
151.35
 31
0.0
  0
LINE
  8
0
  6
CONTINUOUS
 62
     2
 10
206.371379743
 20
151.35
 30
0.0
 11
206.2285226
 21
151.875
 31
0.0
  0
LINE
  8
0
  6
CONTINUOUS
 62
     2
 10
206.2285226
 20
151.875
 30
0.0
 11
205.942808315
 21
152.05
 31
0.0
  0
LINE
  8
0
  6
CONTINUOUS
 62
     2
 10
205.942808315
 20
152.05
 30
0.0
 11
205.514236886
 21
152.05
 31
0.0
  0
LINE
  8
0
  6
CONTINUOUS
 62
     2
 10
205.514236886
 20
152.05
 30
0.0
 11
205.2285226
 21
151.875
 31
0.0
  0
LINE
  8
0
  6
CONTINUOUS
 62
     2
 10
205.2285226
 20
151.875
 30
0.0
 11
205.085665458
 21
151.35
 31
0.0
  0
LINE
  8
0
  6
CONTINUOUS
 62
     2
 10
205.085665458
 20
151.35
 30
0.0
 11
205.085665458
 21
150.475
 31
0.0
  0
LINE
  8
0
  6
CONTINUOUS
 62
     2
 10
201.257094029
 20
147.25
 30
0.0
 11
200.685665458
 21
144.975
 31
0.0
  0
LINE
  8
0
  6
CONTINUOUS
 62
     2
 10
201.399951172
 20
147.25
 30
0.0
 11
201.971379743
 21
144.975
 31
0.0
  0
LINE
  8
0
  6
CONTINUOUS
 62
     2
 10
201.257094029
 20
147.25
 30
0.0
 11
201.399951172
 21
147.25
 31
0.0
  0
LINE
  8
0
  6
CONTINUOUS
 62
     2
 10
200.971379743
 20
145.85
 30
0.0
 11
201.685665458
 21
145.85
 31
0.0
  0
LINE
  8
0
  6
CONTINUOUS
 62
     2
 10
200.685665458
 20
169.324987793
 30
0.0
 11
200.971379743
 21
168.974987793
 31
0.0
  0
LINE
  8
0
  6
CONTINUOUS
 62
     2
 10
200.971379743
 20
168.974987793
 30
0.0
 11
201.685665458
 21
168.974987793
 31
0.0
  0
LINE
  8
0
  6
CONTINUOUS
 62
     2
 10
201.685665458
 20
168.974987793
 30
0.0
 11
201.971379743
 21
169.324987793
 31
0.0
  0
LINE
  8
0
  6
CONTINUOUS
 62
     2
 10
201.971379743
 20
169.324987793
 30
0.0
 11
201.971379743
 21
169.849987793
 31
0.0
  0
LINE
  8
0
  6
CONTINUOUS
 62
     2
 10
201.971379743
 20
169.849987793
 30
0.0
 11
201.685665458
 21
170.199987793
 31
0.0
  0
LINE
  8
0
  6
CONTINUOUS
 62
     2
 10
201.685665458
 20
170.199987793
 30
0.0
 11
200.8285226
 21
170.199987793
 31
0.0
  0
LINE
  8
0
  6
CONTINUOUS
 62
     2
 10
200.8285226
 20
170.199987793
 30
0.0
 11
200.8285226
 21
171.249987793
 31
0.0
  0
LINE
  8
0
  6
CONTINUOUS
 62
     2
 10
200.8285226
 20
171.249987793
 30
0.0
 11
201.971379743
 21
171.249987793
 31
0.0
  0
TEXT
  8
0
  6
CONTINUOUS
 62
     2
 10
196.0
 20
183.199926758
 30
0.3
 40
3.0
  1
ＣＲＭ－５
 50
0.0
 41
0.9
 51
0.0
  7
KANJI0
  0
LINE
  8
0
  6
LTYPE0
 62
     2
 10
119.0
 20
99.0
 30
0.0
 11
119.0
 21
94.0
 31
0.0
  0
LINE
  8
0
  6
LTYPE0
 62
     2
 10
151.0
 20
99.0
 30
0.0
 11
151.0
 21
94.0
 31
0.0
  0
LINE
  8
0
  6
CONTINUOUS
 62
     2
 10
147.0
 20
49.0
 30
0.0
 11
123.0
 21
49.0
 31
0.0
  0
ARC
  8
0
  6
CONTINUOUS
 62
     2
 10
123.5
 20
96.5
 30
0.0
 40
0.5
 50
90.0
 51
180.0
  0
LINE
  8
0
  6
CONTINUOUS
 62
     2
 10
123.5
 20
97.0
 30
0.0
 11
146.499984741
 21
97.0
 31
0.0
  0
ARC
  8
0
  6
CONTINUOUS
 62
     2
 10
146.499984741
 20
96.5
 30
0.0
 40
0.5
 50
0.0
 51
90.0
  0
LINE
  8
0
  6
CONTINUOUS
 62
     2
 10
147.0
 20
95.0
 30
0.0
 11
155.5
 21
95.0
 31
0.0
  0
ARC
  8
0
  6
CONTINUOUS
 62
     2
 10
155.5
 20
94.5
 30
0.0
 40
0.5
 50
0.0
 51
90.0
  0
ARC
  8
0
  6
CONTINUOUS
 62
     2
 10
114.500007629
 20
94.5
 30
0.0
 40
0.5
 50
90.0
 51
180.0
  0
LINE
  8
0
  6
CONTINUOUS
 62
     2
 10
123.0
 20
95.0
 30
0.0
 11
114.500007629
 21
95.0
 31
0.0
  0
LINE
  8
0
  6
CONTINUOUS
 62
     2
 10
114.0
 20
56.0
 30
0.0
 11
114.0
 21
94.5
 31
0.0
  0
LINE
  8
0
  6
CONTINUOUS
 62
     2
 10
156.0
 20
56.0
 30
0.0
 11
156.0
 21
94.5
 31
0.0
  0
LINE
  8
0
  6
CONTINUOUS
 62
     2
 10
156.0
 20
56.000015259
 30
0.0
 11
147.0
 21
49.0
 31
0.0
  0
ARC
  8
0
  6
CONTINUOUS
 62
     2
 10
148.0
 20
51.044639587
 30
0.0
 40
1.0
 50
180.0
 51
307.874816895
  0
LINE
  8
0
  6
CONTINUOUS
 62
     2
 10
114.0
 20
56.0
 30
0.0
 11
123.0
 21
49.0
 31
0.0
  0
ARC
  8
0
  6
CONTINUOUS
 62
     2
 10
122.0
 20
51.044628143
 30
0.0
 40
1.0
 50
232.124908447
 51
0.0
  0
LINE
  8
0
  6
CONTINUOUS
 62
     2
 10
123.0
 20
49.0
 30
0.0
 11
123.0
 21
96.5
 31
0.0
  0
ARC
  8
0
  6
CONTINUOUS
 62
     2
 10
124.0
 20
55.0
 30
0.0
 40
1.0
 50
90.0
 51
180.0
  0
LINE
  8
0
  6
CONTINUOUS
 62
     2
 10
124.0
 20
56.0
 30
0.0
 11
146.0
 21
56.0
 31
0.0
  0
LINE
  8
0
  6
CONTINUOUS
 62
     2
 10
147.0
 20
49.0
 30
0.0
 11
147.0
 21
96.5
 31
0.0
  0
ARC
  8
0
  6
CONTINUOUS
 62
     2
 10
146.0
 20
55.0
 30
0.0
 40
1.0
 50
0.0
 51
90.0
  0
LINE
  8
0
  6
CONTINUOUS
 62
     2
 10
122.5
 20
49.5
 30
0.0
 11
122.5
 21
43.0
 31
0.0
  0
LINE
  8
0
  6
CONTINUOUS
 62
     2
 10
122.5
 20
43.0
 30
0.0
 11
147.5
 21
43.0
 31
0.0
  0
LINE
  8
0
  6
CONTINUOUS
 62
     2
 10
147.5
 20
43.0
 30
0.0
 11
147.5
 21
49.5
 31
0.0
  0
LINE
  8
0
  6
CONTINUOUS
 62
     2
 10
122.5
 20
44.0
 30
0.0
 11
147.5
 21
44.0
 31
0.0
  0
LINE
  8
0
  6
CONTINUOUS
 62
     2
 10
132.0
 20
44.0
 30
0.0
 11
132.0
 21
43.0
 31
0.0
  0
LINE
  8
0
  6
CONTINUOUS
 62
     2
 10
138.0
 20
43.0
 30
0.0
 11
138.0
 21
44.0
 31
0.0
  0
LINE
  8
0
  6
CONTINUOUS
 62
     2
 10
116.5
 20
95.0
 30
0.0
 11
116.5
 21
95.5
 31
0.0
  0
LINE
  8
0
  6
CONTINUOUS
 62
     2
 10
116.5
 20
95.5
 30
0.0
 11
121.5
 21
95.5
 31
0.0
  0
LINE
  8
0
  6
CONTINUOUS
 62
     2
 10
121.5
 20
95.5
 30
0.0
 11
121.5
 21
95.0
 31
0.0
  0
LINE
  8
0
  6
CONTINUOUS
 62
     2
 10
117.0
 20
95.5
 30
0.0
 11
117.0
 21
96.0
 31
0.0
  0
LINE
  8
0
  6
CONTINUOUS
 62
     2
 10
117.0
 20
96.0
 30
0.0
 11
121.0
 21
96.0
 31
0.0
  0
LINE
  8
0
  6
CONTINUOUS
 62
     2
 10
121.0
 20
96.0
 30
0.0
 11
121.0
 21
95.5
 31
0.0
  0
ARC
  8
0
  6
CONTINUOUS
 62
     2
 10
119.0
 20
96.0
 30
0.0
 40
2.0
 50
0.0
 51
180.0
  0
LINE
  8
0
  6
CONTINUOUS
 62
     2
 10
153.5
 20
95.0
 30
0.0
 11
153.5
 21
95.5
 31
0.0
  0
LINE
  8
0
  6
CONTINUOUS
 62
     2
 10
153.5
 20
95.5
 30
0.0
 11
148.5
 21
95.5
 31
0.0
  0
LINE
  8
0
  6
CONTINUOUS
 62
     2
 10
148.5
 20
95.5
 30
0.0
 11
148.5
 21
95.0
 31
0.0
  0
LINE
  8
0
  6
CONTINUOUS
 62
     2
 10
153.0
 20
95.5
 30
0.0
 11
153.0
 21
96.0
 31
0.0
  0
LINE
  8
0
  6
CONTINUOUS
 62
     2
 10
153.0
 20
96.0
 30
0.0
 11
149.0
 21
96.0
 31
0.0
  0
LINE
  8
0
  6
CONTINUOUS
 62
     2
 10
149.0
 20
96.0
 30
0.0
 11
149.0
 21
95.5
 31
0.0
  0
ARC
  8
0
  6
CONTINUOUS
 62
     2
 10
151.0
 20
96.0
 30
0.0
 40
2.0
 50
0.0
 51
180.0
  0
LINE
  8
0
  6
CONTINUOUS
 62
     2
 10
114.0
 20
96.5
 30
0.0
 11
117.06350708
 21
96.5
 31
0.0
  0
LINE
  8
0
  6
CONTINUOUS
 62
     2
 10
120.93649292
 20
96.5
 30
0.0
 11
123.0
 21
96.5
 31
0.0
  0
LINE
  8
0
  6
CONTINUOUS
 62
     2
 10
114.0
 20
94.5
 30
0.0
 11
114.0
 21
96.499992371
 31
0.0
  0
LINE
  8
0
  6
CONTINUOUS
 62
     2
 10
156.0
 20
96.5
 30
0.0
 11
152.93649292
 21
96.5
 31
0.0
  0
LINE
  8
0
  6
CONTINUOUS
 62
     2
 10
149.06350708
 20
96.5
 30
0.0
 11
147.0
 21
96.5
 31
0.0
  0
LINE
  8
0
  6
CONTINUOUS
 62
     2
 10
156.0
 20
94.5
 30
0.0
 11
156.0
 21
96.499992371
 31
0.0
  0
LINE
  8
0
  6
CONTINUOUS
 62
     2
 10
118.818527222
 20
98.222633362
 30
0.0
 11
131.554763794
 21
107.992904663
 31
0.0
  0
LINE
  8
0
  6
CONTINUOUS
 62
     2
 10
118.818527222
 20
98.222633362
 30
0.0
 11
120.036252925
 21
99.809184373
 31
0.0
  0
LINE
  8
0
  6
CONTINUOUS
 62
     2
 10
118.818527222
 20
98.222633362
 30
0.0
 11
120.666384121
 21
98.987763991
 31
0.0
  0
LINE
  8
0
  6
CONTINUOUS
 62
     2
 10
150.571914673
 20
98.048164368
 30
0.0
 11
131.729232788
 21
107.992904663
 31
0.0
  0
LINE
  8
0
  6
CONTINUOUS
 62
     2
 10
150.571914673
 20
98.048164368
 30
0.0
 11
148.62180233
 21
98.492080858
 31
0.0
  0
LINE
  8
0
  6
CONTINUOUS
 62
     2
 10
150.571914673
 20
98.048164368
 30
0.0
 11
149.105026089
 21
99.407663497
 31
0.0
  0
LINE
  8
0
  6
CONTINUOUS
 62
     2
 10
131.554763794
 20
107.992904663
 30
0.0
 11
141.811035156
 21
107.992904663
 31
0.0
  0
LINE
  8
0
  6
CONTINUOUS
 62
     2
 10
134.597331456
 20
109.05947876
 30
0.0
 11
134.597331456
 21
111.90322876
 31
0.0
  0
LINE
  8
0
  6
CONTINUOUS
 62
     2
 10
134.597331456
 20
111.90322876
 30
0.0
 11
135.31161717
 21
110.15322876
 31
0.0
  0
LINE
  8
0
  6
CONTINUOUS
 62
     2
 10
135.31161717
 20
110.15322876
 30
0.0
 11
136.204474313
 21
111.90322876
 31
0.0
  0
LINE
  8
0
  6
CONTINUOUS
 62
     2
 10
136.204474313
 20
111.90322876
 30
0.0
 11
136.204474313
 21
109.05947876
 31
0.0
  0
LINE
  8
0
  6
CONTINUOUS
 62
     2
 10
137.347331456
 20
109.49697876
 30
0.0
 11
137.704474313
 21
109.05947876
 31
0.0
  0
LINE
  8
0
  6
CONTINUOUS
 62
     2
 10
137.704474313
 20
109.05947876
 30
0.0
 11
138.597331456
 21
109.05947876
 31
0.0
  0
LINE
  8
0
  6
CONTINUOUS
 62
     2
 10
138.597331456
 20
109.05947876
 30
0.0
 11
138.954474313
 21
109.49697876
 31
0.0
  0
LINE
  8
0
  6
CONTINUOUS
 62
     2
 10
138.954474313
 20
109.49697876
 30
0.0
 11
138.954474313
 21
110.15322876
 31
0.0
  0
LINE
  8
0
  6
CONTINUOUS
 62
     2
 10
138.954474313
 20
110.15322876
 30
0.0
 11
138.597331456
 21
110.59072876
 31
0.0
  0
LINE
  8
0
  6
CONTINUOUS
 62
     2
 10
138.597331456
 20
110.59072876
 30
0.0
 11
137.525902884
 21
110.59072876
 31
0.0
  0
LINE
  8
0
  6
CONTINUOUS
 62
     2
 10
137.525902884
 20
110.59072876
 30
0.0
 11
137.525902884
 21
111.90322876
 31
0.0
  0
LINE
  8
0
  6
CONTINUOUS
 62
     2
 10
137.525902884
 20
111.90322876
 30
0.0
 11
138.954474313
 21
111.90322876
 31
0.0
  0
LINE
  8
0
  6
CONTINUOUS
 62
     2
 10
132.0
 20
35.0
 30
0.0
 11
125.591918945
 21
35.0
 31
0.0
  0
LINE
  8
0
  6
CONTINUOUS
 62
     2
 10
132.0
 20
35.0
 30
0.0
 11
130.068148347
 21
35.51763809
 31
0.0
  0
LINE
  8
0
  6
CONTINUOUS
 62
     2
 10
132.0
 20
35.0
 30
0.0
 11
130.068148347
 21
34.48236191
 31
0.0
  0
LINE
  8
0
  6
CONTINUOUS
 62
     2
 10
138.0
 20
35.0
 30
0.0
 11
146.0
 21
35.0
 31
0.0
  0
LINE
  8
0
  6
CONTINUOUS
 62
     2
 10
138.0
 20
35.0
 30
0.0
 11
139.931851653
 21
35.51763809
 31
0.0
  0
LINE
  8
0
  6
CONTINUOUS
 62
     2
 10
138.0
 20
35.0
 30
0.0
 11
139.931851653
 21
34.48236191
 31
0.0
  0
LINE
  8
0
  6
CONTINUOUS
 62
     2
 10
132.0
 20
35.0
 30
0.0
 11
138.0
 21
35.0
 31
0.0
  0
LINE
  8
0
  6
CONTINUOUS
 62
     2
 10
122.5
 20
27.0
 30
0.0
 11
147.5
 21
27.0
 31
0.0
  0
LINE
  8
0
  6
CONTINUOUS
 62
     2
 10
122.5
 20
27.0
 30
0.0
 11
124.431851653
 21
27.51763809
 31
0.0
  0
LINE
  8
0
  6
CONTINUOUS
 62
     2
 10
122.5
 20
27.0
 30
0.0
 11
124.431851653
 21
26.48236191
 31
0.0
  0
LINE
  8
0
  6
CONTINUOUS
 62
     2
 10
147.5
 20
27.0
 30
0.0
 11
145.568148347
 21
27.51763809
 31
0.0
  0
LINE
  8
0
  6
CONTINUOUS
 62
     2
 10
147.5
 20
27.0
 30
0.0
 11
145.568148347
 21
26.48236191
 31
0.0
  0
LINE
  8
0
  6
CONTINUOUS
 62
     2
 10
122.5
 20
42.0
 30
0.0
 11
122.5
 21
25.0
 31
0.0
  0
LINE
  8
0
  6
CONTINUOUS
 62
     2
 10
147.5
 20
42.0
 30
0.0
 11
147.5
 21
25.0
 31
0.0
  0
LINE
  8
0
  6
CONTINUOUS
 62
     2
 10
132.0
 20
42.0
 30
0.0
 11
132.0
 21
33.0
 31
0.0
  0
LINE
  8
0
  6
CONTINUOUS
 62
     2
 10
138.0
 20
42.0
 30
0.0
 11
138.0
 21
33.0
 31
0.0
  0
LINE
  8
0
  6
CONTINUOUS
 62
     2
 10
133.625
 20
28.0
 30
0.0
 11
133.625
 21
30.84375
 31
0.0
  0
LINE
  8
0
  6
CONTINUOUS
 62
     2
 10
133.625
 20
30.84375
 30
0.0
 11
132.553571429
 21
28.65625
 31
0.0
  0
LINE
  8
0
  6
CONTINUOUS
 62
     2
 10
132.553571429
 20
28.65625
 30
0.0
 11
134.160714286
 21
28.65625
 31
0.0
  0
LINE
  8
0
  6
CONTINUOUS
 62
     2
 10
135.482142857
 20
28.4375
 30
0.0
 11
135.839285714
 21
28.0
 31
0.0
  0
LINE
  8
0
  6
CONTINUOUS
 62
     2
 10
135.839285714
 20
28.0
 30
0.0
 11
136.732142857
 21
28.0
 31
0.0
  0
LINE
  8
0
  6
CONTINUOUS
 62
     2
 10
136.732142857
 20
28.0
 30
0.0
 11
137.089285714
 21
28.4375
 31
0.0
  0
LINE
  8
0
  6
CONTINUOUS
 62
     2
 10
137.089285714
 20
28.4375
 30
0.0
 11
137.089285714
 21
28.875
 31
0.0
  0
LINE
  8
0
  6
CONTINUOUS
 62
     2
 10
137.089285714
 20
28.875
 30
0.0
 11
136.732142857
 21
29.53125
 31
0.0
  0
LINE
  8
0
  6
CONTINUOUS
 62
     2
 10
136.732142857
 20
29.53125
 30
0.0
 11
135.839285714
 21
29.53125
 31
0.0
  0
LINE
  8
0
  6
CONTINUOUS
 62
     2
 10
135.482142857
 20
30.40625
 30
0.0
 11
135.839285714
 21
30.84375
 31
0.0
  0
LINE
  8
0
  6
CONTINUOUS
 62
     2
 10
135.839285714
 20
30.84375
 30
0.0
 11
136.732142857
 21
30.84375
 31
0.0
  0
LINE
  8
0
  6
CONTINUOUS
 62
     2
 10
136.732142857
 20
30.84375
 30
0.0
 11
137.089285714
 21
30.40625
 31
0.0
  0
LINE
  8
0
  6
CONTINUOUS
 62
     2
 10
137.089285714
 20
30.40625
 30
0.0
 11
137.089285714
 21
29.96875
 31
0.0
  0
LINE
  8
0
  6
CONTINUOUS
 62
     2
 10
137.089285714
 20
29.96875
 30
0.0
 11
136.732142857
 21
29.53125
 31
0.0
  0
LINE
  8
0
  6
CONTINUOUS
 62
     2
 10
134.537451608
 20
37.53125
 30
0.0
 11
134.180308751
 21
37.09375
 31
0.0
  0
LINE
  8
0
  6
CONTINUOUS
 62
     2
 10
134.180308751
 20
37.09375
 30
0.0
 11
134.180308751
 21
36.4375
 31
0.0
  0
LINE
  8
0
  6
CONTINUOUS
 62
     2
 10
134.180308751
 20
36.4375
 30
0.0
 11
134.537451608
 21
36.0
 31
0.0
  0
LINE
  8
0
  6
CONTINUOUS
 62
     2
 10
134.537451608
 20
36.0
 30
0.0
 11
135.430308751
 21
36.0
 31
0.0
  0
LINE
  8
0
  6
CONTINUOUS
 62
     2
 10
135.430308751
 20
36.0
 30
0.0
 11
135.787451608
 21
36.4375
 31
0.0
  0
LINE
  8
0
  6
CONTINUOUS
 62
     2
 10
135.787451608
 20
36.4375
 30
0.0
 11
135.787451608
 21
37.09375
 31
0.0
  0
LINE
  8
0
  6
CONTINUOUS
 62
     2
 10
135.787451608
 20
37.09375
 30
0.0
 11
135.430308751
 21
37.53125
 31
0.0
  0
LINE
  8
0
  6
CONTINUOUS
 62
     2
 10
135.430308751
 20
37.53125
 30
0.0
 11
134.537451608
 21
37.53125
 31
0.0
  0
LINE
  8
0
  6
CONTINUOUS
 62
     2
 10
134.537451608
 20
37.53125
 30
0.0
 11
134.358880179
 21
37.96875
 31
0.0
  0
LINE
  8
0
  6
CONTINUOUS
 62
     2
 10
134.358880179
 20
37.96875
 30
0.0
 11
134.358880179
 21
38.40625
 31
0.0
  0
LINE
  8
0
  6
CONTINUOUS
 62
     2
 10
134.358880179
 20
38.40625
 30
0.0
 11
134.716023036
 21
38.84375
 31
0.0
  0
LINE
  8
0
  6
CONTINUOUS
 62
     2
 10
134.716023036
 20
38.84375
 30
0.0
 11
135.251737322
 21
38.84375
 31
0.0
  0
LINE
  8
0
  6
CONTINUOUS
 62
     2
 10
135.251737322
 20
38.84375
 30
0.0
 11
135.608880179
 21
38.40625
 31
0.0
  0
LINE
  8
0
  6
CONTINUOUS
 62
     2
 10
135.608880179
 20
38.40625
 30
0.0
 11
135.608880179
 21
37.96875
 31
0.0
  0
LINE
  8
0
  6
CONTINUOUS
 62
     2
 10
135.608880179
 20
37.96875
 30
0.0
 11
135.430308751
 21
37.53125
 31
0.0
  0
LINE
  8
0
  6
LTYPE0
 62
     2
 10
135.0
 20
42.0
 30
0.0
 11
135.0
 21
100.0
 31
0.0
  0
LINE
  8
0
  6
LTYPE0
 62
     2
 10
44.999998382
 20
45.0
 30
0.0
 11
45.000006471
 21
100.0
 31
0.0
  0
LINE
  8
0
  6
CONTINUOUS
 62
     2
 10
223.0
 20
129.399975586
 30
0.0
 11
159.0
 21
129.399975586
 31
0.0
  0
LINE
  8
0
  6
CONTINUOUS
 62
     2
 10
223.0
 20
119.799975586
 30
0.0
 11
159.0
 21
119.799975586
 31
0.0
  0
LINE
  8
0
  6
CONTINUOUS
 62
     2
 10
163.8
 20
129.399951172
 30
0.0
 11
163.8
 21
119.799951172
 31
0.0
  0
LINE
  8
0
  6
CONTINUOUS
 62
     2
 10
223.0
 20
124.599951172
 30
0.0
 11
163.8
 21
124.599951172
 31
0.0
  0
LINE
  8
0
  6
CONTINUOUS
 62
     2
 10
179.639999986
 20
130.399975586
 30
0.0
 11
182.239999986
 21
130.399975586
 31
0.0
  0
LINE
  8
0
  6
CONTINUOUS
 62
     2
 10
181.839999986
 20
130.749975586
 30
0.0
 11
180.039999986
 21
130.749975586
 31
0.0
  0
LINE
  8
0
  6
CONTINUOUS
 62
     2
 10
180.839999986
 20
130.399975586
 30
0.0
 11
180.839999986
 21
131.799975586
 31
0.0
  0
LINE
  8
0
  6
CONTINUOUS
 62
     2
 10
180.839999986
 20
131.799975586
 30
0.0
 11
180.039999986
 21
131.799975586
 31
0.0
  0
LINE
  8
0
  6
CONTINUOUS
 62
     2
 10
180.039999986
 20
131.799975586
 30
0.0
 11
180.039999986
 21
131.099975586
 31
0.0
  0
LINE
  8
0
  6
CONTINUOUS
 62
     2
 10
180.039999986
 20
131.099975586
 30
0.0
 11
181.839999986
 21
131.099975586
 31
0.0
  0
LINE
  8
0
  6
CONTINUOUS
 62
     2
 10
181.839999986
 20
131.099975586
 30
0.0
 11
181.839999986
 21
131.799975586
 31
0.0
  0
LINE
  8
0
  6
CONTINUOUS
 62
     2
 10
181.839999986
 20
131.799975586
 30
0.0
 11
180.839999986
 21
131.799975586
 31
0.0
  0
LINE
  8
0
  6
CONTINUOUS
 62
     2
 10
180.039999986
 20
131.449975586
 30
0.0
 11
181.839999986
 21
131.449975586
 31
0.0
  0
LINE
  8
0
  6
CONTINUOUS
 62
     2
 10
182.239999986
 20
131.974975586
 30
0.0
 11
179.639999986
 21
131.974975586
 31
0.0
  0
LINE
  8
0
  6
CONTINUOUS
 62
     2
 10
180.039999986
 20
132.674975586
 30
0.0
 11
181.839999986
 21
132.674975586
 31
0.0
  0
LINE
  8
0
  6
CONTINUOUS
 62
     2
 10
181.839999986
 20
132.674975586
 30
0.0
 11
181.839999986
 21
132.324975586
 31
0.0
  0
LINE
  8
0
  6
CONTINUOUS
 62
     2
 10
181.839999986
 20
132.324975586
 30
0.0
 11
180.039999986
 21
132.324975586
 31
0.0
  0
LINE
  8
0
  6
CONTINUOUS
 62
     2
 10
180.039999986
 20
132.324975586
 30
0.0
 11
180.039999986
 21
133.024975586
 31
0.0
  0
LINE
  8
0
  6
CONTINUOUS
 62
     2
 10
180.039999986
 20
133.024975586
 30
0.0
 11
181.839999986
 21
133.024975586
 31
0.0
  0
LINE
  8
0
  6
CONTINUOUS
 62
     2
 10
181.839999986
 20
133.024975586
 30
0.0
 11
181.839999986
 21
132.674975586
 31
0.0
  0
LINE
  8
0
  6
CONTINUOUS
 62
     2
 10
218.785714286
 20
130.574951172
 30
0.0
 11
218.785714286
 21
132.849951172
 31
0.0
  0
LINE
  8
0
  6
CONTINUOUS
 62
     2
 10
218.785714286
 20
131.624951172
 30
0.0
 11
220.071428571
 21
132.849951172
 31
0.0
  0
LINE
  8
0
  6
CONTINUOUS
 62
     2
 10
219.214285714
 20
131.974951172
 30
0.0
 11
220.071428571
 21
130.574951172
 31
0.0
  0
LINE
  8
0
  6
CONTINUOUS
 62
     2
 10
222.128571429
 20
130.924951172
 30
0.0
 11
222.128571429
 21
130.574951172
 31
0.0
  0
LINE
  8
0
  6
CONTINUOUS
 62
     2
 10
222.128571429
 20
130.574951172
 30
0.0
 11
221.985714286
 21
130.399951172
 31
0.0
  0
LINE
  8
0
  6
CONTINUOUS
 62
     2
 10
221.985714286
 20
130.399951172
 30
0.0
 11
221.414285714
 21
130.399951172
 31
0.0
  0
LINE
  8
0
  6
CONTINUOUS
 62
     2
 10
221.414285714
 20
130.399951172
 30
0.0
 11
221.271428571
 21
130.574951172
 31
0.0
  0
LINE
  8
0
  6
CONTINUOUS
 62
     2
 10
221.414285714
 20
131.274951172
 30
0.0
 11
221.271428571
 21
131.449951172
 31
0.0
  0
LINE
  8
0
  6
CONTINUOUS
 62
     2
 10
221.271428571
 20
131.449951172
 30
0.0
 11
221.271428571
 21
131.799951172
 31
0.0
  0
LINE
  8
0
  6
CONTINUOUS
 62
     2
 10
221.271428571
 20
131.799951172
 30
0.0
 11
221.271428571
 21
131.974951172
 31
0.0
  0
LINE
  8
0
  6
CONTINUOUS
 62
     2
 10
221.271428571
 20
131.974951172
 30
0.0
 11
221.414285714
 21
132.149951172
 31
0.0
  0
LINE
  8
0
  6
CONTINUOUS
 62
     2
 10
221.414285714
 20
132.149951172
 30
0.0
 11
221.985714286
 21
132.149951172
 31
0.0
  0
LINE
  8
0
  6
CONTINUOUS
 62
     2
 10
221.985714286
 20
132.149951172
 30
0.0
 11
222.128571429
 21
131.974951172
 31
0.0
  0
LINE
  8
0
  6
CONTINUOUS
 62
     2
 10
222.128571429
 20
131.974951172
 30
0.0
 11
222.128571429
 21
132.149951172
 31
0.0
  0
LINE
  8
0
  6
CONTINUOUS
 62
     2
 10
222.128571429
 20
131.799951172
 30
0.0
 11
222.128571429
 21
131.449951172
 31
0.0
  0
LINE
  8
0
  6
CONTINUOUS
 62
     2
 10
222.128571429
 20
131.449951172
 30
0.0
 11
221.985714286
 21
131.274951172
 31
0.0
  0
LINE
  8
0
  6
CONTINUOUS
 62
     2
 10
221.985714286
 20
131.274951172
 30
0.0
 11
221.414285714
 21
131.274951172
 31
0.0
  0
LINE
  8
0
  6
CONTINUOUS
 62
     2
 10
222.128571429
 20
131.974951172
 30
0.0
 11
222.128571429
 21
131.799951172
 31
0.0
  0
LINE
  8
0
  6
CONTINUOUS
 62
     2
 10
222.128571429
 20
131.449951172
 30
0.0
 11
222.128571429
 21
130.924951172
 31
0.0
  0
LINE
  8
0
  6
CONTINUOUS
 62
     2
 10
160.4
 20
125.599951172
 30
0.0
 11
160.4
 21
127.524951172
 31
0.0
  0
LINE
  8
0
  6
CONTINUOUS
 62
     2
 10
160.0
 20
126.649951172
 30
0.0
 11
160.8
 21
128.224951172
 31
0.0
  0
LINE
  8
0
  6
CONTINUOUS
 62
     2
 10
160.8
 20
127.874951172
 30
0.0
 11
162.6
 21
127.874951172
 31
0.0
  0
LINE
  8
0
  6
CONTINUOUS
 62
     2
 10
162.2
 20
127.174951172
 30
0.0
 11
162.2
 21
128.224951172
 31
0.0
  0
LINE
  8
0
  6
CONTINUOUS
 62
     2
 10
161.2
 20
128.224951172
 30
0.0
 11
161.2
 21
127.174951172
 31
0.0
  0
LINE
  8
0
  6
CONTINUOUS
 62
     2
 10
161.0
 20
126.124951172
 30
0.0
 11
162.4
 21
126.124951172
 31
0.0
  0
LINE
  8
0
  6
CONTINUOUS
 62
     2
 10
162.4
 20
126.474951172
 30
0.0
 11
161.0
 21
126.474951172
 31
0.0
  0
LINE
  8
0
  6
CONTINUOUS
 62
     2
 10
161.8
 20
126.824951172
 30
0.0
 11
161.8
 21
125.599951172
 31
0.0
  0
LINE
  8
0
  6
CONTINUOUS
 62
     2
 10
161.0
 20
126.824951172
 30
0.0
 11
162.4
 21
126.824951172
 31
0.0
  0
LINE
  8
0
  6
CONTINUOUS
 62
     2
 10
162.4
 20
126.824951172
 30
0.0
 11
162.4
 21
125.599951172
 31
0.0
  0
LINE
  8
0
  6
CONTINUOUS
 62
     2
 10
162.4
 20
125.599951172
 30
0.0
 11
162.2
 21
125.599951172
 31
0.0
  0
LINE
  8
0
  6
CONTINUOUS
 62
     2
 10
161.0
 20
126.824951172
 30
0.0
 11
161.0
 21
125.599951172
 31
0.0
  0
LINE
  8
0
  6
CONTINUOUS
 62
     2
 10
161.0
 20
127.174951172
 30
0.0
 11
160.8
 21
126.299951172
 31
0.0
  0
LINE
  8
0
  6
CONTINUOUS
 62
     2
 10
160.8
 20
126.299951172
 30
0.0
 11
160.6
 21
125.774951172
 31
0.0
  0
LINE
  8
0
  6
CONTINUOUS
 62
     2
 10
161.0
 20
127.174951172
 30
0.0
 11
162.6
 21
127.174951172
 31
0.0
  0
LINE
  8
0
  6
CONTINUOUS
 62
     2
 10
160.0
 20
121.499951172
 30
0.0
 11
160.4
 21
121.674951172
 31
0.0
  0
LINE
  8
0
  6
CONTINUOUS
 62
     2
 10
160.4
 20
121.674951172
 30
0.0
 11
162.2
 21
123.249951172
 31
0.0
  0
LINE
  8
0
  6
CONTINUOUS
 62
     2
 10
161.2
 20
123.424951172
 30
0.0
 11
161.2
 21
122.374951172
 31
0.0
  0
LINE
  8
0
  6
CONTINUOUS
 62
     2
 10
161.8
 20
123.074951172
 30
0.0
 11
160.2
 21
123.074951172
 31
0.0
  0
LINE
  8
0
  6
CONTINUOUS
 62
     2
 10
160.0
 20
122.374951172
 30
0.0
 11
162.6
 21
122.374951172
 31
0.0
  0
LINE
  8
0
  6
CONTINUOUS
 62
     2
 10
162.2
 20
122.024951172
 30
0.0
 11
160.8
 21
122.024951172
 31
0.0
  0
LINE
  8
0
  6
CONTINUOUS
 62
     2
 10
160.8
 20
122.024951172
 30
0.0
 11
160.8
 21
121.499951172
 31
0.0
  0
LINE
  8
0
  6
CONTINUOUS
 62
     2
 10
160.8
 20
121.499951172
 30
0.0
 11
162.2
 21
121.499951172
 31
0.0
  0
LINE
  8
0
  6
CONTINUOUS
 62
     2
 10
162.2
 20
121.499951172
 30
0.0
 11
162.2
 21
121.324951172
 31
0.0
  0
LINE
  8
0
  6
CONTINUOUS
 62
     2
 10
162.2
 20
121.324951172
 30
0.0
 11
162.0
 21
120.799951172
 31
0.0
  0
LINE
  8
0
  6
CONTINUOUS
 62
     2
 10
162.0
 20
120.799951172
 30
0.0
 11
161.4
 21
120.799951172
 31
0.0
  0
LINE
  8
0
  6
CONTINUOUS
 62
     2
 10
199.199951172
 20
130.574975586
 30
0.0
 11
199.199951172
 21
132.849975586
 31
0.0
  0
LINE
  8
0
  6
CONTINUOUS
 62
     2
 10
199.199951172
 20
132.849975586
 30
0.0
 11
198.914236886
 21
132.324975586
 31
0.0
  0
LINE
  8
0
  6
CONTINUOUS
 62
     2
 10
198.914236886
 20
130.574975586
 30
0.0
 11
199.485665458
 21
130.574975586
 31
0.0
  0
LINE
  8
0
  6
CONTINUOUS
 62
     2
 10
200.971379743
 20
130.574975586
 30
0.0
 11
200.685665458
 21
130.574975586
 31
0.0
  0
LINE
  8
0
  6
CONTINUOUS
 62
     2
 10
200.685665458
 20
130.574975586
 30
0.0
 11
200.685665458
 21
130.924975586
 31
0.0
  0
LINE
  8
0
  6
CONTINUOUS
 62
     2
 10
200.685665458
 20
130.924975586
 30
0.0
 11
200.971379743
 21
130.924975586
 31
0.0
  0
LINE
  8
0
  6
CONTINUOUS
 62
     2
 10
200.971379743
 20
130.924975586
 30
0.0
 11
200.971379743
 21
130.574975586
 31
0.0
  0
LINE
  8
0
  6
CONTINUOUS
 62
     2
 10
200.971379743
 20
130.574975586
 30
0.0
 11
200.685665458
 21
130.924975586
 31
0.0
  0
LINE
  8
0
  6
CONTINUOUS
 62
     2
 10
202.885665458
 20
132.499975586
 30
0.0
 11
203.171379743
 21
132.849975586
 31
0.0
  0
LINE
  8
0
  6
CONTINUOUS
 62
     2
 10
203.171379743
 20
132.849975586
 30
0.0
 11
203.885665458
 21
132.849975586
 31
0.0
  0
LINE
  8
0
  6
CONTINUOUS
 62
     2
 10
203.885665458
 20
132.849975586
 30
0.0
 11
204.171379743
 21
132.499975586
 31
0.0
  0
LINE
  8
0
  6
CONTINUOUS
 62
     2
 10
204.171379743
 20
132.499975586
 30
0.0
 11
204.171379743
 21
131.974975586
 31
0.0
  0
LINE
  8
0
  6
CONTINUOUS
 62
     2
 10
204.171379743
 20
131.974975586
 30
0.0
 11
203.885665458
 21
131.624975586
 31
0.0
  0
LINE
  8
0
  6
CONTINUOUS
 62
     2
 10
203.885665458
 20
131.624975586
 30
0.0
 11
203.171379743
 21
131.274975586
 31
0.0
  0
LINE
  8
0
  6
CONTINUOUS
 62
     2
 10
203.171379743
 20
131.274975586
 30
0.0
 11
203.0285226
 21
131.099975586
 31
0.0
  0
LINE
  8
0
  6
CONTINUOUS
 62
     2
 10
203.0285226
 20
131.099975586
 30
0.0
 11
202.885665458
 21
130.749975586
 31
0.0
  0
LINE
  8
0
  6
CONTINUOUS
 62
     2
 10
202.885665458
 20
130.749975586
 30
0.0
 11
202.885665458
 21
130.574975586
 31
0.0
  0
LINE
  8
0
  6
CONTINUOUS
 62
     2
 10
202.885665458
 20
130.574975586
 30
0.0
 11
204.171379743
 21
130.574975586
 31
0.0
  0
LINE
  8
0
  6
CONTINUOUS
 62
     2
 10
223.0
 20
119.799951172
 30
0.0
 11
223.0
 21
187.0
 31
0.0
  0
LINE
  8
0
  6
CONTINUOUS
 62
     2
 10
184.599951172
 20
187.0
 30
0.0
 11
184.599951172
 21
129.399975586
 31
0.0
  0
LINE
  8
0
  6
CONTINUOUS
 62
     2
 10
159.0
 20
187.0
 30
0.0
 11
159.0
 21
119.799975586
 31
0.0
  0
LINE
  8
0
  6
CONTINUOUS
 62
     2
 10
198.099951172
 20
140.175
 30
0.0
 11
198.099951172
 21
142.45
 31
0.0
  0
LINE
  8
0
  6
CONTINUOUS
 62
     2
 10
198.099951172
 20
142.45
 30
0.0
 11
197.814236886
 21
141.925
 31
0.0
  0
LINE
  8
0
  6
CONTINUOUS
 62
     2
 10
197.814236886
 20
140.175
 30
0.0
 11
198.385665458
 21
140.175
 31
0.0
  0
LINE
  8
0
  6
CONTINUOUS
 62
     2
 10
200.299951172
 20
140.175
 30
0.0
 11
200.299951172
 21
142.45
 31
0.0
  0
LINE
  8
0
  6
CONTINUOUS
 62
     2
 10
200.299951172
 20
142.45
 30
0.0
 11
200.014236886
 21
141.925
 31
0.0
  0
LINE
  8
0
  6
CONTINUOUS
 62
     2
 10
200.014236886
 20
140.175
 30
0.0
 11
200.585665458
 21
140.175
 31
0.0
  0
LINE
  8
0
  6
CONTINUOUS
 62
     2
 10
201.785665458
 20
140.525
 30
0.0
 11
202.071379743
 21
140.175
 31
0.0
  0
LINE
  8
0
  6
CONTINUOUS
 62
     2
 10
202.071379743
 20
140.175
 30
0.0
 11
202.785665458
 21
140.175
 31
0.0
  0
LINE
  8
0
  6
CONTINUOUS
 62
     2
 10
202.785665458
 20
140.175
 30
0.0
 11
203.071379743
 21
140.525
 31
0.0
  0
LINE
  8
0
  6
CONTINUOUS
 62
     2
 10
203.071379743
 20
140.525
 30
0.0
 11
203.071379743
 21
141.05
 31
0.0
  0
LINE
  8
0
  6
CONTINUOUS
 62
     2
 10
203.071379743
 20
141.05
 30
0.0
 11
202.785665458
 21
141.4
 31
0.0
  0
LINE
  8
0
  6
CONTINUOUS
 62
     2
 10
202.785665458
 20
141.4
 30
0.0
 11
201.9285226
 21
141.4
 31
0.0
  0
LINE
  8
0
  6
CONTINUOUS
 62
     2
 10
201.9285226
 20
141.4
 30
0.0
 11
201.9285226
 21
142.45
 31
0.0
  0
LINE
  8
0
  6
CONTINUOUS
 62
     2
 10
201.9285226
 20
142.45
 30
0.0
 11
203.071379743
 21
142.45
 31
0.0
  0
LINE
  8
0
  6
CONTINUOUS
 62
     2
 10
203.985665458
 20
140.875
 30
0.0
 11
204.1285226
 21
140.35
 31
0.0
  0
LINE
  8
0
  6
CONTINUOUS
 62
     2
 10
204.1285226
 20
140.35
 30
0.0
 11
204.414236886
 21
140.175
 31
0.0
  0
LINE
  8
0
  6
CONTINUOUS
 62
     2
 10
204.414236886
 20
140.175
 30
0.0
 11
204.842808315
 21
140.175
 31
0.0
  0
LINE
  8
0
  6
CONTINUOUS
 62
     2
 10
204.842808315
 20
140.175
 30
0.0
 11
205.1285226
 21
140.35
 31
0.0
  0
LINE
  8
0
  6
CONTINUOUS
 62
     2
 10
205.1285226
 20
140.35
 30
0.0
 11
205.271379743
 21
140.875
 31
0.0
  0
LINE
  8
0
  6
CONTINUOUS
 62
     2
 10
205.271379743
 20
140.875
 30
0.0
 11
205.271379743
 21
141.75
 31
0.0
  0
LINE
  8
0
  6
CONTINUOUS
 62
     2
 10
205.271379743
 20
141.75
 30
0.0
 11
205.1285226
 21
142.275
 31
0.0
  0
LINE
  8
0
  6
CONTINUOUS
 62
     2
 10
205.1285226
 20
142.275
 30
0.0
 11
204.842808315
 21
142.45
 31
0.0
  0
LINE
  8
0
  6
CONTINUOUS
 62
     2
 10
204.842808315
 20
142.45
 30
0.0
 11
204.414236886
 21
142.45
 31
0.0
  0
LINE
  8
0
  6
CONTINUOUS
 62
     2
 10
204.414236886
 20
142.45
 30
0.0
 11
204.1285226
 21
142.275
 31
0.0
  0
LINE
  8
0
  6
CONTINUOUS
 62
     2
 10
204.1285226
 20
142.275
 30
0.0
 11
203.985665458
 21
141.75
 31
0.0
  0
LINE
  8
0
  6
CONTINUOUS
 62
     2
 10
203.985665458
 20
141.75
 30
0.0
 11
203.985665458
 21
140.875
 31
0.0
  0
LINE
  8
0
  6
CONTINUOUS
 62
     2
 10
190.785665458
 20
174.3
 30
0.0
 11
190.9285226
 21
173.95
 31
0.0
  0
LINE
  8
0
  6
CONTINUOUS
 62
     2
 10
190.9285226
 20
173.95
 30
0.0
 11
191.214236886
 21
173.775
 31
0.0
  0
LINE
  8
0
  6
CONTINUOUS
 62
     2
 10
191.214236886
 20
173.775
 30
0.0
 11
191.642808315
 21
173.775
 31
0.0
  0
LINE
  8
0
  6
CONTINUOUS
 62
     2
 10
191.642808315
 20
173.775
 30
0.0
 11
191.9285226
 21
173.95
 31
0.0
  0
LINE
  8
0
  6
CONTINUOUS
 62
     2
 10
191.9285226
 20
173.95
 30
0.0
 11
192.071379743
 21
174.3
 31
0.0
  0
LINE
  8
0
  6
CONTINUOUS
 62
     2
 10
192.071379743
 20
174.3
 30
0.0
 11
192.071379743
 21
176.05
 31
0.0
  0
LINE
  8
0
  6
CONTINUOUS
 62
     2
 10
193.271379743
 20
173.775
 30
0.0
 11
193.985665458
 21
173.775
 31
0.0
  0
LINE
  8
0
  6
CONTINUOUS
 62
     2
 10
193.557094029
 20
173.775
 30
0.0
 11
193.557094029
 21
176.05
 31
0.0
  0
LINE
  8
0
  6
CONTINUOUS
 62
     2
 10
193.271379743
 20
176.05
 30
0.0
 11
193.985665458
 21
176.05
 31
0.0
  0
LINE
  8
0
  6
CONTINUOUS
 62
     2
 10
193.1285226
 20
176.05
 30
0.0
 11
193.271379743
 21
176.05
 31
0.0
  0
LINE
  8
0
  6
CONTINUOUS
 62
     2
 10
193.1285226
 20
173.775
 30
0.0
 11
193.271379743
 21
173.775
 31
0.0
  0
LINE
  8
0
  6
CONTINUOUS
 62
     2
 10
195.185665458
 20
174.125
 30
0.0
 11
195.471379743
 21
173.775
 31
0.0
  0
LINE
  8
0
  6
CONTINUOUS
 62
     2
 10
195.471379743
 20
173.775
 30
0.0
 11
196.185665458
 21
173.775
 31
0.0
  0
LINE
  8
0
  6
CONTINUOUS
 62
     2
 10
196.185665458
 20
173.775
 30
0.0
 11
196.471379743
 21
174.125
 31
0.0
  0
LINE
  8
0
  6
CONTINUOUS
 62
     2
 10
196.471379743
 20
174.125
 30
0.0
 11
196.471379743
 21
174.475
 31
0.0
  0
LINE
  8
0
  6
CONTINUOUS
 62
     2
 10
196.471379743
 20
174.475
 30
0.0
 11
196.185665458
 21
174.825
 31
0.0
  0
LINE
  8
0
  6
CONTINUOUS
 62
     2
 10
196.185665458
 20
174.825
 30
0.0
 11
195.3285226
 21
175.0
 31
0.0
  0
LINE
  8
0
  6
CONTINUOUS
 62
     2
 10
195.3285226
 20
175.0
 30
0.0
 11
195.185665458
 21
175.35
 31
0.0
  0
LINE
  8
0
  6
CONTINUOUS
 62
     2
 10
195.185665458
 20
175.35
 30
0.0
 11
195.185665458
 21
175.7
 31
0.0
  0
LINE
  8
0
  6
CONTINUOUS
 62
     2
 10
195.185665458
 20
175.7
 30
0.0
 11
195.471379743
 21
176.05
 31
0.0
  0
LINE
  8
0
  6
CONTINUOUS
 62
     2
 10
195.471379743
 20
176.05
 30
0.0
 11
196.185665458
 21
176.05
 31
0.0
  0
LINE
  8
0
  6
CONTINUOUS
 62
     2
 10
196.185665458
 20
176.05
 30
0.0
 11
196.471379743
 21
175.7
 31
0.0
  0
LINE
  8
0
  6
CONTINUOUS
 62
     2
 10
200.871379743
 20
175.7
 30
0.0
 11
200.585665458
 21
176.05
 31
0.0
  0
LINE
  8
0
  6
CONTINUOUS
 62
     2
 10
200.585665458
 20
176.05
 30
0.0
 11
200.014236886
 21
176.05
 31
0.0
  0
LINE
  8
0
  6
CONTINUOUS
 62
     2
 10
200.014236886
 20
176.05
 30
0.0
 11
199.7285226
 21
175.875
 31
0.0
  0
LINE
  8
0
  6
CONTINUOUS
 62
     2
 10
199.7285226
 20
175.875
 30
0.0
 11
199.585665458
 21
175.35
 31
0.0
  0
LINE
  8
0
  6
CONTINUOUS
 62
     2
 10
199.585665458
 20
175.35
 30
0.0
 11
199.585665458
 21
174.475
 31
0.0
  0
LINE
  8
0
  6
CONTINUOUS
 62
     2
 10
199.585665458
 20
174.475
 30
0.0
 11
199.7285226
 21
173.95
 31
0.0
  0
LINE
  8
0
  6
CONTINUOUS
 62
     2
 10
199.7285226
 20
173.95
 30
0.0
 11
200.014236886
 21
173.775
 31
0.0
  0
LINE
  8
0
  6
CONTINUOUS
 62
     2
 10
200.014236886
 20
173.775
 30
0.0
 11
200.585665458
 21
173.775
 31
0.0
  0
LINE
  8
0
  6
CONTINUOUS
 62
     2
 10
200.585665458
 20
173.775
 30
0.0
 11
200.871379743
 21
174.125
 31
0.0
  0
LINE
  8
0
  6
CONTINUOUS
 62
     2
 10
204.699951172
 20
173.775
 30
0.0
 11
204.699951172
 21
176.05
 31
0.0
  0
LINE
  8
0
  6
CONTINUOUS
 62
     2
 10
204.699951172
 20
176.05
 30
0.0
 11
204.414236886
 21
175.525
 31
0.0
  0
LINE
  8
0
  6
CONTINUOUS
 62
     2
 10
204.414236886
 20
173.775
 30
0.0
 11
204.985665458
 21
173.775
 31
0.0
  0
LINE
  8
0
  6
CONTINUOUS
 62
     2
 10
206.185665458
 20
175.7
 30
0.0
 11
206.185665458
 21
176.05
 31
0.0
  0
LINE
  8
0
  6
CONTINUOUS
 62
     2
 10
206.185665458
 20
176.05
 30
0.0
 11
207.471379743
 21
176.05
 31
0.0
  0
LINE
  8
0
  6
CONTINUOUS
 62
     2
 10
207.471379743
 20
176.05
 30
0.0
 11
206.757094029
 21
173.775
 31
0.0
  0
LINE
  8
0
  6
CONTINUOUS
 62
     2
 10
208.385665458
 20
174.125
 30
0.0
 11
208.671379743
 21
173.775
 31
0.0
  0
LINE
  8
0
  6
CONTINUOUS
 62
     2
 10
208.671379743
 20
173.775
 30
0.0
 11
209.385665458
 21
173.775
 31
0.0
  0
LINE
  8
0
  6
CONTINUOUS
 62
     2
 10
209.385665458
 20
173.775
 30
0.0
 11
209.671379743
 21
174.125
 31
0.0
  0
LINE
  8
0
  6
CONTINUOUS
 62
     2
 10
209.671379743
 20
174.125
 30
0.0
 11
209.671379743
 21
174.475
 31
0.0
  0
LINE
  8
0
  6
CONTINUOUS
 62
     2
 10
209.671379743
 20
174.475
 30
0.0
 11
209.385665458
 21
175.0
 31
0.0
  0
LINE
  8
0
  6
CONTINUOUS
 62
     2
 10
209.385665458
 20
175.0
 30
0.0
 11
208.671379743
 21
175.0
 31
0.0
  0
LINE
  8
0
  6
CONTINUOUS
 62
     2
 10
208.385665458
 20
175.7
 30
0.0
 11
208.671379743
 21
176.05
 31
0.0
  0
LINE
  8
0
  6
CONTINUOUS
 62
     2
 10
208.671379743
 20
176.05
 30
0.0
 11
209.385665458
 21
176.05
 31
0.0
  0
LINE
  8
0
  6
CONTINUOUS
 62
     2
 10
209.385665458
 20
176.05
 30
0.0
 11
209.671379743
 21
175.7
 31
0.0
  0
LINE
  8
0
  6
CONTINUOUS
 62
     2
 10
209.671379743
 20
175.7
 30
0.0
 11
209.671379743
 21
175.35
 31
0.0
  0
LINE
  8
0
  6
CONTINUOUS
 62
     2
 10
209.671379743
 20
175.35
 30
0.0
 11
209.385665458
 21
175.0
 31
0.0
  0
LINE
  8
0
  6
CONTINUOUS
 62
     2
 10
211.299951172
 20
173.775
 30
0.0
 11
211.299951172
 21
176.05
 31
0.0
  0
LINE
  8
0
  6
CONTINUOUS
 62
     2
 10
211.299951172
 20
176.05
 30
0.0
 11
211.014236886
 21
175.525
 31
0.0
  0
LINE
  8
0
  6
CONTINUOUS
 62
     2
 10
211.014236886
 20
173.775
 30
0.0
 11
211.585665458
 21
173.775
 31
0.0
  0
LINE
  8
0
  6
CONTINUOUS
 62
     2
 10
199.199951172
 20
164.175
 30
0.0
 11
199.199951172
 21
166.45
 31
0.0
  0
LINE
  8
0
  6
CONTINUOUS
 62
     2
 10
199.199951172
 20
166.45
 30
0.0
 11
198.914236886
 21
165.925
 31
0.0
  0
LINE
  8
0
  6
CONTINUOUS
 62
     2
 10
204.171379743
 20
164.875
 30
0.0
 11
204.171379743
 21
165.75
 31
0.0
  0
LINE
  8
0
  6
CONTINUOUS
 62
     2
 10
204.171379743
 20
165.75
 30
0.0
 11
204.0285226
 21
166.275
 31
0.0
  0
LINE
  8
0
  6
CONTINUOUS
 62
     2
 10
204.0285226
 20
166.275
 30
0.0
 11
203.742808315
 21
166.45
 31
0.0
  0
LINE
  8
0
  6
CONTINUOUS
 62
     2
 10
203.742808315
 20
166.45
 30
0.0
 11
203.314236886
 21
166.45
 31
0.0
  0
LINE
  8
0
  6
CONTINUOUS
 62
     2
 10
203.314236886
 20
166.45
 30
0.0
 11
203.0285226
 21
166.275
 31
0.0
  0
LINE
  8
0
  6
CONTINUOUS
 62
     2
 10
203.0285226
 20
166.275
 30
0.0
 11
202.885665458
 21
165.75
 31
0.0
  0
LINE
  8
0
  6
CONTINUOUS
 62
     2
 10
202.885665458
 20
165.75
 30
0.0
 11
202.885665458
 21
164.875
 31
0.0
  0
LINE
  8
0
  6
CONTINUOUS
 62
     2
 10
200.299951172
 20
135.375
 30
0.0
 11
200.299951172
 21
137.65
 31
0.0
  0
LINE
  8
0
  6
CONTINUOUS
 62
     2
 10
200.299951172
 20
137.65
 30
0.0
 11
199.442808315
 21
135.9
 31
0.0
  0
LINE
  8
0
  6
CONTINUOUS
 62
     2
 10
199.442808315
 20
135.9
 30
0.0
 11
200.7285226
 21
135.9
 31
0.0
  0
LINE
  8
0
  6
CONTINUOUS
 62
     2
 10
201.785665458
 20
136.075
 30
0.0
 11
201.9285226
 21
135.55
 31
0.0
  0
LINE
  8
0
  6
CONTINUOUS
 62
     2
 10
201.9285226
 20
135.55
 30
0.0
 11
202.214236886
 21
135.375
 31
0.0
  0
LINE
  8
0
  6
CONTINUOUS
 62
     2
 10
202.214236886
 20
135.375
 30
0.0
 11
202.642808315
 21
135.375
 31
0.0
  0
LINE
  8
0
  6
CONTINUOUS
 62
     2
 10
202.642808315
 20
135.375
 30
0.0
 11
202.9285226
 21
135.55
 31
0.0
  0
LINE
  8
0
  6
CONTINUOUS
 62
     2
 10
202.9285226
 20
135.55
 30
0.0
 11
203.071379743
 21
136.075
 31
0.0
  0
LINE
  8
0
  6
CONTINUOUS
 62
     2
 10
203.071379743
 20
136.075
 30
0.0
 11
203.071379743
 21
136.95
 31
0.0
  0
LINE
  8
0
  6
CONTINUOUS
 62
     2
 10
203.071379743
 20
136.95
 30
0.0
 11
202.9285226
 21
137.475
 31
0.0
  0
LINE
  8
0
  6
CONTINUOUS
 62
     2
 10
202.9285226
 20
137.475
 30
0.0
 11
202.642808315
 21
137.65
 31
0.0
  0
LINE
  8
0
  6
CONTINUOUS
 62
     2
 10
202.642808315
 20
137.65
 30
0.0
 11
202.214236886
 21
137.65
 31
0.0
  0
LINE
  8
0
  6
CONTINUOUS
 62
     2
 10
202.214236886
 20
137.65
 30
0.0
 11
201.9285226
 21
137.475
 31
0.0
  0
LINE
  8
0
  6
CONTINUOUS
 62
     2
 10
201.9285226
 20
137.475
 30
0.0
 11
201.785665458
 21
136.95
 31
0.0
  0
LINE
  8
0
  6
CONTINUOUS
 62
     2
 10
201.785665458
 20
136.95
 30
0.0
 11
201.785665458
 21
136.075
 31
0.0
  0
LINE
  8
0
  6
CONTINUOUS
 62
     2
 10
198.914236886
 20
164.175
 30
0.0
 11
199.485665458
 21
164.175
 31
0.0
  0
LINE
  8
0
  6
CONTINUOUS
 62
     2
 10
200.971379743
 20
164.175
 30
0.0
 11
200.685665458
 21
164.175
 31
0.0
  0
LINE
  8
0
  6
CONTINUOUS
 62
     2
 10
200.685665458
 20
164.175
 30
0.0
 11
200.685665458
 21
164.525
 31
0.0
  0
LINE
  8
0
  6
CONTINUOUS
 62
     2
 10
200.685665458
 20
164.525
 30
0.0
 11
200.971379743
 21
164.525
 31
0.0
  0
LINE
  8
0
  6
CONTINUOUS
 62
     2
 10
200.971379743
 20
164.525
 30
0.0
 11
200.971379743
 21
164.175
 31
0.0
  0
LINE
  8
0
  6
CONTINUOUS
 62
     2
 10
200.971379743
 20
164.175
 30
0.0
 11
200.685665458
 21
164.525
 31
0.0
  0
LINE
  8
0
  6
CONTINUOUS
 62
     2
 10
202.885665458
 20
164.875
 30
0.0
 11
203.0285226
 21
164.35
 31
0.0
  0
LINE
  8
0
  6
CONTINUOUS
 62
     2
 10
203.0285226
 20
164.35
 30
0.0
 11
203.314236886
 21
164.175
 31
0.0
  0
LINE
  8
0
  6
CONTINUOUS
 62
     2
 10
203.314236886
 20
164.175
 30
0.0
 11
203.742808315
 21
164.175
 31
0.0
  0
LINE
  8
0
  6
CONTINUOUS
 62
     2
 10
203.742808315
 20
164.175
 30
0.0
 11
204.0285226
 21
164.35
 31
0.0
  0
LINE
  8
0
  6
CONTINUOUS
 62
     2
 10
204.0285226
 20
164.35
 30
0.0
 11
204.171379743
 21
164.875
 31
0.0
  0
LINE
  8
0
  6
CONTINUOUS
 62
     2
 10
195.185665458
 20
160.074951172
 30
0.0
 11
195.3285226
 21
159.549951172
 31
0.0
  0
LINE
  8
0
  6
CONTINUOUS
 62
     2
 10
195.3285226
 20
159.549951172
 30
0.0
 11
195.614236886
 21
159.374951172
 31
0.0
  0
LINE
  8
0
  6
CONTINUOUS
 62
     2
 10
195.614236886
 20
159.374951172
 30
0.0
 11
196.042808315
 21
159.374951172
 31
0.0
  0
LINE
  8
0
  6
CONTINUOUS
 62
     2
 10
196.042808315
 20
159.374951172
 30
0.0
 11
196.3285226
 21
159.549951172
 31
0.0
  0
LINE
  8
0
  6
CONTINUOUS
 62
     2
 10
196.3285226
 20
159.549951172
 30
0.0
 11
196.471379743
 21
160.074951172
 31
0.0
  0
LINE
  8
0
  6
CONTINUOUS
 62
     2
 10
196.471379743
 20
160.074951172
 30
0.0
 11
196.471379743
 21
160.949951172
 31
0.0
  0
LINE
  8
0
  6
CONTINUOUS
 62
     2
 10
196.471379743
 20
160.949951172
 30
0.0
 11
196.3285226
 21
161.474951172
 31
0.0
  0
LINE
  8
0
  6
CONTINUOUS
 62
     2
 10
196.3285226
 20
161.474951172
 30
0.0
 11
196.042808315
 21
161.649951172
 31
0.0
  0
LINE
  8
0
  6
CONTINUOUS
 62
     2
 10
196.042808315
 20
161.649951172
 30
0.0
 11
195.614236886
 21
161.649951172
 31
0.0
  0
LINE
  8
0
  6
CONTINUOUS
 62
     2
 10
195.614236886
 20
161.649951172
 30
0.0
 11
195.3285226
 21
161.474951172
 31
0.0
  0
LINE
  8
0
  6
CONTINUOUS
 62
     2
 10
195.3285226
 20
161.474951172
 30
0.0
 11
195.185665458
 21
160.949951172
 31
0.0
  0
LINE
  8
0
  6
CONTINUOUS
 62
     2
 10
195.185665458
 20
160.949951172
 30
0.0
 11
195.185665458
 21
160.074951172
 31
0.0
  0
LINE
  8
0
  6
CONTINUOUS
 62
     2
 10
197.671379743
 20
159.374951172
 30
0.0
 11
197.385665458
 21
159.374951172
 31
0.0
  0
LINE
  8
0
  6
CONTINUOUS
 62
     2
 10
197.385665458
 20
159.374951172
 30
0.0
 11
197.385665458
 21
159.724951172
 31
0.0
  0
LINE
  8
0
  6
CONTINUOUS
 62
     2
 10
197.385665458
 20
159.724951172
 30
0.0
 11
197.671379743
 21
159.724951172
 31
0.0
  0
LINE
  8
0
  6
CONTINUOUS
 62
     2
 10
197.671379743
 20
159.724951172
 30
0.0
 11
197.671379743
 21
159.374951172
 31
0.0
  0
LINE
  8
0
  6
CONTINUOUS
 62
     2
 10
197.671379743
 20
159.374951172
 30
0.0
 11
197.385665458
 21
159.724951172
 31
0.0
  0
LINE
  8
0
  6
CONTINUOUS
 62
     2
 10
200.299951172
 20
159.374951172
 30
0.0
 11
200.299951172
 21
161.649951172
 31
0.0
  0
LINE
  8
0
  6
CONTINUOUS
 62
     2
 10
200.299951172
 20
161.649951172
 30
0.0
 11
200.014236886
 21
161.124951172
 31
0.0
  0
LINE
  8
0
  6
CONTINUOUS
 62
     2
 10
200.014236886
 20
159.374951172
 30
0.0
 11
200.585665458
 21
159.374951172
 31
0.0
  0
LINE
  8
0
  6
CONTINUOUS
 62
     2
 10
201.499951172
 20
160.424951172
 30
0.0
 11
201.785665458
 21
160.599951172
 31
0.0
  0
LINE
  8
0
  6
CONTINUOUS
 62
     2
 10
201.785665458
 20
160.599951172
 30
0.0
 11
202.071379743
 21
160.599951172
 31
0.0
  0
LINE
  8
0
  6
CONTINUOUS
 62
     2
 10
202.071379743
 20
160.599951172
 30
0.0
 11
202.785665458
 21
160.249951172
 31
0.0
  0
LINE
  8
0
  6
CONTINUOUS
 62
     2
 10
202.785665458
 20
160.249951172
 30
0.0
 11
203.071379743
 21
160.249951172
 31
0.0
  0
LINE
  8
0
  6
CONTINUOUS
 62
     2
 10
203.071379743
 20
160.249951172
 30
0.0
 11
203.357094029
 21
160.424951172
 31
0.0
  0
LINE
  8
0
  6
CONTINUOUS
 62
     2
 10
204.699951172
 20
159.374951172
 30
0.0
 11
204.699951172
 21
161.649951172
 31
0.0
  0
LINE
  8
0
  6
CONTINUOUS
 62
     2
 10
204.699951172
 20
161.649951172
 30
0.0
 11
204.414236886
 21
161.124951172
 31
0.0
  0
LINE
  8
0
  6
CONTINUOUS
 62
     2
 10
204.414236886
 20
159.374951172
 30
0.0
 11
204.985665458
 21
159.374951172
 31
0.0
  0
LINE
  8
0
  6
CONTINUOUS
 62
     2
 10
206.185665458
 20
160.074951172
 30
0.0
 11
206.3285226
 21
159.549951172
 31
0.0
  0
LINE
  8
0
  6
CONTINUOUS
 62
     2
 10
206.3285226
 20
159.549951172
 30
0.0
 11
206.614236886
 21
159.374951172
 31
0.0
  0
LINE
  8
0
  6
CONTINUOUS
 62
     2
 10
206.614236886
 20
159.374951172
 30
0.0
 11
207.042808315
 21
159.374951172
 31
0.0
  0
LINE
  8
0
  6
CONTINUOUS
 62
     2
 10
207.042808315
 20
159.374951172
 30
0.0
 11
207.3285226
 21
159.549951172
 31
0.0
  0
LINE
  8
0
  6
CONTINUOUS
 62
     2
 10
207.3285226
 20
159.549951172
 30
0.0
 11
207.471379743
 21
160.074951172
 31
0.0
  0
LINE
  8
0
  6
CONTINUOUS
 62
     2
 10
207.471379743
 20
160.074951172
 30
0.0
 11
207.471379743
 21
160.949951172
 31
0.0
  0
LINE
  8
0
  6
CONTINUOUS
 62
     2
 10
207.471379743
 20
160.949951172
 30
0.0
 11
207.3285226
 21
161.474951172
 31
0.0
  0
LINE
  8
0
  6
CONTINUOUS
 62
     2
 10
207.3285226
 20
161.474951172
 30
0.0
 11
207.042808315
 21
161.649951172
 31
0.0
  0
LINE
  8
0
  6
CONTINUOUS
 62
     2
 10
207.042808315
 20
161.649951172
 30
0.0
 11
206.614236886
 21
161.649951172
 31
0.0
  0
LINE
  8
0
  6
CONTINUOUS
 62
     2
 10
206.614236886
 20
161.649951172
 30
0.0
 11
206.3285226
 21
161.474951172
 31
0.0
  0
LINE
  8
0
  6
CONTINUOUS
 62
     2
 10
206.3285226
 20
161.474951172
 30
0.0
 11
206.185665458
 21
160.949951172
 31
0.0
  0
LINE
  8
0
  6
CONTINUOUS
 62
     2
 10
206.185665458
 20
160.949951172
 30
0.0
 11
206.185665458
 21
160.074951172
 31
0.0
  0
LINE
  8
0
  6
CONTINUOUS
 62
     2
 10
195.185665458
 20
155.274951172
 30
0.0
 11
195.3285226
 21
154.749951172
 31
0.0
  0
LINE
  8
0
  6
CONTINUOUS
 62
     2
 10
195.3285226
 20
154.749951172
 30
0.0
 11
195.614236886
 21
154.574951172
 31
0.0
  0
LINE
  8
0
  6
CONTINUOUS
 62
     2
 10
195.614236886
 20
154.574951172
 30
0.0
 11
196.042808315
 21
154.574951172
 31
0.0
  0
LINE
  8
0
  6
CONTINUOUS
 62
     2
 10
196.042808315
 20
154.574951172
 30
0.0
 11
196.3285226
 21
154.749951172
 31
0.0
  0
LINE
  8
0
  6
CONTINUOUS
 62
     2
 10
196.3285226
 20
154.749951172
 30
0.0
 11
196.471379743
 21
155.274951172
 31
0.0
  0
LINE
  8
0
  6
CONTINUOUS
 62
     2
 10
196.471379743
 20
155.274951172
 30
0.0
 11
196.471379743
 21
156.149951172
 31
0.0
  0
LINE
  8
0
  6
CONTINUOUS
 62
     2
 10
196.471379743
 20
156.149951172
 30
0.0
 11
196.3285226
 21
156.674951172
 31
0.0
  0
LINE
  8
0
  6
CONTINUOUS
 62
     2
 10
196.3285226
 20
156.674951172
 30
0.0
 11
196.042808315
 21
156.849951172
 31
0.0
  0
LINE
  8
0
  6
CONTINUOUS
 62
     2
 10
196.042808315
 20
156.849951172
 30
0.0
 11
195.614236886
 21
156.849951172
 31
0.0
  0
LINE
  8
0
  6
CONTINUOUS
 62
     2
 10
195.614236886
 20
156.849951172
 30
0.0
 11
195.3285226
 21
156.674951172
 31
0.0
  0
LINE
  8
0
  6
CONTINUOUS
 62
     2
 10
195.3285226
 20
156.674951172
 30
0.0
 11
195.185665458
 21
156.149951172
 31
0.0
  0
LINE
  8
0
  6
CONTINUOUS
 62
     2
 10
195.185665458
 20
156.149951172
 30
0.0
 11
195.185665458
 21
155.274951172
 31
0.0
  0
LINE
  8
0
  6
CONTINUOUS
 62
     2
 10
197.671379743
 20
154.574951172
 30
0.0
 11
197.385665458
 21
154.574951172
 31
0.0
  0
LINE
  8
0
  6
CONTINUOUS
 62
     2
 10
197.385665458
 20
154.574951172
 30
0.0
 11
197.385665458
 21
154.924951172
 31
0.0
  0
LINE
  8
0
  6
CONTINUOUS
 62
     2
 10
197.385665458
 20
154.924951172
 30
0.0
 11
197.671379743
 21
154.924951172
 31
0.0
  0
LINE
  8
0
  6
CONTINUOUS
 62
     2
 10
197.671379743
 20
154.924951172
 30
0.0
 11
197.671379743
 21
154.574951172
 31
0.0
  0
LINE
  8
0
  6
CONTINUOUS
 62
     2
 10
197.671379743
 20
154.574951172
 30
0.0
 11
197.385665458
 21
154.924951172
 31
0.0
  0
LINE
  8
0
  6
CONTINUOUS
 62
     2
 10
200.299951172
 20
154.574951172
 30
0.0
 11
200.299951172
 21
156.849951172
 31
0.0
  0
LINE
  8
0
  6
CONTINUOUS
 62
     2
 10
200.299951172
 20
156.849951172
 30
0.0
 11
200.014236886
 21
156.324951172
 31
0.0
  0
LINE
  8
0
  6
CONTINUOUS
 62
     2
 10
200.014236886
 20
154.574951172
 30
0.0
 11
200.585665458
 21
154.574951172
 31
0.0
  0
LINE
  8
0
  6
CONTINUOUS
 62
     2
 10
201.499951172
 20
155.624951172
 30
0.0
 11
201.785665458
 21
155.799951172
 31
0.0
  0
LINE
  8
0
  6
CONTINUOUS
 62
     2
 10
201.785665458
 20
155.799951172
 30
0.0
 11
202.071379743
 21
155.799951172
 31
0.0
  0
LINE
  8
0
  6
CONTINUOUS
 62
     2
 10
202.071379743
 20
155.799951172
 30
0.0
 11
202.785665458
 21
155.449951172
 31
0.0
  0
LINE
  8
0
  6
CONTINUOUS
 62
     2
 10
202.785665458
 20
155.449951172
 30
0.0
 11
203.071379743
 21
155.449951172
 31
0.0
  0
LINE
  8
0
  6
CONTINUOUS
 62
     2
 10
203.071379743
 20
155.449951172
 30
0.0
 11
203.357094029
 21
155.624951172
 31
0.0
  0
LINE
  8
0
  6
CONTINUOUS
 62
     2
 10
204.699951172
 20
154.574951172
 30
0.0
 11
204.699951172
 21
156.849951172
 31
0.0
  0
LINE
  8
0
  6
CONTINUOUS
 62
     2
 10
204.699951172
 20
156.849951172
 30
0.0
 11
204.414236886
 21
156.324951172
 31
0.0
  0
LINE
  8
0
  6
CONTINUOUS
 62
     2
 10
204.414236886
 20
154.574951172
 30
0.0
 11
204.985665458
 21
154.574951172
 31
0.0
  0
LINE
  8
0
  6
CONTINUOUS
 62
     2
 10
206.185665458
 20
155.274951172
 30
0.0
 11
206.3285226
 21
154.749951172
 31
0.0
  0
LINE
  8
0
  6
CONTINUOUS
 62
     2
 10
206.3285226
 20
154.749951172
 30
0.0
 11
206.614236886
 21
154.574951172
 31
0.0
  0
LINE
  8
0
  6
CONTINUOUS
 62
     2
 10
206.614236886
 20
154.574951172
 30
0.0
 11
207.042808315
 21
154.574951172
 31
0.0
  0
LINE
  8
0
  6
CONTINUOUS
 62
     2
 10
207.042808315
 20
154.574951172
 30
0.0
 11
207.3285226
 21
154.749951172
 31
0.0
  0
LINE
  8
0
  6
CONTINUOUS
 62
     2
 10
207.3285226
 20
154.749951172
 30
0.0
 11
207.471379743
 21
155.274951172
 31
0.0
  0
LINE
  8
0
  6
CONTINUOUS
 62
     2
 10
207.471379743
 20
155.274951172
 30
0.0
 11
207.471379743
 21
156.149951172
 31
0.0
  0
LINE
  8
0
  6
CONTINUOUS
 62
     2
 10
207.471379743
 20
156.149951172
 30
0.0
 11
207.3285226
 21
156.674951172
 31
0.0
  0
LINE
  8
0
  6
CONTINUOUS
 62
     2
 10
207.3285226
 20
156.674951172
 30
0.0
 11
207.042808315
 21
156.849951172
 31
0.0
  0
LINE
  8
0
  6
CONTINUOUS
 62
     2
 10
207.042808315
 20
156.849951172
 30
0.0
 11
206.614236886
 21
156.849951172
 31
0.0
  0
LINE
  8
0
  6
CONTINUOUS
 62
     2
 10
206.614236886
 20
156.849951172
 30
0.0
 11
206.3285226
 21
156.674951172
 31
0.0
  0
LINE
  8
0
  6
CONTINUOUS
 62
     2
 10
206.3285226
 20
156.674951172
 30
0.0
 11
206.185665458
 21
156.149951172
 31
0.0
  0
LINE
  8
0
  6
CONTINUOUS
 62
     2
 10
206.185665458
 20
156.149951172
 30
0.0
 11
206.185665458
 21
155.274951172
 31
0.0
  0
TEXT
  8
0
  6
CONTINUOUS
 62
     2
 10
166.0
 20
125.599975586
 30
0.3
 40
3.0
  1
取付足は９０°方向を変えられます
 50
0.0
 41
0.9
 51
0.0
  7
KANJI0
  0
LINE
  8
0
  6
CONTINUOUS
 62
     2
 10
161.560000014
 20
130.4
 30
0.0
 11
161.960000014
 21
130.75
 31
0.0
  0
LINE
  8
0
  6
CONTINUOUS
 62
     2
 10
161.960000014
 20
130.75
 30
0.0
 11
161.560000014
 21
130.75
 31
0.0
  0
LINE
  8
0
  6
CONTINUOUS
 62
     2
 10
161.560000014
 20
130.75
 30
0.0
 11
161.560000014
 21
131.8
 31
0.0
  0
LINE
  8
0
  6
CONTINUOUS
 62
     2
 10
161.560000014
 20
131.8
 30
0.0
 11
163.360000014
 21
131.8
 31
0.0
  0
LINE
  8
0
  6
CONTINUOUS
 62
     2
 10
163.360000014
 20
131.8
 30
0.0
 11
163.360000014
 21
130.75
 31
0.0
  0
LINE
  8
0
  6
CONTINUOUS
 62
     2
 10
163.360000014
 20
130.75
 30
0.0
 11
161.960000014
 21
130.75
 31
0.0
  0
LINE
  8
0
  6
CONTINUOUS
 62
     2
 10
163.360000014
 20
130.4
 30
0.0
 11
162.960000014
 21
130.75
 31
0.0
  0
LINE
  8
0
  6
CONTINUOUS
 62
     2
 10
163.360000014
 20
131.1
 30
0.0
 11
161.560000014
 21
131.1
 31
0.0
  0
LINE
  8
0
  6
CONTINUOUS
 62
     2
 10
161.560000014
 20
131.45
 30
0.0
 11
163.360000014
 21
131.45
 31
0.0
  0
LINE
  8
0
  6
CONTINUOUS
 62
     2
 10
163.360000014
 20
131.975
 30
0.0
 11
163.360000014
 21
132.675
 31
0.0
  0
LINE
  8
0
  6
CONTINUOUS
 62
     2
 10
163.760000014
 20
132.675
 30
0.0
 11
162.560000014
 21
132.675
 31
0.0
  0
LINE
  8
0
  6
CONTINUOUS
 62
     2
 10
162.560000014
 20
132.675
 30
0.0
 11
162.560000014
 21
132.85
 31
0.0
  0
LINE
  8
0
  6
CONTINUOUS
 62
     2
 10
162.560000014
 20
132.85
 30
0.0
 11
163.560000014
 21
133.025
 31
0.0
  0
LINE
  8
0
  6
CONTINUOUS
 62
     2
 10
162.560000014
 20
132.675
 30
0.0
 11
162.360000014
 21
132.325
 31
0.0
  0
LINE
  8
0
  6
CONTINUOUS
 62
     2
 10
162.360000014
 20
132.325
 30
0.0
 11
162.160000014
 21
131.975
 31
0.0
  0
LINE
  8
0
  6
CONTINUOUS
 62
     2
 10
161.960000014
 20
131.975
 30
0.0
 11
161.960000014
 21
132.675
 31
0.0
  0
LINE
  8
0
  6
CONTINUOUS
 62
     2
 10
162.360000014
 20
132.675
 30
0.0
 11
161.560000014
 21
132.675
 31
0.0
  0
LINE
  8
0
  6
CONTINUOUS
 62
     2
 10
161.560000014
 20
132.675
 30
0.0
 11
161.360000014
 21
132.675
 31
0.0
  0
LINE
  8
0
  6
CONTINUOUS
 62
     2
 10
161.360000014
 20
132.675
 30
0.0
 11
161.360000014
 21
132.85
 31
0.0
  0
LINE
  8
0
  6
CONTINUOUS
 62
     2
 10
161.360000014
 20
132.85
 30
0.0
 11
162.360000014
 21
133.025
 31
0.0
  0
LINE
  8
0
  6
CONTINUOUS
 62
     2
 10
161.360000014
 20
132.675
 30
0.0
 11
161.160000014
 21
131.975
 31
0.0
  0
LINE
  8
0
  6
LTYPE0
 62
     2
 10
16.0
 20
140.0
 30
0.0
 11
74.0
 21
140.0
 31
0.0
  0
TEXT
  8
0
  6
CONTINUOUS
 62
     1
 10
189.0
 20
62.0
 30
0.4
 40
4.0
  1
変流器　外形図
 50
0.0
 41
0.9
 51
0.0
  7
KANJI1
  0
TEXT
  8
0
  6
CONTINUOUS
 62
     1
 10
189.0
 20
72.0
 30
0.4
 40
4.0
  1
ＣＲＭ－５
 50
0.0
 41
0.9
 51
0.0
  7
KANJI1
  0
TEXT
  8
0
  6
CONTINUOUS
 62
     3
 10
189.0
 20
46.0
 30
0.2
 40
5.8
  1
ＭＳ－５５６２Ａ
 50
0.0
 41
0.827586207
 51
0.0
  7
KANJI2
  0
ENDSEC
  0
EOF
