  0
SECTION
  2
HEADER
  9
$ACADVER
  1
AC1009
  9
$DWGCODEPAGE
  3
dos932
  9
$EXTMIN
 10
0.0
 20
0.0
 30
0.0
  9
$EXTMAX
 10
297.0
 20
210.0
 30
0.0
  9
$LIMMIN
 10
0.0
 20
0.0
  9
$LIMMAX
 10
297.0
 20
210.0
  9
$LTSCALE
 40
1.0
  9
$PDMODE
 70
     0
  0
ENDSEC
  0
SECTION
  2
TABLES
  0
TABLE
  2
VPORT
 70
     1
  0
VPORT
  2
*ACTIVE
 70
     0
 10
0.0
 20
0.0
 11
1.0
 21
1.0
 12
148.5
 22
105.0
 13
0.0
 23
0.0
 14
10.0
 24
10.0
 15
10.0
 25
10.0
 16
0.0
 26
0.0
 36
1.0
 17
0.0
 27
0.0
 37
0.0
 40
297.0
 41
1.414285714
 42
50.0
 43
0.0
 44
0.0
 50
0.0
 51
0.0
 71
     0
 72
  1000
 73
     1
 74
     3
 75
     0
 76
     0
 77
     0
 78
     0
  0
ENDTAB
  0
TABLE
  2
LTYPE
 70
     3
  0
LTYPE
  2
CONTINUOUS
 70
    64
  3
Solid line
 72
    65
 73
     0
 40
0.0
  0
LTYPE
  2
LTYPE1
 70
    64
  3
CENTER
 72
    65
 73
     4
 40
5.0
 49
3.5
 49
-0.5
 49
0.5
 49
-0.5
  0
LTYPE
  2
LTYPE2
 70
    64
  3
HIDDEN
 72
    65
 73
     2
 40
2.0
 49
1.2
 49
-0.8
  0
ENDTAB
  0
TABLE
  2
LAYER
 70
   128
  0
LAYER
  2
0
 70
     0
 62
     7
  6
CONTINUOUS
  0
LAYER
  2
2
 70
     0
 62
     7
  6
CONTINUOUS
  0
LAYER
  2
3
 70
     0
 62
     7
  6
CONTINUOUS
  0
LAYER
  2
4
 70
     0
 62
     7
  6
CONTINUOUS
  0
LAYER
  2
5
 70
     0
 62
     7
  6
CONTINUOUS
  0
LAYER
  2
6
 70
     0
 62
     7
  6
CONTINUOUS
  0
LAYER
  2
7
 70
     0
 62
     7
  6
CONTINUOUS
  0
LAYER
  2
8
 70
     0
 62
     7
  6
CONTINUOUS
  0
LAYER
  2
9
 70
     0
 62
     7
  6
CONTINUOUS
  0
LAYER
  2
10
 70
     0
 62
     7
  6
CONTINUOUS
  0
LAYER
  2
11
 70
     0
 62
     7
  6
CONTINUOUS
  0
LAYER
  2
12
 70
     0
 62
     7
  6
CONTINUOUS
  0
LAYER
  2
13
 70
     0
 62
     7
  6
CONTINUOUS
  0
LAYER
  2
14
 70
     0
 62
     7
  6
CONTINUOUS
  0
LAYER
  2
15
 70
     0
 62
     7
  6
CONTINUOUS
  0
LAYER
  2
16
 70
     0
 62
     7
  6
CONTINUOUS
  0
LAYER
  2
17
 70
     0
 62
     7
  6
CONTINUOUS
  0
LAYER
  2
18
 70
     0
 62
     7
  6
CONTINUOUS
  0
LAYER
  2
19
 70
     0
 62
     7
  6
CONTINUOUS
  0
LAYER
  2
20
 70
     0
 62
     7
  6
CONTINUOUS
  0
LAYER
  2
21
 70
     0
 62
     7
  6
CONTINUOUS
  0
LAYER
  2
22
 70
     0
 62
     7
  6
CONTINUOUS
  0
LAYER
  2
23
 70
     0
 62
     7
  6
CONTINUOUS
  0
LAYER
  2
24
 70
     0
 62
     7
  6
CONTINUOUS
  0
LAYER
  2
25
 70
     0
 62
     7
  6
CONTINUOUS
  0
LAYER
  2
26
 70
     0
 62
     7
  6
CONTINUOUS
  0
LAYER
  2
27
 70
     0
 62
     7
  6
CONTINUOUS
  0
LAYER
  2
28
 70
     0
 62
     7
  6
CONTINUOUS
  0
LAYER
  2
29
 70
     0
 62
     7
  6
CONTINUOUS
  0
LAYER
  2
30
 70
     0
 62
     7
  6
CONTINUOUS
  0
LAYER
  2
31
 70
     0
 62
     7
  6
CONTINUOUS
  0
LAYER
  2
32
 70
     0
 62
     7
  6
CONTINUOUS
  0
LAYER
  2
33
 70
     0
 62
     7
  6
CONTINUOUS
  0
LAYER
  2
34
 70
     0
 62
     7
  6
CONTINUOUS
  0
LAYER
  2
35
 70
     0
 62
     7
  6
CONTINUOUS
  0
LAYER
  2
36
 70
     0
 62
     7
  6
CONTINUOUS
  0
LAYER
  2
37
 70
     0
 62
     7
  6
CONTINUOUS
  0
LAYER
  2
38
 70
     0
 62
     7
  6
CONTINUOUS
  0
LAYER
  2
39
 70
     0
 62
     7
  6
CONTINUOUS
  0
LAYER
  2
40
 70
     0
 62
     7
  6
CONTINUOUS
  0
LAYER
  2
41
 70
     0
 62
     7
  6
CONTINUOUS
  0
LAYER
  2
42
 70
     0
 62
     7
  6
CONTINUOUS
  0
LAYER
  2
43
 70
     0
 62
     7
  6
CONTINUOUS
  0
LAYER
  2
44
 70
     0
 62
     7
  6
CONTINUOUS
  0
LAYER
  2
45
 70
     0
 62
     7
  6
CONTINUOUS
  0
LAYER
  2
46
 70
     0
 62
     7
  6
CONTINUOUS
  0
LAYER
  2
47
 70
     0
 62
     7
  6
CONTINUOUS
  0
LAYER
  2
48
 70
     0
 62
     7
  6
CONTINUOUS
  0
LAYER
  2
49
 70
     0
 62
     7
  6
CONTINUOUS
  0
LAYER
  2
50
 70
     0
 62
     7
  6
CONTINUOUS
  0
LAYER
  2
51
 70
     0
 62
     7
  6
CONTINUOUS
  0
LAYER
  2
52
 70
     0
 62
     7
  6
CONTINUOUS
  0
LAYER
  2
53
 70
     0
 62
     7
  6
CONTINUOUS
  0
LAYER
  2
54
 70
     0
 62
     7
  6
CONTINUOUS
  0
LAYER
  2
55
 70
     0
 62
     7
  6
CONTINUOUS
  0
LAYER
  2
56
 70
     0
 62
     7
  6
CONTINUOUS
  0
LAYER
  2
57
 70
     0
 62
     7
  6
CONTINUOUS
  0
LAYER
  2
58
 70
     0
 62
     7
  6
CONTINUOUS
  0
LAYER
  2
59
 70
     0
 62
     7
  6
CONTINUOUS
  0
LAYER
  2
60
 70
     0
 62
     7
  6
CONTINUOUS
  0
LAYER
  2
61
 70
     0
 62
     7
  6
CONTINUOUS
  0
LAYER
  2
62
 70
     0
 62
     7
  6
CONTINUOUS
  0
LAYER
  2
63
 70
     0
 62
     7
  6
CONTINUOUS
  0
LAYER
  2
64
 70
     0
 62
     7
  6
CONTINUOUS
  0
LAYER
  2
65
 70
     0
 62
     7
  6
CONTINUOUS
  0
LAYER
  2
66
 70
     0
 62
     7
  6
CONTINUOUS
  0
LAYER
  2
67
 70
     0
 62
     7
  6
CONTINUOUS
  0
LAYER
  2
68
 70
     0
 62
     7
  6
CONTINUOUS
  0
LAYER
  2
69
 70
     0
 62
     7
  6
CONTINUOUS
  0
LAYER
  2
70
 70
     0
 62
     7
  6
CONTINUOUS
  0
LAYER
  2
71
 70
     0
 62
     7
  6
CONTINUOUS
  0
LAYER
  2
72
 70
     0
 62
     7
  6
CONTINUOUS
  0
LAYER
  2
73
 70
     0
 62
     7
  6
CONTINUOUS
  0
LAYER
  2
74
 70
     0
 62
     7
  6
CONTINUOUS
  0
LAYER
  2
75
 70
     0
 62
     7
  6
CONTINUOUS
  0
LAYER
  2
76
 70
     0
 62
     7
  6
CONTINUOUS
  0
LAYER
  2
77
 70
     0
 62
     7
  6
CONTINUOUS
  0
LAYER
  2
78
 70
     0
 62
     7
  6
CONTINUOUS
  0
LAYER
  2
79
 70
     0
 62
     7
  6
CONTINUOUS
  0
LAYER
  2
80
 70
     0
 62
     7
  6
CONTINUOUS
  0
LAYER
  2
81
 70
     0
 62
     7
  6
CONTINUOUS
  0
LAYER
  2
82
 70
     0
 62
     7
  6
CONTINUOUS
  0
LAYER
  2
83
 70
     0
 62
     7
  6
CONTINUOUS
  0
LAYER
  2
84
 70
     0
 62
     7
  6
CONTINUOUS
  0
LAYER
  2
85
 70
     0
 62
     7
  6
CONTINUOUS
  0
LAYER
  2
86
 70
     0
 62
     7
  6
CONTINUOUS
  0
LAYER
  2
87
 70
     0
 62
     7
  6
CONTINUOUS
  0
LAYER
  2
88
 70
     0
 62
     7
  6
CONTINUOUS
  0
LAYER
  2
89
 70
     0
 62
     7
  6
CONTINUOUS
  0
LAYER
  2
90
 70
     0
 62
     7
  6
CONTINUOUS
  0
LAYER
  2
91
 70
     0
 62
     7
  6
CONTINUOUS
  0
LAYER
  2
92
 70
     0
 62
     7
  6
CONTINUOUS
  0
LAYER
  2
93
 70
     0
 62
     7
  6
CONTINUOUS
  0
LAYER
  2
94
 70
     0
 62
     7
  6
CONTINUOUS
  0
LAYER
  2
95
 70
     0
 62
     7
  6
CONTINUOUS
  0
LAYER
  2
96
 70
     0
 62
     7
  6
CONTINUOUS
  0
LAYER
  2
97
 70
     0
 62
     7
  6
CONTINUOUS
  0
LAYER
  2
98
 70
     0
 62
     7
  6
CONTINUOUS
  0
LAYER
  2
99
 70
     0
 62
     7
  6
CONTINUOUS
  0
LAYER
  2
100
 70
     0
 62
     7
  6
CONTINUOUS
  0
LAYER
  2
101
 70
     0
 62
     7
  6
CONTINUOUS
  0
LAYER
  2
102
 70
     0
 62
     7
  6
CONTINUOUS
  0
LAYER
  2
103
 70
     0
 62
     7
  6
CONTINUOUS
  0
LAYER
  2
104
 70
     0
 62
     7
  6
CONTINUOUS
  0
LAYER
  2
105
 70
     0
 62
     7
  6
CONTINUOUS
  0
LAYER
  2
106
 70
     0
 62
     7
  6
CONTINUOUS
  0
LAYER
  2
107
 70
     0
 62
     7
  6
CONTINUOUS
  0
LAYER
  2
108
 70
     0
 62
     7
  6
CONTINUOUS
  0
LAYER
  2
109
 70
     0
 62
     7
  6
CONTINUOUS
  0
LAYER
  2
110
 70
     0
 62
     7
  6
CONTINUOUS
  0
LAYER
  2
111
 70
     0
 62
     7
  6
CONTINUOUS
  0
LAYER
  2
112
 70
     0
 62
     7
  6
CONTINUOUS
  0
LAYER
  2
113
 70
     0
 62
     7
  6
CONTINUOUS
  0
LAYER
  2
114
 70
     0
 62
     7
  6
CONTINUOUS
  0
LAYER
  2
115
 70
     0
 62
     7
  6
CONTINUOUS
  0
LAYER
  2
116
 70
     0
 62
     7
  6
CONTINUOUS
  0
LAYER
  2
117
 70
     0
 62
     7
  6
CONTINUOUS
  0
LAYER
  2
118
 70
     0
 62
     7
  6
CONTINUOUS
  0
LAYER
  2
119
 70
     0
 62
     7
  6
CONTINUOUS
  0
LAYER
  2
120
 70
     0
 62
     7
  6
CONTINUOUS
  0
LAYER
  2
121
 70
     0
 62
     7
  6
CONTINUOUS
  0
LAYER
  2
122
 70
     0
 62
     7
  6
CONTINUOUS
  0
LAYER
  2
123
 70
     0
 62
     7
  6
CONTINUOUS
  0
LAYER
  2
124
 70
     0
 62
     7
  6
CONTINUOUS
  0
LAYER
  2
125
 70
     0
 62
     7
  6
CONTINUOUS
  0
LAYER
  2
126
 70
     0
 62
     7
  6
CONTINUOUS
  0
LAYER
  2
127
 70
     0
 62
     7
  6
CONTINUOUS
  0
LAYER
  2
128
 70
     0
 62
     7
  6
CONTINUOUS
  0
ENDTAB
  0
TABLE
  2
STYLE
 70
    24
  0
STYLE
  2
STANDARD
 70
     0
 40
0.0
 41
1.0
 50
0.0
 71
     0
 42
0.2
  3
txt.shx
  4
extfont.shx
  0
STYLE
  2
KANJI0
 70
     0
 40
3.0
 41
0.6
 50
0.0
 71
     0
 42
3.0
  3
txt.shx
  4
extfont.shx
  0
STYLE
  2
KANJI1
 70
     0
 40
1.8
 41
0.6
 50
0.0
 71
     0
 42
1.8
  3
txt.shx
  4
extfont.shx
  0
STYLE
  2
KANJI2
 70
     0
 40
3.0
 41
0.8
 50
0.0
 71
     0
 42
3.0
  3
txt.shx
  4
extfont.shx
  0
STYLE
  2
KANJI3
 70
     0
 40
3.0
 41
0.8
 50
0.0
 71
     0
 42
3.0
  3
txt.shx
  4
extfont.shx
  0
STYLE
  2
KANJI4
 70
     0
 40
3.0
 41
0.8
 50
0.0
 71
     0
 42
3.0
  3
txt.shx
  4
extfont.shx
  0
STYLE
  2
KANJI5
 70
     0
 40
3.0
 41
0.8
 50
0.0
 71
     0
 42
3.0
  3
txt.shx
  4
extfont.shx
  0
STYLE
  2
KANJI6
 70
     0
 40
3.0
 41
0.8
 50
0.0
 71
     0
 42
3.0
  3
txt.shx
  4
extfont.shx
  0
STYLE
  2
KANJI7
 70
     0
 40
3.0
 41
0.8
 50
0.0
 71
     0
 42
3.0
  3
txt.shx
  4
extfont.shx
  0
STYLE
  2
KANJI8
 70
     0
 40
1.5
 41
0.8
 50
0.0
 71
     0
 42
1.5
  3
txt.shx
  4
extfont.shx
  0
STYLE
  2
KANJI9
 70
     0
 40
3.0
 41
0.75
 50
0.0
 71
     0
 42
3.0
  3
txt.shx
  4
extfont.shx
  0
STYLE
  2
KANJI10
 70
     0
 40
3.0
 41
0.625
 50
0.0
 71
     0
 42
3.0
  3
txt.shx
  4
extfont.shx
  0
STYLE
  2
KANJI11
 70
     0
 40
2.5
 41
0.8
 50
0.0
 71
     0
 42
2.5
  3
txt.shx
  4
extfont.shx
  0
STYLE
  2
KANJI12
 70
     0
 40
2.25
 41
0.8
 50
0.0
 71
     0
 42
2.25
  3
txt.shx
  4
extfont.shx
  0
STYLE
  2
KANJI13
 70
     0
 40
3.0
 41
0.8
 50
0.0
 71
     0
 42
3.0
  3
txt.shx
  4
extfont.shx
  0
STYLE
  2
KANJI14
 70
     0
 40
3.0
 41
0.8
 50
0.0
 71
     0
 42
3.0
  3
txt.shx
  4
extfont.shx
  0
STYLE
  2
KANJI15
 70
     0
 40
3.0
 41
0.8
 50
0.0
 71
     0
 42
3.0
  3
txt.shx
  4
extfont.shx
  0
STYLE
  2
KANJI16
 70
     0
 40
2.0
 41
0.9
 50
0.0
 71
     0
 42
2.0
  3
txt.shx
  4
extfont.shx
  0
STYLE
  2
KANJI17
 70
     0
 40
3.0
 41
0.666666667
 50
0.0
 71
     0
 42
3.0
  3
txt.shx
  4
extfont.shx
  0
STYLE
  2
KANJI18
 70
     0
 40
6.0
 41
0.9
 50
0.0
 71
     0
 42
6.0
  3
txt.shx
  4
extfont.shx
  0
STYLE
  2
KANJI19
 70
     0
 40
4.0
 41
1.0
 50
0.0
 71
     0
 42
4.0
  3
txt.shx
  4
extfont.shx
  0
STYLE
  2
KANJI20
 70
     0
 40
4.5
 41
1.0
 50
0.0
 71
     0
 42
4.5
  3
txt.shx
  4
extfont.shx
  0
STYLE
  2
KANJI21
 70
     0
 40
1.3
 41
0.576923077
 50
0.0
 71
     0
 42
1.3
  3
txt.shx
  4
extfont.shx
  0
STYLE
  2
KANJI22
 70
     0
 40
5.0
 41
0.9
 50
0.0
 71
     0
 42
5.0
  3
txt.shx
  4
extfont.shx
  0
ENDTAB
  0
TABLE
  2
VIEW
 70
     0
  0
ENDTAB
  0
ENDSEC
  0
SECTION
  2
BLOCKS
  0
ENDSEC
  0
SECTION
  2
ENTITIES
  0
CIRCLE
  8
0
  6
CONTINUOUS
 62
     1
 10
46.3
 20
73.5
 30
0.0
 40
17.5
  0
CIRCLE
  8
0
  6
CONTINUOUS
 62
     1
 10
46.3
 20
73.5
 30
0.0
 40
7.0
  0
LINE
  8
0
  6
CONTINUOUS
 62
     1
 10
34.3
 20
60.762260797
 30
0.0
 11
34.3
 21
50.0
 31
0.0
  0
LINE
  8
0
  6
CONTINUOUS
 62
     1
 10
34.3
 20
50.0
 30
0.0
 11
58.3
 21
50.0
 31
0.0
  0
LINE
  8
0
  6
CONTINUOUS
 62
     1
 10
58.3
 20
50.0
 30
0.0
 11
58.3
 21
60.762260797
 31
0.0
  0
LINE
  8
0
  6
CONTINUOUS
 62
     1
 10
34.3
 20
50.0
 30
0.0
 11
32.3
 21
45.0
 31
0.0
  0
LINE
  8
0
  6
CONTINUOUS
 62
     1
 10
32.3
 20
45.0
 30
0.0
 11
23.3
 21
45.0
 31
0.0
  0
LINE
  8
0
  6
CONTINUOUS
 62
     1
 10
58.3
 20
50.0
 30
0.0
 11
60.3
 21
45.0
 31
0.0
  0
LINE
  8
0
  6
CONTINUOUS
 62
     1
 10
60.3
 20
45.0
 30
0.0
 11
69.3
 21
45.0
 31
0.0
  0
LINE
  8
0
  6
CONTINUOUS
 62
     1
 10
57.7
 20
49.2
 30
0.0
 11
59.7
 21
44.2
 31
0.0
  0
LINE
  8
0
  6
CONTINUOUS
 62
     1
 10
69.3
 20
45.0
 30
0.0
 11
69.3
 21
44.2
 31
0.0
  0
LINE
  8
0
  6
CONTINUOUS
 62
     1
 10
69.3
 20
44.2
 30
0.0
 11
59.7
 21
44.2
 31
0.0
  0
LINE
  8
0
  6
CONTINUOUS
 62
     1
 10
32.9
 20
44.2
 30
0.0
 11
34.9
 21
49.2
 31
0.0
  0
LINE
  8
0
  6
CONTINUOUS
 62
     1
 10
34.9
 20
49.2
 30
0.0
 11
57.7
 21
49.2
 31
0.0
  0
LINE
  8
0
  6
CONTINUOUS
 62
     1
 10
23.3
 20
44.2
 30
0.0
 11
32.9
 21
44.2
 31
0.0
  0
LINE
  8
0
  6
CONTINUOUS
 62
     1
 10
23.3
 20
45.0
 30
0.0
 11
23.3
 21
44.2
 31
0.0
  0
LINE
  8
0
  6
CONTINUOUS
 62
     1
 10
58.532947315
 20
92.804015126
 30
0.0
 11
65.604015126
 21
85.732947315
 31
0.0
  0
ARC
  8
0
  6
CONTINUOUS
 62
     1
 10
63.226027284
 20
89.368741116
 30
0.0
 40
0.966742525
 50
313.472474559
 51
45.0
  0
ARC
  8
0
  6
CONTINUOUS
 62
     1
 10
62.168741116
 20
90.426027284
 30
0.0
 40
0.966742525
 50
45.0
 51
135.0
  0
LINE
  8
0
  6
CONTINUOUS
 62
     1
 10
62.852331311
 20
91.109617479
 30
0.0
 11
63.909617479
 21
90.052331311
 31
0.0
  0
LINE
  8
0
  6
CONTINUOUS
 62
     1
 10
63.116652853
 20
90.717692434
 30
0.0
 11
63.463005218
 21
90.371340068
 31
0.0
  0
LINE
  8
0
  6
CONTINUOUS
 62
     1
 10
61.211714843
 20
90.836181401
 30
0.0
 11
61.494265457
 21
91.118732015
 31
0.0
  0
LINE
  8
0
  6
CONTINUOUS
 62
     1
 10
63.900502943
 20
88.712494529
 30
0.0
 11
63.636181401
 21
88.411714843
 31
0.0
  0
LINE
  8
0
  6
CONTINUOUS
 62
     1
 10
61.211714843
 20
90.836181401
 30
0.0
 11
63.636181401
 21
88.411714843
 31
0.0
  0
LINE
  8
0
  6
CONTINUOUS
 62
     1
 10
58.532947315
 20
92.804015126
 30
0.0
 11
59.240054096
 21
92.804015126
 31
0.0
  0
LINE
  8
0
  6
CONTINUOUS
 62
     1
 10
59.240054096
 20
92.804015126
 30
0.0
 11
61.078531727
 21
90.965537495
 31
0.0
  0
LINE
  8
0
  6
CONTINUOUS
 62
     1
 10
65.604015126
 20
85.732947315
 30
0.0
 11
65.604015126
 21
86.440054096
 31
0.0
  0
LINE
  8
0
  6
CONTINUOUS
 62
     1
 10
65.604015126
 20
86.440054096
 30
0.0
 11
63.765537495
 21
88.278531727
 31
0.0
  0
LINE
  8
0
  6
CONTINUOUS
 62
     1
 10
54.653932188
 20
88.925
 30
0.0
 11
58.532947315
 21
92.804015126
 31
0.0
  0
LINE
  8
0
  6
CONTINUOUS
 62
     1
 10
65.604015126
 20
85.732947315
 30
0.0
 11
61.746067812
 21
81.875
 31
0.0
  0
ARC
  8
0
  6
CONTINUOUS
 62
     1
 10
45.552385781
 20
48.310596877
 30
0.0
 40
0.966742525
 50
178.472474559
 51
270.0
  0
ARC
  8
0
  6
CONTINUOUS
 62
     1
 10
47.047614219
 20
48.310596877
 30
0.0
 40
0.966742525
 50
270.0
 51
0.0
  0
LINE
  8
0
  6
CONTINUOUS
 62
     1
 10
47.047614219
 20
47.343854352
 30
0.0
 11
45.552385781
 21
47.343854352
 31
0.0
  0
LINE
  8
0
  6
CONTINUOUS
 62
     1
 10
46.583577807
 20
47.434083655
 30
0.0
 11
46.093761595
 21
47.434083655
 31
0.0
  0
LINE
  8
0
  6
CONTINUOUS
 62
     1
 10
48.014356744
 20
48.697293887
 30
0.0
 11
48.014356744
 21
48.297706977
 31
0.0
  0
LINE
  8
0
  6
CONTINUOUS
 62
     1
 10
44.611423057
 20
48.297706977
 30
0.0
 11
44.585643256
 21
48.697293887
 31
0.0
  0
LINE
  8
0
  6
CONTINUOUS
 62
     1
 10
48.014356744
 20
48.697293887
 30
0.0
 11
44.585643256
 21
48.697293887
 31
0.0
  0
ARC
  8
0
  6
CONTINUOUS
 62
     1
 10
137.8
 20
89.0
 30
0.0
 40
2.0
 50
360.0
 51
90.0
  0
ARC
  8
0
  6
CONTINUOUS
 62
     1
 10
114.8
 20
89.0
 30
0.0
 40
2.0
 50
90.0
 51
180.0
  0
ARC
  8
0
  6
CONTINUOUS
 62
     1
 10
114.8
 20
58.0
 30
0.0
 40
2.0
 50
180.0
 51
270.0
  0
ARC
  8
0
  6
CONTINUOUS
 62
     1
 10
137.8
 20
58.0
 30
0.0
 40
2.0
 50
270.0
 51
360.0
  0
LINE
  8
0
  6
CONTINUOUS
 62
     1
 10
115.8
 20
50.0
 30
0.0
 11
136.8
 21
50.0
 31
0.0
  0
LINE
  8
0
  6
CONTINUOUS
 62
     1
 10
136.8
 20
50.0
 30
0.0
 11
136.8
 21
58.762260797
 31
0.0
  0
ARC
  8
0
  6
CONTINUOUS
 62
     1
 10
134.8
 20
58.762260797
 30
0.0
 40
2.0
 50
0.0
 51
90.0
  0
LINE
  8
0
  6
CONTINUOUS
 62
     1
 10
115.8
 20
58.762260797
 30
0.0
 11
115.8
 21
50.0
 31
0.0
  0
LINE
  8
0
  6
CONTINUOUS
 62
     1
 10
134.8
 20
60.762260797
 30
0.0
 11
117.8
 21
60.762260797
 31
0.0
  0
ARC
  8
0
  6
CONTINUOUS
 62
     1
 10
117.8
 20
58.762260797
 30
0.0
 40
2.0
 50
90.0
 51
180.0
  0
LINE
  8
0
  6
CONTINUOUS
 62
     1
 10
115.8
 20
50.0
 30
0.0
 11
115.8
 21
44.2
 31
0.0
  0
LINE
  8
0
  6
CONTINUOUS
 62
     1
 10
115.8
 20
44.2
 30
0.0
 11
136.8
 21
44.2
 31
0.0
  0
POINT
  8
0
  6
CONTINUOUS
 62
     1
 10
136.8
 20
44.2
 30
0.0
  0
LINE
  8
0
  6
CONTINUOUS
 62
     1
 10
136.8
 20
44.2
 30
0.0
 11
136.8
 21
50.0
 31
0.0
  0
LINE
  8
0
  6
CONTINUOUS
 62
     1
 10
115.8
 20
45.0
 30
0.0
 11
136.8
 21
45.0
 31
0.0
  0
LINE
  8
0
  6
CONTINUOUS
 62
     1
 10
124.3
 20
45.0
 30
0.0
 11
124.3
 21
44.2
 31
0.0
  0
LINE
  8
0
  6
CONTINUOUS
 62
     1
 10
128.3
 20
44.2
 30
0.0
 11
128.3
 21
45.0
 31
0.0
  0
LINE
  8
0
  6
CONTINUOUS
 62
     1
 10
139.8
 20
58.0
 30
0.0
 11
139.8
 21
66.5
 31
0.0
  0
LINE
  8
0
  6
CONTINUOUS
 62
     1
 10
139.8
 20
66.5
 30
0.0
 11
139.8
 21
80.5
 31
0.0
  0
LINE
  8
0
  6
CONTINUOUS
 62
     1
 10
139.8
 20
80.5
 30
0.0
 11
139.8
 21
89.0
 31
0.0
  0
LINE
  8
0
  6
CONTINUOUS
 62
     1
 10
112.8
 20
80.5
 30
0.0
 11
112.8
 21
66.5
 31
0.0
  0
LINE
  8
0
  6
CONTINUOUS
 62
     1
 10
112.8
 20
89.0
 30
0.0
 11
112.8
 21
80.5
 31
0.0
  0
LINE
  8
0
  6
CONTINUOUS
 62
     1
 10
112.8
 20
66.5
 30
0.0
 11
112.8
 21
58.0
 31
0.0
  0
LINE
  8
0
  6
CONTINUOUS
 62
     1
 10
116.3
 20
91.0
 30
0.0
 11
114.8
 21
91.0
 31
0.0
  0
LINE
  8
0
  6
CONTINUOUS
 62
     1
 10
137.8
 20
91.0
 30
0.0
 11
136.3
 21
91.0
 31
0.0
  0
LINE
  8
0
  6
CONTINUOUS
 62
     1
 10
136.8
 20
56.0
 30
0.0
 11
137.8
 21
56.0
 31
0.0
  0
LINE
  8
0
  6
CONTINUOUS
 62
     1
 10
114.8
 20
56.0
 30
0.0
 11
115.8
 21
56.0
 31
0.0
  0
LINE
  8
0
  6
CONTINUOUS
 62
     1
 10
135.8
 20
92.804015126
 30
0.0
 11
127.8
 21
92.804015126
 31
0.0
  0
ARC
  8
0
  6
CONTINUOUS
 62
     1
 10
135.8
 20
92.304015126
 30
0.0
 40
0.5
 50
0.0
 51
90.0
  0
ARC
  8
0
  6
CONTINUOUS
 62
     1
 10
135.8
 20
82.32300732
 30
0.0
 40
0.5
 50
270.0
 51
0.0
  0
LINE
  8
0
  6
CONTINUOUS
 62
     1
 10
116.8
 20
81.82300732
 30
0.0
 11
135.8
 21
81.82300732
 31
0.0
  0
ARC
  8
0
  6
CONTINUOUS
 62
     1
 10
116.8
 20
82.32300732
 30
0.0
 40
0.5
 50
180.0
 51
270.0
  0
LINE
  8
0
  6
CONTINUOUS
 62
     1
 10
124.8
 20
92.804015126
 30
0.0
 11
116.8
 21
92.804015126
 31
0.0
  0
ARC
  8
0
  6
CONTINUOUS
 62
     1
 10
116.8
 20
92.304015126
 30
0.0
 40
0.5
 50
90.0
 51
180.0
  0
LINE
  8
0
  6
CONTINUOUS
 62
     1
 10
136.3
 20
86.232947315
 30
0.0
 11
136.3
 21
92.304015126
 31
0.0
  0
ARC
  8
0
  6
CONTINUOUS
 62
     1
 10
135.8
 20
86.232947315
 30
0.0
 40
0.5
 50
270.0
 51
360.0
  0
LINE
  8
0
  6
CONTINUOUS
 62
     1
 10
136.3
 20
82.32300732
 30
0.0
 11
136.3
 21
86.232947315
 31
0.0
  0
POLYLINE
  8
0
  6
CONTINUOUS
 62
     1
 66
     1
 70
     1
  0
VERTEX
  8
0
  6
CONTINUOUS
 62
     1
 10
134.5625
 20
90.432947315
 30
0.0
 42
0.028036959
  0
VERTEX
  8
0
  6
CONTINUOUS
 62
     1
 10
134.553938071
 20
90.585469864
 30
0.0
 42
0.027796374
  0
VERTEX
  8
0
  6
CONTINUOUS
 62
     1
 10
134.528317444
 20
90.736831625
 30
0.0
 42
0.027301353
  0
VERTEX
  8
0
  6
CONTINUOUS
 62
     1
 10
134.485833109
 20
90.885880643
 30
0.0
 42
0.026592699
  0
VERTEX
  8
0
  6
CONTINUOUS
 62
     1
 10
134.426808397
 20
91.031482565
 30
0.0
 42
0.025723796
  0
VERTEX
  8
0
  6
CONTINUOUS
 62
     1
 10
134.351692521
 20
91.172529273
 30
0.0
 42
0.024752327
  0
VERTEX
  8
0
  6
CONTINUOUS
 62
     1
 10
134.261057159
 20
91.307947315
 30
0.0
 42
0.02373316
  0
VERTEX
  8
0
  6
CONTINUOUS
 62
     1
 10
134.1555921
 20
91.436706078
 30
0.0
 42
0.022713598
  0
VERTEX
  8
0
  6
CONTINUOUS
 62
     1
 10
134.036099997
 20
91.557825631
 30
0.0
 42
0.021731181
  0
VERTEX
  8
0
  6
CONTINUOUS
 62
     1
 10
133.903490258
 20
91.670384182
 30
0.0
 42
0.020813529
  0
VERTEX
  8
0
  6
CONTINUOUS
 62
     1
 10
133.758772122
 20
91.77352509
 30
0.0
 42
0.019979468
  0
VERTEX
  8
0
  6
CONTINUOUS
 62
     1
 10
133.603046982
 20
91.866463392
 30
0.0
 42
0.019240754
  0
VERTEX
  8
0
  6
CONTINUOUS
 62
     1
 10
133.4375
 20
91.948491771
 30
0.0
 42
0.018603895
  0
VERTEX
  8
0
  6
CONTINUOUS
 62
     1
 10
133.263391089
 20
92.018985942
 30
0.0
 42
0.018071802
  0
VERTEX
  8
0
  6
CONTINUOUS
 62
     1
 10
133.082045322
 20
92.077409401
 30
0.0
 42
0.017645132
  0
VERTEX
  8
0
  6
CONTINUOUS
 62
     1
 10
132.894842851
 20
92.123317511
 30
0.0
 42
0.017323331
  0
VERTEX
  8
0
  6
CONTINUOUS
 62
     1
 10
132.7032084
 20
92.156360882
 30
0.0
 42
0.017105385
  0
VERTEX
  8
0
  6
CONTINUOUS
 62
     1
 10
132.508600421
 20
92.176288036
 30
0.0
 42
0.016990325
  0
VERTEX
  8
0
  6
CONTINUOUS
 62
     1
 10
132.3125
 20
92.182947315
 30
0.0
 42
0.016977555
  0
VERTEX
  8
0
  6
CONTINUOUS
 62
     1
 10
132.116399579
 20
92.176288036
 30
0.0
 42
0.017067005
  0
VERTEX
  8
0
  6
CONTINUOUS
 62
     1
 10
131.9217916
 20
92.156360882
 30
0.0
 42
0.01725915
  0
VERTEX
  8
0
  6
CONTINUOUS
 62
     1
 10
131.730157149
 20
92.123317511
 30
0.0
 42
0.017554887
  0
VERTEX
  8
0
  6
CONTINUOUS
 62
     1
 10
131.542954678
 20
92.077409401
 30
0.0
 42
0.017955258
  0
VERTEX
  8
0
  6
CONTINUOUS
 62
     1
 10
131.361608911
 20
92.018985942
 30
0.0
 42
0.018460995
  0
VERTEX
  8
0
  6
CONTINUOUS
 62
     1
 10
131.1875
 20
91.948491771
 30
0.0
 42
0.019071826
  0
VERTEX
  8
0
  6
CONTINUOUS
 62
     1
 10
131.021953018
 20
91.866463392
 30
0.0
 42
0.01978552
  0
VERTEX
  8
0
  6
CONTINUOUS
 62
     1
 10
130.866227878
 20
91.77352509
 30
0.0
 42
0.020596611
  0
VERTEX
  8
0
  6
CONTINUOUS
 62
     1
 10
130.721509742
 20
91.670384182
 30
0.0
 42
0.021494823
  0
VERTEX
  8
0
  6
CONTINUOUS
 62
     1
 10
130.588900003
 20
91.557825631
 30
0.0
 42
0.022463269
  0
VERTEX
  8
0
  6
CONTINUOUS
 62
     1
 10
130.4694079
 20
91.436706078
 30
0.0
 42
0.023476666
  0
VERTEX
  8
0
  6
CONTINUOUS
 62
     1
 10
130.363942841
 20
91.307947315
 30
0.0
 42
0.024500005
  0
VERTEX
  8
0
  6
CONTINUOUS
 62
     1
 10
130.273307479
 20
91.172529273
 30
0.0
 42
0.025488307
  0
VERTEX
  8
0
  6
CONTINUOUS
 62
     1
 10
130.198191603
 20
91.031482565
 30
0.0
 42
0.026388255
  0
VERTEX
  8
0
  6
CONTINUOUS
 62
     1
 10
130.139166891
 20
90.885880643
 30
0.0
 42
0.027142283
  0
VERTEX
  8
0
  6
CONTINUOUS
 62
     1
 10
130.096682556
 20
90.736831625
 30
0.0
 42
0.02769517
  0
VERTEX
  8
0
  6
CONTINUOUS
 62
     1
 10
130.071061929
 20
90.585469864
 30
0.0
 42
0.028002203
  0
VERTEX
  8
0
  6
CONTINUOUS
 62
     1
 10
130.0625
 20
90.432947315
 30
0.0
 42
0.028036959
  0
VERTEX
  8
0
  6
CONTINUOUS
 62
     1
 10
130.071061929
 20
90.280424765
 30
0.0
 42
0.027796374
  0
VERTEX
  8
0
  6
CONTINUOUS
 62
     1
 10
130.096682556
 20
90.129063004
 30
0.0
 42
0.027301353
  0
VERTEX
  8
0
  6
CONTINUOUS
 62
     1
 10
130.139166891
 20
89.980013986
 30
0.0
 42
0.026592699
  0
VERTEX
  8
0
  6
CONTINUOUS
 62
     1
 10
130.198191603
 20
89.834412064
 30
0.0
 42
0.025723796
  0
VERTEX
  8
0
  6
CONTINUOUS
 62
     1
 10
130.273307479
 20
89.693365356
 30
0.0
 42
0.024752327
  0
VERTEX
  8
0
  6
CONTINUOUS
 62
     1
 10
130.363942841
 20
89.557947315
 30
0.0
 42
0.02373316
  0
VERTEX
  8
0
  6
CONTINUOUS
 62
     1
 10
130.4694079
 20
89.429188551
 30
0.0
 42
0.022713598
  0
VERTEX
  8
0
  6
CONTINUOUS
 62
     1
 10
130.588900003
 20
89.308068998
 30
0.0
 42
0.021731181
  0
VERTEX
  8
0
  6
CONTINUOUS
 62
     1
 10
130.721509742
 20
89.195510447
 30
0.0
 42
0.020813529
  0
VERTEX
  8
0
  6
CONTINUOUS
 62
     1
 10
130.866227878
 20
89.092369539
 30
0.0
 42
0.019979468
  0
VERTEX
  8
0
  6
CONTINUOUS
 62
     1
 10
131.021953018
 20
88.999431237
 30
0.0
 42
0.019240754
  0
VERTEX
  8
0
  6
CONTINUOUS
 62
     1
 10
131.1875
 20
88.917402858
 30
0.0
 42
0.018603895
  0
VERTEX
  8
0
  6
CONTINUOUS
 62
     1
 10
131.361608911
 20
88.846908687
 30
0.0
 42
0.018071802
  0
VERTEX
  8
0
  6
CONTINUOUS
 62
     1
 10
131.542954678
 20
88.788485228
 30
0.0
 42
0.017645132
  0
VERTEX
  8
0
  6
CONTINUOUS
 62
     1
 10
131.730157149
 20
88.742577119
 30
0.0
 42
0.017323331
  0
VERTEX
  8
0
  6
CONTINUOUS
 62
     1
 10
131.9217916
 20
88.709533747
 30
0.0
 42
0.017105385
  0
VERTEX
  8
0
  6
CONTINUOUS
 62
     1
 10
132.116399579
 20
88.689606593
 30
0.0
 42
0.016990325
  0
VERTEX
  8
0
  6
CONTINUOUS
 62
     1
 10
132.3125
 20
88.682947315
 30
0.0
 42
0.016977555
  0
VERTEX
  8
0
  6
CONTINUOUS
 62
     1
 10
132.508600421
 20
88.689606593
 30
0.0
 42
0.017067005
  0
VERTEX
  8
0
  6
CONTINUOUS
 62
     1
 10
132.7032084
 20
88.709533747
 30
0.0
 42
0.01725915
  0
VERTEX
  8
0
  6
CONTINUOUS
 62
     1
 10
132.894842851
 20
88.742577119
 30
0.0
 42
0.017554887
  0
VERTEX
  8
0
  6
CONTINUOUS
 62
     1
 10
133.082045322
 20
88.788485228
 30
0.0
 42
0.017955258
  0
VERTEX
  8
0
  6
CONTINUOUS
 62
     1
 10
133.263391089
 20
88.846908687
 30
0.0
 42
0.018460995
  0
VERTEX
  8
0
  6
CONTINUOUS
 62
     1
 10
133.4375
 20
88.917402858
 30
0.0
 42
0.019071826
  0
VERTEX
  8
0
  6
CONTINUOUS
 62
     1
 10
133.603046982
 20
88.999431237
 30
0.0
 42
0.01978552
  0
VERTEX
  8
0
  6
CONTINUOUS
 62
     1
 10
133.758772122
 20
89.092369539
 30
0.0
 42
0.020596611
  0
VERTEX
  8
0
  6
CONTINUOUS
 62
     1
 10
133.903490258
 20
89.195510447
 30
0.0
 42
0.021494823
  0
VERTEX
  8
0
  6
CONTINUOUS
 62
     1
 10
134.036099997
 20
89.308068998
 30
0.0
 42
0.022463269
  0
VERTEX
  8
0
  6
CONTINUOUS
 62
     1
 10
134.1555921
 20
89.429188551
 30
0.0
 42
0.023476666
  0
VERTEX
  8
0
  6
CONTINUOUS
 62
     1
 10
134.261057159
 20
89.557947315
 30
0.0
 42
0.024500005
  0
VERTEX
  8
0
  6
CONTINUOUS
 62
     1
 10
134.351692521
 20
89.693365356
 30
0.0
 42
0.025488307
  0
VERTEX
  8
0
  6
CONTINUOUS
 62
     1
 10
134.426808397
 20
89.834412064
 30
0.0
 42
0.026388255
  0
VERTEX
  8
0
  6
CONTINUOUS
 62
     1
 10
134.485833109
 20
89.980013986
 30
0.0
 42
0.027142283
  0
VERTEX
  8
0
  6
CONTINUOUS
 62
     1
 10
134.528317444
 20
90.129063004
 30
0.0
 42
0.02769517
  0
VERTEX
  8
0
  6
CONTINUOUS
 62
     1
 10
134.553938071
 20
90.280424765
 30
0.0
 42
0.028002203
  0
SEQEND
  8
0
  6
CONTINUOUS
 62
     1
  0
LINE
  8
0
  6
CONTINUOUS
 62
     1
 10
134.5125
 20
90.382947315
 30
0.0
 11
134.5125
 21
89.882947315
 31
0.0
  0
POLYLINE
  8
0
  6
CONTINUOUS
 62
     1
 66
     1
  0
VERTEX
  8
0
  6
CONTINUOUS
 62
     1
 10
130.071095761
 20
89.680124298
 30
0.0
 42
0.027794075
  0
VERTEX
  8
0
  6
CONTINUOUS
 62
     1
 10
130.096748002
 20
89.52877446
 30
0.0
 42
0.027298654
  0
VERTEX
  8
0
  6
CONTINUOUS
 62
     1
 10
130.139261552
 20
89.3797393
 30
0.0
 42
0.026589728
  0
VERTEX
  8
0
  6
CONTINUOUS
 62
     1
 10
130.198312894
 20
89.234152938
 30
0.0
 42
0.025720685
  0
VERTEX
  8
0
  6
CONTINUOUS
 62
     1
 10
130.273452661
 20
89.093123249
 30
0.0
 42
0.024749195
  0
VERTEX
  8
0
  6
CONTINUOUS
 62
     1
 10
130.36410906
 20
88.957723432
 30
0.0
 42
0.023730104
  0
VERTEX
  8
0
  6
CONTINUOUS
 62
     1
 10
130.469592217
 20
88.828983846
 30
0.0
 42
0.02271069
  0
VERTEX
  8
0
  6
CONTINUOUS
 62
     1
 10
130.589099434
 20
88.707884167
 30
0.0
 42
0.021728468
  0
VERTEX
  8
0
  6
CONTINUOUS
 62
     1
 10
130.72172129
 20
88.595345932
 30
0.0
 42
0.020811035
  0
VERTEX
  8
0
  6
CONTINUOUS
 62
     1
 10
130.866448568
 20
88.492225528
 30
0.0
 42
0.019977201
  0
VERTEX
  8
0
  6
CONTINUOUS
 62
     1
 10
131.022179929
 20
88.399307676
 30
0.0
 42
0.019238711
  0
VERTEX
  8
0
  6
CONTINUOUS
 62
     1
 10
131.187730297
 20
88.317299457
 30
0.0
 42
0.018602066
  0
VERTEX
  8
0
  6
CONTINUOUS
 62
     1
 10
131.361839876
 20
88.246824932
 30
0.0
 42
0.01807017
  0
VERTEX
  8
0
  6
CONTINUOUS
 62
     1
 10
131.543183737
 20
88.188420395
 30
0.0
 42
0.017643679
  0
VERTEX
  8
0
  6
CONTINUOUS
 62
     1
 10
131.730381899
 20
88.142530289
 30
0.0
 42
0.01732204
  0
VERTEX
  8
0
  6
CONTINUOUS
 62
     1
 10
131.922009831
 20
88.109503826
 30
0.0
 42
0.017104235
  0
VERTEX
  8
0
  6
CONTINUOUS
 62
     1
 10
132.116609295
 20
88.08959233
 30
0.0
 42
0.016989299
  0
VERTEX
  8
0
  6
CONTINUOUS
 62
     1
 10
132.312699436
 20
88.082947321
 30
0.0
 42
0.016976635
  0
VERTEX
  8
0
  6
CONTINUOUS
 62
     1
 10
132.50878806
 20
88.089619367
 30
0.0
 42
0.017066174
  0
VERTEX
  8
0
  6
CONTINUOUS
 62
     1
 10
132.703382982
 20
88.109557695
 30
0.0
 42
0.017258391
  0
VERTEX
  8
0
  6
CONTINUOUS
 62
     1
 10
132.895003384
 20
88.142610579
 30
0.0
 42
0.017554183
  0
VERTEX
  8
0
  6
CONTINUOUS
 62
     1
 10
133.082191083
 20
88.188526496
 30
0.0
 42
0.017954593
  0
VERTEX
  8
0
  6
CONTINUOUS
 62
     1
 10
133.263521629
 20
88.246956036
 30
0.0
 42
0.018460351
  0
VERTEX
  8
0
  6
CONTINUOUS
 62
     1
 10
133.437615143
 20
88.317454566
 30
0.0
 42
0.019071185
  0
VERTEX
  8
0
  6
CONTINUOUS
 62
     1
 10
133.603146816
 20
88.399485611
 30
0.0
 42
0.019784861
  0
VERTEX
  8
0
  6
CONTINUOUS
 62
     1
 10
133.758856996
 20
88.492424934
 30
0.0
 42
0.020595914
  0
VERTEX
  8
0
  6
CONTINUOUS
 62
     1
 10
133.903560767
 20
88.595565291
 30
0.0
 42
0.021494066
  0
VERTEX
  8
0
  6
CONTINUOUS
 62
     1
 10
134.036156971
 20
88.70812181
 30
0.0
 42
0.022462429
  0
VERTEX
  8
0
  6
CONTINUOUS
 62
     1
 10
134.155636584
 20
88.829237965
 30
0.0
 42
0.023475724
  0
VERTEX
  8
0
  6
CONTINUOUS
 62
     1
 10
134.261090397
 20
88.957992093
 30
0.0
 42
0.024498943
  0
VERTEX
  8
0
  6
CONTINUOUS
 62
     1
 10
134.351715933
 20
89.093404408
 30
0.0
 42
0.025487117
  0
VERTEX
  8
0
  6
CONTINUOUS
 62
     1
 10
134.426823554
 20
89.234444455
 30
0.0
 42
0.026386937
  0
VERTEX
  8
0
  6
CONTINUOUS
 62
     1
 10
134.485841712
 20
89.380038958
 30
0.0
 42
0.027140848
  0
VERTEX
  8
0
  6
CONTINUOUS
 62
     1
 10
134.528321292
 20
89.529079977
 30
0.0
 42
0.027693647
  0
VERTEX
  8
0
  6
CONTINUOUS
 62
     1
 10
134.553939036
 20
89.68043335
 30
0.0
 42
0.028000628
  0
VERTEX
  8
0
  6
CONTINUOUS
 62
     1
 10
134.5625
 20
89.832947315
 30
0.0
  0
SEQEND
  8
0
  6
CONTINUOUS
 62
     1
  0
LINE
  8
0
  6
CONTINUOUS
 62
     1
 10
130.071095761
 20
89.680124298
 30
0.0
 11
130.071095761
 21
90.380124298
 31
0.0
  0
LINE
  8
0
  6
CONTINUOUS
 62
     1
 10
131.871095761
 20
88.680124298
 30
0.0
 11
132.271095761
 21
88.180124298
 31
0.0
  0
LINE
  8
0
  6
CONTINUOUS
 62
     1
 10
132.471095761
 20
88.680124298
 30
0.0
 11
132.871095761
 21
88.180124298
 31
0.0
  0
POLYLINE
  8
0
  6
CONTINUOUS
 62
     1
 66
     1
 70
     1
  0
VERTEX
  8
0
  6
CONTINUOUS
 62
     1
 10
122.5625
 20
90.432947315
 30
0.0
 42
0.028036959
  0
VERTEX
  8
0
  6
CONTINUOUS
 62
     1
 10
122.553938071
 20
90.585469864
 30
0.0
 42
0.027796374
  0
VERTEX
  8
0
  6
CONTINUOUS
 62
     1
 10
122.528317444
 20
90.736831625
 30
0.0
 42
0.027301353
  0
VERTEX
  8
0
  6
CONTINUOUS
 62
     1
 10
122.485833109
 20
90.885880643
 30
0.0
 42
0.026592699
  0
VERTEX
  8
0
  6
CONTINUOUS
 62
     1
 10
122.426808397
 20
91.031482565
 30
0.0
 42
0.025723796
  0
VERTEX
  8
0
  6
CONTINUOUS
 62
     1
 10
122.351692521
 20
91.172529273
 30
0.0
 42
0.024752327
  0
VERTEX
  8
0
  6
CONTINUOUS
 62
     1
 10
122.261057159
 20
91.307947315
 30
0.0
 42
0.02373316
  0
VERTEX
  8
0
  6
CONTINUOUS
 62
     1
 10
122.1555921
 20
91.436706078
 30
0.0
 42
0.022713598
  0
VERTEX
  8
0
  6
CONTINUOUS
 62
     1
 10
122.036099997
 20
91.557825631
 30
0.0
 42
0.021731181
  0
VERTEX
  8
0
  6
CONTINUOUS
 62
     1
 10
121.903490258
 20
91.670384182
 30
0.0
 42
0.020813529
  0
VERTEX
  8
0
  6
CONTINUOUS
 62
     1
 10
121.758772122
 20
91.77352509
 30
0.0
 42
0.019979468
  0
VERTEX
  8
0
  6
CONTINUOUS
 62
     1
 10
121.603046982
 20
91.866463392
 30
0.0
 42
0.019240754
  0
VERTEX
  8
0
  6
CONTINUOUS
 62
     1
 10
121.4375
 20
91.948491771
 30
0.0
 42
0.018603895
  0
VERTEX
  8
0
  6
CONTINUOUS
 62
     1
 10
121.263391089
 20
92.018985942
 30
0.0
 42
0.018071802
  0
VERTEX
  8
0
  6
CONTINUOUS
 62
     1
 10
121.082045322
 20
92.077409401
 30
0.0
 42
0.017645132
  0
VERTEX
  8
0
  6
CONTINUOUS
 62
     1
 10
120.894842851
 20
92.123317511
 30
0.0
 42
0.017323331
  0
VERTEX
  8
0
  6
CONTINUOUS
 62
     1
 10
120.7032084
 20
92.156360882
 30
0.0
 42
0.017105385
  0
VERTEX
  8
0
  6
CONTINUOUS
 62
     1
 10
120.508600421
 20
92.176288036
 30
0.0
 42
0.016990325
  0
VERTEX
  8
0
  6
CONTINUOUS
 62
     1
 10
120.3125
 20
92.182947315
 30
0.0
 42
0.016977555
  0
VERTEX
  8
0
  6
CONTINUOUS
 62
     1
 10
120.116399579
 20
92.176288036
 30
0.0
 42
0.017067005
  0
VERTEX
  8
0
  6
CONTINUOUS
 62
     1
 10
119.9217916
 20
92.156360882
 30
0.0
 42
0.01725915
  0
VERTEX
  8
0
  6
CONTINUOUS
 62
     1
 10
119.730157149
 20
92.123317511
 30
0.0
 42
0.017554887
  0
VERTEX
  8
0
  6
CONTINUOUS
 62
     1
 10
119.542954678
 20
92.077409401
 30
0.0
 42
0.017955258
  0
VERTEX
  8
0
  6
CONTINUOUS
 62
     1
 10
119.361608911
 20
92.018985942
 30
0.0
 42
0.018460995
  0
VERTEX
  8
0
  6
CONTINUOUS
 62
     1
 10
119.1875
 20
91.948491771
 30
0.0
 42
0.019071826
  0
VERTEX
  8
0
  6
CONTINUOUS
 62
     1
 10
119.021953018
 20
91.866463392
 30
0.0
 42
0.01978552
  0
VERTEX
  8
0
  6
CONTINUOUS
 62
     1
 10
118.866227878
 20
91.77352509
 30
0.0
 42
0.020596611
  0
VERTEX
  8
0
  6
CONTINUOUS
 62
     1
 10
118.721509742
 20
91.670384182
 30
0.0
 42
0.021494823
  0
VERTEX
  8
0
  6
CONTINUOUS
 62
     1
 10
118.588900003
 20
91.557825631
 30
0.0
 42
0.022463269
  0
VERTEX
  8
0
  6
CONTINUOUS
 62
     1
 10
118.4694079
 20
91.436706078
 30
0.0
 42
0.023476666
  0
VERTEX
  8
0
  6
CONTINUOUS
 62
     1
 10
118.363942841
 20
91.307947315
 30
0.0
 42
0.024500005
  0
VERTEX
  8
0
  6
CONTINUOUS
 62
     1
 10
118.273307479
 20
91.172529273
 30
0.0
 42
0.025488307
  0
VERTEX
  8
0
  6
CONTINUOUS
 62
     1
 10
118.198191603
 20
91.031482565
 30
0.0
 42
0.026388255
  0
VERTEX
  8
0
  6
CONTINUOUS
 62
     1
 10
118.139166891
 20
90.885880643
 30
0.0
 42
0.027142283
  0
VERTEX
  8
0
  6
CONTINUOUS
 62
     1
 10
118.096682556
 20
90.736831625
 30
0.0
 42
0.02769517
  0
VERTEX
  8
0
  6
CONTINUOUS
 62
     1
 10
118.071061929
 20
90.585469864
 30
0.0
 42
0.028002203
  0
VERTEX
  8
0
  6
CONTINUOUS
 62
     1
 10
118.0625
 20
90.432947315
 30
0.0
 42
0.028036959
  0
VERTEX
  8
0
  6
CONTINUOUS
 62
     1
 10
118.071061929
 20
90.280424765
 30
0.0
 42
0.027796374
  0
VERTEX
  8
0
  6
CONTINUOUS
 62
     1
 10
118.096682556
 20
90.129063004
 30
0.0
 42
0.027301353
  0
VERTEX
  8
0
  6
CONTINUOUS
 62
     1
 10
118.139166891
 20
89.980013986
 30
0.0
 42
0.026592699
  0
VERTEX
  8
0
  6
CONTINUOUS
 62
     1
 10
118.198191603
 20
89.834412064
 30
0.0
 42
0.025723796
  0
VERTEX
  8
0
  6
CONTINUOUS
 62
     1
 10
118.273307479
 20
89.693365356
 30
0.0
 42
0.024752327
  0
VERTEX
  8
0
  6
CONTINUOUS
 62
     1
 10
118.363942841
 20
89.557947315
 30
0.0
 42
0.02373316
  0
VERTEX
  8
0
  6
CONTINUOUS
 62
     1
 10
118.4694079
 20
89.429188551
 30
0.0
 42
0.022713598
  0
VERTEX
  8
0
  6
CONTINUOUS
 62
     1
 10
118.588900003
 20
89.308068998
 30
0.0
 42
0.021731181
  0
VERTEX
  8
0
  6
CONTINUOUS
 62
     1
 10
118.721509742
 20
89.195510447
 30
0.0
 42
0.020813529
  0
VERTEX
  8
0
  6
CONTINUOUS
 62
     1
 10
118.866227878
 20
89.092369539
 30
0.0
 42
0.019979468
  0
VERTEX
  8
0
  6
CONTINUOUS
 62
     1
 10
119.021953018
 20
88.999431237
 30
0.0
 42
0.019240754
  0
VERTEX
  8
0
  6
CONTINUOUS
 62
     1
 10
119.1875
 20
88.917402858
 30
0.0
 42
0.018603895
  0
VERTEX
  8
0
  6
CONTINUOUS
 62
     1
 10
119.361608911
 20
88.846908687
 30
0.0
 42
0.018071802
  0
VERTEX
  8
0
  6
CONTINUOUS
 62
     1
 10
119.542954678
 20
88.788485228
 30
0.0
 42
0.017645132
  0
VERTEX
  8
0
  6
CONTINUOUS
 62
     1
 10
119.730157149
 20
88.742577119
 30
0.0
 42
0.017323331
  0
VERTEX
  8
0
  6
CONTINUOUS
 62
     1
 10
119.9217916
 20
88.709533747
 30
0.0
 42
0.017105385
  0
VERTEX
  8
0
  6
CONTINUOUS
 62
     1
 10
120.116399579
 20
88.689606593
 30
0.0
 42
0.016990325
  0
VERTEX
  8
0
  6
CONTINUOUS
 62
     1
 10
120.3125
 20
88.682947315
 30
0.0
 42
0.016977555
  0
VERTEX
  8
0
  6
CONTINUOUS
 62
     1
 10
120.508600421
 20
88.689606593
 30
0.0
 42
0.017067005
  0
VERTEX
  8
0
  6
CONTINUOUS
 62
     1
 10
120.7032084
 20
88.709533747
 30
0.0
 42
0.01725915
  0
VERTEX
  8
0
  6
CONTINUOUS
 62
     1
 10
120.894842851
 20
88.742577119
 30
0.0
 42
0.017554887
  0
VERTEX
  8
0
  6
CONTINUOUS
 62
     1
 10
121.082045322
 20
88.788485228
 30
0.0
 42
0.017955258
  0
VERTEX
  8
0
  6
CONTINUOUS
 62
     1
 10
121.263391089
 20
88.846908687
 30
0.0
 42
0.018460995
  0
VERTEX
  8
0
  6
CONTINUOUS
 62
     1
 10
121.4375
 20
88.917402858
 30
0.0
 42
0.019071826
  0
VERTEX
  8
0
  6
CONTINUOUS
 62
     1
 10
121.603046982
 20
88.999431237
 30
0.0
 42
0.01978552
  0
VERTEX
  8
0
  6
CONTINUOUS
 62
     1
 10
121.758772122
 20
89.092369539
 30
0.0
 42
0.020596611
  0
VERTEX
  8
0
  6
CONTINUOUS
 62
     1
 10
121.903490258
 20
89.195510447
 30
0.0
 42
0.021494823
  0
VERTEX
  8
0
  6
CONTINUOUS
 62
     1
 10
122.036099997
 20
89.308068998
 30
0.0
 42
0.022463269
  0
VERTEX
  8
0
  6
CONTINUOUS
 62
     1
 10
122.1555921
 20
89.429188551
 30
0.0
 42
0.023476666
  0
VERTEX
  8
0
  6
CONTINUOUS
 62
     1
 10
122.261057159
 20
89.557947315
 30
0.0
 42
0.024500005
  0
VERTEX
  8
0
  6
CONTINUOUS
 62
     1
 10
122.351692521
 20
89.693365356
 30
0.0
 42
0.025488307
  0
VERTEX
  8
0
  6
CONTINUOUS
 62
     1
 10
122.426808397
 20
89.834412064
 30
0.0
 42
0.026388255
  0
VERTEX
  8
0
  6
CONTINUOUS
 62
     1
 10
122.485833109
 20
89.980013986
 30
0.0
 42
0.027142283
  0
VERTEX
  8
0
  6
CONTINUOUS
 62
     1
 10
122.528317444
 20
90.129063004
 30
0.0
 42
0.02769517
  0
VERTEX
  8
0
  6
CONTINUOUS
 62
     1
 10
122.553938071
 20
90.280424765
 30
0.0
 42
0.028002203
  0
SEQEND
  8
0
  6
CONTINUOUS
 62
     1
  0
LINE
  8
0
  6
CONTINUOUS
 62
     1
 10
122.5125
 20
90.382947315
 30
0.0
 11
122.5125
 21
89.882947315
 31
0.0
  0
POLYLINE
  8
0
  6
CONTINUOUS
 62
     1
 66
     1
  0
VERTEX
  8
0
  6
CONTINUOUS
 62
     1
 10
118.071095761
 20
89.680124298
 30
0.0
 42
0.027794075
  0
VERTEX
  8
0
  6
CONTINUOUS
 62
     1
 10
118.096748002
 20
89.52877446
 30
0.0
 42
0.027298654
  0
VERTEX
  8
0
  6
CONTINUOUS
 62
     1
 10
118.139261552
 20
89.3797393
 30
0.0
 42
0.026589728
  0
VERTEX
  8
0
  6
CONTINUOUS
 62
     1
 10
118.198312894
 20
89.234152938
 30
0.0
 42
0.025720685
  0
VERTEX
  8
0
  6
CONTINUOUS
 62
     1
 10
118.273452661
 20
89.093123249
 30
0.0
 42
0.024749195
  0
VERTEX
  8
0
  6
CONTINUOUS
 62
     1
 10
118.36410906
 20
88.957723432
 30
0.0
 42
0.023730104
  0
VERTEX
  8
0
  6
CONTINUOUS
 62
     1
 10
118.469592217
 20
88.828983846
 30
0.0
 42
0.02271069
  0
VERTEX
  8
0
  6
CONTINUOUS
 62
     1
 10
118.589099434
 20
88.707884167
 30
0.0
 42
0.021728468
  0
VERTEX
  8
0
  6
CONTINUOUS
 62
     1
 10
118.72172129
 20
88.595345932
 30
0.0
 42
0.020811035
  0
VERTEX
  8
0
  6
CONTINUOUS
 62
     1
 10
118.866448568
 20
88.492225528
 30
0.0
 42
0.019977201
  0
VERTEX
  8
0
  6
CONTINUOUS
 62
     1
 10
119.022179929
 20
88.399307676
 30
0.0
 42
0.019238711
  0
VERTEX
  8
0
  6
CONTINUOUS
 62
     1
 10
119.187730297
 20
88.317299457
 30
0.0
 42
0.018602066
  0
VERTEX
  8
0
  6
CONTINUOUS
 62
     1
 10
119.361839876
 20
88.246824932
 30
0.0
 42
0.01807017
  0
VERTEX
  8
0
  6
CONTINUOUS
 62
     1
 10
119.543183737
 20
88.188420395
 30
0.0
 42
0.017643679
  0
VERTEX
  8
0
  6
CONTINUOUS
 62
     1
 10
119.730381899
 20
88.142530289
 30
0.0
 42
0.01732204
  0
VERTEX
  8
0
  6
CONTINUOUS
 62
     1
 10
119.922009831
 20
88.109503826
 30
0.0
 42
0.017104235
  0
VERTEX
  8
0
  6
CONTINUOUS
 62
     1
 10
120.116609295
 20
88.08959233
 30
0.0
 42
0.016989299
  0
VERTEX
  8
0
  6
CONTINUOUS
 62
     1
 10
120.312699436
 20
88.082947321
 30
0.0
 42
0.016976635
  0
VERTEX
  8
0
  6
CONTINUOUS
 62
     1
 10
120.50878806
 20
88.089619367
 30
0.0
 42
0.017066174
  0
VERTEX
  8
0
  6
CONTINUOUS
 62
     1
 10
120.703382982
 20
88.109557695
 30
0.0
 42
0.017258391
  0
VERTEX
  8
0
  6
CONTINUOUS
 62
     1
 10
120.895003384
 20
88.142610579
 30
0.0
 42
0.017554183
  0
VERTEX
  8
0
  6
CONTINUOUS
 62
     1
 10
121.082191083
 20
88.188526496
 30
0.0
 42
0.017954593
  0
VERTEX
  8
0
  6
CONTINUOUS
 62
     1
 10
121.263521629
 20
88.246956036
 30
0.0
 42
0.018460351
  0
VERTEX
  8
0
  6
CONTINUOUS
 62
     1
 10
121.437615143
 20
88.317454566
 30
0.0
 42
0.019071185
  0
VERTEX
  8
0
  6
CONTINUOUS
 62
     1
 10
121.603146816
 20
88.399485611
 30
0.0
 42
0.019784861
  0
VERTEX
  8
0
  6
CONTINUOUS
 62
     1
 10
121.758856996
 20
88.492424934
 30
0.0
 42
0.020595914
  0
VERTEX
  8
0
  6
CONTINUOUS
 62
     1
 10
121.903560767
 20
88.595565291
 30
0.0
 42
0.021494066
  0
VERTEX
  8
0
  6
CONTINUOUS
 62
     1
 10
122.036156971
 20
88.70812181
 30
0.0
 42
0.022462429
  0
VERTEX
  8
0
  6
CONTINUOUS
 62
     1
 10
122.155636584
 20
88.829237965
 30
0.0
 42
0.023475724
  0
VERTEX
  8
0
  6
CONTINUOUS
 62
     1
 10
122.261090397
 20
88.957992093
 30
0.0
 42
0.024498943
  0
VERTEX
  8
0
  6
CONTINUOUS
 62
     1
 10
122.351715933
 20
89.093404408
 30
0.0
 42
0.025487117
  0
VERTEX
  8
0
  6
CONTINUOUS
 62
     1
 10
122.426823554
 20
89.234444455
 30
0.0
 42
0.026386937
  0
VERTEX
  8
0
  6
CONTINUOUS
 62
     1
 10
122.485841712
 20
89.380038958
 30
0.0
 42
0.027140848
  0
VERTEX
  8
0
  6
CONTINUOUS
 62
     1
 10
122.528321292
 20
89.529079977
 30
0.0
 42
0.027693647
  0
VERTEX
  8
0
  6
CONTINUOUS
 62
     1
 10
122.553939036
 20
89.68043335
 30
0.0
 42
0.028000628
  0
VERTEX
  8
0
  6
CONTINUOUS
 62
     1
 10
122.5625
 20
89.832947315
 30
0.0
  0
SEQEND
  8
0
  6
CONTINUOUS
 62
     1
  0
LINE
  8
0
  6
CONTINUOUS
 62
     1
 10
118.071095761
 20
89.680124298
 30
0.0
 11
118.071095761
 21
90.380124298
 31
0.0
  0
LINE
  8
0
  6
CONTINUOUS
 62
     1
 10
119.871095761
 20
88.680124298
 30
0.0
 11
120.271095761
 21
88.180124298
 31
0.0
  0
LINE
  8
0
  6
CONTINUOUS
 62
     1
 10
120.471095761
 20
88.680124298
 30
0.0
 11
120.871095761
 21
88.180124298
 31
0.0
  0
LINE
  8
0
  6
CONTINUOUS
 62
     1
 10
135.8
 20
85.732947315
 30
0.0
 11
116.8
 21
85.732947315
 31
0.0
  0
LINE
  8
0
  6
CONTINUOUS
 62
     1
 10
116.3
 20
86.232947315
 30
0.0
 11
116.3
 21
92.304015126
 31
0.0
  0
ARC
  8
0
  6
CONTINUOUS
 62
     1
 10
116.8
 20
86.232947315
 30
0.0
 40
0.5
 50
180.0
 51
270.0
  0
LINE
  8
0
  6
CONTINUOUS
 62
     1
 10
116.3
 20
82.32300732
 30
0.0
 11
116.3
 21
86.032947315
 31
0.0
  0
LINE
  8
0
  6
CONTINUOUS
 62
     1
 10
59.256448667
 20
88.319675035
 30
0.0
 11
59.362514684
 21
88.263106493
 31
0.0
  0
LINE
  8
0
  6
CONTINUOUS
 62
     1
 10
59.362514684
 20
88.263106493
 30
0.0
 11
59.482722837
 21
88.20653795
 31
0.0
  0
LINE
  8
0
  6
CONTINUOUS
 62
     1
 10
59.482722837
 20
88.20653795
 30
0.0
 11
59.652428464
 21
88.149969408
 31
0.0
  0
LINE
  8
0
  6
CONTINUOUS
 62
     1
 10
59.652428464
 20
88.149969408
 30
0.0
 11
59.822134092
 21
88.093400865
 31
0.0
  0
LINE
  8
0
  6
CONTINUOUS
 62
     1
 10
59.822134092
 20
88.093400865
 30
0.0
 11
59.935271177
 21
88.036832323
 31
0.0
  0
LINE
  8
0
  6
CONTINUOUS
 62
     1
 10
59.935271177
 20
88.036832323
 30
0.0
 11
60.048408262
 21
87.98026378
 31
0.0
  0
LINE
  8
0
  6
CONTINUOUS
 62
     1
 10
60.048408262
 20
87.98026378
 30
0.0
 11
60.211042822
 21
87.923695238
 31
0.0
  0
LINE
  8
0
  6
CONTINUOUS
 62
     1
 10
60.211042822
 20
87.923695238
 30
0.0
 11
60.387819517
 21
87.867126695
 31
0.0
  0
LINE
  8
0
  6
CONTINUOUS
 62
     1
 10
60.387819517
 20
87.867126695
 30
0.0
 11
60.557525144
 21
87.803487085
 31
0.0
  0
LINE
  8
0
  6
CONTINUOUS
 62
     1
 10
60.557525144
 20
87.803487085
 30
0.0
 11
60.727230772
 21
87.75398961
 31
0.0
  0
LINE
  8
0
  6
CONTINUOUS
 62
     1
 10
60.727230772
 20
87.75398961
 30
0.0
 11
60.904007467
 21
87.746918543
 31
0.0
  0
LINE
  8
0
  6
CONTINUOUS
 62
     1
 10
60.904007467
 20
87.746918543
 30
0.0
 11
61.066642027
 21
87.75398961
 31
0.0
  0
LINE
  8
0
  6
CONTINUOUS
 62
     1
 10
61.066642027
 20
87.75398961
 30
0.0
 11
61.183314646
 21
87.750454076
 31
0.0
  0
LINE
  8
0
  6
CONTINUOUS
 62
     1
 10
61.183314646
 20
87.750454076
 30
0.0
 11
61.292916197
 21
87.75398961
 31
0.0
  0
LINE
  8
0
  6
CONTINUOUS
 62
     1
 10
61.292916197
 20
87.75398961
 30
0.0
 11
61.437873087
 21
87.77166728
 31
0.0
  0
LINE
  8
0
  6
CONTINUOUS
 62
     1
 10
61.437873087
 20
87.77166728
 30
0.0
 11
61.575758909
 21
87.810558153
 31
0.0
  0
LINE
  8
0
  6
CONTINUOUS
 62
     1
 10
61.575758909
 20
87.810558153
 30
0.0
 11
61.674753859
 21
87.888339899
 31
0.0
  0
LINE
  8
0
  6
CONTINUOUS
 62
     1
 10
61.674753859
 20
87.888339899
 30
0.0
 11
61.745464537
 21
87.98026378
 31
0.0
  0
LINE
  8
0
  6
CONTINUOUS
 62
     1
 10
61.745464537
 20
87.98026378
 30
0.0
 11
61.791426477
 21
88.06158106
 31
0.0
  0
LINE
  8
0
  6
CONTINUOUS
 62
     1
 10
61.791426477
 20
88.06158106
 30
0.0
 11
61.802033079
 21
88.149969408
 31
0.0
  0
LINE
  8
0
  6
CONTINUOUS
 62
     1
 10
61.802033079
 20
88.149969408
 30
0.0
 11
61.759606672
 21
88.270177561
 31
0.0
  0
LINE
  8
0
  6
CONTINUOUS
 62
     1
 10
61.759606672
 20
88.270177561
 30
0.0
 11
61.688895994
 21
88.376243578
 31
0.0
  0
LINE
  8
0
  6
CONTINUOUS
 62
     1
 10
61.688895994
 20
88.376243578
 30
0.0
 11
61.611114248
 21
88.418669985
 31
0.0
  0
LINE
  8
0
  6
CONTINUOUS
 62
     1
 10
61.611114248
 20
88.418669985
 30
0.0
 11
61.519190367
 21
88.43281212
 31
0.0
  0
LINE
  8
0
  6
CONTINUOUS
 62
     1
 10
61.519190367
 20
88.43281212
 30
0.0
 11
61.41312435
 21
88.439883188
 31
0.0
  0
LINE
  8
0
  6
CONTINUOUS
 62
     1
 10
61.41312435
 20
88.439883188
 30
0.0
 11
61.292916197
 21
88.43281212
 31
0.0
  0
LINE
  8
0
  6
CONTINUOUS
 62
     1
 10
61.292916197
 20
88.43281212
 30
0.0
 11
61.151494841
 21
88.411598917
 31
0.0
  0
LINE
  8
0
  6
CONTINUOUS
 62
     1
 10
61.151494841
 20
88.411598917
 30
0.0
 11
61.010073484
 21
88.376243578
 31
0.0
  0
LINE
  8
0
  6
CONTINUOUS
 62
     1
 10
61.010073484
 20
88.376243578
 30
0.0
 11
60.896936399
 21
88.326746103
 31
0.0
  0
LINE
  8
0
  6
CONTINUOUS
 62
     1
 10
60.896936399
 20
88.326746103
 30
0.0
 11
60.783799314
 21
88.263106493
 31
0.0
  0
LINE
  8
0
  6
CONTINUOUS
 62
     1
 10
60.783799314
 20
88.263106493
 30
0.0
 11
60.642377958
 21
88.178253679
 31
0.0
  0
LINE
  8
0
  6
CONTINUOUS
 62
     1
 10
60.642377958
 20
88.178253679
 30
0.0
 11
60.500956602
 21
88.093400865
 31
0.0
  0
LINE
  8
0
  6
CONTINUOUS
 62
     1
 10
60.500956602
 20
88.093400865
 30
0.0
 11
60.384283983
 21
88.040367857
 31
0.0
  0
LINE
  8
0
  6
CONTINUOUS
 62
     1
 10
60.384283983
 20
88.040367857
 30
0.0
 11
60.274682432
 21
87.98026378
 31
0.0
  0
LINE
  8
0
  6
CONTINUOUS
 62
     1
 10
60.048408262
 20
87.52771544
 30
0.0
 11
60.161545347
 21
87.478217966
 31
0.0
  0
LINE
  8
0
  6
CONTINUOUS
 62
     1
 10
60.161545347
 20
87.478217966
 30
0.0
 11
60.274682432
 21
87.414578355
 31
0.0
  0
LINE
  8
0
  6
CONTINUOUS
 62
     1
 10
60.274682432
 20
87.414578355
 30
0.0
 11
60.394890585
 21
87.365080881
 31
0.0
  0
LINE
  8
0
  6
CONTINUOUS
 62
     1
 10
60.394890585
 20
87.365080881
 30
0.0
 11
60.500956602
 21
87.30144127
 31
0.0
  0
LINE
  8
0
  6
CONTINUOUS
 62
     1
 10
60.500956602
 20
87.30144127
 30
0.0
 11
60.568131746
 21
87.198910787
 31
0.0
  0
LINE
  8
0
  6
CONTINUOUS
 62
     1
 10
60.568131746
 20
87.198910787
 30
0.0
 11
60.614093687
 21
87.0751671
 31
0.0
  0
LINE
  8
0
  6
CONTINUOUS
 62
     1
 10
60.614093687
 20
87.0751671
 30
0.0
 11
60.660055628
 21
86.93021021
 31
0.0
  0
LINE
  8
0
  6
CONTINUOUS
 62
     1
 10
60.660055628
 20
86.93021021
 30
0.0
 11
60.670662229
 21
86.792324388
 31
0.0
  0
LINE
  8
0
  6
CONTINUOUS
 62
     1
 10
60.670662229
 20
86.792324388
 30
0.0
 11
60.603487085
 21
86.696864973
 31
0.0
  0
LINE
  8
0
  6
CONTINUOUS
 62
     1
 10
60.603487085
 20
86.696864973
 30
0.0
 11
60.500956602
 21
86.62261876
 31
0.0
  0
LINE
  8
0
  6
CONTINUOUS
 62
     1
 10
60.500956602
 20
86.62261876
 30
0.0
 11
60.387819517
 21
86.551908082
 31
0.0
  0
LINE
  8
0
  6
CONTINUOUS
 62
     1
 10
60.387819517
 20
86.551908082
 30
0.0
 11
60.274682432
 21
86.509481676
 31
0.0
  0
LINE
  8
0
  6
CONTINUOUS
 62
     1
 10
60.274682432
 20
86.509481676
 30
0.0
 11
60.186294084
 21
86.513017209
 31
0.0
  0
LINE
  8
0
  6
CONTINUOUS
 62
     1
 10
60.186294084
 20
86.513017209
 30
0.0
 11
60.104976804
 21
86.566050218
 31
0.0
  0
LINE
  8
0
  6
CONTINUOUS
 62
     1
 10
60.104976804
 20
86.566050218
 30
0.0
 11
60.013052923
 21
86.700400506
 31
0.0
  0
LINE
  8
0
  6
CONTINUOUS
 62
     1
 10
60.013052923
 20
86.700400506
 30
0.0
 11
59.935271177
 21
86.84889293
 31
0.0
  0
LINE
  8
0
  6
CONTINUOUS
 62
     1
 10
59.935271177
 20
86.84889293
 30
0.0
 11
59.906986906
 21
86.962030015
 31
0.0
  0
LINE
  8
0
  6
CONTINUOUS
 62
     1
 10
59.906986906
 20
86.962030015
 30
0.0
 11
59.878702634
 21
87.018598558
 31
0.0
  0
LINE
  8
0
  6
CONTINUOUS
 62
     1
 10
59.878702634
 20
87.018598558
 30
0.0
 11
59.793849821
 21
86.954958948
 31
0.0
  0
LINE
  8
0
  6
CONTINUOUS
 62
     1
 10
59.793849821
 20
86.954958948
 30
0.0
 11
59.708997007
 21
86.84889293
 31
0.0
  0
LINE
  8
0
  6
CONTINUOUS
 62
     1
 10
59.708997007
 20
86.84889293
 30
0.0
 11
59.673641668
 21
86.764040117
 31
0.0
  0
LINE
  8
0
  6
CONTINUOUS
 62
     1
 10
59.673641668
 20
86.764040117
 30
0.0
 11
59.652428464
 21
86.679187303
 31
0.0
  0
LINE
  8
0
  6
CONTINUOUS
 62
     1
 10
59.652428464
 20
86.679187303
 30
0.0
 11
59.620608659
 21
86.597870023
 31
0.0
  0
LINE
  8
0
  6
CONTINUOUS
 62
     1
 10
59.620608659
 20
86.597870023
 30
0.0
 11
59.595859922
 21
86.509481676
 31
0.0
  0
LINE
  8
0
  6
CONTINUOUS
 62
     1
 10
59.595859922
 20
86.509481676
 30
0.0
 11
59.58525332
 21
86.399880124
 31
0.0
  0
LINE
  8
0
  6
CONTINUOUS
 62
     1
 10
59.58525332
 20
86.399880124
 30
0.0
 11
59.595859922
 21
86.283207506
 31
0.0
  0
LINE
  8
0
  6
CONTINUOUS
 62
     1
 10
59.595859922
 20
86.283207506
 30
0.0
 11
59.645357397
 21
86.170070421
 31
0.0
  0
LINE
  8
0
  6
CONTINUOUS
 62
     1
 10
59.645357397
 20
86.170070421
 30
0.0
 11
59.708997007
 21
86.056933336
 31
0.0
  0
LINE
  8
0
  6
CONTINUOUS
 62
     1
 10
60.274682432
 20
87.98026378
 30
0.0
 11
58.803900327
 21
87.188304185
 31
0.0
  0
LINE
  8
0
  6
CONTINUOUS
 62
     1
 10
59.735105565
 20
87.666961083
 30
0.0
 11
60.048408262
 21
87.52771544
 31
0.0
  0
LINE
  8
0
  6
CONTINUOUS
 62
     1
 10
58.839255666
 20
87.216588457
 30
0.0
 11
58.662478971
 21
87.0751671
 31
0.0
  0
LINE
  8
0
  6
CONTINUOUS
 62
     2
 10
63.280714499
 20
88.056247941
 30
0.0
 11
63.627066865
 21
88.402600307
 31
0.0
  0
LINE
  8
0
  6
CONTINUOUS
 62
     2
 10
62.177855652
 20
89.159106789
 30
0.0
 11
62.241657403
 21
89.788009769
 31
0.0
  0
LINE
  8
0
  6
CONTINUOUS
 62
     2
 10
62.396604514
 20
88.940357927
 30
0.0
 11
62.487749873
 21
89.56014637
 31
0.0
  0
LINE
  8
0
  6
CONTINUOUS
 62
     2
 10
63.18956914
 20
90.772379649
 30
0.0
 11
63.125767389
 21
90.708577898
 31
0.0
  0
LINE
  8
0
  6
CONTINUOUS
 62
     2
 10
63.463005218
 20
90.371340068
 30
0.0
 11
63.517692434
 21
90.426027284
 31
0.0
  0
LINE
  8
0
  6
CONTINUOUS
 62
     2
 10
60.858161452
 20
90.48262801
 30
0.0
 11
61.211714843
 21
90.836181401
 31
0.0
  0
LINE
  8
0
  6
CONTINUOUS
 62
     2
 10
60.855696539
 20
90.481265902
 30
0.0
 11
63.280714499
 21
88.056247941
 31
0.0
  0
LINE
  8
0
  6
CONTINUOUS
 62
     2
 10
44.585643256
 20
49.2
 30
0.0
 11
44.585643256
 21
48.710183787
 31
0.0
  0
LINE
  8
0
  6
CONTINUOUS
 62
     2
 10
46.145321196
 20
49.2
 30
0.0
 11
46.544908106
 21
48.710183787
 31
0.0
  0
LINE
  8
0
  6
CONTINUOUS
 62
     2
 10
45.835963588
 20
49.2
 30
0.0
 11
46.209770698
 21
48.697293887
 31
0.0
  0
LINE
  8
0
  6
CONTINUOUS
 62
     2
 10
46.570687907
 20
47.343854352
 30
0.0
 11
46.570687907
 21
47.434083655
 31
0.0
  0
LINE
  8
0
  6
CONTINUOUS
 62
     2
 10
46.093761595
 20
47.434083655
 30
0.0
 11
46.093761595
 21
47.356744253
 31
0.0
  0
LINE
  8
0
  6
CONTINUOUS
 62
     2
 10
48.014356744
 20
49.197293887
 30
0.0
 11
48.014356744
 21
48.697293887
 31
0.0
  0
LINE
  8
0
  6
CONTINUOUS
 62
     2
 10
48.015136545
 20
49.2
 30
0.0
 11
44.585643256
 21
49.2
 31
0.0
  0
ARC
  8
0
  6
CONTINUOUS
 62
     2
 10
46.3
 20
73.5
 30
0.0
 40
17.7
 50
66.758999591
 51
137.922472668
  0
LINE
  8
0
  6
CONTINUOUS
 62
     2
 10
64.15
 20
91.232947315
 30
0.0
 11
66.458551846
 21
92.192420281
 31
0.0
  0
LINE
  8
0
  6
CONTINUOUS
 62
     2
 10
64.15
 20
91.232947315
 30
0.0
 11
65.669528062
 21
93.218151201
 31
0.0
  0
LINE
  8
0
  6
CONTINUOUS
 62
     2
 10
64.15
 20
91.232947315
 30
0.0
 11
70.65
 21
96.232947315
 31
0.0
  0
LINE
  8
0
  6
CONTINUOUS
 62
     2
 10
28.8
 20
76.5
 30
0.0
 11
28.8
 21
108.0
 31
0.0
  0
LINE
  8
0
  6
CONTINUOUS
 62
     2
 10
28.8
 20
106.0
 30
0.0
 11
31.214814566
 21
105.352952387
 31
0.0
  0
LINE
  8
0
  6
CONTINUOUS
 62
     2
 10
28.8
 20
106.0
 30
0.0
 11
31.214814566
 21
106.647047613
 31
0.0
  0
TEXT
  8
0
  6
CONTINUOUS
 62
     2
 10
45.4
 20
107.0
 30
0.3
 40
3.0
  1
Ｂ
 50
0.0
 41
0.6
 51
0.0
  7
KANJI0
  0
LINE
  8
0
  6
CONTINUOUS
 62
     2
 10
39.3
 20
73.5
 30
0.0
 11
39.3
 21
83.5
 31
0.0
  0
LINE
  8
0
  6
CONTINUOUS
 62
     2
 10
39.3
 20
81.5
 30
0.0
 11
41.714814566
 21
80.852952387
 31
0.0
  0
LINE
  8
0
  6
CONTINUOUS
 62
     2
 10
39.3
 20
81.5
 30
0.0
 11
41.714814566
 21
82.147047613
 31
0.0
  0
LINE
  8
0
  6
CONTINUOUS
 62
     2
 10
39.3
 20
81.5
 30
0.0
 11
53.3
 21
81.5
 31
0.0
  0
LINE
  8
0
  6
CONTINUOUS
 62
     2
 10
53.3
 20
81.5
 30
0.0
 11
50.885185434
 21
82.147047613
 31
0.0
  0
LINE
  8
0
  6
CONTINUOUS
 62
     2
 10
53.3
 20
81.5
 30
0.0
 11
50.885185434
 21
80.852952387
 31
0.0
  0
LINE
  8
0
  6
CONTINUOUS
 62
     2
 10
53.3
 20
73.5
 30
0.0
 11
53.3
 21
83.5
 31
0.0
  0
TEXT
  8
0
  6
CONTINUOUS
 62
     2
 10
44.35
 20
81.9
 30
0.3
 40
3.0
  1
φＥ
 50
0.0
 41
0.6
 51
0.0
  7
KANJI0
  0
LINE
  8
0
  6
CONTINUOUS
 62
     2
 10
29.841534399
 20
67.552823354
 30
0.0
 11
32.332520051
 21
67.764932949
 31
0.0
  0
LINE
  8
0
  6
CONTINUOUS
 62
     2
 10
29.841534399
 20
67.552823354
 30
0.0
 11
31.892736457
 21
68.982008478
 31
0.0
  0
LINE
  8
0
  6
CONTINUOUS
 62
     2
 10
29.841534399
 20
67.552823354
 30
0.0
 11
62.758465601
 21
79.447176646
 31
0.0
  0
LINE
  8
0
  6
CONTINUOUS
 62
     2
 10
62.758465601
 20
79.447176646
 30
0.0
 11
60.267479949
 21
79.235067051
 31
0.0
  0
LINE
  8
0
  6
CONTINUOUS
 62
     2
 10
62.758465601
 20
79.447176646
 30
0.0
 11
60.707263543
 21
78.017991522
 31
0.0
  0
TEXT
  8
0
  6
CONTINUOUS
 62
     2
 10
32.060161335
 20
69.340483749
 30
0.3
 40
3.0
  1
φＤ
 50
19.867045007
 41
0.6
 51
0.0
  7
KANJI0
  0
LINE
  8
0
  6
LTYPE1
 62
     2
 10
27.7
 20
48.0
 30
0.0
 11
27.7
 21
41.0
 31
0.0
  0
LINE
  8
0
  6
LTYPE1
 62
     2
 10
64.9
 20
48.0
 30
0.0
 11
64.9
 21
41.0
 31
0.0
  0
LINE
  8
0
  6
CONTINUOUS
 62
     2
 10
27.7
 20
41.0
 30
0.0
 11
27.7
 21
31.15
 31
0.0
  0
LINE
  8
0
  6
CONTINUOUS
 62
     2
 10
27.7
 20
33.15
 30
0.0
 11
30.114814566
 21
32.502952387
 31
0.0
  0
LINE
  8
0
  6
CONTINUOUS
 62
     2
 10
27.7
 20
33.15
 30
0.0
 11
30.114814566
 21
33.797047613
 31
0.0
  0
LINE
  8
0
  6
CONTINUOUS
 62
     2
 10
27.7
 20
33.15
 30
0.0
 11
64.9
 21
33.15
 31
0.0
  0
LINE
  8
0
  6
CONTINUOUS
 62
     2
 10
64.9
 20
33.15
 30
0.0
 11
62.485185434
 21
33.797047613
 31
0.0
  0
LINE
  8
0
  6
CONTINUOUS
 62
     2
 10
64.9
 20
33.15
 30
0.0
 11
62.485185434
 21
32.502952387
 31
0.0
  0
LINE
  8
0
  6
CONTINUOUS
 62
     2
 10
64.9
 20
41.0
 30
0.0
 11
64.9
 21
31.15
 31
0.0
  0
TEXT
  8
0
  6
CONTINUOUS
 62
     2
 10
44.23
 20
34.15
 30
0.3
 40
3.0
  1
Ｊ
 50
0.0
 41
0.6
 51
0.0
  7
KANJI0
  0
TEXT
  8
0
  6
CONTINUOUS
 62
     2
 10
46.03
 20
34.15
 30
0.18
 40
1.8
  1
±１
 50
0.0
 41
0.6
 51
0.0
  7
KANJI1
  0
LINE
  8
0
  6
CONTINUOUS
 62
     2
 10
23.3
 20
43.2
 30
0.0
 11
23.3
 21
25.25
 31
0.0
  0
LINE
  8
0
  6
CONTINUOUS
 62
     2
 10
23.3
 20
27.25
 30
0.0
 11
25.714814566
 21
26.602952387
 31
0.0
  0
LINE
  8
0
  6
CONTINUOUS
 62
     2
 10
23.3
 20
27.25
 30
0.0
 11
25.714814566
 21
27.897047613
 31
0.0
  0
LINE
  8
0
  6
CONTINUOUS
 62
     2
 10
23.3
 20
27.25
 30
0.0
 11
69.3
 21
27.25
 31
0.0
  0
LINE
  8
0
  6
CONTINUOUS
 62
     2
 10
69.3
 20
27.25
 30
0.0
 11
66.885185434
 21
27.897047613
 31
0.0
  0
LINE
  8
0
  6
CONTINUOUS
 62
     2
 10
69.3
 20
27.25
 30
0.0
 11
66.885185434
 21
26.602952387
 31
0.0
  0
LINE
  8
0
  6
CONTINUOUS
 62
     2
 10
69.3
 20
43.2
 30
0.0
 11
69.3
 21
25.25
 31
0.0
  0
TEXT
  8
0
  6
CONTINUOUS
 62
     2
 10
45.4
 20
28.25
 30
0.3
 40
3.0
  1
Ｃ
 50
0.0
 41
0.6
 51
0.0
  7
KANJI0
  0
LINE
  8
0
  6
CONTINUOUS
 62
     2
 10
69.8
 20
45.0
 30
0.0
 11
75.5
 21
45.0
 31
0.0
  0
LINE
  8
0
  6
CONTINUOUS
 62
     2
 10
73.5
 20
45.0
 30
0.0
 11
74.147047613
 21
47.414814566
 31
0.0
  0
LINE
  8
0
  6
CONTINUOUS
 62
     2
 10
73.5
 20
45.0
 30
0.0
 11
72.852952387
 21
47.414814566
 31
0.0
  0
LINE
  8
0
  6
CONTINUOUS
 62
     2
 10
73.5
 20
58.1
 30
0.0
 11
73.5
 21
39.2
 31
0.0
  0
LINE
  8
0
  6
CONTINUOUS
 62
     2
 10
73.5
 20
44.2
 30
0.0
 11
72.852952387
 21
41.785185434
 31
0.0
  0
LINE
  8
0
  6
CONTINUOUS
 62
     2
 10
73.5
 20
44.2
 30
0.0
 11
74.147047613
 21
41.785185434
 31
0.0
  0
LINE
  8
0
  6
CONTINUOUS
 62
     2
 10
69.8
 20
44.2
 30
0.0
 11
75.5
 21
44.2
 31
0.0
  0
TEXT
  8
0
  6
CONTINUOUS
 62
     2
 10
72.5
 20
50.0
 30
0.3
 40
3.0
  1
１．６ｔ
 50
90.0
 41
0.6
 51
0.0
  7
KANJI0
  0
LINE
  8
0
  6
CONTINUOUS
 62
     2
 10
67.2
 20
73.5
 30
0.0
 11
80.125
 21
73.5
 31
0.0
  0
LINE
  8
0
  6
CONTINUOUS
 62
     2
 10
78.125
 20
73.5
 30
0.0
 11
77.477952387
 21
71.085185434
 31
0.0
  0
LINE
  8
0
  6
CONTINUOUS
 62
     2
 10
78.125
 20
73.5
 30
0.0
 11
78.772047613
 21
71.085185434
 31
0.0
  0
LINE
  8
0
  6
CONTINUOUS
 62
     2
 10
78.125
 20
73.5
 30
0.0
 11
78.125
 21
44.2
 31
0.0
  0
LINE
  8
0
  6
CONTINUOUS
 62
     2
 10
78.125
 20
44.2
 30
0.0
 11
78.772047613
 21
46.614814566
 31
0.0
  0
LINE
  8
0
  6
CONTINUOUS
 62
     2
 10
78.125
 20
44.2
 30
0.0
 11
77.477952387
 21
46.614814566
 31
0.0
  0
LINE
  8
0
  6
CONTINUOUS
 62
     2
 10
75.5
 20
44.2
 30
0.0
 11
80.125
 21
44.2
 31
0.0
  0
TEXT
  8
0
  6
CONTINUOUS
 62
     2
 10
77.125
 20
61.73
 30
0.18
 40
1.8
  1
±２
 50
90.0
 41
0.6
 51
0.0
  7
KANJI1
  0
TEXT
  8
0
  6
CONTINUOUS
 62
     2
 10
77.325
 20
59.23
 30
0.3
 40
3.0
  1
Ｉ
 50
90.0
 41
0.6
 51
0.0
  7
KANJI0
  0
ARC
  8
0
  6
LTYPE2
 62
     2
 10
138.8
 20
65.5
 30
0.0
 40
1.0
 50
0.0
 51
90.0
  0
ARC
  8
0
  6
LTYPE2
 62
     2
 10
138.8
 20
81.5
 30
0.0
 40
1.0
 50
270.0
 51
0.0
  0
LINE
  8
0
  6
LTYPE2
 62
     2
 10
113.8
 20
80.5
 30
0.0
 11
138.8
 21
80.5
 31
0.0
  0
ARC
  8
0
  6
LTYPE2
 62
     2
 10
113.8
 20
81.5
 30
0.0
 40
1.0
 50
180.0
 51
270.0
  0
LINE
  8
0
  6
LTYPE2
 62
     2
 10
113.8
 20
66.5
 30
0.0
 11
138.8
 21
66.5
 31
0.0
  0
ARC
  8
0
  6
LTYPE2
 62
     2
 10
113.8
 20
65.5
 30
0.0
 40
1.0
 50
90.0
 51
180.0
  0
ARC
  8
0
  6
CONTINUOUS
 62
     2
 10
125.1
 20
92.804015126
 30
0.0
 40
0.3
 50
90.0
 51
180.0
  0
LINE
  8
0
  6
CONTINUOUS
 62
     2
 10
127.5
 20
93.104015126
 30
0.0
 11
125.1
 21
93.104015126
 31
0.0
  0
ARC
  8
0
  6
CONTINUOUS
 62
     2
 10
127.5
 20
92.804015126
 30
0.0
 40
0.3
 50
360.0
 51
90.0
  0
LINE
  8
0
  6
CONTINUOUS
 62
     2
 10
127.8
 20
86.332947315
 30
0.0
 11
127.8
 21
92.804015126
 31
0.0
  0
ARC
  8
0
  6
CONTINUOUS
 62
     2
 10
127.5
 20
86.332947315
 30
0.0
 40
0.3
 50
270.0
 51
360.0
  0
LINE
  8
0
  6
CONTINUOUS
 62
     2
 10
124.8
 20
92.804015126
 30
0.0
 11
124.8
 21
86.332947315
 31
0.0
  0
LINE
  8
0
  6
CONTINUOUS
 62
     2
 10
127.5
 20
86.032947315
 30
0.0
 11
125.1
 21
86.032947315
 31
0.0
  0
ARC
  8
0
  6
CONTINUOUS
 62
     2
 10
125.1
 20
86.332947315
 30
0.0
 40
0.3
 50
180.0
 51
270.0
  0
LINE
  8
0
  6
CONTINUOUS
 62
     2
 10
132.0675
 20
89.470447315
 30
0.0
 11
132.5575
 21
89.470447315
 31
0.0
  0
LINE
  8
0
  6
CONTINUOUS
 62
     2
 10
132.5575
 20
91.395447315
 30
0.0
 11
132.0675
 21
91.395447315
 31
0.0
  0
LINE
  8
0
  6
CONTINUOUS
 62
     2
 10
132.5575
 20
89.470447315
 30
0.0
 11
132.5575
 21
89.662947315
 31
0.0
  0
ARC
  8
0
  6
CONTINUOUS
 62
     2
 10
133.0825
 20
89.662947315
 30
0.0
 40
0.525
 50
90.0
 51
180.0
  0
LINE
  8
0
  6
CONTINUOUS
 62
     2
 10
132.0675
 20
89.662947315
 30
0.0
 11
132.0675
 21
89.470447315
 31
0.0
  0
ARC
  8
0
  6
CONTINUOUS
 62
     2
 10
131.5425
 20
89.662947315
 30
0.0
 40
0.525
 50
0.0
 51
90.0
  0
LINE
  8
0
  6
CONTINUOUS
 62
     2
 10
132.0675
 20
91.395447315
 30
0.0
 11
132.0675
 21
91.202947315
 31
0.0
  0
ARC
  8
0
  6
CONTINUOUS
 62
     2
 10
131.5425
 20
91.202947315
 30
0.0
 40
0.525
 50
270.0
 51
0.0
  0
LINE
  8
0
  6
CONTINUOUS
 62
     2
 10
132.5575
 20
91.202947315
 30
0.0
 11
132.5575
 21
91.395447315
 31
0.0
  0
ARC
  8
0
  6
CONTINUOUS
 62
     2
 10
133.0825
 20
91.202947315
 30
0.0
 40
0.525
 50
180.0
 51
270.0
  0
LINE
  8
0
  6
CONTINUOUS
 62
     2
 10
131.3125
 20
90.187947315
 30
0.0
 11
131.5425
 21
90.187947315
 31
0.0
  0
LINE
  8
0
  6
CONTINUOUS
 62
     2
 10
131.5425
 20
90.677947315
 30
0.0
 11
131.3125
 21
90.677947315
 31
0.0
  0
LINE
  8
0
  6
CONTINUOUS
 62
     2
 10
133.3125
 20
90.677947315
 30
0.0
 11
133.0825
 21
90.677947315
 31
0.0
  0
LINE
  8
0
  6
CONTINUOUS
 62
     2
 10
133.0825
 20
90.187947315
 30
0.0
 11
133.3125
 21
90.187947315
 31
0.0
  0
LINE
  8
0
  6
CONTINUOUS
 62
     2
 10
131.3125
 20
90.187947315
 30
0.0
 11
131.3125
 21
90.687947315
 31
0.0
  0
LINE
  8
0
  6
CONTINUOUS
 62
     2
 10
133.3125
 20
90.677947315
 30
0.0
 11
133.3125
 21
90.187947315
 31
0.0
  0
LINE
  8
0
  6
CONTINUOUS
 62
     2
 10
120.0675
 20
89.470447315
 30
0.0
 11
120.5575
 21
89.470447315
 31
0.0
  0
LINE
  8
0
  6
CONTINUOUS
 62
     2
 10
120.5575
 20
91.395447315
 30
0.0
 11
120.0675
 21
91.395447315
 31
0.0
  0
LINE
  8
0
  6
CONTINUOUS
 62
     2
 10
120.5575
 20
89.470447315
 30
0.0
 11
120.5575
 21
89.662947315
 31
0.0
  0
ARC
  8
0
  6
CONTINUOUS
 62
     2
 10
121.0825
 20
89.662947315
 30
0.0
 40
0.525
 50
90.0
 51
180.0
  0
LINE
  8
0
  6
CONTINUOUS
 62
     2
 10
120.0675
 20
89.662947315
 30
0.0
 11
120.0675
 21
89.470447315
 31
0.0
  0
ARC
  8
0
  6
CONTINUOUS
 62
     2
 10
119.5425
 20
89.662947315
 30
0.0
 40
0.525
 50
0.0
 51
90.0
  0
LINE
  8
0
  6
CONTINUOUS
 62
     2
 10
120.0675
 20
91.395447315
 30
0.0
 11
120.0675
 21
91.202947315
 31
0.0
  0
ARC
  8
0
  6
CONTINUOUS
 62
     2
 10
119.5425
 20
91.202947315
 30
0.0
 40
0.525
 50
270.0
 51
0.0
  0
LINE
  8
0
  6
CONTINUOUS
 62
     2
 10
120.5575
 20
91.202947315
 30
0.0
 11
120.5575
 21
91.395447315
 31
0.0
  0
ARC
  8
0
  6
CONTINUOUS
 62
     2
 10
121.0825
 20
91.202947315
 30
0.0
 40
0.525
 50
180.0
 51
270.0
  0
LINE
  8
0
  6
CONTINUOUS
 62
     2
 10
119.3125
 20
90.187947315
 30
0.0
 11
119.5425
 21
90.187947315
 31
0.0
  0
LINE
  8
0
  6
CONTINUOUS
 62
     2
 10
119.5425
 20
90.677947315
 30
0.0
 11
119.3125
 21
90.677947315
 31
0.0
  0
LINE
  8
0
  6
CONTINUOUS
 62
     2
 10
121.3125
 20
90.677947315
 30
0.0
 11
121.0825
 21
90.677947315
 31
0.0
  0
LINE
  8
0
  6
CONTINUOUS
 62
     2
 10
121.0825
 20
90.187947315
 30
0.0
 11
121.3125
 21
90.187947315
 31
0.0
  0
LINE
  8
0
  6
CONTINUOUS
 62
     2
 10
119.3125
 20
90.187947315
 30
0.0
 11
119.3125
 21
90.687947315
 31
0.0
  0
LINE
  8
0
  6
CONTINUOUS
 62
     2
 10
121.3125
 20
90.677947315
 30
0.0
 11
121.3125
 21
90.187947315
 31
0.0
  0
LINE
  8
0
  6
CONTINUOUS
 62
     2
 10
140.3375
 20
84.732947315
 30
0.0
 11
142.229204711
 21
86.367405417
 31
0.0
  0
LINE
  8
0
  6
CONTINUOUS
 62
     2
 10
140.3375
 20
84.732947315
 30
0.0
 11
141.158535285
 21
87.094281908
 31
0.0
  0
LINE
  8
0
  6
CONTINUOUS
 62
     2
 10
140.3375
 20
84.732947315
 30
0.0
 11
147.7375
 21
95.632947315
 31
0.0
  0
LINE
  8
0
  6
CONTINUOUS
 62
     2
 10
112.8
 20
90.0
 30
0.0
 11
112.8
 21
108.0
 31
0.0
  0
LINE
  8
0
  6
CONTINUOUS
 62
     2
 10
112.8
 20
106.0
 30
0.0
 11
115.214814566
 21
105.352952387
 31
0.0
  0
LINE
  8
0
  6
CONTINUOUS
 62
     2
 10
112.8
 20
106.0
 30
0.0
 11
115.214814566
 21
106.647047613
 31
0.0
  0
LINE
  8
0
  6
CONTINUOUS
 62
     2
 10
112.8
 20
106.0
 30
0.0
 11
139.8
 21
106.0
 31
0.0
  0
LINE
  8
0
  6
CONTINUOUS
 62
     2
 10
139.8
 20
106.0
 30
0.0
 11
137.385185434
 21
106.647047613
 31
0.0
  0
LINE
  8
0
  6
CONTINUOUS
 62
     2
 10
139.8
 20
106.0
 30
0.0
 11
137.385185434
 21
105.352952387
 31
0.0
  0
LINE
  8
0
  6
CONTINUOUS
 62
     2
 10
139.8
 20
90.0
 30
0.0
 11
139.8
 21
108.0
 31
0.0
  0
TEXT
  8
0
  6
CONTINUOUS
 62
     2
 10
125.4
 20
107.0
 30
0.3
 40
3.0
  1
Ａ
 50
0.0
 41
0.6
 51
0.0
  7
KANJI0
  0
LINE
  8
0
  6
CONTINUOUS
 62
     2
 10
114.8
 20
44.2
 30
0.0
 11
103.1
 21
44.2
 31
0.0
  0
LINE
  8
0
  6
CONTINUOUS
 62
     2
 10
105.1
 20
44.2
 30
0.0
 11
105.747047613
 21
46.614814566
 31
0.0
  0
LINE
  8
0
  6
CONTINUOUS
 62
     2
 10
105.1
 20
44.2
 30
0.0
 11
104.452952387
 21
46.614814566
 31
0.0
  0
LINE
  8
0
  6
CONTINUOUS
 62
     2
 10
105.1
 20
44.2
 30
0.0
 11
105.1
 21
91.0
 31
0.0
  0
LINE
  8
0
  6
CONTINUOUS
 62
     2
 10
105.1
 20
91.0
 30
0.0
 11
104.452952387
 21
88.585185434
 31
0.0
  0
LINE
  8
0
  6
CONTINUOUS
 62
     2
 10
105.1
 20
91.0
 30
0.0
 11
105.747047613
 21
88.585185434
 31
0.0
  0
LINE
  8
0
  6
CONTINUOUS
 62
     2
 10
113.800001907
 20
91.0
 30
0.0
 11
103.1
 21
91.0
 31
0.0
  0
TEXT
  8
0
  6
CONTINUOUS
 62
     2
 10
104.1
 20
66.7
 30
0.3
 40
3.0
  1
Ｋ
 50
90.0
 41
0.6
 51
0.0
  7
KANJI0
  0
LINE
  8
0
  6
CONTINUOUS
 62
     2
 10
103.1
 20
44.2
 30
0.0
 11
95.5
 21
44.2
 31
0.0
  0
LINE
  8
0
  6
CONTINUOUS
 62
     2
 10
97.5
 20
44.2
 30
0.0
 11
98.147047613
 21
46.614814566
 31
0.0
  0
LINE
  8
0
  6
CONTINUOUS
 62
     2
 10
97.5
 20
44.2
 30
0.0
 11
96.852952387
 21
46.614814566
 31
0.0
  0
LINE
  8
0
  6
CONTINUOUS
 62
     2
 10
97.5
 20
44.2
 30
0.0
 11
97.5
 21
93.104015126
 31
0.0
  0
LINE
  8
0
  6
CONTINUOUS
 62
     2
 10
97.5
 20
93.104015126
 30
0.0
 11
96.852952387
 21
90.689200561
 31
0.0
  0
LINE
  8
0
  6
CONTINUOUS
 62
     2
 10
97.5
 20
93.104015126
 30
0.0
 11
98.147047613
 21
90.689200561
 31
0.0
  0
LINE
  8
0
  6
CONTINUOUS
 62
     2
 10
124.1
 20
93.104015126
 30
0.0
 11
95.5
 21
93.104015126
 31
0.0
  0
TEXT
  8
0
  6
CONTINUOUS
 62
     2
 10
96.5
 20
67.752007563
 30
0.3
 40
3.0
  1
Ｈ
 50
90.0
 41
0.6
 51
0.0
  7
KANJI0
  0
LINE
  8
0
  6
CONTINUOUS
 62
     2
 10
114.8
 20
50.0
 30
0.0
 11
107.875
 21
50.0
 31
0.0
  0
LINE
  8
0
  6
CONTINUOUS
 62
     2
 10
109.875
 20
50.0
 30
0.0
 11
110.522047613
 21
52.414814566
 31
0.0
  0
LINE
  8
0
  6
CONTINUOUS
 62
     2
 10
109.875
 20
50.0
 30
0.0
 11
109.227952387
 21
52.414814566
 31
0.0
  0
LINE
  8
0
  6
CONTINUOUS
 62
     2
 10
109.875
 20
55.0
 30
0.0
 11
109.875
 21
39.2
 31
0.0
  0
LINE
  8
0
  6
CONTINUOUS
 62
     2
 10
109.875
 20
44.2
 30
0.0
 11
109.227952387
 21
41.785185434
 31
0.0
  0
LINE
  8
0
  6
CONTINUOUS
 62
     2
 10
109.875
 20
44.2
 30
0.0
 11
110.522047613
 21
41.785185434
 31
0.0
  0
TEXT
  8
0
  6
CONTINUOUS
 62
     2
 10
109.475
 20
46.2
 30
0.3
 40
3.0
  1
Ｆ
 50
90.0
 41
0.6
 51
0.0
  7
KANJI0
  0
LINE
  8
0
  6
CONTINUOUS
 62
     2
 10
124.3
 20
43.2
 30
0.0
 11
124.3
 21
37.9
 31
0.0
  0
LINE
  8
0
  6
CONTINUOUS
 62
     2
 10
124.3
 20
39.9
 30
0.0
 11
121.885185434
 21
40.547047613
 31
0.0
  0
LINE
  8
0
  6
CONTINUOUS
 62
     2
 10
124.3
 20
39.9
 30
0.0
 11
121.885185434
 21
39.252952387
 31
0.0
  0
LINE
  8
0
  6
CONTINUOUS
 62
     2
 10
119.3
 20
39.9
 30
0.0
 11
133.3
 21
39.9
 31
0.0
  0
LINE
  8
0
  6
CONTINUOUS
 62
     2
 10
128.3
 20
39.9
 30
0.0
 11
130.714814566
 21
39.252952387
 31
0.0
  0
LINE
  8
0
  6
CONTINUOUS
 62
     2
 10
128.3
 20
39.9
 30
0.0
 11
130.714814566
 21
40.547047613
 31
0.0
  0
LINE
  8
0
  6
CONTINUOUS
 62
     2
 10
128.3
 20
43.2
 30
0.0
 11
128.3
 21
37.9
 31
0.0
  0
TEXT
  8
0
  6
CONTINUOUS
 62
     2
 10
125.4
 20
40.9
 30
0.3
 40
3.0
  1
８
 50
0.0
 41
0.6
 51
0.0
  7
KANJI0
  0
LINE
  8
0
  6
CONTINUOUS
 62
     2
 10
115.8
 20
43.2
 30
0.0
 11
115.8
 21
31.15
 31
0.0
  0
LINE
  8
0
  6
CONTINUOUS
 62
     2
 10
115.8
 20
33.15
 30
0.0
 11
118.214814566
 21
32.502952387
 31
0.0
  0
LINE
  8
0
  6
CONTINUOUS
 62
     2
 10
115.8
 20
33.15
 30
0.0
 11
118.214814566
 21
33.797047613
 31
0.0
  0
LINE
  8
0
  6
CONTINUOUS
 62
     2
 10
115.8
 20
33.15
 30
0.0
 11
136.8
 21
33.15
 31
0.0
  0
LINE
  8
0
  6
CONTINUOUS
 62
     2
 10
136.8
 20
33.15
 30
0.0
 11
134.385185434
 21
33.797047613
 31
0.0
  0
LINE
  8
0
  6
CONTINUOUS
 62
     2
 10
136.8
 20
33.15
 30
0.0
 11
134.385185434
 21
32.502952387
 31
0.0
  0
LINE
  8
0
  6
CONTINUOUS
 62
     2
 10
136.8
 20
43.2
 30
0.0
 11
136.8
 21
31.15
 31
0.0
  0
TEXT
  8
0
  6
CONTINUOUS
 62
     2
 10
125.4
 20
34.15
 30
0.3
 40
3.0
  1
Ｇ
 50
0.0
 41
0.6
 51
0.0
  7
KANJI0
  0
LINE
  8
0
  6
CONTINUOUS
 62
     2
 10
38.9
 20
90.05
 30
0.0
 11
36.903023853
 21
91.55402336
 31
0.0
  0
LINE
  8
0
  6
CONTINUOUS
 62
     2
 10
38.9
 20
90.05
 30
0.0
 11
36.418556246
 21
90.354034364
 31
0.0
  0
LINE
  8
0
  6
CONTINUOUS
 62
     2
 10
38.9
 20
90.05
 30
0.0
 11
22.8
 21
96.55
 31
0.0
  0
LINE
  8
0
  6
CONTINUOUS
 62
     2
 10
22.8
 20
96.55
 30
0.0
 11
12.3
 21
96.55
 31
0.0
  0
TEXT
  8
0
  6
CONTINUOUS
 62
     2
 10
12.3
 20
97.55
 30
0.3
 40
3.0
  1
貼り銘板
 50
0.0
 41
0.8
 51
0.0
  7
KANJI2
  0
LINE
  8
0
  6
CONTINUOUS
 62
     2
 10
168.6
 20
109.05
 30
0.0
 11
218.6
 21
109.05
 31
0.0
  0
LINE
  8
0
  6
CONTINUOUS
 62
     2
 10
168.7
 20
103.05
 30
0.0
 11
218.7
 21
103.05
 31
0.0
  0
LINE
  8
0
  6
CONTINUOUS
 62
     2
 10
168.8
 20
97.05
 30
0.0
 11
218.8
 21
97.05
 31
0.0
  0
LINE
  8
0
  6
CONTINUOUS
 62
     2
 10
168.9
 20
91.05
 30
0.0
 11
218.9
 21
91.05
 31
0.0
  0
LINE
  8
0
  6
CONTINUOUS
 62
     2
 10
169.0
 20
85.05
 30
0.0
 11
219.0
 21
85.05
 31
0.0
  0
LINE
  8
0
  6
CONTINUOUS
 62
     2
 10
169.1
 20
79.05
 30
0.0
 11
219.1
 21
79.05
 31
0.0
  0
LINE
  8
0
  6
CONTINUOUS
 62
     2
 10
169.2
 20
73.05
 30
0.0
 11
219.2
 21
73.05
 31
0.0
  0
LINE
  8
0
  6
CONTINUOUS
 62
     2
 10
169.3
 20
67.05
 30
0.0
 11
219.3
 21
67.05
 31
0.0
  0
LINE
  8
0
  6
CONTINUOUS
 62
     2
 10
169.4
 20
61.05
 30
0.0
 11
219.4
 21
61.05
 31
0.0
  0
LINE
  8
0
  6
CONTINUOUS
 62
     2
 10
169.5
 20
55.05
 30
0.0
 11
219.5
 21
55.05
 31
0.0
  0
TEXT
  8
0
  6
CONTINUOUS
 62
     2
 10
171.6
 20
110.15
 30
5.0
 40
3.0
  1
形式
 50
0.0
 41
0.8
 51
0.0
  7
KANJI3
  0
TEXT
  8
0
  6
CONTINUOUS
 62
     2
 10
171.6
 20
104.15
 30
5.0
 40
3.0
  1
構造
 50
0.0
 41
0.8
 51
0.0
  7
KANJI3
  0
TEXT
  8
0
  6
CONTINUOUS
 62
     2
 10
171.6
 20
98.15
 30
5.0
 40
3.0
  1
規格
 50
0.0
 41
0.8
 51
0.0
  7
KANJI3
  0
TEXT
  8
0
  6
CONTINUOUS
 62
     2
 10
171.6
 20
86.15
 30
3.0
 40
3.0
  1
最高電圧
 50
0.0
 41
0.8
 51
0.0
  7
KANJI4
  0
TEXT
  8
0
  6
CONTINUOUS
 62
     2
 10
171.6
 20
92.15
 30
5.0
 40
3.0
  1
階級
 50
0.0
 41
0.8
 51
0.0
  7
KANJI3
  0
TEXT
  8
0
  6
CONTINUOUS
 62
     2
 10
171.1
 20
80.05
 30
1.0
 40
3.0
  1
定格一次電流
 50
0.0
 41
0.8
 51
0.0
  7
KANJI5
  0
TEXT
  8
0
  6
CONTINUOUS
 62
     2
 10
171.1
 20
74.05
 30
1.0
 40
3.0
  1
定格二次電流
 50
0.0
 41
0.8
 51
0.0
  7
KANJI5
  0
TEXT
  8
0
  6
CONTINUOUS
 62
     2
 10
171.1
 20
68.05
 30
3.0
 40
3.0
  1
定格負担
 50
0.0
 41
0.8
 51
0.0
  7
KANJI4
  0
TEXT
  8
0
  6
CONTINUOUS
 62
     2
 10
171.1
 20
56.05
 30
1.5
 40
3.0
  1
定格周波数
 50
0.0
 41
0.8
 51
0.0
  7
KANJI6
  0
TEXT
  8
0
  6
CONTINUOUS
 62
     2
 10
171.4
 20
62.05
 30
0.5
 40
3.0
  1
定格過電流強度
 50
0.0
 41
0.8
 51
0.0
  7
KANJI7
  0
TEXT
  8
0
  6
CONTINUOUS
 62
     2
 10
149.0
 20
45.95
 30
0.5
 40
3.0
  1
注）１，定格過電流強度は、一次導体の定格電流密度が
 50
0.0
 41
0.8
 51
0.0
  7
KANJI7
  0
TEXT
  8
0
  6
CONTINUOUS
 62
     2
 10
154.0
 20
35.95
 30
0.5
 40
3.0
  1
２，一次導体の公称断面積は、６００Ｖ　ＩＶ線が貫通
 50
0.0
 41
0.8
 51
0.0
  7
KANJI7
  0
TEXT
  8
0
  6
CONTINUOUS
 62
     2
 10
159.2
 20
40.95
 30
0.5
 40
3.0
  1
３．３　Ａ／ｍｍ　以下の場合。
 50
0.0
 41
0.8
 51
0.0
  7
KANJI7
  0
TEXT
  8
0
  6
CONTINUOUS
 62
     2
 10
179.2
 20
42.55
 30
0.25
 40
1.5
  1
２
 50
0.0
 41
0.8
 51
0.0
  7
KANJI8
  0
TEXT
  8
0
  6
CONTINUOUS
 62
     2
 10
159.0
 20
30.95
 30
0.5
 40
3.0
  1
できる最大を示します。
 50
0.0
 41
0.8
 51
0.0
  7
KANJI7
  0
TEXT
  8
0
  6
CONTINUOUS
 62
     2
 10
153.9
 20
25.95
 30
0.5
 40
3.0
  1
３，取付足は、９０゜方向を変える事が出来ます。
 50
0.0
 41
0.8
 51
0.0
  7
KANJI7
  0
LINE
  8
0
  6
CONTINUOUS
 62
     2
 10
147.3
 20
45.25
 30
0.0
 11
224.3
 21
45.25
 31
0.0
  0
LINE
  8
0
  6
CONTINUOUS
 62
     2
 10
147.3
 20
40.25
 30
0.0
 11
224.3
 21
40.25
 31
0.0
  0
LINE
  8
0
  6
CONTINUOUS
 62
     2
 10
147.3
 20
35.25
 30
0.0
 11
224.3
 21
35.25
 31
0.0
  0
LINE
  8
0
  6
CONTINUOUS
 62
     2
 10
147.3
 20
30.25
 30
0.0
 11
224.3
 21
30.25
 31
0.0
  0
LINE
  8
0
  6
CONTINUOUS
 62
     2
 10
147.3
 20
25.25
 30
0.0
 11
224.3
 21
25.25
 31
0.0
  0
TEXT
  8
0
  6
CONTINUOUS
 62
     2
 10
193.7
 20
104.05
 30
0.5
 40
3.0
  1
樹脂全モールド
 50
0.0
 41
0.8
 51
0.0
  7
KANJI7
  0
TEXT
  8
0
  6
CONTINUOUS
 62
     2
 10
193.7
 20
98.05
 30
0.5
 40
3.0
  1
ＪＩＳ　Ｃ１７３１
 50
0.0
 41
0.8
 51
0.0
  7
KANJI7
  0
TEXT
  8
0
  6
CONTINUOUS
 62
     2
 10
193.7
 20
92.05
 30
0.5
 40
3.0
  1
１．０　級
 50
0.0
 41
0.8
 51
0.0
  7
KANJI7
  0
TEXT
  8
0
  6
CONTINUOUS
 62
     2
 10
193.7
 20
86.05
 30
0.5
 40
3.0
  1
１１５０　Ｖ
 50
0.0
 41
0.8
 51
0.0
  7
KANJI7
  0
TEXT
  8
0
  6
CONTINUOUS
 62
     2
 10
193.7
 20
80.05
 30
0.5
 40
3.0
  1
３０Ａ～６００Ａ
 50
0.0
 41
0.8
 51
0.0
  7
KANJI7
  0
TEXT
  8
0
  6
CONTINUOUS
 62
     2
 10
193.7
 20
74.05
 30
0.5
 40
3.0
  1
５Ａ　又は、１Ａ　
 50
0.0
 41
0.8
 51
0.0
  7
KANJI7
  0
TEXT
  8
0
  6
CONTINUOUS
 62
     2
 10
193.7
 20
62.05
 30
0.5
 40
3.0
  1
４０　（注１）
 50
0.0
 41
0.8
 51
0.0
  7
KANJI7
  0
TEXT
  8
0
  6
CONTINUOUS
 62
     2
 10
193.7
 20
56.05
 30
0.5
 40
3.0
  1
５０，６０　Ｈｚ
 50
0.0
 41
0.8
 51
0.0
  7
KANJI7
  0
TEXT
  8
0
  6
CONTINUOUS
 62
     2
 10
18.4
 20
180.225
 30
3.75
 40
3.0
  1
形式
 50
0.0
 41
0.75
 51
0.0
  7
KANJI9
  0
TEXT
  8
0
  6
CONTINUOUS
 62
     2
 10
33.25
 20
179.85
 30
0.15
 40
3.0
  1
定格一次電流（Ａ）
 50
0.0
 41
0.625
 51
0.0
  7
KANJI10
  0
TEXT
  8
0
  6
CONTINUOUS
 62
     2
 10
52.325
 20
180.025
 30
0.15
 40
3.0
  1
一次貫通数（Ｔ）
 50
0.0
 41
0.625
 51
0.0
  7
KANJI10
  0
TEXT
  8
0
  6
CONTINUOUS
 62
     2
 10
69.25
 20
179.95
 30
0.15
 40
3.0
  1
アンペア回数（ＡＴ）
 50
0.0
 41
0.625
 51
0.0
  7
KANJI10
  0
TEXT
  8
0
  6
CONTINUOUS
 62
     2
 10
90.4
 20
179.725
 30
0.15
 40
3.0
  1
一次導体
 50
0.0
 41
0.625
 51
0.0
  7
KANJI10
  0
TEXT
  8
0
  6
CONTINUOUS
 62
     2
 10
99.4
 20
182.45
 30
0.1
 40
2.5
  1
最大（ｍｍ）
 50
0.0
 41
0.8
 51
0.0
  7
KANJI11
  0
TEXT
  8
0
  6
CONTINUOUS
 62
     2
 10
121.3
 20
179.9
 30
0.375
 40
2.25
  1
（ｋｇ）
 50
0.0
 41
0.8
 51
0.0
  7
KANJI12
  0
TEXT
  8
0
  6
CONTINUOUS
 62
     2
 10
114.55
 20
179.9
 30
1.5
 40
3.0
  1
重量
 50
0.0
 41
0.8
 51
0.0
  7
KANJI13
  0
LINE
  8
0
  6
CONTINUOUS
 62
     2
 10
129.5
 20
185.95
 30
0.0
 11
129.5
 21
118.95
 31
0.0
  0
LINE
  8
0
  6
CONTINUOUS
 62
     2
 10
138.1
 20
185.95
 30
0.0
 11
138.1
 21
118.95
 31
0.0
  0
LINE
  8
0
  6
CONTINUOUS
 62
     2
 10
146.7
 20
185.95
 30
0.0
 11
146.7
 21
118.95
 31
0.0
  0
LINE
  8
0
  6
CONTINUOUS
 62
     2
 10
155.3
 20
185.95
 30
0.0
 11
155.3
 21
118.95
 31
0.0
  0
LINE
  8
0
  6
CONTINUOUS
 62
     2
 10
163.9
 20
185.95
 30
0.0
 11
163.9
 21
118.95
 31
0.0
  0
LINE
  8
0
  6
CONTINUOUS
 62
     2
 10
172.5
 20
185.95
 30
0.0
 11
172.5
 21
118.95
 31
0.0
  0
LINE
  8
0
  6
CONTINUOUS
 62
     2
 10
181.1
 20
185.95
 30
0.0
 11
181.1
 21
118.95
 31
0.0
  0
LINE
  8
0
  6
CONTINUOUS
 62
     2
 10
189.7
 20
185.95
 30
0.0
 11
189.7
 21
118.95
 31
0.0
  0
LINE
  8
0
  6
CONTINUOUS
 62
     2
 10
198.3
 20
185.95
 30
0.0
 11
198.3
 21
118.95
 31
0.0
  0
LINE
  8
0
  6
CONTINUOUS
 62
     2
 10
206.9
 20
185.95
 30
0.0
 11
206.9
 21
118.95
 31
0.0
  0
LINE
  8
0
  6
CONTINUOUS
 62
     2
 10
215.5
 20
185.95
 30
0.0
 11
215.5
 21
118.95
 31
0.0
  0
LINE
  8
0
  6
CONTINUOUS
 62
     2
 10
224.1
 20
185.95
 30
0.0
 11
224.1
 21
118.95
 31
0.0
  0
LINE
  8
0
  6
CONTINUOUS
 62
     2
 10
13.4
 20
185.95
 30
0.0
 11
13.4
 21
118.95
 31
0.0
  0
LINE
  8
0
  6
CONTINUOUS
 62
     2
 10
32.4
 20
185.95
 30
0.0
 11
32.4
 21
118.95
 31
0.0
  0
LINE
  8
0
  6
CONTINUOUS
 62
     2
 10
13.4
 20
118.95
 30
0.0
 11
224.1
 21
118.95
 31
0.0
  0
LINE
  8
0
  6
CONTINUOUS
 62
     2
 10
51.0
 20
185.95
 30
0.0
 11
51.0
 21
118.95
 31
0.0
  0
LINE
  8
0
  6
CONTINUOUS
 62
     2
 10
68.0
 20
185.95
 30
0.0
 11
68.0
 21
118.95
 31
0.0
  0
LINE
  8
0
  6
CONTINUOUS
 62
     2
 10
89.0
 20
185.95
 30
0.0
 11
89.0
 21
118.95
 31
0.0
  0
LINE
  8
0
  6
CONTINUOUS
 62
     2
 10
113.0
 20
185.95
 30
0.0
 11
113.0
 21
118.95
 31
0.0
  0
LINE
  8
0
  6
CONTINUOUS
 62
     2
 10
32.4
 20
166.95
 30
0.0
 11
51.0
 21
166.95
 31
0.0
  0
LINE
  8
0
  6
CONTINUOUS
 62
     2
 10
32.4
 20
158.95
 30
0.0
 11
51.0
 21
158.95
 31
0.0
  0
LINE
  8
0
  6
CONTINUOUS
 62
     2
 10
32.4
 20
150.95
 30
0.0
 11
51.0
 21
150.95
 31
0.0
  0
LINE
  8
0
  6
CONTINUOUS
 62
     2
 10
32.4
 20
142.95
 30
0.0
 11
51.0
 21
142.95
 31
0.0
  0
LINE
  8
0
  6
CONTINUOUS
 62
     2
 10
32.4
 20
138.95
 30
0.0
 11
51.0
 21
138.95
 31
0.0
  0
LINE
  8
0
  6
CONTINUOUS
 62
     2
 10
32.4
 20
130.95
 30
0.0
 11
51.0
 21
130.95
 31
0.0
  0
LINE
  8
0
  6
CONTINUOUS
 62
     2
 10
32.4
 20
122.95
 30
0.0
 11
51.0
 21
122.95
 31
0.0
  0
TEXT
  8
0
  6
CONTINUOUS
 62
     2
 10
39.4
 20
175.65
 30
0.2
 40
3.0
  1
３０
 50
0.0
 41
0.8
 51
0.0
  7
KANJI14
  0
TEXT
  8
0
  6
CONTINUOUS
 62
     2
 10
39.4
 20
171.65
 30
0.2
 40
3.0
  1
４０
 50
0.0
 41
0.8
 51
0.0
  7
KANJI14
  0
TEXT
  8
0
  6
CONTINUOUS
 62
     2
 10
39.4
 20
167.65
 30
0.2
 40
3.0
  1
５０
 50
0.0
 41
0.8
 51
0.0
  7
KANJI14
  0
TEXT
  8
0
  6
CONTINUOUS
 62
     2
 10
39.4
 20
163.65
 30
0.2
 40
3.0
  1
６０
 50
0.0
 41
0.8
 51
0.0
  7
KANJI14
  0
TEXT
  8
0
  6
CONTINUOUS
 62
     2
 10
36.8
 20
139.65
 30
0.2
 40
3.0
  1
２００
 50
0.0
 41
0.8
 51
0.0
  7
KANJI14
  0
TEXT
  8
0
  6
CONTINUOUS
 62
     2
 10
36.8
 20
135.65
 30
0.2
 40
3.0
  1
２５０
 50
0.0
 41
0.8
 51
0.0
  7
KANJI14
  0
TEXT
  8
0
  6
CONTINUOUS
 62
     2
 10
36.8
 20
131.65
 30
0.2
 40
3.0
  1
３００
 50
0.0
 41
0.8
 51
0.0
  7
KANJI14
  0
TEXT
  8
0
  6
CONTINUOUS
 62
     2
 10
36.8
 20
127.65
 30
0.2
 40
3.0
  1
４００
 50
0.0
 41
0.8
 51
0.0
  7
KANJI14
  0
TEXT
  8
0
  6
CONTINUOUS
 62
     2
 10
36.8
 20
123.65
 30
0.2
 40
3.0
  1
５００
 50
0.0
 41
0.8
 51
0.0
  7
KANJI14
  0
TEXT
  8
0
  6
CONTINUOUS
 62
     2
 10
36.8
 20
119.65
 30
0.2
 40
3.0
  1
６００
 50
0.0
 41
0.8
 51
0.0
  7
KANJI14
  0
LINE
  8
0
  6
CONTINUOUS
 62
     2
 10
13.4
 20
126.95
 30
0.0
 11
51.0
 21
126.95
 31
0.0
  0
LINE
  8
0
  6
CONTINUOUS
 62
     2
 10
32.4
 20
174.95
 30
0.0
 11
68.0
 21
174.95
 31
0.0
  0
LINE
  8
0
  6
CONTINUOUS
 62
     2
 10
32.4
 20
170.95
 30
0.0
 11
113.0
 21
170.95
 31
0.0
  0
LINE
  8
0
  6
CONTINUOUS
 62
     2
 10
68.0
 20
166.95
 30
0.0
 11
89.0
 21
166.95
 31
0.0
  0
LINE
  8
0
  6
CONTINUOUS
 62
     2
 10
68.0
 20
158.95
 30
0.0
 11
89.0
 21
158.95
 31
0.0
  0
LINE
  8
0
  6
CONTINUOUS
 62
     2
 10
68.0
 20
150.95
 30
0.0
 11
89.0
 21
150.95
 31
0.0
  0
LINE
  8
0
  6
CONTINUOUS
 62
     2
 10
68.0
 20
142.95
 30
0.0
 11
89.0
 21
142.95
 31
0.0
  0
LINE
  8
0
  6
CONTINUOUS
 62
     2
 10
68.0
 20
138.95
 30
0.0
 11
89.0
 21
138.95
 31
0.0
  0
LINE
  8
0
  6
CONTINUOUS
 62
     2
 10
68.0
 20
130.95
 30
0.0
 11
89.0
 21
130.95
 31
0.0
  0
LINE
  8
0
  6
CONTINUOUS
 62
     2
 10
68.0
 20
122.95
 30
0.0
 11
89.0
 21
122.95
 31
0.0
  0
LINE
  8
0
  6
CONTINUOUS
 62
     2
 10
32.4
 20
162.95
 30
0.0
 11
68.0
 21
162.95
 31
0.0
  0
LINE
  8
0
  6
CONTINUOUS
 62
     2
 10
89.0
 20
174.95
 30
0.0
 11
113.0
 21
174.95
 31
0.0
  0
LINE
  8
0
  6
CONTINUOUS
 62
     2
 10
68.0
 20
154.95
 30
0.0
 11
113.0
 21
154.95
 31
0.0
  0
LINE
  8
0
  6
CONTINUOUS
 62
     2
 10
215.5
 20
126.95
 30
0.0
 11
224.1
 21
126.95
 31
0.0
  0
TEXT
  8
0
  6
CONTINUOUS
 62
     2
 10
57.1
 20
131.25
 30
0.2
 40
3.0
  1
１
 50
0.0
 41
0.8
 51
0.0
  7
KANJI14
  0
TEXT
  8
0
  6
CONTINUOUS
 62
     2
 10
73.8
 20
151.65
 30
0.2
 40
3.0
  1
１５０
 50
0.0
 41
0.8
 51
0.0
  7
KANJI14
  0
TEXT
  8
0
  6
CONTINUOUS
 62
     2
 10
73.8
 20
139.65
 30
0.2
 40
3.0
  1
２００
 50
0.0
 41
0.8
 51
0.0
  7
KANJI14
  0
TEXT
  8
0
  6
CONTINUOUS
 62
     2
 10
73.8
 20
135.65
 30
0.2
 40
3.0
  1
２５０
 50
0.0
 41
0.8
 51
0.0
  7
KANJI14
  0
TEXT
  8
0
  6
CONTINUOUS
 62
     2
 10
73.8
 20
131.65
 30
0.2
 40
3.0
  1
３００
 50
0.0
 41
0.8
 51
0.0
  7
KANJI14
  0
TEXT
  8
0
  6
CONTINUOUS
 62
     2
 10
73.8
 20
127.65
 30
0.2
 40
3.0
  1
４００
 50
0.0
 41
0.8
 51
0.0
  7
KANJI14
  0
TEXT
  8
0
  6
CONTINUOUS
 62
     2
 10
73.8
 20
123.65
 30
0.2
 40
3.0
  1
５００
 50
0.0
 41
0.8
 51
0.0
  7
KANJI14
  0
TEXT
  8
0
  6
CONTINUOUS
 62
     2
 10
73.8
 20
119.65
 30
0.2
 40
3.0
  1
６００
 50
0.0
 41
0.8
 51
0.0
  7
KANJI14
  0
TEXT
  8
0
  6
CONTINUOUS
 62
     2
 10
96.8
 20
121.45
 30
0.2
 40
3.0
  1
５００
 50
0.0
 41
0.8
 51
0.0
  7
KANJI14
  0
LINE
  8
0
  6
CONTINUOUS
 62
     2
 10
68.0
 20
162.95
 30
0.0
 11
113.0
 21
162.95
 31
0.0
  0
TEXT
  8
0
  6
CONTINUOUS
 62
     2
 10
132.1
 20
180.65
 30
0.2
 40
3.0
  1
Ａ
 50
0.0
 41
0.8
 51
0.0
  7
KANJI14
  0
TEXT
  8
0
  6
CONTINUOUS
 62
     2
 10
140.7
 20
180.65
 30
0.2
 40
3.0
  1
Ｂ
 50
0.0
 41
0.8
 51
0.0
  7
KANJI14
  0
TEXT
  8
0
  6
CONTINUOUS
 62
     2
 10
149.3
 20
180.65
 30
0.2
 40
3.0
  1
Ｃ
 50
0.0
 41
0.8
 51
0.0
  7
KANJI14
  0
TEXT
  8
0
  6
CONTINUOUS
 62
     2
 10
157.9
 20
180.65
 30
0.2
 40
3.0
  1
Ｄ
 50
0.0
 41
0.8
 51
0.0
  7
KANJI14
  0
TEXT
  8
0
  6
CONTINUOUS
 62
     2
 10
166.5
 20
180.65
 30
0.2
 40
3.0
  1
Ｅ
 50
0.0
 41
0.8
 51
0.0
  7
KANJI14
  0
TEXT
  8
0
  6
CONTINUOUS
 62
     2
 10
175.1
 20
180.65
 30
0.2
 40
3.0
  1
Ｆ
 50
0.0
 41
0.8
 51
0.0
  7
KANJI14
  0
TEXT
  8
0
  6
CONTINUOUS
 62
     2
 10
183.7
 20
180.65
 30
0.2
 40
3.0
  1
Ｇ
 50
0.0
 41
0.8
 51
0.0
  7
KANJI14
  0
TEXT
  8
0
  6
CONTINUOUS
 62
     2
 10
192.3
 20
180.65
 30
0.2
 40
3.0
  1
Ｈ
 50
0.0
 41
0.8
 51
0.0
  7
KANJI14
  0
TEXT
  8
0
  6
CONTINUOUS
 62
     2
 10
200.9
 20
180.65
 30
0.2
 40
3.0
  1
Ｉ
 50
0.0
 41
0.8
 51
0.0
  7
KANJI14
  0
TEXT
  8
0
  6
CONTINUOUS
 62
     2
 10
209.5
 20
180.65
 30
0.2
 40
3.0
  1
Ｊ
 50
0.0
 41
0.8
 51
0.0
  7
KANJI14
  0
TEXT
  8
0
  6
CONTINUOUS
 62
     2
 10
218.1
 20
180.65
 30
0.2
 40
3.0
  1
Ｋ
 50
0.0
 41
0.8
 51
0.0
  7
KANJI14
  0
LINE
  8
0
  6
CONTINUOUS
 62
     2
 10
224.1
 20
178.95
 30
0.0
 11
13.4
 21
178.95
 31
0.0
  0
LINE
  8
0
  6
CONTINUOUS
 62
     2
 10
13.4
 20
185.95
 30
0.0
 11
224.1
 21
185.95
 31
0.0
  0
TEXT
  8
0
  6
CONTINUOUS
 62
     2
 10
208.825
 20
156.3
 30
0.2
 40
3.0
  1
８４
 50
0.0
 41
0.8
 51
0.0
  7
KANJI14
  0
TEXT
  8
0
  6
CONTINUOUS
 62
     2
 10
200.325
 20
156.3
 30
0.2
 40
3.0
  1
６０
 50
0.0
 41
0.8
 51
0.0
  7
KANJI14
  0
TEXT
  8
0
  6
CONTINUOUS
 62
     2
 10
182.825
 20
156.3
 30
0.2
 40
3.0
  1
４２
 50
0.0
 41
0.8
 51
0.0
  7
KANJI14
  0
TEXT
  8
0
  6
CONTINUOUS
 62
     2
 10
174.325
 20
156.3
 30
0.2
 40
3.0
  1
１０
 50
0.0
 41
0.8
 51
0.0
  7
KANJI14
  0
TEXT
  8
0
  6
CONTINUOUS
 62
     2
 10
165.525
 20
120.8
 30
0.2
 40
3.0
  1
４０
 50
0.0
 41
0.8
 51
0.0
  7
KANJI14
  0
TEXT
  8
0
  6
CONTINUOUS
 62
     2
 10
147.375
 20
156.4
 30
0.0
 40
3.0
  1
１００
 50
0.0
 41
0.8
 51
0.0
  7
KANJI15
  0
TEXT
  8
0
  6
CONTINUOUS
 62
     2
 10
140.075
 20
156.4
 30
0.0
 40
3.0
  1
７５
 50
0.0
 41
0.8
 51
0.0
  7
KANJI15
  0
LINE
  8
0
  6
LTYPE1
 62
     2
 10
126.3
 20
96.5
 30
0.0
 11
126.3
 21
44.0
 31
0.0
  0
LINE
  8
0
  6
CONTINUOUS
 62
     2
 10
65.604015126
 20
87.232947315
 30
0.0
 11
65.604015126
 21
108.232947315
 31
0.0
  0
LINE
  8
0
  6
CONTINUOUS
 62
     2
 10
65.55
 20
106.0
 30
0.0
 11
63.135185434
 21
106.647047613
 31
0.0
  0
LINE
  8
0
  6
CONTINUOUS
 62
     2
 10
65.55
 20
106.0
 30
0.0
 11
63.135185434
 21
105.352952387
 31
0.0
  0
LINE
  8
0
  6
CONTINUOUS
 62
     2
 10
28.8
 20
106.0
 30
0.0
 11
65.604015126
 21
106.0
 31
0.0
  0
LINE
  8
0
  6
CONTINUOUS
 62
     2
 10
70.65
 20
96.232947315
 30
0.0
 11
85.779015126
 21
96.232947315
 31
0.0
  0
TEXT
  8
0
  6
CONTINUOUS
 62
     2
 10
70.65
 20
97.232947315
 30
0.3
 40
3.0
  1
２－Ｍ５ネジ
 50
0.0
 41
0.8
 51
0.0
  7
KANJI2
  0
TEXT
  8
0
  6
CONTINUOUS
 62
     2
 10
72.6
 20
186.7
 30
0.2
 40
2.0
  1
（注２）
 50
0.0
 41
0.9
 51
0.0
  7
KANJI16
  0
LINE
  8
0
  6
CONTINUOUS
 62
     2
 10
147.7375
 20
95.632947315
 30
0.0
 11
151.9375
 21
95.632947315
 31
0.0
  0
LINE
  8
0
  6
CONTINUOUS
 62
     2
 10
77.025
 20
60.45
 30
0.0
 11
77.025
 21
59.75
 31
0.0
  0
LINE
  8
0
  6
CONTINUOUS
 62
     2
 10
202.475
 20
183.3
 30
0.0
 11
201.725
 21
183.3
 31
0.0
  0
LINE
  8
0
  6
CONTINUOUS
 62
     2
 10
74.625
 20
60.45
 30
0.0
 11
74.625
 21
59.75
 31
0.0
  0
LINE
  8
0
  6
CONTINUOUS
 62
     2
 10
201.725
 20
180.85
 30
0.0
 11
202.475
 21
180.85
 31
0.0
  0
TEXT
  8
0
  6
CONTINUOUS
 62
     2
 10
193.7
 20
68.05
 30
0.5
 40
3.0
  1
１５　ＶＡ
 50
0.0
 41
0.8
 51
0.0
  7
KANJI7
  0
TEXT
  8
0
  6
CONTINUOUS
 62
     2
 10
193.7
 20
110.05
 30
0.5
 40
3.0
  1
ＣＯＭ－１５
 50
0.0
 41
0.8
 51
0.0
  7
KANJI7
  0
TEXT
  8
0
  6
CONTINUOUS
 62
     2
 10
36.8
 20
159.65
 30
0.2
 40
3.0
  1
　７５
 50
0.0
 41
0.8
 51
0.0
  7
KANJI14
  0
TEXT
  8
0
  6
CONTINUOUS
 62
     2
 10
36.8
 20
155.65
 30
0.2
 40
3.0
  1
　８０
 50
0.0
 41
0.8
 51
0.0
  7
KANJI14
  0
TEXT
  8
0
  6
CONTINUOUS
 62
     2
 10
36.7
 20
151.65
 30
0.2
 40
3.0
  1
１５０
 50
0.0
 41
0.8
 51
0.0
  7
KANJI14
  0
TEXT
  8
0
  6
CONTINUOUS
 62
     2
 10
37.0
 20
147.65
 30
0.2
 40
3.0
  1
１００
 50
0.0
 41
0.8
 51
0.0
  7
KANJI14
  0
TEXT
  8
0
  6
CONTINUOUS
 62
     2
 10
36.8
 20
143.65
 30
0.2
 40
3.0
  1
１２０
 50
0.0
 41
0.8
 51
0.0
  7
KANJI14
  0
TEXT
  8
0
  6
CONTINUOUS
 62
     2
 10
14.0375
 20
121.65
 30
0.0
 40
3.0
  1
ＣＯＭ－１５－４０
 50
0.0
 41
0.666666667
 51
0.0
  7
KANJI17
  0
TEXT
  8
0
  6
CONTINUOUS
 62
     2
 10
14.0375
 20
162.95
 30
0.0
 40
3.0
  1
ＣＯＭ－１５－２６
 50
0.0
 41
0.666666667
 51
0.0
  7
KANJI17
  0
LINE
  8
0
  6
CONTINUOUS
 62
     2
 10
32.4
 20
134.95
 30
0.0
 11
51.0
 21
134.95
 31
0.0
  0
LINE
  8
0
  6
CONTINUOUS
 62
     2
 10
13.4
 20
150.95
 30
0.0
 11
32.4
 21
150.95
 31
0.0
  0
TEXT
  8
0
  6
CONTINUOUS
 62
     2
 10
57.0
 20
175.55
 30
0.2
 40
3.0
  1
５
 50
0.0
 41
0.8
 51
0.0
  7
KANJI14
  0
TEXT
  8
0
  6
CONTINUOUS
 62
     2
 10
57.0
 20
171.55
 30
0.2
 40
3.0
  1
４
 50
0.0
 41
0.8
 51
0.0
  7
KANJI14
  0
TEXT
  8
0
  6
CONTINUOUS
 62
     2
 10
57.0
 20
165.55
 30
0.2
 40
3.0
  1
３
 50
0.0
 41
0.8
 51
0.0
  7
KANJI14
  0
TEXT
  8
0
  6
CONTINUOUS
 62
     2
 10
57.0
 20
157.55
 30
0.2
 40
3.0
  1
２
 50
0.0
 41
0.8
 51
0.0
  7
KANJI14
  0
LINE
  8
0
  6
CONTINUOUS
 62
     2
 10
32.4
 20
146.95
 30
0.0
 11
51.0
 21
146.95
 31
0.0
  0
LINE
  8
0
  6
CONTINUOUS
 62
     2
 10
51.0
 20
142.95
 30
0.0
 11
68.0
 21
142.95
 31
0.0
  0
LINE
  8
0
  6
CONTINUOUS
 62
     2
 10
32.4
 20
154.95
 30
0.0
 11
51.0
 21
154.95
 31
0.0
  0
LINE
  8
0
  6
CONTINUOUS
 62
     2
 10
51.0
 20
150.95
 30
0.0
 11
68.0
 21
150.95
 31
0.0
  0
LINE
  8
0
  6
CONTINUOUS
 62
     2
 10
51.0
 20
154.95
 30
0.0
 11
68.0
 21
154.95
 31
0.0
  0
TEXT
  8
0
  6
CONTINUOUS
 62
     2
 10
57.0
 20
145.65
 30
0.2
 40
3.0
  1
２
 50
0.0
 41
0.8
 51
0.0
  7
KANJI14
  0
TEXT
  8
0
  6
CONTINUOUS
 62
     2
 10
57.1
 20
151.55
 30
0.2
 40
3.0
  1
１
 50
0.0
 41
0.8
 51
0.0
  7
KANJI14
  0
TEXT
  8
0
  6
CONTINUOUS
 62
     2
 10
73.8
 20
143.65
 30
0.2
 40
3.0
  1
２４０
 50
0.0
 41
0.8
 51
0.0
  7
KANJI14
  0
TEXT
  8
0
  6
CONTINUOUS
 62
     2
 10
73.8
 20
147.65
 30
0.2
 40
3.0
  1
２００
 50
0.0
 41
0.8
 51
0.0
  7
KANJI14
  0
TEXT
  8
0
  6
CONTINUOUS
 62
     2
 10
73.8
 20
155.65
 30
0.2
 40
3.0
  1
１６０
 50
0.0
 41
0.8
 51
0.0
  7
KANJI14
  0
TEXT
  8
0
  6
CONTINUOUS
 62
     2
 10
73.8
 20
159.65
 30
0.2
 40
3.0
  1
１５０
 50
0.0
 41
0.8
 51
0.0
  7
KANJI14
  0
TEXT
  8
0
  6
CONTINUOUS
 62
     2
 10
73.8
 20
163.65
 30
0.2
 40
3.0
  1
１８０
 50
0.0
 41
0.8
 51
0.0
  7
KANJI14
  0
TEXT
  8
0
  6
CONTINUOUS
 62
     2
 10
73.8
 20
167.65
 30
0.2
 40
3.0
  1
１５０
 50
0.0
 41
0.8
 51
0.0
  7
KANJI14
  0
LINE
  8
0
  6
CONTINUOUS
 62
     2
 10
68.0
 20
174.95
 30
0.0
 11
89.0
 21
174.95
 31
0.0
  0
TEXT
  8
0
  6
CONTINUOUS
 62
     2
 10
73.8
 20
175.55
 30
0.2
 40
3.0
  1
１５０
 50
0.0
 41
0.8
 51
0.0
  7
KANJI14
  0
TEXT
  8
0
  6
CONTINUOUS
 62
     2
 10
73.8
 20
171.55
 30
0.2
 40
3.0
  1
１６０
 50
0.0
 41
0.8
 51
0.0
  7
KANJI14
  0
LINE
  8
0
  6
CONTINUOUS
 62
     2
 10
89.0
 20
150.95
 30
0.0
 11
113.0
 21
150.95
 31
0.0
  0
TEXT
  8
0
  6
CONTINUOUS
 62
     2
 10
99.1
 20
175.65
 30
0.2
 40
3.0
  1
１４
 50
0.0
 41
0.8
 51
0.0
  7
KANJI14
  0
TEXT
  8
0
  6
CONTINUOUS
 62
     2
 10
99.2
 20
171.65
 30
0.2
 40
3.0
  1
２２
 50
0.0
 41
0.8
 51
0.0
  7
KANJI14
  0
TEXT
  8
0
  6
CONTINUOUS
 62
     2
 10
99.4
 20
165.65
 30
0.2
 40
3.0
  1
３０
 50
0.0
 41
0.8
 51
0.0
  7
KANJI14
  0
TEXT
  8
0
  6
CONTINUOUS
 62
     2
 10
96.7
 20
157.65
 30
0.2
 40
3.0
  1
　５０
 50
0.0
 41
0.8
 51
0.0
  7
KANJI14
  0
TEXT
  8
0
  6
CONTINUOUS
 62
     2
 10
96.7
 20
151.35
 30
0.2
 40
3.0
  1
２５０
 50
0.0
 41
0.8
 51
0.0
  7
KANJI14
  0
LINE
  8
0
  6
CONTINUOUS
 62
     2
 10
68.0
 20
146.95
 30
0.0
 11
89.0
 21
146.95
 31
0.0
  0
LINE
  8
0
  6
CONTINUOUS
 62
     2
 10
89.0
 20
142.95
 30
0.0
 11
113.0
 21
142.95
 31
0.0
  0
LINE
  8
0
  6
CONTINUOUS
 62
     2
 10
68.0
 20
134.95
 30
0.0
 11
89.0
 21
134.95
 31
0.0
  0
TEXT
  8
0
  6
CONTINUOUS
 62
     2
 10
96.7
 20
145.65
 30
0.2
 40
3.0
  1
　６０
 50
0.0
 41
0.8
 51
0.0
  7
KANJI14
  0
TEXT
  8
0
  6
CONTINUOUS
 62
     2
 10
96.8
 20
133.55
 30
0.2
 40
3.0
  1
３２５
 50
0.0
 41
0.8
 51
0.0
  7
KANJI14
  0
TEXT
  8
0
  6
CONTINUOUS
 62
     2
 10
116.8
 20
156.65
 30
0.2
 40
3.0
  1
０．９
 50
0.0
 41
0.8
 51
0.0
  7
KANJI14
  0
TEXT
  8
0
  6
CONTINUOUS
 62
     2
 10
116.9
 20
120.85
 30
0.2
 40
3.0
  1
１．２
 50
0.0
 41
0.8
 51
0.0
  7
KANJI14
  0
LINE
  8
0
  6
CONTINUOUS
 62
     2
 10
68.0
 20
126.95
 30
0.0
 11
155.3
 21
126.95
 31
0.0
  0
LINE
  8
0
  6
CONTINUOUS
 62
     2
 10
155.3
 20
126.95
 30
0.0
 11
189.7
 21
126.95
 31
0.0
  0
LINE
  8
0
  6
CONTINUOUS
 62
     2
 10
189.7
 20
126.95
 30
0.0
 11
215.5
 21
126.95
 31
0.0
  0
TEXT
  8
0
  6
CONTINUOUS
 62
     2
 10
131.525
 20
156.3
 30
0.2
 40
3.0
  1
６４
 50
0.0
 41
0.8
 51
0.0
  7
KANJI14
  0
TEXT
  8
0
  6
CONTINUOUS
 62
     2
 10
157.425
 20
156.4
 30
0.2
 40
3.0
  1
７２
 50
0.0
 41
0.8
 51
0.0
  7
KANJI14
  0
TEXT
  8
0
  6
CONTINUOUS
 62
     2
 10
165.575
 20
167.05
 30
0.2
 40
3.0
  1
２６
 50
0.0
 41
0.8
 51
0.0
  7
KANJI14
  0
LINE
  8
0
  6
CONTINUOUS
 62
     2
 10
163.9
 20
150.95
 30
0.0
 11
172.5
 21
150.95
 31
0.0
  0
TEXT
  8
0
  6
CONTINUOUS
 62
     2
 10
165.775
 20
135.8
 30
0.2
 40
3.0
  1
３０
 50
0.0
 41
0.8
 51
0.0
  7
KANJI14
  0
TEXT
  8
0
  6
CONTINUOUS
 62
     2
 10
217.825
 20
156.3
 30
0.2
 40
3.0
  1
９６
 50
0.0
 41
0.8
 51
0.0
  7
KANJI14
  0
TEXT
  8
0
  6
CONTINUOUS
 62
     2
 10
190.225
 20
156.3
 30
0.2
 40
3.0
  1
１０１
 50
0.0
 41
0.8
 51
0.0
  7
KANJI14
  0
TEXT
  8
0
  6
CONTINUOUS
 62
     2
 10
208.725
 20
120.65
 30
0.2
 40
3.0
  1
９４
 50
0.0
 41
0.8
 51
0.0
  7
KANJI14
  0
TEXT
  8
0
  6
CONTINUOUS
 62
     2
 10
190.525
 20
120.8
 30
0.0
 40
3.0
  1
１２２
 50
0.0
 41
0.8
 51
0.0
  7
KANJI15
  0
TEXT
  8
0
  6
CONTINUOUS
 62
     2
 10
182.625
 20
120.8
 30
0.2
 40
3.0
  1
５０
 50
0.0
 41
0.8
 51
0.0
  7
KANJI14
  0
TEXT
  8
0
  6
CONTINUOUS
 62
     2
 10
174.025
 20
120.8
 30
0.2
 40
3.0
  1
１５
 50
0.0
 41
0.8
 51
0.0
  7
KANJI14
  0
TEXT
  8
0
  6
CONTINUOUS
 62
     2
 10
157.125
 20
120.9
 30
0.2
 40
3.0
  1
９０
 50
0.0
 41
0.8
 51
0.0
  7
KANJI14
  0
TEXT
  8
0
  6
CONTINUOUS
 62
     2
 10
147.525
 20
120.8
 30
0.0
 40
3.0
  1
１１２
 50
0.0
 41
0.8
 51
0.0
  7
KANJI15
  0
TEXT
  8
0
  6
CONTINUOUS
 62
     2
 10
139.725
 20
120.9
 30
0.2
 40
3.0
  1
９２
 50
0.0
 41
0.8
 51
0.0
  7
KANJI14
  0
TEXT
  8
0
  6
CONTINUOUS
 62
     2
 10
131.625
 20
120.8
 30
0.2
 40
3.0
  1
６６
 50
0.0
 41
0.8
 51
0.0
  7
KANJI14
  0
TEXT
  8
0
  6
CONTINUOUS
 62
     2
 10
14.0625
 20
137.55
 30
0.0
 40
3.0
  1
ＣＯＭ－１５－３０
 50
0.0
 41
0.666666667
 51
0.0
  7
KANJI17
  0
LINE
  8
0
  6
CONTINUOUS
 62
     2
 10
208.5475
 20
38.66
 30
0.0
 11
209.3475
 21
38.66
 31
0.0
  0
LINE
  8
0
  6
CONTINUOUS
 62
     2
 10
208.5075
 20
36.24
 30
0.0
 11
209.4075
 21
36.24
 31
0.0
  0
TEXT
  8
0
  6
CONTINUOUS
 62
     3
 10
235.0
 20
17.0
 30
0.6
 40
6.0
  1
ＭＳ－５７７０Ａ
 50
0.0
 41
0.9
 51
0.0
  7
KANJI18
  0
TEXT
  8
0
  6
CONTINUOUS
 62
     6
 10
147.7375
 20
96.432947315
 30
0.0
 40
4.0
  1
Ｌ
 50
0.0
 41
1.0
 51
0.0
  7
KANJI19
  0
TEXT
  8
0
  6
CONTINUOUS
 62
     6
 10
44.2875
 20
85.025
 30
0.45
 40
4.5
  1
Ｋ
 50
0.0
 41
1.0
 51
0.0
  7
KANJI20
  0
TEXT
  8
0
  6
CONTINUOUS
 62
     2
 10
99.4
 20
179.45
 30
0.1
 40
2.5
  1
６００Ｖ　ⅠＶ
 50
0.0
 41
0.8
 51
0.0
  7
KANJI11
  0
TEXT
  8
0
  6
CONTINUOUS
 62
     2
 10
109.244
 20
184.278
 30
0.1
 40
1.3
  1
２
 50
0.0
 41
0.576923077
 51
0.0
  7
KANJI21
  0
TEXT
  8
0
  6
CONTINUOUS
 62
     1
 10
234.9
 20
29.7
 30
0.5
 40
5.0
  1
ＣＯＭ－１５
 50
0.0
 41
0.9
 51
0.0
  7
KANJI22
  0
TEXT
  8
0
  6
CONTINUOUS
 62
     2
 10
200.093
 20
120.577
 30
0.2
 40
3.0
  1
７６
 50
0.0
 41
0.8
 51
0.0
  7
KANJI14
  0
TEXT
  8
0
  6
CONTINUOUS
 62
     2
 10
215.898
 20
120.929
 30
0.0
 40
3.0
  1
１２１
 50
0.0
 41
0.8
 51
0.0
  7
KANJI15
  0
LINE
  8
0
  6
LTYPE1
 62
     2
 10
24.1
 20
73.5
 30
0.0
 11
67.2
 21
73.5
 31
0.0
  0
LINE
  8
0
  6
LTYPE1
 62
     2
 10
108.575
 20
73.5
 30
0.0
 11
143.8
 21
73.5
 31
0.0
  0
LINE
  8
0
  6
LTYPE1
 62
     2
 10
46.3
 20
94.2
 30
0.0
 11
46.3
 21
90.1
 31
0.0
  0
LINE
  8
0
  6
LTYPE1
 62
     2
 10
46.3
 20
81.0
 30
0.0
 11
46.3
 21
45.5
 31
0.0
  0
ENDSEC
  0
EOF
